  0
SECTION
  2
HEADER
  9
$ACADVER
  1
AC1015
  9
$ACADMAINTVER
 70
    20
  9
$DWGCODEPAGE
  3
ANSI_932
  9
$INSBASE
 10
0.0
 20
0.0
 30
0.0
  9
$EXTMIN
 10
133.1257390907403
 20
52.6921059126513
 30
0.0
  9
$EXTMAX
 10
343.1257390907403
 20
349.6921059126513
 30
0.0
  9
$LIMMIN
 10
133.1814069679376
 20
52.68679203936028
  9
$LIMMAX
 10
343.1547346046564
 20
349.6551147932665
  9
$ORTHOMODE
 70
     1
  9
$REGENMODE
 70
     1
  9
$FILLMODE
 70
     1
  9
$QTEXTMODE
 70
     0
  9
$MIRRTEXT
 70
     0
  9
$LTSCALE
 40
1.0
  9
$ATTMODE
 70
     1
  9
$TEXTSIZE
 40
3.0
  9
$TRACEWID
 40
1.0
  9
$TEXTSTYLE
  7
ATOM
  9
$CLAYER
  8
frame
  9
$CELTYPE
  6
ByLayer
  9
$CECOLOR
 62
   256
  9
$CELTSCALE
 40
1.0
  9
$DISPSILH
 70
     0
  9
$DIMSCALE
 40
0.0
  9
$DIMASZ
 40
2.0
  9
$DIMEXO
 40
2.0
  9
$DIMDLI
 40
7.0
  9
$DIMRND
 40
0.0
  9
$DIMDLE
 40
0.0
  9
$DIMEXE
 40
1.0
  9
$DIMTP
 40
0.1
  9
$DIMTM
 40
0.1
  9
$DIMTXT
 40
3.0
  9
$DIMCEN
 40
-2.5
  9
$DIMTSZ
 40
0.0
  9
$DIMTOL
 70
     0
  9
$DIMLIM
 70
     0
  9
$DIMTIH
 70
     0
  9
$DIMTOH
 70
     0
  9
$DIMSE1
 70
     0
  9
$DIMSE2
 70
     0
  9
$DIMTAD
 70
     1
  9
$DIMZIN
 70
     8
  9
$DIMBLK
  1
Open30
  9
$DIMASO
 70
     1
  9
$DIMSHO
 70
     1
  9
$DIMPOST
  1

  9
$DIMAPOST
  1

  9
$DIMALT
 70
     0
  9
$DIMALTD
 70
     3
  9
$DIMALTF
 40
0.03937007874016
  9
$DIMLFAC
 40
1.0
  9
$DIMTOFL
 70
     1
  9
$DIMTVP
 40
0.0
  9
$DIMTIX
 70
     0
  9
$DIMSOXD
 70
     0
  9
$DIMSAH
 70
     0
  9
$DIMBLK1
  1

  9
$DIMBLK2
  1

  9
$DIMSTYLE
  2
ATOM
  9
$DIMCLRD
 70
     0
  9
$DIMCLRE
 70
     0
  9
$DIMCLRT
 70
     3
  9
$DIMTFAC
 40
0.4999999999999999
  9
$DIMGAP
 40
0.625
  9
$DIMJUST
 70
     0
  9
$DIMSD1
 70
     0
  9
$DIMSD2
 70
     0
  9
$DIMTOLJ
 70
     0
  9
$DIMTZIN
 70
     8
  9
$DIMALTZ
 70
     0
  9
$DIMALTTZ
 70
     0
  9
$DIMUPT
 70
     0
  9
$DIMDEC
 70
     2
  9
$DIMTDEC
 70
     2
  9
$DIMALTU
 70
     2
  9
$DIMALTTD
 70
     3
  9
$DIMTXSTY
  7
ATOM
  9
$DIMAUNIT
 70
     0
  9
$DIMADEC
 70
     0
  9
$DIMALTRND
 40
0.0
  9
$DIMAZIN
 70
     0
  9
$DIMDSEP
 70
    46
  9
$DIMATFIT
 70
     0
  9
$DIMFRAC
 70
     2
  9
$DIMLDRBLK
  1
Open30
  9
$DIMLUNIT
 70
     2
  9
$DIMLWD
 70
    -2
  9
$DIMLWE
 70
    -2
  9
$DIMTMOVE
 70
     1
  9
$LUNITS
 70
     2
  9
$LUPREC
 70
     4
  9
$SKETCHINC
 40
1.0
  9
$FILLETRAD
 40
0.0
  9
$AUNITS
 70
     0
  9
$AUPREC
 70
     0
  9
$MENU
  1
.
  9
$ELEVATION
 40
0.0
  9
$PELEVATION
 40
0.0
  9
$THICKNESS
 40
0.0
  9
$LIMCHECK
 70
     0
  9
$CHAMFERA
 40
0.0
  9
$CHAMFERB
 40
0.0
  9
$CHAMFERC
 40
0.0
  9
$CHAMFERD
 40
0.0
  9
$SKPOLY
 70
     0
  9
$TDCREATE
 40
2456630.618970915
  9
$TDUCREATE
 40
2456630.243970915
  9
$TDUPDATE
 40
2457578.405252164
  9
$TDUUPDATE
 40
2457578.030252165
  9
$TDINDWG
 40
0.0016202431
  9
$TDUSRTIMER
 40
0.0016056019
  9
$USRTIMER
 70
     1
  9
$ANGBASE
 50
0.0
  9
$ANGDIR
 70
     0
  9
$PDMODE
 70
     0
  9
$PDSIZE
 40
0.0
  9
$PLINEWID
 40
0.0
  9
$SPLFRAME
 70
     0
  9
$SPLINETYPE
 70
     6
  9
$SPLINESEGS
 70
     8
  9
$HANDSEED
  5
40C
  9
$SURFTAB1
 70
     6
  9
$SURFTAB2
 70
     6
  9
$SURFTYPE
 70
     6
  9
$SURFU
 70
     6
  9
$SURFV
 70
     6
  9
$UCSBASE
  2

  9
$UCSNAME
  2

  9
$UCSORG
 10
0.0
 20
0.0
 30
0.0
  9
$UCSXDIR
 10
1.0
 20
0.0
 30
0.0
  9
$UCSYDIR
 10
0.0
 20
1.0
 30
0.0
  9
$UCSORTHOREF
  2

  9
$UCSORTHOVIEW
 70
     0
  9
$UCSORGTOP
 10
0.0
 20
0.0
 30
0.0
  9
$UCSORGBOTTOM
 10
0.0
 20
0.0
 30
0.0
  9
$UCSORGLEFT
 10
0.0
 20
0.0
 30
0.0
  9
$UCSORGRIGHT
 10
0.0
 20
0.0
 30
0.0
  9
$UCSORGFRONT
 10
0.0
 20
0.0
 30
0.0
  9
$UCSORGBACK
 10
0.0
 20
0.0
 30
0.0
  9
$PUCSBASE
  2

  9
$PUCSNAME
  2

  9
$PUCSORG
 10
0.0
 20
0.0
 30
0.0
  9
$PUCSXDIR
 10
1.0
 20
0.0
 30
0.0
  9
$PUCSYDIR
 10
0.0
 20
1.0
 30
0.0
  9
$PUCSORTHOREF
  2

  9
$PUCSORTHOVIEW
 70
     0
  9
$PUCSORGTOP
 10
0.0
 20
0.0
 30
0.0
  9
$PUCSORGBOTTOM
 10
0.0
 20
0.0
 30
0.0
  9
$PUCSORGLEFT
 10
0.0
 20
0.0
 30
0.0
  9
$PUCSORGRIGHT
 10
0.0
 20
0.0
 30
0.0
  9
$PUCSORGFRONT
 10
0.0
 20
0.0
 30
0.0
  9
$PUCSORGBACK
 10
0.0
 20
0.0
 30
0.0
  9
$USERI1
 70
     0
  9
$USERI2
 70
     0
  9
$USERI3
 70
     0
  9
$USERI4
 70
     0
  9
$USERI5
 70
     0
  9
$USERR1
 40
0.0
  9
$USERR2
 40
0.0
  9
$USERR3
 40
0.0
  9
$USERR4
 40
0.0
  9
$USERR5
 40
0.0
  9
$WORLDVIEW
 70
     1
  9
$SHADEDGE
 70
     3
  9
$SHADEDIF
 70
    70
  9
$TILEMODE
 70
     1
  9
$MAXACTVP
 70
    64
  9
$PINSBASE
 10
0.0
 20
0.0
 30
0.0
  9
$PLIMCHECK
 70
     0
  9
$PEXTMIN
 10
1.000000000000000E+20
 20
1.000000000000000E+20
 30
1.000000000000000E+20
  9
$PEXTMAX
 10
-1.000000000000000E+20
 20
-1.000000000000000E+20
 30
-1.000000000000000E+20
  9
$PLIMMIN
 10
0.0
 20
0.0
  9
$PLIMMAX
 10
12.0
 20
9.0
  9
$UNITMODE
 70
     0
  9
$VISRETAIN
 70
     1
  9
$PLINEGEN
 70
     0
  9
$PSLTSCALE
 70
     1
  9
$TREEDEPTH
 70
  3020
  9
$CMLSTYLE
  2
Standard
  9
$CMLJUST
 70
     0
  9
$CMLSCALE
 40
10.0
  9
$PROXYGRAPHICS
 70
     1
  9
$MEASUREMENT
 70
     1
  9
$CELWEIGHT
370
    -1
  9
$ENDCAPS
280
     0
  9
$JOINSTYLE
280
     0
  9
$LWDISPLAY
290
     0
  9
$INSUNITS
 70
     4
  9
$HYPERLINKBASE
  1

  9
$STYLESHEET
  1

  9
$XEDIT
290
     1
  9
$CEPSNTYPE
380
     0
  9
$PSTYLEMODE
290
     0
  9
$FINGERPRINTGUID
  2
{FD2ACF47-EEBB-432D-8BD4-AFE7B7ECEBD7}
  9
$VERSIONGUID
  2
{6E033682-8CC1-4DE6-8B6F-DC7FB6FA8CE4}
  9
$EXTNAMES
290
     1
  9
$PSVPSCALE
 40
0.0
  9
$OLESTARTUP
290
     0
  0
ENDSEC
  0
SECTION
  2
CLASSES
  0
CLASS
  1
ACDBDICTIONARYWDFLT
  2
AcDbDictionaryWithDefault
  3
ObjectDBX Classes
 90
        0
280
     0
281
     0
  0
CLASS
  1
MATERIAL
  2
AcDbMaterial
  3
ObjectDBX Classes
 90
     1153
280
     0
281
     0
  0
CLASS
  1
VISUALSTYLE
  2
AcDbVisualStyle
  3
ObjectDBX Classes
 90
     4095
280
     0
281
     0
  0
CLASS
  1
SCALE
  2
AcDbScale
  3
ObjectDBX Classes
 90
     1153
280
     0
281
     0
  0
CLASS
  1
TABLESTYLE
  2
AcDbTableStyle
  3
ObjectDBX Classes
 90
     4095
280
     0
281
     0
  0
CLASS
  1
MLEADERSTYLE
  2
AcDbMLeaderStyle
  3
ACDB_MLEADERSTYLE_CLASS
 90
     4095
280
     0
281
     0
  0
CLASS
  1
ACDB_ALDIMOBJECTCONTEXTDATA_CLASS
  2
AcDbAlignedDimensionObjectContextData
  3
ObjectDBX Classes
 90
    33921
280
     0
281
     0
  0
CLASS
  1
DIMASSOC
  2
AcDbDimAssoc
  3
"AcDbDimAssoc|Product Desc:     AcDim ARX App For Dimension|Company:          Autodesk, Inc.|WEB Address:      www.autodesk.com"
 90
        0
280
     0
281
     0
  0
CLASS
  1
SORTENTSTABLE
  2
AcDbSortentsTable
  3
ObjectDBX Classes
 90
        0
280
     0
281
     0
  0
CLASS
  1
DICTIONARYVAR
  2
AcDbDictionaryVar
  3
ObjectDBX Classes
 90
        0
280
     0
281
     0
  0
CLASS
  1
CELLSTYLEMAP
  2
AcDbCellStyleMap
  3
ObjectDBX Classes
 90
     1152
280
     0
281
     0
  0
CLASS
  1
ACDBPLACEHOLDER
  2
AcDbPlaceHolder
  3
ObjectDBX Classes
 90
        0
280
     0
281
     0
  0
CLASS
  1
LAYOUT
  2
AcDbLayout
  3
ObjectDBX Classes
 90
        0
280
     0
281
     0
  0
ENDSEC
  0
SECTION
  2
TABLES
  0
TABLE
  2
VPORT
  5
8
330
0
100
AcDbSymbolTable
 70
     1
  0
VPORT
  5
57
330
8
100
AcDbSymbolTableRecord
100
AcDbViewportTableRecord
  2
*Active
 70
     0
 10
0.0
 20
0.0
 11
1.0
 21
1.0
 12
267.9475738667042
 22
227.2841536324368
 13
0.0
 23
0.0
 14
10.0
 24
10.0
 15
10.0
 25
10.0
 16
0.0
 26
0.0
 36
1.0
 17
0.0
 27
0.0
 37
0.0
 40
95.99696420267992
 41
2.01418439716312
 42
50.0
 43
0.0
 44
0.0
 50
0.0
 51
0.0
 71
     0
 72
  1000
 73
     1
 74
     1
 75
     0
 76
     0
 77
     0
 78
     0
281
     0
 65
     1
110
0.0
120
0.0
130
0.0
111
1.0
121
0.0
131
0.0
112
0.0
122
1.0
132
0.0
 79
     0
146
0.0
1001
ACAD_NAV_VCDISPLAY
1070
     3
  0
ENDTAB
  0
TABLE
  2
LTYPE
  5
5
330
0
100
AcDbSymbolTable
 70
     1
  0
LTYPE
  5
5B
330
5
100
AcDbSymbolTableRecord
100
AcDbLinetypeTableRecord
  2
ByBlock
 70
     0
  3

 72
    65
 73
     0
 40
0.0
  0
LTYPE
  5
5C
330
5
100
AcDbSymbolTableRecord
100
AcDbLinetypeTableRecord
  2
ByLayer
 70
     0
  3

 72
    65
 73
     0
 40
0.0
  0
LTYPE
  5
5D
330
5
100
AcDbSymbolTableRecord
100
AcDbLinetypeTableRecord
  2
Continuous
 70
     0
  3
Solid line
 72
    65
 73
     0
 40
0.0
  0
ENDTAB
  0
TABLE
  2
LAYER
  5
2
102
{ACAD_XDICTIONARY
360
37E
102
}
330
0
100
AcDbSymbolTable
 70
     6
  0
LAYER
  5
54
102
{ACAD_XDICTIONARY
360
379
102
}
330
2
100
AcDbSymbolTableRecord
100
AcDbLayerTableRecord
  2
0
 70
     0
 62
     7
  6
Continuous
370
    35
390
84
1001
AcAecLayerStandard
1000

1000

  0
LAYER
  5
75
330
2
100
AcDbSymbolTableRecord
100
AcDbLayerTableRecord
  2
Defpoints
 70
     0
 62
     7
  6
Continuous
290
     0
370
    -3
390
84
1001
AcAecLayerStandard
1000

1000

  0
LAYER
  5
98
102
{ACAD_XDICTIONARY
360
99
102
}
330
2
100
AcDbSymbolTableRecord
100
AcDbLayerTableRecord
  2
viewports
 70
     0
 62
     5
  6
Continuous
290
     0
370
    18
390
84
1001
AcAecLayerStandard
1000

1000

  0
LAYER
  5
9D
102
{ACAD_XDICTIONARY
360
9E
102
}
330
2
100
AcDbSymbolTableRecord
100
AcDbLayerTableRecord
  2
1
 70
     0
 62
     7
  6
Continuous
370
    -3
390
F
  0
LAYER
  5
D3
102
{ACAD_XDICTIONARY
360
D4
102
}
330
2
100
AcDbSymbolTableRecord
100
AcDbLayerTableRecord
  2
dim
 70
     0
 62
     2
  6
Continuous
370
    18
390
84
1001
AcAecLayerStandard
1000

1000

  0
LAYER
  5
22F
102
{ACAD_XDICTIONARY
360
230
102
}
330
2
100
AcDbSymbolTableRecord
100
AcDbLayerTableRecord
  2
frame
 70
     0
 62
     4
  6
Continuous
370
    18
390
84
1001
AcAecLayerStandard
1000

1000

  0
ENDTAB
  0
TABLE
  2
STYLE
  5
3
330
0
100
AcDbSymbolTable
 70
     3
  0
STYLE
  5
55
330
3
100
AcDbSymbolTableRecord
100
AcDbTextStyleTableRecord
  2
Standard
 70
     0
 40
0.0
 41
1.0
 50
0.0
 71
     0
 42
2.5
  3
txt
  4

  0
STYLE
  5
5A
330
3
100
AcDbSymbolTableRecord
100
AcDbTextStyleTableRecord
  2
Annotative
 70
     0
 40
0.0
 41
1.0
 50
0.0
 71
     0
 42
0.2
  3
txt
  4

1001
AcadAnnotative
1000
AnnotativeData
1002
{
1070
     1
1070
     1
1002
}
  0
STYLE
  5
76
330
3
100
AcDbSymbolTableRecord
100
AcDbTextStyleTableRecord
  2
ATOM
 70
     0
 40
0.0
 41
0.9
 50
0.0
 71
     0
 42
3.0
  3
txt.shx
  4
extfont.shx
1001
AcadAnnotative
1000
AnnotativeData
1002
{
1070
     1
1070
     1
1002
}
  0
ENDTAB
  0
TABLE
  2
VIEW
  5
6
330
0
100
AcDbSymbolTable
 70
     0
  0
ENDTAB
  0
TABLE
  2
UCS
  5
7
330
0
100
AcDbSymbolTable
 70
     0
  0
ENDTAB
  0
TABLE
  2
APPID
  5
9
330
0
100
AcDbSymbolTable
 70
    12
  0
APPID
  5
56
330
9
100
AcDbSymbolTableRecord
100
AcDbRegAppTableRecord
  2
ACAD
 70
     0
  0
APPID
  5
5E
330
9
100
AcDbSymbolTableRecord
100
AcDbRegAppTableRecord
  2
AcadAnnotative
 70
     0
  0
APPID
  5
74
330
9
100
AcDbSymbolTableRecord
100
AcDbRegAppTableRecord
  2
ACAD_PSEXT
 70
     0
  0
APPID
  5
80
330
9
100
AcDbSymbolTableRecord
100
AcDbRegAppTableRecord
  2
ACAD_DSTYLE_DIMBREAK
 70
     0
  0
APPID
  5
81
330
9
100
AcDbSymbolTableRecord
100
AcDbRegAppTableRecord
  2
ACAD_DSTYLE_DIMJAG
 70
     0
  0
APPID
  5
82
330
9
100
AcDbSymbolTableRecord
100
AcDbRegAppTableRecord
  2
ACAD_DSTYLE_DIMTALN
 70
     0
  0
APPID
  5
9B
330
9
100
AcDbSymbolTableRecord
100
AcDbRegAppTableRecord
  2
AcAecLayerStandard
 70
     0
  0
APPID
  5
237
330
9
100
AcDbSymbolTableRecord
100
AcDbRegAppTableRecord
  2
AcDbBlockRepETag
 70
     0
  0
APPID
  5
316
330
9
100
AcDbSymbolTableRecord
100
AcDbRegAppTableRecord
  2
AcDbDynamicBlockGUID
 70
     0
  0
APPID
  5
386
330
9
100
AcDbSymbolTableRecord
100
AcDbRegAppTableRecord
  2
ACAD_NAV_VCDISPLAY
 70
     0
  0
APPID
  5
3C5
330
9
100
AcDbSymbolTableRecord
100
AcDbRegAppTableRecord
  2
ACAD_MLEADERVER
 70
     0
  0
APPID
  5
3C6
330
9
100
AcDbSymbolTableRecord
100
AcDbRegAppTableRecord
  2
AcDbAttr
 70
     0
  0
ENDTAB
  0
TABLE
  2
DIMSTYLE
  5
A
330
0
100
AcDbSymbolTable
 70
     3
100
AcDbDimStyleTable
 71
     1
340
78
  0
DIMSTYLE
105
58
330
A
100
AcDbSymbolTableRecord
100
AcDbDimStyleTableRecord
  2
Standard
 70
     0
340
55
  0
DIMSTYLE
105
59
330
A
100
AcDbSymbolTableRecord
100
AcDbDimStyleTableRecord
  2
Annotative
 70
     0
340
55
1001
AcadAnnotative
1000
AnnotativeData
1002
{
1070
     1
1070
     1
1002
}
  0
DIMSTYLE
105
78
330
A
100
AcDbSymbolTableRecord
100
AcDbDimStyleTableRecord
  2
ATOM
 70
     0
 40
0.0
 41
2.0
 42
2.0
 43
7.0
 44
1.0
 47
0.1
 48
0.1
 73
     0
 74
     0
 77
     1
 78
     8
140
3.0
141
-2.5
143
0.03937007874016
146
0.4999999999999999
147
0.625
171
     3
172
     1
178
     3
271
     2
272
     2
274
     3
276
     2
279
     1
283
     0
284
     8
289
     0
340
76
341
7A
342
7A
1001
ACAD_DSTYLE_DIMBREAK
1070
   391
1040
3.75
1001
AcadAnnotative
1000
AnnotativeData
1002
{
1070
     1
1070
     1
1002
}
1001
ACAD_DSTYLE_DIMJAG
1070
   388
1040
1.5
1001
ACAD_DSTYLE_DIMTALN
1070
   392
1070
     0
  0
ENDTAB
  0
TABLE
  2
BLOCK_RECORD
  5
1
330
0
100
AcDbSymbolTable
 70
     9
  0
BLOCK_RECORD
  5
6C
102
{ACAD_XDICTIONARY
360
22C
102
}
330
1
100
AcDbSymbolTableRecord
100
AcDbBlockTableRecord
  2
*Model_Space
340
6F
  0
BLOCK_RECORD
  5
68
330
1
100
AcDbSymbolTableRecord
100
AcDbBlockTableRecord
  2
*Paper_Space
340
6B
  0
BLOCK_RECORD
  5
70
330
1
100
AcDbSymbolTableRecord
100
AcDbBlockTableRecord
  2
*Paper_Space0
340
73
  0
BLOCK_RECORD
  5
7A
330
1
100
AcDbSymbolTableRecord
100
AcDbBlockTableRecord
  2
_Open30
340
0
310
2800000020000000200000000100080000000000000400000000000000000000000000000000000000000000000080000080000000808000800000008000800080800000C0C0C000C0DCC000F0CAA6000020400000206000002080000020A0000020C0000020E00000400000004020000040400000406000004080000040A0
310
000040C0000040E00000600000006020000060400000606000006080000060A0000060C0000060E00000800000008020000080400000806000008080000080A0000080C0000080E00000A0000000A0200000A0400000A0600000A0800000A0A00000A0C00000A0E00000C0000000C0200000C0400000C0600000C0800000C0
310
A00000C0C00000C0E00000E0000000E0200000E0400000E0600000E0800000E0A00000E0C00000E0E00040000000400020004000400040006000400080004000A0004000C0004000E00040200000402020004020400040206000402080004020A0004020C0004020E000404000004040200040404000404060004040800040
310
40A0004040C0004040E00040600000406020004060400040606000406080004060A0004060C0004060E00040800000408020004080400040806000408080004080A0004080C0004080E00040A0000040A0200040A0400040A0600040A0800040A0A00040A0C00040A0E00040C0000040C0200040C0400040C0600040C08000
310
40C0A00040C0C00040C0E00040E0000040E0200040E0400040E0600040E0800040E0A00040E0C00040E0E00080000000800020008000400080006000800080008000A0008000C0008000E00080200000802020008020400080206000802080008020A0008020C0008020E00080400000804020008040400080406000804080
310
008040A0008040C0008040E00080600000806020008060400080606000806080008060A0008060C0008060E00080800000808020008080400080806000808080008080A0008080C0008080E00080A0000080A0200080A0400080A0600080A0800080A0A00080A0C00080A0E00080C0000080C0200080C0400080C0600080C0
310
800080C0A00080C0C00080C0E00080E0000080E0200080E0400080E0600080E0800080E0A00080E0C00080E0E000C0000000C0002000C0004000C0006000C0008000C000A000C000C000C000E000C0200000C0202000C0204000C0206000C0208000C020A000C020C000C020E000C0400000C0402000C0404000C0406000C0
310
408000C040A000C040C000C040E000C0600000C0602000C0604000C0606000C0608000C060A000C060C000C060E000C0800000C0802000C0804000C0806000C0808000C080A000C080C000C080E000C0A00000C0A02000C0A04000C0A06000C0A08000C0A0A000C0A0C000C0A0E000C0C00000C0C02000C0C04000C0C06000
310
C0C08000C0C0A000F0FBFF00A4A0A000808080000000FF0000FF000000FFFF00FF000000FF00FF00FFFF0000FFFFFF0000000000000000000000000000000000000000000000000000000000000000000000000000000000000000000000000000000000000000000000000000000000000000000000000000000000000000
310
00000000000000000000000000000000000000000000000000000000000000000000000000000000000000000000000000000000000000000000000000000000000000000000000000000000000000000000000000000000000000000000000000000000000000000000000000000000000000000000000000000000000000
310
000000000000000000000000000000000000000000000000000000000000000000000000000000000000000000000000000000FFFF0000000000000000000000000000000000000000000000000000000000000000FFFFFFFF0000000000000000000000000000000000000000000000000000000000000000FFFFFFFF0000
310
000000000000000000000000000000000000000000000000000000000000FFFFFF0000000000000000000000000000000000000000000000000000000000000000FFFFFFFF0000000000000000000000000000000000000000000000000000000000000000FFFFFF0000000000000000000000000000000000000000000000
310
000000000000000000FFFFFFFF0000000000000000000000000000000000000000000000000000000000000000FFFFFFFF00000000FFFFFFFFFFFFFFFFFFFFFFFFFFFFFFFFFFFFFFFFFFFFFFFFFFFFFFFFFFFF00000000000000000000000000000000000000000000000000FFFFFFFF000000000000000000000000000000
310
000000000000000000FFFFFFFF000000000000000000000000000000000000000000000000FFFFFFFF000000000000000000000000000000000000000000000000FFFFFFFF000000000000000000000000000000000000000000000000FFFFFFFF000000000000000000000000000000000000000000000000FFFFFFFF0000
310
0000000000000000000000000000000000000000000000FFFFFF0000000000000000000000000000000000000000000000000000000000000000000000000000000000000000000000000000000000000000000000000000000000000000000000000000000000000000000000000000000000000000000000000000000000
310
00000000000000000000000000000000000000000000000000000000000000000000000000000000000000000000000000000000000000000000000000000000000000000000000000000000000000000000000000000000000000000000000000000000000000000000000000000000000000000000000000000000000000
310
0000000000000000000000000000000000000000000000000000000000000000000000000000000000000000000000000000000000000000
102
{BLKREFS
331
335
331
336
331
33E
331
33F
331
347
331
348
331
351
331
352
331
359
331
35A
331
362
331
363
102
}
  0
BLOCK_RECORD
  5
13D
330
1
100
AcDbSymbolTableRecord
100
AcDbBlockTableRecord
  2
*D2
340
0
  0
BLOCK_RECORD
  5
149
330
1
100
AcDbSymbolTableRecord
100
AcDbBlockTableRecord
  2
*D3
340
0
  0
BLOCK_RECORD
  5
155
330
1
100
AcDbSymbolTableRecord
100
AcDbBlockTableRecord
  2
*D4
340
0
  0
BLOCK_RECORD
  5
161
330
1
100
AcDbSymbolTableRecord
100
AcDbBlockTableRecord
  2
*D5
340
0
  0
BLOCK_RECORD
  5
16D
330
1
100
AcDbSymbolTableRecord
100
AcDbBlockTableRecord
  2
*D6
340
0
  0
BLOCK_RECORD
  5
17E
330
1
100
AcDbSymbolTableRecord
100
AcDbBlockTableRecord
  2
*D7
340
0
  0
BLOCK_RECORD
  5
232
102
{ACAD_XDICTIONARY
360
233
102
}
330
1
100
AcDbSymbolTableRecord
100
AcDbBlockTableRecord
  2
ATOM_A4T_zuwaku
340
0
1001
AcDbDynamicBlockGUID
1000
{B9C2F380-7588-499F-A218-AE65411906E4}
1001
AcDbBlockRepETag
1070
     1
1071
      214
1001
ACAD
1000
DesignCenter Data
1002
{
1070
     1
1070
     4
1002
}
  0
ENDTAB
  0
ENDSEC
  0
SECTION
  2
BLOCKS
  0
BLOCK
  5
6D
330
6C
100
AcDbEntity
  8
0
100
AcDbBlockBegin
  2
*Model_Space
 70
     0
 10
0.0
 20
0.0
 30
0.0
  3
*Model_Space
  1

  0
ENDBLK
  5
6E
330
6C
100
AcDbEntity
  8
0
100
AcDbBlockEnd
  0
BLOCK
  5
69
330
68
100
AcDbEntity
 67
     1
  8
0
100
AcDbBlockBegin
  2
*Paper_Space
 70
     0
 10
0.0
 20
0.0
 30
0.0
  3
*Paper_Space
  1

  0
ENDBLK
  5
6A
330
68
100
AcDbEntity
 67
     1
  8
0
100
AcDbBlockEnd
  0
BLOCK
  5
71
330
70
100
AcDbEntity
 67
     1
  8
0
100
AcDbBlockBegin
  2
*Paper_Space0
 70
     0
 10
0.0
 20
0.0
 30
0.0
  3
*Paper_Space0
  1

  0
ENDBLK
  5
72
330
70
100
AcDbEntity
 67
     1
  8
0
100
AcDbBlockEnd
  0
BLOCK
  5
7B
330
7A
100
AcDbEntity
  8
0
100
AcDbBlockBegin
  2
_Open30
 70
     0
 10
0.0
 20
0.0
 30
0.0
  3
_Open30
  1

  0
LINE
  5
7C
330
7A
100
AcDbEntity
  8
0
  6
ByBlock
 62
     0
370
    -2
100
AcDbLine
 10
-1.0
 20
0.26794919
 30
0.0
 11
0.0
 21
0.0
 31
0.0
  0
LINE
  5
7D
330
7A
100
AcDbEntity
  8
0
  6
ByBlock
 62
     0
370
    -2
100
AcDbLine
 10
0.0
 20
0.0
 30
0.0
 11
-1.0
 21
-0.26794919
 31
0.0
  0
LINE
  5
7E
330
7A
100
AcDbEntity
  8
0
  6
ByBlock
 62
     0
370
    -2
100
AcDbLine
 10
0.0
 20
0.0
 30
0.0
 11
-1.0
 21
0.0
 31
0.0
  0
ENDBLK
  5
7F
330
7A
100
AcDbEntity
  8
0
100
AcDbBlockEnd
  0
BLOCK
  5
13E
330
13D
100
AcDbEntity
  8
0
100
AcDbBlockBegin
  2
*D2
 70
     1
 10
0.0
 20
0.0
 30
0.0
  3
*D2
  1

  0
LINE
  5
332
330
13D
100
AcDbEntity
  8
dim
 62
     0
370
    -2
100
AcDbLine
 10
272.9543253264441
 20
214.38656615494
 30
0.0
 11
272.9543253264441
 21
243.7880143427278
 31
0.0
  0
LINE
  5
333
330
13D
100
AcDbEntity
  8
dim
 62
     0
370
    -2
100
AcDbLine
 10
203.954325776273
 20
214.38656615494
 30
0.0
 11
203.954325776273
 21
243.7880143427278
 31
0.0
  0
LINE
  5
334
330
13D
100
AcDbEntity
  8
dim
 62
     0
370
    -2
100
AcDbLine
 10
270.9543253394826
 20
242.788014349247
 30
0.0
 11
205.9543257632344
 21
242.788014349247
 31
0.0
  0
INSERT
  5
335
330
13D
100
AcDbEntity
  8
dim
 62
     0
370
    -2
100
AcDbBlockReference
  2
_Open30
 10
272.9543253264441
 20
242.788014349247
 30
0.0
 41
1.999999986961475
 42
1.999999986961475
 43
1.999999986961475
  0
INSERT
  5
336
330
13D
100
AcDbEntity
  8
dim
 62
     0
370
    -2
100
AcDbBlockReference
  2
_Open30
 10
203.954325776273
 20
242.788014349247
 30
0.0
 41
1.999999986961475
 42
1.999999986961475
 43
1.999999986961475
 50
180.0
  0
MTEXT
  5
337
330
13D
100
AcDbEntity
  8
dim
 62
     3
100
AcDbMText
 10
238.4543255513585
 20
244.9130143353936
 30
0.0
 40
2.999999980442213
 41
0.0
 71
     5
 72
     1
  1
34.5
  7
ATOM
 73
     1
 44
1.0
1001
ACAD
1000
MTEXTBEGIN
1070
    73
1070
     1
1070
    44
1040
1.0
1070
    74
1070
     0
1000
MTEXTEND
  0
POINT
  5
338
330
13D
100
AcDbEntity
  8
Defpoints
 62
     0
100
AcDbPoint
 10
272.9543253264441
 20
212.3865661679786
 30
0.0
  0
POINT
  5
339
330
13D
100
AcDbEntity
  8
Defpoints
 62
     0
100
AcDbPoint
 10
203.954325776273
 20
212.3865661679786
 30
0.0
  0
POINT
  5
33A
330
13D
100
AcDbEntity
  8
Defpoints
 62
     0
100
AcDbPoint
 10
203.954325776273
 20
242.788014349247
 30
0.0
  0
ENDBLK
  5
13F
330
13D
100
AcDbEntity
  8
0
100
AcDbBlockEnd
  0
BLOCK
  5
14A
330
149
100
AcDbEntity
  8
0
100
AcDbBlockBegin
  2
*D3
 70
     1
 10
0.0
 20
0.0
 30
0.0
  3
*D3
  1

  0
LINE
  5
33B
330
149
100
AcDbEntity
  8
dim
 62
     0
370
    -2
100
AcDbLine
 10
203.954325776273
 20
214.38656615494
 30
0.0
 11
203.954325776273
 21
237.6933520435092
 31
0.0
  0
LINE
  5
33C
330
149
100
AcDbEntity
  8
dim
 62
     0
370
    -2
100
AcDbLine
 10
239.9543255415796
 20
215.9865661445092
 30
0.0
 11
239.9543255415796
 21
237.6933520435092
 31
0.0
  0
LINE
  5
33D
330
149
100
AcDbEntity
  8
dim
 62
     0
370
    -2
100
AcDbLine
 10
205.9543257632344
 20
236.6933520500284
 30
0.0
 11
237.9543255546181
 21
236.6933520500284
 31
0.0
  0
INSERT
  5
33E
330
149
100
AcDbEntity
  8
dim
 62
     0
370
    -2
100
AcDbBlockReference
  2
_Open30
 10
203.954325776273
 20
236.6933520500284
 30
0.0
 41
1.999999986961475
 42
1.999999986961475
 43
1.999999986961475
 50
180.0
  0
INSERT
  5
33F
330
149
100
AcDbEntity
  8
dim
 62
     0
370
    -2
100
AcDbBlockReference
  2
_Open30
 10
239.9543255415796
 20
236.6933520500284
 30
0.0
 41
1.999999986961475
 42
1.999999986961475
 43
1.999999986961475
  0
MTEXT
  5
340
330
149
100
AcDbEntity
  8
dim
 62
     3
100
AcDbMText
 10
221.9543256589263
 20
238.818352036175
 30
0.0
 40
2.999999980442213
 41
0.0
 71
     5
 72
     1
  1
18
  7
ATOM
 73
     1
 44
1.0
1001
ACAD
1000
MTEXTBEGIN
1070
    73
1070
     1
1070
    44
1040
1.0
1070
    74
1070
     0
1000
MTEXTEND
  0
POINT
  5
341
330
149
100
AcDbEntity
  8
Defpoints
 62
     0
100
AcDbPoint
 10
203.954325776273
 20
212.3865661679786
 30
0.0
  0
POINT
  5
342
330
149
100
AcDbEntity
  8
Defpoints
 62
     0
100
AcDbPoint
 10
239.9543255415796
 20
213.9865661575477
 30
0.0
  0
POINT
  5
343
330
149
100
AcDbEntity
  8
Defpoints
 62
     0
100
AcDbPoint
 10
239.9543255415796
 20
236.6933520500284
 30
0.0
  0
ENDBLK
  5
14B
330
149
100
AcDbEntity
  8
0
100
AcDbBlockEnd
  0
BLOCK
  5
156
330
155
100
AcDbEntity
  8
0
100
AcDbBlockBegin
  2
*D4
 70
     1
 10
0.0
 20
0.0
 30
0.0
  3
*D4
  1

  0
LINE
  5
344
330
155
100
AcDbEntity
  8
dim
 62
     0
370
    -2
100
AcDbLine
 10
239.9543255415796
 20
215.9865661445092
 30
0.0
 11
239.9543255415796
 21
237.6933520435092
 31
0.0
  0
LINE
  5
345
330
155
100
AcDbEntity
  8
dim
 62
     0
370
    -2
100
AcDbLine
 10
272.9543253264441
 20
214.38656615494
 30
0.0
 11
272.9543253264441
 21
237.6933520435092
 31
0.0
  0
LINE
  5
346
330
155
100
AcDbEntity
  8
dim
 62
     0
370
    -2
100
AcDbLine
 10
241.9543255285411
 20
236.6933520500284
 30
0.0
 11
270.9543253394826
 21
236.6933520500284
 31
0.0
  0
INSERT
  5
347
330
155
100
AcDbEntity
  8
dim
 62
     0
370
    -2
100
AcDbBlockReference
  2
_Open30
 10
239.9543255415796
 20
236.6933520500284
 30
0.0
 41
1.999999986961475
 42
1.999999986961475
 43
1.999999986961475
 50
180.0
  0
INSERT
  5
348
330
155
100
AcDbEntity
  8
dim
 62
     0
370
    -2
100
AcDbBlockReference
  2
_Open30
 10
272.9543253264441
 20
236.6933520500284
 30
0.0
 41
1.999999986961475
 42
1.999999986961475
 43
1.999999986961475
  0
MTEXT
  5
349
330
155
100
AcDbEntity
  8
dim
 62
     3
100
AcDbMText
 10
256.4543254340118
 20
238.818352036175
 30
0.0
 40
2.999999980442213
 41
0.0
 71
     5
 72
     1
  1
16.5
  7
ATOM
 73
     1
 44
1.0
1001
ACAD
1000
MTEXTBEGIN
1070
    73
1070
     1
1070
    44
1040
1.0
1070
    74
1070
     0
1000
MTEXTEND
  0
POINT
  5
34A
330
155
100
AcDbEntity
  8
Defpoints
 62
     0
100
AcDbPoint
 10
239.9543255415796
 20
213.9865661575477
 30
0.0
  0
POINT
  5
34B
330
155
100
AcDbEntity
  8
Defpoints
 62
     0
100
AcDbPoint
 10
272.9543253264441
 20
212.3865661679786
 30
0.0
  0
POINT
  5
34C
330
155
100
AcDbEntity
  8
Defpoints
 62
     0
100
AcDbPoint
 10
272.9543253264441
 20
236.6933520500284
 30
0.0
  0
ENDBLK
  5
157
330
155
100
AcDbEntity
  8
0
100
AcDbBlockEnd
  0
BLOCK
  5
162
330
161
100
AcDbEntity
  8
0
100
AcDbBlockBegin
  2
*D5
 70
     1
 10
0.0
 20
0.0
 30
0.0
  3
*D5
  1

  0
LINE
  5
34D
330
161
100
AcDbEntity
  8
dim
 62
     0
370
    -2
100
AcDbLine
 10
248.9543254829063
 20
219.786566119736
 30
0.0
 11
248.9543254829063
 21
233.1767720284132
 31
0.0
  0
LINE
  5
34E
330
161
100
AcDbEntity
  8
dim
 62
     0
370
    -2
100
AcDbLine
 10
230.954325600253
 20
219.786566119736
 30
0.0
 11
230.954325600253
 21
233.1767720284132
 31
0.0
  0
LINE
  5
34F
330
161
100
AcDbEntity
  8
dim
 62
     0
370
    -2
100
AcDbLine
 10
246.9543254959448
 20
232.1767720349324
 30
0.0
 11
232.9543255872145
 21
232.1767720349324
 31
0.0
  0
MTEXT
  5
350
330
161
100
AcDbEntity
  8
dim
 62
     3
100
AcDbMText
 10
236.1009216162303
 20
234.301772021079
 30
0.0
 40
2.999999980442213
 41
0.0
 71
     5
 72
     1
  1
9
  7
ATOM
 73
     1
 44
1.0
1001
ACAD
1000
MTEXTBEGIN
1070
    73
1070
     1
1070
    44
1040
1.0
1070
    74
1070
     0
1000
MTEXTEND
  0
INSERT
  5
351
330
161
100
AcDbEntity
  8
dim
 62
     0
370
    -2
100
AcDbBlockReference
  2
_Open30
 10
248.9543254829063
 20
232.1767720349324
 30
0.0
 41
1.999999986961475
 42
1.999999986961475
 43
1.999999986961475
  0
INSERT
  5
352
330
161
100
AcDbEntity
  8
dim
 62
     0
370
    -2
100
AcDbBlockReference
  2
_Open30
 10
230.954325600253
 20
232.1767720349324
 30
0.0
 41
1.999999986961475
 42
1.999999986961475
 43
1.999999986961475
 50
180.0
  0
POINT
  5
353
330
161
100
AcDbEntity
  8
Defpoints
 62
     0
100
AcDbPoint
 10
248.9543254829063
 20
217.7865661327745
 30
0.0
  0
POINT
  5
354
330
161
100
AcDbEntity
  8
Defpoints
 62
     0
100
AcDbPoint
 10
230.954325600253
 20
217.7865661327745
 30
0.0
  0
POINT
  5
355
330
161
100
AcDbEntity
  8
Defpoints
 62
     0
100
AcDbPoint
 10
230.954325600253
 20
232.1767720349324
 30
0.0
  0
ENDBLK
  5
163
330
161
100
AcDbEntity
  8
0
100
AcDbBlockEnd
  0
BLOCK
  5
16E
330
16D
100
AcDbEntity
  8
0
100
AcDbBlockBegin
  2
*D6
 70
     1
 10
0.0
 20
0.0
 30
0.0
  3
*D6
  1

  0
LINE
  5
356
330
16D
100
AcDbEntity
  8
dim
 62
     0
370
    -2
100
AcDbLine
 10
213.7257177465708
 20
217.7865661327745
 30
0.0
 11
191.3420782721051
 21
217.7865661327746
 31
0.0
  0
LINE
  5
357
330
16D
100
AcDbEntity
  8
dim
 62
     0
370
    -2
100
AcDbLine
 10
202.5543257854
 20
211.7865661718901
 30
0.0
 11
191.3420782721051
 21
211.7865661718901
 31
0.0
  0
LINE
  5
358
330
16D
100
AcDbEntity
  8
dim
 62
     0
370
    -2
100
AcDbLine
 10
192.3420782655859
 20
215.786566145813
 30
0.0
 11
192.3420782655859
 21
213.7865661588516
 31
0.0
  0
INSERT
  5
359
330
16D
100
AcDbEntity
  8
dim
 62
     0
370
    -2
100
AcDbBlockReference
  2
_Open30
 10
192.3420782655859
 20
217.7865661327745
 30
0.0
 41
1.999999986961475
 42
1.999999986961475
 43
1.999999986961475
 50
90.0
  0
INSERT
  5
35A
330
16D
100
AcDbEntity
  8
dim
 62
     0
370
    -2
100
AcDbBlockReference
  2
_Open30
 10
192.3420782655859
 20
211.7865661718901
 30
0.0
 41
1.999999986961475
 42
1.999999986961475
 43
1.999999986961475
 50
270.0
  0
MTEXT
  5
35B
330
16D
100
AcDbEntity
  8
dim
 62
     3
100
AcDbMText
 10
190.2170782794392
 20
214.7865661523324
 30
0.0
 40
2.999999980442213
 41
0.0
 71
     5
 72
     1
  1
3
  7
ATOM
 11
0.0000000000000001
 21
1.0
 31
0.0
 73
     1
 44
1.0
1001
ACAD
1000
MTEXTBEGIN
1070
    73
1070
     1
1070
    44
1040
1.0
1070
    74
1070
     0
1000
MTEXTEND
  0
POINT
  5
35C
330
16D
100
AcDbEntity
  8
Defpoints
 62
     0
100
AcDbPoint
 10
215.7257177335323
 20
217.7865661327745
 30
0.0
  0
POINT
  5
35D
330
16D
100
AcDbEntity
  8
Defpoints
 62
     0
100
AcDbPoint
 10
204.5543257723615
 20
211.7865661718901
 30
0.0
  0
POINT
  5
35E
330
16D
100
AcDbEntity
  8
Defpoints
 62
     0
100
AcDbPoint
 10
192.3420782655859
 20
211.7865661718901
 30
0.0
  0
ENDBLK
  5
16F
330
16D
100
AcDbEntity
  8
0
100
AcDbBlockEnd
  0
BLOCK
  5
17F
330
17E
100
AcDbEntity
  8
0
100
AcDbBlockBegin
  2
*D7
 70
     1
 10
0.0
 20
0.0
 30
0.0
  3
*D7
  1

  0
LINE
  5
35F
330
17E
100
AcDbEntity
  8
dim
 62
     0
370
    -2
100
AcDbLine
 10
249.9543254763871
 20
210.7865661784093
 30
0.0
 11
249.9543254763871
 21
201.4930555129053
 31
0.0
  0
LINE
  5
360
330
17E
100
AcDbEntity
  8
dim
 62
     0
370
    -2
100
AcDbLine
 10
229.9543256067723
 20
210.7865661784093
 30
0.0
 11
229.9543256067723
 21
201.4930555129053
 31
0.0
  0
LINE
  5
361
330
17E
100
AcDbEntity
  8
dim
 62
     0
370
    -2
100
AcDbLine
 10
247.9543254894256
 20
202.493055506386
 30
0.0
 11
231.9543255937337
 21
202.493055506386
 31
0.0
  0
INSERT
  5
362
330
17E
100
AcDbEntity
  8
dim
 62
     0
370
    -2
100
AcDbBlockReference
  2
_Open30
 10
249.9543254763871
 20
202.493055506386
 30
0.0
 41
1.999999986961475
 42
1.999999986961475
 43
1.999999986961475
  0
INSERT
  5
363
330
17E
100
AcDbEntity
  8
dim
 62
     0
370
    -2
100
AcDbBlockReference
  2
_Open30
 10
229.9543256067723
 20
202.493055506386
 30
0.0
 41
1.999999986961475
 42
1.999999986961475
 43
1.999999986961475
 50
180.0
  0
MTEXT
  5
364
330
17E
100
AcDbEntity
  8
dim
 62
     3
100
AcDbMText
 10
239.9543255415797
 20
204.6180554925326
 30
0.0
 40
2.999999980442213
 41
0.0
 71
     5
 72
     1
  1
10
  7
ATOM
 73
     1
 44
1.0
1001
ACAD
1000
MTEXTBEGIN
1070
    73
1070
     1
1070
    44
1040
1.0
1070
    74
1070
     0
1000
MTEXTEND
  0
POINT
  5
365
330
17E
100
AcDbEntity
  8
Defpoints
 62
     0
100
AcDbPoint
 10
249.9543254763871
 20
212.7865661653708
 30
0.0
  0
POINT
  5
366
330
17E
100
AcDbEntity
  8
Defpoints
 62
     0
100
AcDbPoint
 10
229.9543256067723
 20
212.7865661653708
 30
0.0
  0
POINT
  5
367
330
17E
100
AcDbEntity
  8
Defpoints
 62
     0
100
AcDbPoint
 10
229.9543256067723
 20
202.493055506386
 30
0.0
  0
ENDBLK
  5
180
330
17E
100
AcDbEntity
  8
0
100
AcDbBlockEnd
  0
BLOCK
  5
235
330
232
100
AcDbEntity
  8
0
100
AcDbBlockBegin
  2
ATOM_A4T_zuwaku
 70
     2
 10
0.0
 20
0.0
 30
0.0
  3
ATOM_A4T_zuwaku
  1

  0
LWPOLYLINE
  5
236
330
232
100
AcDbEntity
  8
frame
  6
ByBlock
100
AcDbPolyline
 90
        4
 70
     1
 43
0.0
 10
24.59999999999946
 20
32.02453525127749
 10
20.59421302496503
 20
33.21128572090675
 10
20.59421302496503
 20
35.45924095267583
 10
24.59999999999946
 20
36.64599142230509
1001
AcDbBlockRepETag
1070
     1
1071
        0
1005
236
  0
LWPOLYLINE
  5
238
330
232
100
AcDbEntity
  8
frame
  6
ByBlock
100
AcDbPolyline
 90
        4
 70
     1
 43
0.0
 10
24.68499999999858
 20
31.9107014793517
 10
20.50921302496499
 20
33.14781598009358
 10
20.50921302496499
 20
35.52271069349081
 10
24.68499999999858
 20
36.75982519423087
1001
AcDbBlockRepETag
1070
     1
1071
        1
1005
238
  0
LWPOLYLINE
  5
239
330
232
100
AcDbEntity
  8
frame
  6
ByBlock
100
AcDbPolyline
 90
        4
 70
     1
 43
0.0
 10
24.51499999999942
 20
32.13836902320327
 10
20.67921302496507
 20
33.27475546172173
 10
20.67921302496507
 20
35.39577121186268
 10
24.51499999999942
 20
36.53215765037931
1001
AcDbBlockRepETag
1070
     1
1071
        2
1005
239
  0
LINE
  5
23A
330
232
100
AcDbEntity
  8
frame
  6
ByBlock
100
AcDbLine
 10
119.0
 20
38.00000000000182
 30
0.0
 11
119.0
 21
10.00000000000182
 31
0.0
1001
AcDbBlockRepETag
1070
     1
1071
        3
1005
23A
  0
LINE
  5
23B
330
232
100
AcDbEntity
  8
frame
  6
ByBlock
100
AcDbLine
 10
144.0
 20
38.00000000000182
 30
0.0
 11
144.0
 21
10.0
 31
0.0
1001
AcDbBlockRepETag
1070
     1
1071
        4
1005
23B
  0
LINE
  5
23C
330
232
100
AcDbEntity
  8
frame
  6
ByBlock
100
AcDbLine
 10
143.9149999999999
 20
38.00000000000182
 30
0.0
 11
143.9149999999999
 21
10.0
 31
0.0
1001
AcDbBlockRepETag
1070
     1
1071
        5
1005
23C
  0
LINE
  5
23D
330
232
100
AcDbEntity
  8
frame
  6
ByBlock
100
AcDbLine
 10
144.085
 20
38.00000000000182
 30
0.0
 11
144.085
 21
10.0
 31
0.0
1001
AcDbBlockRepETag
1070
     1
1071
        6
1005
23D
  0
LINE
  5
23E
330
232
100
AcDbEntity
  8
frame
  6
ByBlock
100
AcDbLine
 10
141.0
 20
38.00000000000182
 30
0.0
 11
141.0
 21
10.0
 31
0.0
1001
AcDbBlockRepETag
1070
     1
1071
        7
1005
23E
  0
LINE
  5
23F
330
232
100
AcDbEntity
  8
frame
  6
ByBlock
100
AcDbLine
 10
140.9149999999999
 20
38.00000000000182
 30
0.0
 11
140.9149999999999
 21
10.0
 31
0.0
1001
AcDbBlockRepETag
1070
     1
1071
        8
1005
23F
  0
LINE
  5
240
330
232
100
AcDbEntity
  8
frame
  6
ByBlock
100
AcDbLine
 10
141.085
 20
38.00000000000182
 30
0.0
 11
141.085
 21
10.0
 31
0.0
1001
AcDbBlockRepETag
1070
     1
1071
        9
1005
240
  0
LINE
  5
241
330
232
100
AcDbEntity
  8
frame
  6
ByBlock
100
AcDbLine
 10
186.5
 20
10.00000000000182
 30
0.0
 11
186.5
 21
17.00000000000182
 31
0.0
1001
AcDbBlockRepETag
1070
     1
1071
       10
1005
241
  0
TEXT
  5
242
330
232
100
AcDbEntity
  8
frame
  6
ByBlock
100
AcDbText
 10
15.55924259358817
 20
11.75
 30
0.0
 40
5.0
  1
アトムリビンテック株式会社
 41
0.6
  7
ATOM
 72
     1
 11
38.75924259358817
 21
14.25
 31
0.0
100
AcDbText
 73
     2
1001
AcDbBlockRepETag
1070
     1
1071
       12
1005
242
  0
TEXT
  5
243
330
232
100
AcDbEntity
  8
frame
  6
ByBlock
100
AcDbText
 10
67.5
 20
21.5
 30
0.0
 40
4.0
  1
開　　発　　部
 41
0.9
  7
ATOM
 11
67.5
 21
23.5
 31
0.0
100
AcDbText
 73
     2
1001
AcDbBlockRepETag
1070
     1
1071
       13
1005
243
  0
TEXT
  5
244
330
232
100
AcDbEntity
  8
frame
  6
ByBlock
100
AcDbText
 10
67.5
 20
17.0
 30
0.0
 40
3.0
  1
〒110-8680
 41
0.7
  7
ATOM
 11
67.5
 21
18.5
 31
0.0
100
AcDbText
 73
     2
1001
AcDbBlockRepETag
1070
     1
1071
       14
1005
244
  0
TEXT
  5
245
330
232
100
AcDbEntity
  8
frame
  6
ByBlock
100
AcDbText
 10
67.5
 20
12.5
 30
0.0
 40
3.0
  1
東京都 台東区 入谷 1-27-4
 41
0.65
  7
ATOM
 11
67.5
 21
14.0
 31
0.0
100
AcDbText
 73
     2
1001
AcDbBlockRepETag
1070
     1
1071
       15
1005
245
  0
TEXT
  5
246
330
232
100
AcDbEntity
  8
frame
  6
ByBlock
100
AcDbText
 10
13.62
 20
40.00000000000182
 30
0.0
 40
3.0
  1
部番
 41
0.9
  7
ATOM
 72
     1
 11
16.5
 21
41.50000000000182
 31
0.0
100
AcDbText
 73
     2
1001
AcDbBlockRepETag
1070
     1
1071
       16
1005
246
  0
TEXT
  5
247
330
232
100
AcDbEntity
  8
frame
  6
ByBlock
100
AcDbText
 10
27.63
 20
40.00000000000182
 30
0.0
 40
3.0
  1
部　　　　品　　　　名
 41
0.9
  7
ATOM
 72
     1
 11
45.0
 21
41.50000000000182
 31
0.0
100
AcDbText
 73
     2
1001
AcDbBlockRepETag
1070
     1
1071
       17
1005
247
  0
TEXT
  5
248
330
232
100
AcDbEntity
  8
frame
  6
ByBlock
100
AcDbText
 10
77.88
 20
40.00000000000182
 30
0.0
 40
3.0
  1
材　　質
 41
0.9
  7
ATOM
 72
     1
 11
84.0
 21
41.50000000000182
 31
0.0
100
AcDbText
 73
     2
1001
AcDbBlockRepETag
1070
     1
1071
       18
1005
248
  0
TEXT
  5
249
330
232
100
AcDbEntity
  8
frame
  6
ByBlock
100
AcDbText
 10
98.62000000000001
 20
40.00000000000182
 30
0.0
 40
3.0
  1
数量
 41
0.9
  7
ATOM
 72
     1
 11
101.5
 21
41.50000000000182
 31
0.0
100
AcDbText
 73
     2
1001
AcDbBlockRepETag
1070
     1
1071
       19
1005
249
  0
TEXT
  5
24A
330
232
100
AcDbEntity
  8
frame
  6
ByBlock
100
AcDbText
 10
114.16
 20
40.00000000000182
 30
0.0
 40
3.0
  1
表　　面　　処　　理
 41
0.9
  7
ATOM
 72
     1
 11
130.0
 21
41.50000000000182
 31
0.0
100
AcDbText
 73
     2
1001
AcDbBlockRepETag
1070
     1
1071
       20
1005
24A
  0
TEXT
  5
24B
330
232
100
AcDbEntity
  8
frame
  6
ByBlock
100
AcDbText
 10
168.26
 20
40.00000000000182
 30
0.0
 40
3.0
  1
備　　　考
 41
0.9
  7
ATOM
 72
     1
 11
176.0
 21
41.50000000000182
 31
0.0
100
AcDbText
 73
     2
1001
AcDbBlockRepETag
1070
     1
1071
       21
1005
24B
  0
TEXT
  5
24C
330
232
100
AcDbEntity
  8
frame
  6
ByBlock
100
AcDbText
 10
180.18
 20
282.0000000000018
 30
0.0
 40
3.0
  1
改正日
 41
0.9
  7
ATOM
 72
     1
 11
184.5
 21
283.5000000000018
 31
0.0
100
AcDbText
 73
     2
1001
AcDbBlockRepETag
1070
     1
1071
       22
1005
24C
  0
TEXT
  5
24D
330
232
100
AcDbEntity
  8
frame
  6
ByBlock
100
AcDbText
 10
158.47
 20
282.0000000000018
 30
0.0
 40
3.0
  1
改正担当
 41
0.9
  7
ATOM
 72
     1
 11
164.5
 21
283.5000000000018
 31
0.0
100
AcDbText
 73
     2
1001
AcDbBlockRepETag
1070
     1
1071
       23
1005
24D
  0
TEXT
  5
24E
330
232
100
AcDbEntity
  8
frame
  6
ByBlock
100
AcDbText
 10
136.94
 20
282.0000000000018
 30
0.0
 40
3.0
  1
改正承認日
 41
0.9
  7
ATOM
 72
     1
 11
144.5
 21
283.5000000000018
 31
0.0
100
AcDbText
 73
     2
1001
AcDbBlockRepETag
1070
     1
1071
       24
1005
24E
  0
TEXT
  5
24F
330
232
100
AcDbEntity
  8
frame
  6
ByBlock
100
AcDbText
 10
118.38
 20
282.0000000000018
 30
0.0
 40
3.0
  1
改正承認
 41
0.9
  7
ATOM
 72
     1
 11
124.5
 21
283.5000000000018
 31
0.0
100
AcDbText
 73
     2
1001
AcDbBlockRepETag
1070
     1
1071
       25
1005
24F
  0
TEXT
  5
250
330
232
100
AcDbEntity
  8
frame
  6
ByBlock
100
AcDbText
 10
43.02999999999999
 20
282.0000000000018
 30
0.0
 40
3.0
  1
改　　　　正　　　　理　　　　由
 41
0.9
  7
ATOM
 72
     1
 11
68.5
 21
283.5000000000018
 31
0.0
100
AcDbText
 73
     2
1001
AcDbBlockRepETag
1070
     1
1071
       26
1005
250
  0
TEXT
  5
251
330
232
100
AcDbEntity
  8
frame
  6
ByBlock
100
AcDbText
 10
13.62
 20
282.0000000000018
 30
0.0
 40
3.0
  1
改番
 41
0.9
  7
ATOM
 72
     1
 11
16.5
 21
283.5000000000018
 31
0.0
100
AcDbText
 73
     2
1001
AcDbBlockRepETag
1070
     1
1071
       27
1005
251
  0
TEXT
  5
252
330
232
100
AcDbEntity
  8
frame
  6
ByBlock
100
AcDbText
 10
48.525
 20
35.00000000000182
 30
0.0
 40
2.5
  1
名
 41
0.9
  7
ATOM
 72
     1
 11
49.5
 21
36.25000000000182
 31
0.0
100
AcDbText
 73
     2
1001
AcDbBlockRepETag
1070
     1
1071
       28
1005
252
  0
TEXT
  5
253
330
232
100
AcDbEntity
  8
frame
  6
ByBlock
100
AcDbText
 10
48.45
 20
31.50000000000182
 30
0.0
 40
2.5
  1
称
 41
0.9
  7
ATOM
 72
     1
 11
49.5
 21
32.75000000000182
 31
0.0
100
AcDbText
 73
     2
1001
AcDbBlockRepETag
1070
     1
1071
       29
1005
253
  0
TEXT
  5
254
330
232
100
AcDbEntity
  8
frame
  6
ByBlock
100
AcDbText
 10
26.45
 20
35.00000000000182
 30
0.0
 40
2.5
  1
尺
 41
0.9
  7
ATOM
 72
     1
 11
27.5
 21
36.25000000000182
 31
0.0
100
AcDbText
 73
     2
1001
AcDbBlockRepETag
1070
     1
1071
       30
1005
254
  0
TEXT
  5
255
330
232
100
AcDbEntity
  8
frame
  6
ByBlock
100
AcDbText
 10
26.45
 20
31.50000000000182
 30
0.0
 40
2.5
  1
度
 41
0.9
  7
ATOM
 72
     1
 11
27.5
 21
32.75000000000182
 31
0.0
100
AcDbText
 73
     2
1001
AcDbBlockRepETag
1070
     1
1071
       31
1005
255
  0
TEXT
  5
256
330
232
100
AcDbEntity
  8
frame
  6
ByBlock
100
AcDbText
 10
102.95
 20
35.00000000000182
 30
0.0
 40
2.5
  1
承
 41
0.9
  7
ATOM
 72
     1
 11
104.0
 21
36.25000000000182
 31
0.0
100
AcDbText
 73
     2
1001
AcDbBlockRepETag
1070
     1
1071
       32
1005
256
  0
TEXT
  5
257
330
232
100
AcDbEntity
  8
frame
  6
ByBlock
100
AcDbText
 10
102.95
 20
31.50000000000182
 30
0.0
 40
2.5
  1
認
 41
0.9
  7
ATOM
 72
     1
 11
104.0
 21
32.75000000000182
 31
0.0
100
AcDbText
 73
     2
1001
AcDbBlockRepETag
1070
     1
1071
       33
1005
257
  0
TEXT
  5
258
330
232
100
AcDbEntity
  8
frame
  6
ByBlock
100
AcDbText
 10
102.95
 20
28.00000000000182
 30
0.0
 40
2.5
  1
検
 41
0.9
  7
ATOM
 72
     1
 11
104.0
 21
29.25000000000182
 31
0.0
100
AcDbText
 73
     2
1001
AcDbBlockRepETag
1070
     1
1071
       34
1005
258
  0
TEXT
  5
259
330
232
100
AcDbEntity
  8
frame
  6
ByBlock
100
AcDbText
 10
102.95
 20
24.50000000000182
 30
0.0
 40
2.5
  1
図
 41
0.9
  7
ATOM
 72
     1
 11
104.0
 21
25.75000000000182
 31
0.0
100
AcDbText
 73
     2
1001
AcDbBlockRepETag
1070
     1
1071
       35
1005
259
  0
TEXT
  5
25A
330
232
100
AcDbEntity
  8
frame
  6
ByBlock
100
AcDbText
 10
102.95
 20
21.00000000000182
 30
0.0
 40
2.5
  1
設
 41
0.9
  7
ATOM
 72
     1
 11
104.0
 21
22.25000000000182
 31
0.0
100
AcDbText
 73
     2
1001
AcDbBlockRepETag
1070
     1
1071
       36
1005
25A
  0
TEXT
  5
25B
330
232
100
AcDbEntity
  8
frame
  6
ByBlock
100
AcDbText
 10
102.95
 20
17.50000000000182
 30
0.0
 40
2.5
  1
計
 41
0.9
  7
ATOM
 72
     1
 11
104.0
 21
18.75000000000182
 31
0.0
100
AcDbText
 73
     2
1001
AcDbBlockRepETag
1070
     1
1071
       37
1005
25B
  0
TEXT
  5
25C
330
232
100
AcDbEntity
  8
frame
  6
ByBlock
100
AcDbText
 10
102.95
 20
14.00000000000182
 30
0.0
 40
2.5
  1
作
 41
0.9
  7
ATOM
 72
     1
 11
104.0
 21
15.25000000000182
 31
0.0
100
AcDbText
 73
     2
1001
AcDbBlockRepETag
1070
     1
1071
       38
1005
25C
  0
TEXT
  5
25D
330
232
100
AcDbEntity
  8
frame
  6
ByBlock
100
AcDbText
 10
102.95
 20
10.50000000000182
 30
0.0
 40
2.5
  1
図
 41
0.9
  7
ATOM
 72
     1
 11
104.0
 21
11.75000000000182
 31
0.0
100
AcDbText
 73
     2
1001
AcDbBlockRepETag
1070
     1
1071
       39
1005
25D
  0
TEXT
  5
25E
330
232
100
AcDbEntity
  8
frame
  6
ByBlock
100
AcDbText
 10
141.45
 20
35.00000000000182
 30
0.0
 40
2.5
  1
品
 41
0.9
  7
ATOM
 72
     1
 11
142.5
 21
36.25000000000182
 31
0.0
100
AcDbText
 73
     2
1001
AcDbBlockRepETag
1070
     1
1071
       40
1005
25E
  0
TEXT
  5
25F
330
232
100
AcDbEntity
  8
frame
  6
ByBlock
100
AcDbText
 10
141.525
 20
31.50000000000182
 30
0.0
 40
2.5
  1
名
 41
0.9
  7
ATOM
 72
     1
 11
142.5
 21
32.75000000000182
 31
0.0
100
AcDbText
 73
     2
1001
AcDbBlockRepETag
1070
     1
1071
       41
1005
25F
  0
TEXT
  5
260
330
232
100
AcDbEntity
  8
frame
  6
ByBlock
100
AcDbText
 10
141.45
 20
28.00000000000182
 30
0.0
 40
2.5
  1
品
 41
0.9
  7
ATOM
 72
     1
 11
142.5
 21
29.25000000000182
 31
0.0
100
AcDbText
 73
     2
1001
AcDbBlockRepETag
1070
     1
1071
       42
1005
260
  0
TEXT
  5
261
330
232
100
AcDbEntity
  8
frame
  6
ByBlock
100
AcDbText
 10
141.45
 20
24.50000000000182
 30
0.0
 40
2.5
  1
番
 41
0.9
  7
ATOM
 72
     1
 11
142.5
 21
25.75000000000182
 31
0.0
100
AcDbText
 73
     2
1001
AcDbBlockRepETag
1070
     1
1071
       43
1005
261
  0
TEXT
  5
262
330
232
100
AcDbEntity
  8
frame
  6
ByBlock
100
AcDbText
 10
141.45
 20
21.00000000000182
 30
0.0
 40
2.5
  1
図
 41
0.9
  7
ATOM
 72
     1
 11
142.5
 21
22.25000000000182
 31
0.0
100
AcDbText
 73
     2
1001
AcDbBlockRepETag
1070
     1
1071
       44
1005
262
  0
TEXT
  5
263
330
232
100
AcDbEntity
  8
frame
  6
ByBlock
100
AcDbText
 10
141.525
 20
17.50000000000182
 30
0.0
 40
2.5
  1
名
 41
0.9
  7
ATOM
 72
     1
 11
142.5
 21
18.75000000000182
 31
0.0
100
AcDbText
 73
     2
1001
AcDbBlockRepETag
1070
     1
1071
       45
1005
263
  0
TEXT
  5
264
330
232
100
AcDbEntity
  8
frame
  6
ByBlock
100
AcDbText
 10
141.45
 20
14.00000000000182
 30
0.0
 40
2.5
  1
図
 41
0.9
  7
ATOM
 72
     1
 11
142.5
 21
15.25000000000182
 31
0.0
100
AcDbText
 73
     2
1001
AcDbBlockRepETag
1070
     1
1071
       46
1005
264
  0
TEXT
  5
265
330
232
100
AcDbEntity
  8
frame
  6
ByBlock
100
AcDbText
 10
141.45
 20
10.50000000000182
 30
0.0
 40
2.5
  1
番
 41
0.9
  7
ATOM
 72
     1
 11
142.5
 21
11.75000000000182
 31
0.0
100
AcDbText
 73
     2
1001
AcDbBlockRepETag
1070
     1
1071
       47
1005
265
  0
TEXT
  5
266
330
232
100
AcDbEntity
  8
frame
  6
ByBlock
100
AcDbText
 10
42.16666666666666
 20
32.75000000000182
 30
0.0
 40
3.5
  1
A4T
 41
0.5
  7
ATOM
 72
     1
 11
44.5
 21
34.50000000000182
 31
0.0
100
AcDbText
 73
     2
1001
AcDbBlockRepETag
1070
     1
1071
       48
1005
266
  0
LWPOLYLINE
  5
267
330
232
100
AcDbEntity
  8
frame
  6
ByBlock
100
AcDbPolyline
 90
        4
 70
     1
 43
0.0
 10
196.9999999999991
 20
10.0
 10
196.9999999999991
 20
287.0
 10
12.99999999999909
 20
287.0
 10
12.99999999999909
 20
10.0
1001
AcDbBlockRepETag
1070
     1
1071
       49
1005
267
  0
LWPOLYLINE
  5
268
330
232
100
AcDbEntity
  8
frame
  6
ByBlock
100
AcDbPolyline
 90
        4
 70
     1
 43
0.0
 10
197.1599999999989
 20
9.840000000000143
 10
197.1599999999989
 20
287.1599999999999
 10
12.83999999999923
 20
287.1599999999999
 10
12.83999999999923
 20
9.840000000000143
1001
AcDbBlockRepETag
1070
     1
1071
       50
1005
268
  0
LWPOLYLINE
  5
269
330
232
100
AcDbEntity
  8
frame
  6
ByBlock
100
AcDbPolyline
 90
        4
 70
     1
 43
0.0
 10
196.8399999999992
 20
10.15999999999985
 10
196.8399999999992
 20
286.8400000000002
 10
13.15999999999894
 20
286.8400000000002
 10
13.15999999999894
 20
10.15999999999985
1001
AcDbBlockRepETag
1070
     1
1071
       51
1005
269
  0
LWPOLYLINE
  5
26A
330
232
100
AcDbEntity
  8
frame
  6
ByBlock
390
83
100
AcDbPolyline
 90
        4
 70
     1
 43
0.0
 10
0.0
 20
0.0
 10
210.0
 20
0.0
 10
210.0
 20
297.0
 10
0.0
 20
297.0
1001
AcDbBlockRepETag
1070
     1
1071
       52
1005
26A
  0
LINE
  5
26B
330
232
100
AcDbEntity
  8
frame
  6
ByBlock
100
AcDbLine
 10
20.0
 20
287.0000000000018
 30
0.0
 11
20.0
 21
280.0000000000018
 31
0.0
1001
AcDbBlockRepETag
1070
     1
1071
       53
1005
26B
  0
LINE
  5
26C
330
232
100
AcDbEntity
  8
frame
  6
ByBlock
100
AcDbLine
 10
20.08500000000004
 20
287.0000000000018
 30
0.0
 11
20.08500000000004
 21
280.0000000000018
 31
0.0
1001
AcDbBlockRepETag
1070
     1
1071
       54
1005
26C
  0
LINE
  5
26D
330
232
100
AcDbEntity
  8
frame
  6
ByBlock
100
AcDbLine
 10
19.91499999999996
 20
287.0000000000018
 30
0.0
 11
19.91499999999996
 21
280.0000000000018
 31
0.0
1001
AcDbBlockRepETag
1070
     1
1071
       55
1005
26D
  0
LINE
  5
26E
330
232
100
AcDbEntity
  8
frame
  6
ByBlock
100
AcDbLine
 10
117.0
 20
287.0000000000018
 30
0.0
 11
117.0
 21
280.0000000000018
 31
0.0
1001
AcDbBlockRepETag
1070
     1
1071
       56
1005
26E
  0
LINE
  5
26F
330
232
100
AcDbEntity
  8
frame
  6
ByBlock
100
AcDbLine
 10
116.9149999999999
 20
287.0000000000018
 30
0.0
 11
116.9149999999999
 21
280.0000000000018
 31
0.0
1001
AcDbBlockRepETag
1070
     1
1071
       57
1005
26F
  0
LINE
  5
270
330
232
100
AcDbEntity
  8
frame
  6
ByBlock
100
AcDbLine
 10
117.085
 20
287.0000000000018
 30
0.0
 11
117.085
 21
280.0000000000018
 31
0.0
1001
AcDbBlockRepETag
1070
     1
1071
       58
1005
270
  0
LINE
  5
271
330
232
100
AcDbEntity
  8
frame
  6
ByBlock
100
AcDbLine
 10
132.0
 20
287.0000000000018
 30
0.0
 11
132.0
 21
280.0000000000018
 31
0.0
1001
AcDbBlockRepETag
1070
     1
1071
       59
1005
271
  0
LINE
  5
272
330
232
100
AcDbEntity
  8
frame
  6
ByBlock
100
AcDbLine
 10
131.9149999999999
 20
287.0000000000018
 30
0.0
 11
131.9149999999999
 21
280.0000000000018
 31
0.0
1001
AcDbBlockRepETag
1070
     1
1071
       60
1005
272
  0
LINE
  5
273
330
232
100
AcDbEntity
  8
frame
  6
ByBlock
100
AcDbLine
 10
132.085
 20
287.0000000000018
 30
0.0
 11
132.085
 21
280.0000000000018
 31
0.0
1001
AcDbBlockRepETag
1070
     1
1071
       61
1005
273
  0
LINE
  5
274
330
232
100
AcDbEntity
  8
frame
  6
ByBlock
100
AcDbLine
 10
157.0
 20
287.0000000000018
 30
0.0
 11
157.0
 21
280.0000000000018
 31
0.0
1001
AcDbBlockRepETag
1070
     1
1071
       62
1005
274
  0
LINE
  5
275
330
232
100
AcDbEntity
  8
frame
  6
ByBlock
100
AcDbLine
 10
156.9149999999999
 20
287.0000000000018
 30
0.0
 11
156.9149999999999
 21
280.0000000000018
 31
0.0
1001
AcDbBlockRepETag
1070
     1
1071
       63
1005
275
  0
LINE
  5
276
330
232
100
AcDbEntity
  8
frame
  6
ByBlock
100
AcDbLine
 10
157.085
 20
287.0000000000018
 30
0.0
 11
157.085
 21
280.0000000000018
 31
0.0
1001
AcDbBlockRepETag
1070
     1
1071
       64
1005
276
  0
LINE
  5
277
330
232
100
AcDbEntity
  8
frame
  6
ByBlock
100
AcDbLine
 10
172.0
 20
287.0000000000018
 30
0.0
 11
172.0
 21
280.0000000000018
 31
0.0
1001
AcDbBlockRepETag
1070
     1
1071
       65
1005
277
  0
LINE
  5
278
330
232
100
AcDbEntity
  8
frame
  6
ByBlock
100
AcDbLine
 10
171.9149999999999
 20
287.0000000000018
 30
0.0
 11
171.9149999999999
 21
280.0000000000018
 31
0.0
1001
AcDbBlockRepETag
1070
     1
1071
       66
1005
278
  0
LINE
  5
279
330
232
100
AcDbEntity
  8
frame
  6
ByBlock
100
AcDbLine
 10
172.085
 20
287.0000000000018
 30
0.0
 11
172.085
 21
280.0000000000018
 31
0.0
1001
AcDbBlockRepETag
1070
     1
1071
       67
1005
279
  0
LINE
  5
27A
330
232
100
AcDbEntity
  8
frame
  6
ByBlock
100
AcDbLine
 10
13.0
 20
280.0000000000018
 30
0.0
 11
197.0
 21
280.0000000000018
 31
0.0
1001
AcDbBlockRepETag
1070
     1
1071
       68
1005
27A
  0
LINE
  5
27B
330
232
100
AcDbEntity
  8
frame
  6
ByBlock
100
AcDbLine
 10
13.0
 20
279.9150000000027
 30
0.0
 11
197.0
 21
279.9150000000027
 31
0.0
1001
AcDbBlockRepETag
1070
     1
1071
       69
1005
27B
  0
LINE
  5
27C
330
232
100
AcDbEntity
  8
frame
  6
ByBlock
100
AcDbLine
 10
13.0
 20
280.0850000000028
 30
0.0
 11
197.0
 21
280.0850000000028
 31
0.0
1001
AcDbBlockRepETag
1070
     1
1071
       70
1005
27C
  0
LINE
  5
27D
330
232
100
AcDbEntity
  8
frame
  6
ByBlock
100
AcDbLine
 10
20.0
 20
45.00000000000182
 30
0.0
 11
20.0
 21
38.00000000000182
 31
0.0
1001
AcDbBlockRepETag
1070
     1
1071
       71
1005
27D
  0
LINE
  5
27E
330
232
100
AcDbEntity
  8
frame
  6
ByBlock
100
AcDbLine
 10
19.91499999999996
 20
45.00000000000182
 30
0.0
 11
19.91499999999996
 21
38.00000000000182
 31
0.0
1001
AcDbBlockRepETag
1070
     1
1071
       72
1005
27E
  0
LINE
  5
27F
330
232
100
AcDbEntity
  8
frame
  6
ByBlock
100
AcDbLine
 10
20.08500000000004
 20
45.00000000000182
 30
0.0
 11
20.08500000000004
 21
38.00000000000182
 31
0.0
1001
AcDbBlockRepETag
1070
     1
1071
       73
1005
27F
  0
LINE
  5
280
330
232
100
AcDbEntity
  8
frame
  6
ByBlock
100
AcDbLine
 10
70.0
 20
38.00000000000182
 30
0.0
 11
70.0
 21
45.00000000000182
 31
0.0
1001
AcDbBlockRepETag
1070
     1
1071
       74
1005
280
  0
LINE
  5
281
330
232
100
AcDbEntity
  8
frame
  6
ByBlock
100
AcDbLine
 10
70.08500000000004
 20
38.00000000000182
 30
0.0
 11
70.08500000000004
 21
45.00000000000182
 31
0.0
1001
AcDbBlockRepETag
1070
     1
1071
       75
1005
281
  0
LINE
  5
282
330
232
100
AcDbEntity
  8
frame
  6
ByBlock
100
AcDbLine
 10
69.91499999999996
 20
38.00000000000182
 30
0.0
 11
69.91499999999996
 21
45.00000000000182
 31
0.0
1001
AcDbBlockRepETag
1070
     1
1071
       76
1005
282
  0
LINE
  5
283
330
232
100
AcDbEntity
  8
frame
  6
ByBlock
100
AcDbLine
 10
98.0
 20
45.00000000000182
 30
0.0
 11
98.0
 21
38.00000000000182
 31
0.0
1001
AcDbBlockRepETag
1070
     1
1071
       77
1005
283
  0
LINE
  5
284
330
232
100
AcDbEntity
  8
frame
  6
ByBlock
100
AcDbLine
 10
98.08500000000003
 20
45.00000000000182
 30
0.0
 11
98.08500000000003
 21
38.00000000000182
 31
0.0
1001
AcDbBlockRepETag
1070
     1
1071
       78
1005
284
  0
LINE
  5
285
330
232
100
AcDbEntity
  8
frame
  6
ByBlock
100
AcDbLine
 10
97.91499999999997
 20
45.00000000000182
 30
0.0
 11
97.91499999999997
 21
38.00000000000182
 31
0.0
1001
AcDbBlockRepETag
1070
     1
1071
       79
1005
285
  0
LINE
  5
286
330
232
100
AcDbEntity
  8
frame
  6
ByBlock
100
AcDbLine
 10
105.0
 20
45.00000000000182
 30
0.0
 11
105.0
 21
38.00000000000182
 31
0.0
1001
AcDbBlockRepETag
1070
     1
1071
       80
1005
286
  0
LINE
  5
287
330
232
100
AcDbEntity
  8
frame
  6
ByBlock
100
AcDbLine
 10
105.085
 20
45.00000000000182
 30
0.0
 11
105.085
 21
38.00000000000182
 31
0.0
1001
AcDbBlockRepETag
1070
     1
1071
       81
1005
287
  0
LINE
  5
288
330
232
100
AcDbEntity
  8
frame
  6
ByBlock
100
AcDbLine
 10
105.17
 20
45.00000000000182
 30
0.0
 11
105.17
 21
38.00000000000182
 31
0.0
1001
AcDbBlockRepETag
1070
     1
1071
       82
1005
288
  0
LINE
  5
289
330
232
100
AcDbEntity
  8
frame
  6
ByBlock
100
AcDbLine
 10
155.0
 20
45.00000000000182
 30
0.0
 11
155.0
 21
38.00000000000182
 31
0.0
1001
AcDbBlockRepETag
1070
     1
1071
       83
1005
289
  0
LINE
  5
28A
330
232
100
AcDbEntity
  8
frame
  6
ByBlock
100
AcDbLine
 10
155.085
 20
45.00000000000182
 30
0.0
 11
155.085
 21
38.00000000000182
 31
0.0
1001
AcDbBlockRepETag
1070
     1
1071
       84
1005
28A
  0
LINE
  5
28B
330
232
100
AcDbEntity
  8
frame
  6
ByBlock
100
AcDbLine
 10
154.9149999999999
 20
45.00000000000182
 30
0.0
 11
154.9149999999999
 21
38.00000000000182
 31
0.0
1001
AcDbBlockRepETag
1070
     1
1071
       85
1005
28B
  0
LINE
  5
28C
330
232
100
AcDbEntity
  8
frame
  6
ByBlock
100
AcDbLine
 10
12.99999999999909
 20
45.00000000000182
 30
0.0
 11
197.0
 21
45.00000000000182
 31
0.0
1001
AcDbBlockRepETag
1070
     1
1071
       86
1005
28C
  0
LINE
  5
28D
330
232
100
AcDbEntity
  8
frame
  6
ByBlock
100
AcDbLine
 10
12.99999999999909
 20
44.91500000000269
 30
0.0
 11
197.0
 21
44.91500000000269
 31
0.0
1001
AcDbBlockRepETag
1070
     1
1071
       87
1005
28D
  0
LINE
  5
28E
330
232
100
AcDbEntity
  8
frame
  6
ByBlock
100
AcDbLine
 10
12.99999999999909
 20
45.08500000000274
 30
0.0
 11
197.0
 21
45.08500000000274
 31
0.0
1001
AcDbBlockRepETag
1070
     1
1071
       88
1005
28E
  0
LINE
  5
28F
330
232
100
AcDbEntity
  8
frame
  6
ByBlock
100
AcDbLine
 10
12.99999999999909
 20
38.00000000000182
 30
0.0
 11
197.0
 21
38.00000000000182
 31
0.0
1001
AcDbBlockRepETag
1070
     1
1071
       89
1005
28F
  0
LINE
  5
290
330
232
100
AcDbEntity
  8
frame
  6
ByBlock
100
AcDbLine
 10
12.99999999999909
 20
37.91500000000269
 30
0.0
 11
197.0
 21
37.91500000000269
 31
0.0
1001
AcDbBlockRepETag
1070
     1
1071
       90
1005
290
  0
LINE
  5
291
330
232
100
AcDbEntity
  8
frame
  6
ByBlock
100
AcDbLine
 10
12.99999999999909
 20
38.08500000000277
 30
0.0
 11
197.0
 21
38.08500000000277
 31
0.0
1001
AcDbBlockRepETag
1070
     1
1071
       91
1005
291
  0
LINE
  5
292
330
232
100
AcDbEntity
  8
frame
  6
ByBlock
100
AcDbLine
 10
12.99999999999909
 20
31.00000000000183
 30
0.0
 11
197.0
 21
31.00000000000183
 31
0.0
1001
AcDbBlockRepETag
1070
     1
1071
       92
1005
292
  0
LINE
  5
293
330
232
100
AcDbEntity
  8
frame
  6
ByBlock
100
AcDbLine
 10
12.99999999999909
 20
30.91500000000269
 30
0.0
 11
197.0
 21
30.91500000000269
 31
0.0
1001
AcDbBlockRepETag
1070
     1
1071
       93
1005
293
  0
LINE
  5
294
330
232
100
AcDbEntity
  8
frame
  6
ByBlock
100
AcDbLine
 10
12.99999999999909
 20
31.08500000000276
 30
0.0
 11
197.0
 21
31.08500000000276
 31
0.0
1001
AcDbBlockRepETag
1070
     1
1071
       94
1005
294
  0
LINE
  5
295
330
232
100
AcDbEntity
  8
frame
  6
ByBlock
100
AcDbLine
 10
102.5
 20
24.00000000000182
 30
0.0
 11
197.0
 21
24.00000000000182
 31
0.0
1001
AcDbBlockRepETag
1070
     1
1071
       95
1005
295
  0
LINE
  5
296
330
232
100
AcDbEntity
  8
frame
  6
ByBlock
100
AcDbLine
 10
102.5
 20
23.91500000000269
 30
0.0
 11
197.0
 21
23.91500000000269
 31
0.0
1001
AcDbBlockRepETag
1070
     1
1071
       96
1005
296
  0
LINE
  5
297
330
232
100
AcDbEntity
  8
frame
  6
ByBlock
100
AcDbLine
 10
102.5
 20
24.08500000000277
 30
0.0
 11
197.0
 21
24.08500000000277
 31
0.0
1001
AcDbBlockRepETag
1070
     1
1071
       97
1005
297
  0
LINE
  5
298
330
232
100
AcDbEntity
  8
frame
  6
ByBlock
100
AcDbLine
 10
102.5
 20
17.00000000000182
 30
0.0
 11
197.0
 21
17.00000000000182
 31
0.0
1001
AcDbBlockRepETag
1070
     1
1071
       98
1005
298
  0
LINE
  5
299
330
232
100
AcDbEntity
  8
frame
  6
ByBlock
100
AcDbLine
 10
102.5
 20
16.91500000000269
 30
0.0
 11
197.0
 21
16.91500000000269
 31
0.0
1001
AcDbBlockRepETag
1070
     1
1071
       99
1005
299
  0
LINE
  5
29A
330
232
100
AcDbEntity
  8
frame
  6
ByBlock
100
AcDbLine
 10
102.5
 20
17.08500000000276
 30
0.0
 11
197.0
 21
17.08500000000276
 31
0.0
1001
AcDbBlockRepETag
1070
     1
1071
      100
1005
29A
  0
LINE
  5
29B
330
232
100
AcDbEntity
  8
frame
  6
ByBlock
100
AcDbLine
 10
26.0
 20
38.00000000000182
 30
0.0
 11
26.0
 21
31.00000000000183
 31
0.0
1001
AcDbBlockRepETag
1070
     1
1071
      101
1005
29B
  0
LINE
  5
29C
330
232
100
AcDbEntity
  8
frame
  6
ByBlock
100
AcDbLine
 10
26.08500000000004
 20
38.00000000000182
 30
0.0
 11
26.08500000000004
 21
31.00000000000183
 31
0.0
1001
AcDbBlockRepETag
1070
     1
1071
      102
1005
29C
  0
LINE
  5
29D
330
232
100
AcDbEntity
  8
frame
  6
ByBlock
100
AcDbLine
 10
25.91499999999996
 20
38.00000000000182
 30
0.0
 11
25.91499999999996
 21
31.00000000000183
 31
0.0
1001
AcDbBlockRepETag
1070
     1
1071
      103
1005
29D
  0
LINE
  5
29E
330
232
100
AcDbEntity
  8
frame
  6
ByBlock
100
AcDbLine
 10
29.0
 20
31.00000000000183
 30
0.0
 11
29.0
 21
38.00000000000182
 31
0.0
1001
AcDbBlockRepETag
1070
     1
1071
      104
1005
29E
  0
LINE
  5
29F
330
232
100
AcDbEntity
  8
frame
  6
ByBlock
100
AcDbLine
 10
29.08500000000003
 20
31.00000000000183
 30
0.0
 11
29.08500000000003
 21
38.00000000000182
 31
0.0
1001
AcDbBlockRepETag
1070
     1
1071
      105
1005
29F
  0
LINE
  5
2A0
330
232
100
AcDbEntity
  8
frame
  6
ByBlock
100
AcDbLine
 10
28.91499999999997
 20
31.00000000000183
 30
0.0
 11
28.91499999999997
 21
38.00000000000182
 31
0.0
1001
AcDbBlockRepETag
1070
     1
1071
      106
1005
2A0
  0
LINE
  5
2A1
330
232
100
AcDbEntity
  8
frame
  6
ByBlock
100
AcDbLine
 10
41.0
 20
38.00000000000182
 30
0.0
 11
41.0
 21
31.00000000000183
 31
0.0
1001
AcDbBlockRepETag
1070
     1
1071
      107
1005
2A1
  0
LINE
  5
2A2
330
232
100
AcDbEntity
  8
frame
  6
ByBlock
100
AcDbLine
 10
41.08500000000003
 20
38.00000000000182
 30
0.0
 11
41.08500000000003
 21
31.00000000000183
 31
0.0
1001
AcDbBlockRepETag
1070
     1
1071
      108
1005
2A2
  0
LINE
  5
2A3
330
232
100
AcDbEntity
  8
frame
  6
ByBlock
100
AcDbLine
 10
40.91499999999996
 20
38.00000000000182
 30
0.0
 11
40.91499999999996
 21
31.00000000000183
 31
0.0
1001
AcDbBlockRepETag
1070
     1
1071
      109
1005
2A3
  0
LINE
  5
2A4
330
232
100
AcDbEntity
  8
frame
  6
ByBlock
100
AcDbLine
 10
48.0
 20
38.00000000000182
 30
0.0
 11
48.0
 21
31.00000000000183
 31
0.0
1001
AcDbBlockRepETag
1070
     1
1071
      110
1005
2A4
  0
LINE
  5
2A5
330
232
100
AcDbEntity
  8
frame
  6
ByBlock
100
AcDbLine
 10
48.08500000000003
 20
38.00000000000182
 30
0.0
 11
48.08500000000003
 21
31.00000000000183
 31
0.0
1001
AcDbBlockRepETag
1070
     1
1071
      111
1005
2A5
  0
LINE
  5
2A6
330
232
100
AcDbEntity
  8
frame
  6
ByBlock
100
AcDbLine
 10
47.91499999999996
 20
38.00000000000182
 30
0.0
 11
47.91499999999996
 21
31.00000000000183
 31
0.0
1001
AcDbBlockRepETag
1070
     1
1071
      112
1005
2A6
  0
LINE
  5
2A7
330
232
100
AcDbEntity
  8
frame
  6
ByBlock
100
AcDbLine
 10
51.0
 20
38.00000000000182
 30
0.0
 11
51.0
 21
31.00000000000183
 31
0.0
1001
AcDbBlockRepETag
1070
     1
1071
      113
1005
2A7
  0
LINE
  5
2A8
330
232
100
AcDbEntity
  8
frame
  6
ByBlock
100
AcDbLine
 10
51.08500000000002
 20
38.00000000000182
 30
0.0
 11
51.08500000000002
 21
31.00000000000183
 31
0.0
1001
AcDbBlockRepETag
1070
     1
1071
      114
1005
2A8
  0
LINE
  5
2A9
330
232
100
AcDbEntity
  8
frame
  6
ByBlock
100
AcDbLine
 10
50.91499999999996
 20
38.00000000000182
 30
0.0
 11
50.91499999999996
 21
31.00000000000183
 31
0.0
1001
AcDbBlockRepETag
1070
     1
1071
      115
1005
2A9
  0
LINE
  5
2AA
330
232
100
AcDbEntity
  8
frame
  6
ByBlock
100
AcDbLine
 10
105.5
 20
38.00000000000182
 30
0.0
 11
105.5
 21
10.00000000000182
 31
0.0
1001
AcDbBlockRepETag
1070
     1
1071
      116
1005
2AA
  0
LINE
  5
2AB
330
232
100
AcDbEntity
  8
frame
  6
ByBlock
100
AcDbLine
 10
105.4149999999999
 20
38.00000000000182
 30
0.0
 11
105.4149999999999
 21
10.00000000000182
 31
0.0
1001
AcDbBlockRepETag
1070
     1
1071
      117
1005
2AB
  0
LINE
  5
2AC
330
232
100
AcDbEntity
  8
frame
  6
ByBlock
100
AcDbLine
 10
105.585
 20
38.00000000000182
 30
0.0
 11
105.585
 21
10.00000000000182
 31
0.0
1001
AcDbBlockRepETag
1070
     1
1071
      118
1005
2AC
  0
LINE
  5
2AD
330
232
100
AcDbEntity
  8
frame
  6
ByBlock
100
AcDbLine
 10
102.5
 20
38.00000000000182
 30
0.0
 11
102.5
 21
10.00000000000182
 31
0.0
1001
AcDbBlockRepETag
1070
     1
1071
      119
1005
2AD
  0
LINE
  5
2AE
330
232
100
AcDbEntity
  8
frame
  6
ByBlock
100
AcDbLine
 10
102.585
 20
38.00000000000182
 30
0.0
 11
102.585
 21
10.00000000000182
 31
0.0
1001
AcDbBlockRepETag
1070
     1
1071
      120
1005
2AE
  0
LINE
  5
2AF
330
232
100
AcDbEntity
  8
frame
  6
ByBlock
100
AcDbLine
 10
102.4149999999999
 20
38.00000000000182
 30
0.0
 11
102.4149999999999
 21
10.00000000000182
 31
0.0
1001
AcDbBlockRepETag
1070
     1
1071
      121
1005
2AF
  0
LWPOLYLINE
  5
2B0
330
232
100
AcDbEntity
  8
frame
  6
ByBlock
100
AcDbPolyline
 90
        4
 70
     1
 43
0.0
 10
39.99690127353097
 20
20.30329643996265
 10
44.81342572509128
 20
25.1198208915248
 42
0.9999999999997582
 10
43.17375782668839
 20
26.75948878992676
 10
38.35723337512718
 20
21.94296433836826
 42
1.000000000000484
1001
AcDbBlockRepETag
1070
     1
1071
      122
1005
2B0
  0
LWPOLYLINE
  5
2B1
330
232
100
AcDbEntity
  8
frame
  6
ByBlock
100
AcDbPolyline
 90
        4
 70
     1
 43
0.0
 10
39.93679719713055
 20
20.36340051636398
 10
44.75332164868995
 20
25.17992496792613
 42
1.0
 10
43.23386190308883
 20
26.69938471352543
 10
38.41733745152851
 20
21.88286026196692
 42
1.0
1001
AcDbBlockRepETag
1070
     1
1071
      123
1005
2B1
  0
LWPOLYLINE
  5
2B2
330
232
100
AcDbEntity
  8
frame
  6
ByBlock
100
AcDbPolyline
 90
        4
 70
     1
 43
0.0
 10
40.0570053499323
 20
20.24319236356132
 10
44.87352980149171
 20
25.05971681512347
 42
1.0
 10
43.11365375028707
 20
26.81959286632809
 10
38.29712929872676
 20
22.00306841476959
 42
1.0
1001
AcDbBlockRepETag
1070
     1
1071
      124
1005
2B2
  0
LWPOLYLINE
  5
2B3
330
232
100
AcDbEntity
  8
frame
  6
ByBlock
100
AcDbPolyline
 90
        6
 70
     1
 43
0.0
 10
23.65793040508288
 20
22.87921870190257
 42
0.5040414943243567
 10
23.86582274333614
 20
23.16016907249468
 10
22.88017841010152
 20
26.38406642074915
 42
0.7399610750323026
 10
22.46439373359499
 20
26.38406642074915
 10
21.47874940036127
 20
23.16016907249468
 42
0.5040414943247417
 10
21.68664173861271
 20
22.87921870190257
1001
AcDbBlockRepETag
1070
     1
1071
      125
1005
2B3
  0
LWPOLYLINE
  5
2B4
330
232
100
AcDbEntity
  8
frame
  6
ByBlock
100
AcDbPolyline
 90
        6
 70
     1
 43
0.0
 10
23.65793040508288
 20
22.79421870190163
 42
0.504041494324358
 10
23.94710864759327
 20
23.18502066739529
 10
22.96146431435773
 20
26.40891801565158
 42
0.7399610750322863
 10
22.38310782933786
 20
26.40891801565158
 10
21.39746349610414
 20
23.18502066739529
 42
0.5040414943247422
 10
21.68664173861271
 20
22.79421870190163
1001
AcDbBlockRepETag
1070
     1
1071
      126
1005
2B4
  0
LWPOLYLINE
  5
2B5
330
232
100
AcDbEntity
  8
frame
  6
ByBlock
100
AcDbPolyline
 90
        6
 70
     1
 43
0.0
 10
23.65793040508288
 20
22.9642187019017
 42
0.5040414943243489
 10
23.78453683907901
 20
23.13531747759225
 10
22.79889250584438
 20
26.35921482584854
 42
0.7399610750322957
 10
22.54567963785212
 20
26.35921482584854
 10
21.56003530461749
 20
23.13531747759225
 42
0.5040414943247367
 10
21.68664173861362
 20
22.9642187019017
1001
AcDbBlockRepETag
1070
     1
1071
      127
1005
2B5
  0
LWPOLYLINE
  5
2B6
330
232
100
AcDbEntity
  8
frame
  6
ByBlock
100
AcDbPolyline
 90
       26
 70
     1
 43
0.0
 10
24.23597017697921
 20
21.94947136993869
 10
24.94491088760697
 20
19.63063079022686
 42
-0.5040414943260745
 10
24.66772110327111
 20
19.25603029610465
 10
24.26648897039922
 20
19.25603029610465
 42
0.4142135623730951
 10
24.12156143416723
 20
19.11110275987266
 10
24.12156143416723
 20
18.53139261494471
 10
28.46938752112419
 20
18.53139261494471
 10
28.46938752112419
 20
19.11110275987266
 42
0.4142135623730951
 10
28.3244599848922
 20
19.25603029610465
 10
27.82810683450316
 20
19.25603029610465
 42
-0.3297505471416469
 10
27.48161960408106
 20
19.5124173596123
 10
24.72424215320916
 20
28.53139261494471
 10
22.36314958463299
 20
28.53139261494471
 10
19.60577213376018
 20
19.5124173596123
 42
-0.3297505471416475
 10
19.25928490333898
 20
19.25603029610465
 10
18.90417012981925
 20
19.25603029610465
 42
0.4142135623730951
 10
18.75924259358817
 20
19.11110275987266
 10
18.75924259358817
 20
18.53139261494471
 10
21.07808317329727
 20
18.53139261494471
 10
21.07808317329727
 20
19.11110275987266
 42
0.4142135623730951
 10
20.93315563706619
 20
19.25603029610465
 10
20.57892187825655
 20
19.25603029610465
 42
-0.5040414943243619
 10
20.37102954000329
 20
19.53698066669676
 10
21.12427904504603
 20
22.00074878263877
 42
-0.329750547139216
 10
21.33217138329928
 20
22.15458102074263
 10
23.95878039264244
 20
22.15458102074263
 42
-0.3297505471401503
1001
AcDbBlockRepETag
1070
     1
1071
      128
1005
2B6
  0
LWPOLYLINE
  5
2B7
330
232
100
AcDbEntity
  8
frame
  6
ByBlock
100
AcDbPolyline
 90
       26
 70
     1
 43
0.0
 10
24.15468427272208
 20
21.92461977503626
 10
24.86362498334984
 20
19.60577919532625
 42
-0.5040414943260704
 10
24.66772110327111
 20
19.3410302961056
 10
24.26648897039922
 20
19.3410302961056
 42
0.4142135623730974
 10
24.0365614341672
 20
19.11110275987266
 10
24.0365614341672
 20
18.44639261494558
 10
28.55438752112423
 20
18.44639261494558
 10
28.55438752112423
 20
19.11110275987266
 42
0.4142135623730974
 10
28.3244599848922
 20
19.3410302961056
 10
27.82810683450316
 20
19.34103029610378
 42
-0.3297505471416459
 10
27.56290550833819
 20
19.53726895451291
 10
24.78713884458648
 20
28.61639261494565
 10
22.30025289325567
 20
28.61639261494565
 10
19.52448622950305
 20
19.53726895451291
 42
-0.3297505471416504
 10
19.25928490333898
 20
19.3410302961056
 10
18.90417012981925
 20
19.3410302961056
 42
0.4142135623730974
 10
18.67424259358813
 20
19.11110275987266
 10
18.67424259358813
 20
18.44639261494558
 10
21.16308317329731
 20
18.44639261494558
 10
21.16308317329731
 20
19.11110275987266
 42
0.4142135623730974
 10
20.93315563706619
 20
19.3410302961056
 10
20.57892187825655
 20
19.3410302961056
 42
-0.5040414943243603
 10
20.45231544425951
 20
19.51212907179615
 10
21.20556494930315
 20
21.97589718773816
 42
-0.3297505471392114
 10
21.33217138329928
 20
22.06958102074168
 10
23.95878039264244
 20
22.0695810207435
 42
-0.3297505471401487
1001
AcDbBlockRepETag
1070
     1
1071
      129
1005
2B7
  0
LWPOLYLINE
  5
2B8
330
232
100
AcDbEntity
  8
frame
  6
ByBlock
100
AcDbPolyline
 90
       26
 70
     1
 43
0.0
 10
24.31725608123634
 20
21.9743229648393
 10
25.02619679186409
 20
19.65548238512929
 42
-0.5040414943260731
 10
24.66772110327111
 20
19.17103029610553
 10
24.26648897039922
 20
19.17103029610553
 42
0.4142135623730869
 10
24.20656143416727
 20
19.11110275987266
 10
24.20656143416727
 20
18.61639261494565
 10
28.38438752112415
 20
18.61639261494565
 10
28.38438752112415
 20
19.11110275987266
 42
0.4142135623730869
 10
28.3244599848922
 20
19.17103029610553
 10
27.82810683450316
 20
19.17103029610371
 42
-0.3297505471416466
 10
27.40033369982393
 20
19.48756576471169
 10
24.66134546183184
 20
28.44639261494558
 10
22.42604627601031
 20
28.44639261494558
 10
19.68705803801731
 20
19.48756576471169
 42
-0.3297505471416456
 10
19.25928490333898
 20
19.17103029610553
 10
18.90417012981925
 20
19.17103029610553
 42
0.4142135623730869
 10
18.8442425935882
 20
19.11110275987266
 10
18.8442425935882
 20
18.61639261494565
 10
20.99308317329724
 20
18.61639261494565
 10
20.99308317329724
 20
19.11110275987266
 42
0.4142135623730869
 10
20.93315563706619
 20
19.17103029610553
 10
20.57892187825564
 20
19.17103029610553
 42
-0.5040414943243603
 10
20.28974363574616
 20
19.56183226159737
 10
21.0429931407898
 20
22.02560037753938
 42
-0.3297505471392168
 10
21.33217138329928
 20
22.23958102074175
 10
23.95878039264244
 20
22.23958102074357
 42
-0.3297505471401506
1001
AcDbBlockRepETag
1070
     1
1071
      130
1005
2B8
  0
LWPOLYLINE
  5
2B9
330
232
100
AcDbEntity
  8
frame
  6
ByBlock
100
AcDbPolyline
 90
       26
 70
     1
 43
0.0
 10
35.93296628726421
 20
26.29672794011822
 10
35.8606918689502
 20
28.53139261494471
 10
31.87518462257322
 20
28.53139261494471
 10
27.88967737619624
 20
28.53139261494471
 10
27.81740295788131
 20
26.29672794011822
 42
0.8721984941219423
 10
28.52513359009208
 20
26.17622796726755
 10
28.8149313892036
 20
27.09686812119617
 42
-0.3274643887701543
 10
29.78261458521411
 20
27.80675493378658
 10
29.99112665155826
 20
27.80675493378658
 42
-0.4142135623730951
 10
30.49837302837023
 20
27.29950855697462
 10
30.49837302836841
 20
19.61834913668463
 42
-0.4142135623730951
 10
30.13605418779025
 20
19.25603029610465
 10
29.84619911532718
 20
19.25603029610465
 42
0.4142135623730951
 10
29.70127157909519
 20
19.11110275987266
 10
29.70127157909519
 20
18.53139261494471
 10
31.87518462257322
 20
18.53139261494471
 10
34.04909766605124
 20
18.53139261494471
 10
34.04909766605124
 20
19.11110275987266
 42
0.4142135623730951
 10
33.90417012982016
 20
19.25603029610465
 10
33.61431505735618
 20
19.25603029610465
 42
-0.4142135623730951
 10
33.25199621677621
 20
19.61834913668463
 10
33.25199621677621
 20
27.29950855697462
 42
-0.4142135623730951
 10
33.75924259358817
 20
27.80675493378658
 10
33.96775465993233
 20
27.80675493378658
 42
-0.3274643887701542
 10
34.93543785594285
 20
27.09686812119617
 10
35.22523565505435
 20
26.17622796726755
 42
0.872198494121949
1001
AcDbBlockRepETag
1070
     1
1071
      131
1005
2B9
  0
LWPOLYLINE
  5
2BA
330
232
100
AcDbEntity
  8
frame
  6
ByBlock
100
AcDbPolyline
 90
       26
 70
     1
 43
0.0
 10
36.01792186580043
 20
26.29947560740402
 10
35.94298720965799
 20
28.61639261494565
 10
31.87518462257322
 20
28.61639261494565
 10
27.80738203548754
 20
28.61639261494565
 10
27.73244737934419
 20
26.29947560740402
 42
0.8721984941219334
 10
28.60621161787186
 20
26.15070634092262
 10
28.89600941698336
 20
27.07134649485124
 42
-0.3274643887701552
 10
29.78261458521411
 20
27.72175493378564
 10
29.99112665155826
 20
27.72175493378564
 42
-0.414213562373094
 10
30.41337302837019
 20
27.29950855697462
 10
30.41337302836928
 20
19.61834913668463
 42
-0.4142135623730935
 10
30.13605418779025
 20
19.3410302961056
 10
29.84619911532718
 20
19.3410302961056
 42
0.4142135623730974
 10
29.61627157909516
 20
19.11110275987266
 10
29.61627157909516
 20
18.44639261494558
 10
31.87518462257322
 20
18.44639261494558
 10
34.13409766605127
 20
18.44639261494558
 10
34.13409766605127
 20
19.11110275987266
 42
0.4142135623730974
 10
33.90417012982016
 20
19.3410302961056
 10
33.61431505735618
 20
19.34103029610378
 42
-0.4142135623730935
 10
33.33699621677624
 20
19.61834913668463
 10
33.33699621677624
 20
27.29950855697462
 42
-0.414213562373094
 10
33.75924259358817
 20
27.72175493378564
 10
33.96775465993233
 20
27.72175493378564
 42
-0.3274643887701549
 10
34.85435982816307
 20
27.07134649485124
 10
35.14415762727367
 20
26.15070634092262
 42
0.8721984941219462
1001
AcDbBlockRepETag
1070
     1
1071
      132
1005
2BA
  0
LWPOLYLINE
  5
2BB
330
232
100
AcDbEntity
  8
frame
  6
ByBlock
100
AcDbPolyline
 90
       26
 70
     1
 43
0.0
 10
35.848010708728
 20
26.29398027283242
 10
35.7783965282424
 20
28.44639261494558
 10
31.87518462257322
 20
28.44639261494558
 10
27.97197271690402
 20
28.44639261494558
 10
27.90235853641752
 20
26.29398027283424
 42
0.8721984941219337
 10
28.44405556231232
 20
26.20174959361248
 10
28.73385336142383
 20
27.1223897475411
 42
-0.327464388770155
 10
29.78261458521411
 20
27.89175493378571
 10
29.99112665155826
 20
27.89175493378571
 42
-0.4142135623730959
 10
30.58337302837026
 20
27.29950855697462
 10
30.58337302836844
 20
19.61834913668463
 42
-0.4142135623730962
 10
30.13605418779025
 20
19.17103029610553
 10
29.84619911532718
 20
19.17103029610553
 42
0.4142135623730869
 10
29.78627157909523
 20
19.11110275987266
 10
29.78627157909523
 20
18.61639261494565
 10
31.87518462257322
 20
18.61639261494565
 10
33.9640976660512
 20
18.61639261494565
 10
33.9640976660512
 20
19.11110275987266
 42
0.4142135623730869
 10
33.90417012982016
 20
19.17103029610553
 10
33.61431505735618
 20
19.17103029610371
 42
-0.414213562373096
 10
33.16699621677617
 20
19.61834913668463
 10
33.16699621677617
 20
27.29950855697462
 42
-0.4142135623730959
 10
33.75924259358817
 20
27.89175493378571
 10
33.96775465993233
 20
27.89175493378571
 42
-0.3274643887701536
 10
35.01651588372352
 20
27.1223897475411
 10
35.30631368283412
 20
26.20174959361248
 42
0.8721984941219799
1001
AcDbBlockRepETag
1070
     1
1071
      133
1005
2BB
  0
LWPOLYLINE
  5
2BC
330
232
100
AcDbEntity
  8
frame
  6
ByBlock
100
AcDbPolyline
 90
       40
 70
     1
 43
0.0
 10
58.61431505735618
 20
19.25603029610465
 42
-0.4142135623730951
 10
58.75924259358817
 20
19.11110275987266
 10
58.75924259358817
 20
18.53139261494471
 10
54.70127157909519
 20
18.53139261494471
 10
54.70127157909519
 20
19.11110275987266
 42
-0.4142135623730951
 10
54.84619911532718
 20
19.25603029610465
 10
55.13605418779116
 20
19.25603029610465
 42
0.4142135623730951
 10
55.49837302837023
 20
19.61834913668463
 10
55.49837302837023
 20
27.59605675325474
 42
0.8769764629942649
 10
55.07099784874207
 20
27.65232176305835
 10
52.62705224928414
 20
18.53139261494471
 10
51.93153233427985
 20
18.53139261494471
 10
49.47647284567938
 20
27.69379936200676
 42
0.8769764629925763
 10
49.04909766605214
 20
27.63753435220133
 10
49.04909766605214
 20
19.47342160045264
 42
0.4142135623730951
 10
49.26648897039921
 20
19.25603029610465
 10
49.4838802747472
 20
19.25603029610465
 42
-0.4142135623730951
 10
49.62880781097918
 20
19.11110275987266
 10
49.62880781097918
 20
18.53139261494471
 10
47.59982230373225
 20
18.53139261494471
 10
47.59982230373225
 20
19.11110275987266
 42
-0.4142135623730951
 10
47.74474983996425
 20
19.25603029610465
 10
48.10706868054421
 20
19.25603029610465
 42
0.4142135623730951
 10
48.3244599848922
 20
19.47342160045264
 10
48.3244599848922
 20
27.5893636294386
 42
0.4142135623730951
 10
48.10706868054421
 20
27.80675493378658
 10
47.74474983996425
 20
27.80675493378658
 42
-0.4142135623730951
 10
47.59982230373225
 20
27.95168247001857
 10
47.59982230373225
 20
28.53139261494471
 10
51.80272085445722
 20
28.53139261494471
 10
52.96954857338005
 20
24.1767322842461
 42
0.7673269879785563
 10
53.38951632394036
 20
24.1767322842461
 10
54.55634404286321
 20
28.53139261494471
 10
58.75924259358817
 20
28.53139261494471
 10
58.75924259358817
 20
27.95168247001857
 42
-0.4142135623730951
 10
58.61431505735618
 20
27.80675493378658
 10
58.3244599848922
 20
27.80675493378658
 42
0.4142135623730951
 10
57.96214114431222
 20
27.44443609320661
 10
57.96214114431222
 20
19.61834913668463
 42
0.4142135623730951
 10
58.3244599848922
 20
19.25603029610465
1001
AcDbBlockRepETag
1070
     1
1071
      134
1005
2BC
  0
LWPOLYLINE
  5
2BD
330
232
100
AcDbEntity
  8
frame
  6
ByBlock
100
AcDbPolyline
 90
       40
 70
     1
 43
0.0
 10
58.61431505735618
 20
19.3410302961056
 42
-0.4142135623730974
 10
58.84424259358819
 20
19.11110275987266
 10
58.84424259358819
 20
18.44639261494558
 10
54.61627157909514
 20
18.44639261494558
 10
54.61627157909514
 20
19.11110275987266
 42
-0.4142135623730974
 10
54.84619911532718
 20
19.3410302961056
 10
55.13605418779116
 20
19.3410302961056
 42
0.4142135623730935
 10
55.41337302837018
 20
19.61834913668463
 10
55.41337302837018
 20
27.59605675325474
 42
0.8769764629942653
 10
55.15310154397685
 20
27.63032214422492
 10
52.69227504326227
 20
18.44639261494558
 10
51.86630954030171
 20
18.44639261494558
 10
49.39436915044461
 20
27.67179974317333
 42
0.8769764629924258
 10
49.13409766605218
 20
27.63753435220133
 10
49.13409766605218
 20
19.47342160045264
 42
0.4142135623730835
 10
49.26648897039921
 20
19.3410302961056
 10
49.4838802747472
 20
19.3410302961056
 42
-0.4142135623730974
 10
49.71380781097924
 20
19.11110275987266
 10
49.71380781097924
 20
18.44639261494558
 10
47.51482230373222
 20
18.44639261494558
 10
47.51482230373222
 20
19.11110275987266
 42
-0.4142135623730974
 10
47.74474983996425
 20
19.3410302961056
 10
48.10706868054421
 20
19.3410302961056
 42
0.4142135623730913
 10
48.23945998489215
 20
19.47342160045264
 10
48.23945998489215
 20
27.5893636294386
 42
0.4142135623730913
 10
48.10706868054421
 20
27.72175493378564
 10
47.74474983996425
 20
27.72175493378564
 42
-0.4142135623730974
 10
47.51482230373222
 20
27.95168247001857
 10
47.51482230373222
 20
28.61639261494565
 10
51.86794364843535
 20
28.61639261494565
 10
53.05165226861482
 20
24.19873190307953
 42
0.767326987978615
 10
53.3074126287056
 20
24.19873190307953
 10
54.49112124888507
 20
28.61639261494565
 10
58.84424259358819
 20
28.61639261494565
 10
58.84424259358819
 20
27.95168247001857
 42
-0.4142135623730974
 10
58.61431505735618
 20
27.72175493378564
 10
58.3244599848922
 20
27.72175493378564
 42
0.4142135623730896
 10
58.04714114431225
 20
27.44443609320661
 10
58.04714114431225
 20
19.61834913668463
 42
0.4142135623730895
 10
58.3244599848922
 20
19.3410302961056
1001
AcDbBlockRepETag
1070
     1
1071
      135
1005
2BD
  0
LWPOLYLINE
  5
2BE
330
232
100
AcDbEntity
  8
frame
  6
ByBlock
100
AcDbPolyline
 90
       40
 70
     1
 43
0.0
 10
58.61431505735618
 20
19.17103029610553
 42
-0.4142135623730869
 10
58.67424259358813
 20
19.11110275987266
 10
58.67424259358813
 20
18.61639261494565
 10
54.78627157909523
 20
18.61639261494565
 10
54.78627157909523
 20
19.11110275987266
 42
-0.4142135623730869
 10
54.84619911532718
 20
19.17103029610553
 10
55.13605418779116
 20
19.17103029610553
 42
0.4142135623730962
 10
55.58337302837024
 20
19.61834913668463
 10
55.58337302837024
 20
27.59605675325474
 42
0.8769764629943033
 10
54.98889415350731
 20
27.67432138189179
 10
52.561829455306
 20
18.61639261494565
 10
51.99675512825797
 20
18.61639261494565
 10
49.55857654091414
 20
27.71579898084019
 42
0.8769764629925827
 10
48.96409766605211
 20
27.63753435220133
 10
48.96409766605211
 20
19.47342160045264
 42
0.4142135623731002
 10
49.26648897039921
 20
19.17103029610553
 10
49.4838802747472
 20
19.17103029610553
 42
-0.4142135623730869
 10
49.54380781097914
 20
19.11110275987266
 10
49.54380781097914
 20
18.61639261494565
 10
47.68482230373229
 20
18.61639261494565
 10
47.68482230373229
 20
19.11110275987266
 42
-0.4142135623730869
 10
47.74474983996425
 20
19.17103029610553
 10
48.10706868054421
 20
19.17103029610553
 42
0.4142135623730966
 10
48.40945998489225
 20
19.47342160045264
 10
48.40945998489225
 20
27.5893636294386
 42
0.4142135623730966
 10
48.10706868054421
 20
27.89175493378571
 10
47.74474983996425
 20
27.89175493378571
 42
-0.4142135623730869
 10
47.68482230373229
 20
27.95168247001857
 10
47.68482230373229
 20
28.44639261494558
 10
51.73749806047908
 20
28.44639261494558
 10
52.88744487814528
 20
24.15473266541268
 42
0.7673269879785485
 10
53.47162001917514
 20
24.15473266541268
 10
54.62156683684135
 20
28.44639261494558
 10
58.67424259358813
 20
28.44639261494558
 10
58.67424259358813
 20
27.95168247001857
 42
-0.4142135623730869
 10
58.61431505735618
 20
27.89175493378571
 10
58.3244599848922
 20
27.89175493378571
 42
0.4142135623730962
 10
57.87714114431219
 20
27.44443609320661
 10
57.87714114431219
 20
19.61834913668463
 42
0.4142135623730985
 10
58.3244599848922
 20
19.17103029610553
1001
AcDbBlockRepETag
1070
     1
1071
      136
1005
2BE
  0
LINE
  5
2BF
330
232
100
AcDbEntity
  8
frame
  6
ByBlock
100
AcDbLine
 10
105.0
 20
0.0
 30
0.0
 11
104.9999999999991
 21
10.0
 31
0.0
1001
AcDbBlockRepETag
1070
     1
1071
      137
1005
2BF
  0
LINE
  5
2C0
330
232
100
AcDbEntity
  8
frame
  6
ByBlock
100
AcDbLine
 10
105.1599999999998
 20
0.0
 30
0.0
 11
105.1599999999989
 21
10.0
 31
0.0
1001
AcDbBlockRepETag
1070
     1
1071
      138
1005
2C0
  0
LINE
  5
2C1
330
232
100
AcDbEntity
  8
frame
  6
ByBlock
100
AcDbLine
 10
104.8400000000001
 20
0.0
 30
0.0
 11
104.8399999999992
 21
10.0
 31
0.0
1001
AcDbBlockRepETag
1070
     1
1071
      139
1005
2C1
  0
LINE
  5
2C2
330
232
100
AcDbEntity
  8
frame
  6
ByBlock
100
AcDbLine
 10
210.0
 20
148.5
 30
0.0
 11
196.9999999999991
 21
148.5
 31
0.0
1001
AcDbBlockRepETag
1070
     1
1071
      140
1005
2C2
  0
LINE
  5
2C3
330
232
100
AcDbEntity
  8
frame
  6
ByBlock
100
AcDbLine
 10
210.0
 20
148.3400000000001
 30
0.0
 11
196.9999999999991
 21
148.3400000000001
 31
0.0
1001
AcDbBlockRepETag
1070
     1
1071
      141
1005
2C3
  0
LINE
  5
2C4
330
232
100
AcDbEntity
  8
frame
  6
ByBlock
100
AcDbLine
 10
210.0
 20
148.6599999999998
 30
0.0
 11
196.9999999999991
 21
148.6599999999998
 31
0.0
1001
AcDbBlockRepETag
1070
     1
1071
      142
1005
2C4
  0
LINE
  5
2C5
330
232
100
AcDbEntity
  8
frame
  6
ByBlock
100
AcDbLine
 10
105.0
 20
297.0
 30
0.0
 11
105.0
 21
287.0
 31
0.0
1001
AcDbBlockRepETag
1070
     1
1071
      143
1005
2C5
  0
LINE
  5
2C6
330
232
100
AcDbEntity
  8
frame
  6
ByBlock
100
AcDbLine
 10
105.1599999999998
 20
297.0
 30
0.0
 11
105.1599999999998
 21
287.0
 31
0.0
1001
AcDbBlockRepETag
1070
     1
1071
      144
1005
2C6
  0
LINE
  5
2C7
330
232
100
AcDbEntity
  8
frame
  6
ByBlock
100
AcDbLine
 10
104.8400000000001
 20
297.0
 30
0.0
 11
104.8400000000001
 21
287.0
 31
0.0
1001
AcDbBlockRepETag
1070
     1
1071
      145
1005
2C7
  0
LINE
  5
2C8
330
232
100
AcDbEntity
  8
frame
  6
ByBlock
100
AcDbLine
 10
0.0
 20
148.5
 30
0.0
 11
12.99999999999909
 21
148.5
 31
0.0
1001
AcDbBlockRepETag
1070
     1
1071
      146
1005
2C8
  0
LINE
  5
2C9
330
232
100
AcDbEntity
  8
frame
  6
ByBlock
100
AcDbLine
 10
0.0
 20
148.3400000000001
 30
0.0
 11
12.99999999999909
 21
148.3400000000001
 31
0.0
1001
AcDbBlockRepETag
1070
     1
1071
      147
1005
2C9
  0
LINE
  5
2CA
330
232
100
AcDbEntity
  8
frame
  6
ByBlock
100
AcDbLine
 10
0.0
 20
148.6599999999998
 30
0.0
 11
12.99999999999909
 21
148.6599999999998
 31
0.0
1001
AcDbBlockRepETag
1070
     1
1071
      148
1005
2CA
  0
ATTDEF
  5
2CB
330
232
100
AcDbEntity
  8
frame
  6
ByBlock
100
AcDbText
 10
16.5
 20
275.0000000000018
 30
0.0
 40
3.0
  1

 41
0.9
  7
ATOM
 72
     1
 11
16.5
 21
276.5000000000018
 31
0.0
100
AcDbAttributeDefinition
  3
改番?
  2
改番
 70
     0
 74
     2
1001
AcDbBlockRepETag
1070
     1
1071
      202
1005
0
1001
AcDbAttr
1070
     0
1070
     1
  0
ATTDEF
  5
2CC
330
232
100
AcDbEntity
  8
frame
  6
ByBlock
100
AcDbText
 10
68.5
 20
275.0000000000018
 30
0.0
 40
3.0
  1

 41
0.9
  7
ATOM
 72
     1
 11
68.5
 21
276.5000000000018
 31
0.0
100
AcDbAttributeDefinition
  3
改正理由?
  2
改　　　　正　　　　理　　　　由
 70
     0
 74
     2
1001
AcDbBlockRepETag
1070
     1
1071
      203
1005
0
1001
AcDbAttr
1070
     0
1070
     1
  0
ATTDEF
  5
2CD
330
232
100
AcDbEntity
  8
frame
  6
ByBlock
100
AcDbText
 10
124.5
 20
275.0000000000018
 30
0.0
 40
3.0
  1

 41
0.9
  7
ATOM
 72
     1
 11
124.5
 21
276.5000000000018
 31
0.0
100
AcDbAttributeDefinition
  3
改正承認?
  2
改正承認
 70
     0
 74
     2
1001
AcDbBlockRepETag
1070
     1
1071
      201
1005
0
1001
AcDbAttr
1070
     0
1070
     1
  0
ATTDEF
  5
2CE
330
232
100
AcDbEntity
  8
frame
  6
ByBlock
100
AcDbText
 10
144.5
 20
275.0000000000018
 30
0.0
 40
3.0
  1

 41
0.9
  7
ATOM
 72
     1
 11
144.5
 21
276.5000000000018
 31
0.0
100
AcDbAttributeDefinition
  3
改正承認日?
  2
改正承認日
 70
     0
 74
     2
1001
AcDbBlockRepETag
1070
     1
1071
      200
1005
0
1001
AcDbAttr
1070
     0
1070
     1
  0
ATTDEF
  5
2CF
330
232
100
AcDbEntity
  8
frame
  6
ByBlock
100
AcDbText
 10
164.5
 20
275.0000000000018
 30
0.0
 40
3.0
  1

 41
0.9
  7
ATOM
 72
     1
 11
164.5
 21
276.5000000000018
 31
0.0
100
AcDbAttributeDefinition
  3
改正担当?
  2
改正担当
 70
     0
 74
     2
1001
AcDbBlockRepETag
1070
     1
1071
      199
1005
0
1001
AcDbAttr
1070
     0
1070
     1
  0
ATTDEF
  5
2D0
330
232
100
AcDbEntity
  8
frame
  6
ByBlock
100
AcDbText
 10
184.5
 20
275.0000000000018
 30
0.0
 40
3.0
  1

 41
0.9
  7
ATOM
 72
     1
 11
184.5
 21
276.5000000000018
 31
0.0
100
AcDbAttributeDefinition
  3
改正日?
  2
改正日
 70
     0
 74
     2
1001
AcDbBlockRepETag
1070
     1
1071
      198
1005
0
1001
AcDbAttr
1070
     0
1070
     1
  0
CIRCLE
  5
2D1
330
232
100
AcDbEntity
  8
frame
100
AcDbCircle
 10
16.69857561378921
 20
34.3352633367922
 30
0.0
 40
1.123977615884085
1001
AcDbBlockRepETag
1070
     1
1071
      161
1005
2D1
  0
CIRCLE
  5
2D2
330
232
100
AcDbEntity
  8
frame
100
AcDbCircle
 10
16.69857561378921
 20
34.3352633367922
 30
0.0
 40
1.208977615884085
1001
AcDbBlockRepETag
1070
     1
1071
      162
1005
2D2
  0
CIRCLE
  5
2D3
330
232
100
AcDbEntity
  8
frame
100
AcDbCircle
 10
16.69857561378921
 20
34.3352633367922
 30
0.0
 40
1.038977615884085
1001
AcDbBlockRepETag
1070
     1
1071
      163
1005
2D3
  0
CIRCLE
  5
2D4
330
232
100
AcDbEntity
  8
frame
100
AcDbCircle
 10
16.69857561378921
 20
34.3352633367922
 30
0.0
 40
2.310728085513118
1001
AcDbBlockRepETag
1070
     1
1071
      164
1005
2D4
  0
CIRCLE
  5
2D5
330
232
100
AcDbEntity
  8
frame
100
AcDbCircle
 10
16.69857561378921
 20
34.3352633367922
 30
0.0
 40
2.395728085513117
1001
AcDbBlockRepETag
1070
     1
1071
      165
1005
2D5
  0
CIRCLE
  5
2D6
330
232
100
AcDbEntity
  8
frame
100
AcDbCircle
 10
16.69857561378921
 20
34.3352633367922
 30
0.0
 40
2.225728085513118
1001
AcDbBlockRepETag
1070
     1
1071
      166
1005
2D6
  0
CIRCLE
  5
2D7
330
232
100
AcDbEntity
  8
frame
100
AcDbCircle
 10
41.60561818906808
 20
23.63139261494507
 30
0.0
 40
5.269566433505018
1001
AcDbBlockRepETag
1070
     1
1071
      167
1005
2D7
  0
CIRCLE
  5
2D8
330
232
100
AcDbEntity
  8
frame
100
AcDbCircle
 10
41.60561818906808
 20
23.63139261494507
 30
0.0
 40
5.354566433505018
1001
AcDbBlockRepETag
1070
     1
1071
      168
1005
2D8
  0
CIRCLE
  5
2D9
330
232
100
AcDbEntity
  8
frame
100
AcDbCircle
 10
41.60561818906808
 20
23.63139261494507
 30
0.0
 40
5.184566433505018
1001
AcDbBlockRepETag
1070
     1
1071
      169
1005
2D9
  0
LINE
  5
2DA
330
232
100
AcDbEntity
  8
frame
100
AcDbLine
 10
19.99421302496466
 20
34.3352633367922
 30
0.0
 11
21.99421302496467
 21
34.3352633367922
 31
0.0
1001
AcDbBlockRepETag
1070
     1
1071
      170
1005
2DA
  0
LINE
  5
2DB
330
232
100
AcDbEntity
  8
frame
100
AcDbLine
 10
22.49421302496466
 20
34.3352633367922
 30
0.0
 11
22.99421302496467
 21
34.3352633367922
 31
0.0
1001
AcDbBlockRepETag
1070
     1
1071
      171
1005
2DB
  0
LINE
  5
2DC
330
232
100
AcDbEntity
  8
frame
100
AcDbLine
 10
23.49421302496466
 20
34.3352633367922
 30
0.0
 11
25.19999999999982
 21
34.3352633367922
 31
0.0
1001
AcDbBlockRepETag
1070
     1
1071
      172
1005
2DC
  0
LINE
  5
2DD
330
232
100
AcDbEntity
  8
frame
100
AcDbLine
 10
13.80000000000018
 20
34.3352633367922
 30
0.0
 11
14.9985756137894
 21
34.3352633367922
 31
0.0
1001
AcDbBlockRepETag
1070
     1
1071
      173
1005
2DD
  0
LINE
  5
2DE
330
232
100
AcDbEntity
  8
frame
100
AcDbLine
 10
15.4985756137894
 20
34.3352633367922
 30
0.0
 11
15.9985756137894
 21
34.3352633367922
 31
0.0
1001
AcDbBlockRepETag
1070
     1
1071
      174
1005
2DE
  0
LINE
  5
2DF
330
232
100
AcDbEntity
  8
frame
100
AcDbLine
 10
16.4985756137894
 20
34.3352633367922
 30
0.0
 11
19.59715122757825
 21
34.3352633367922
 31
0.0
1001
AcDbBlockRepETag
1070
     1
1071
      175
1005
2DF
  0
LINE
  5
2E0
330
232
100
AcDbEntity
  8
frame
100
AcDbLine
 10
16.69857561378921
 20
37.23383895058032
 30
0.0
 11
16.69857561378921
 21
36.03526333679111
 31
0.0
1001
AcDbBlockRepETag
1070
     1
1071
      176
1005
2E0
  0
LINE
  5
2E1
330
232
100
AcDbEntity
  8
frame
100
AcDbLine
 10
16.69857561378921
 20
35.53526333679111
 30
0.0
 11
16.69857561378921
 21
35.0352633367911
 31
0.0
1001
AcDbBlockRepETag
1070
     1
1071
      177
1005
2E1
  0
LINE
  5
2E2
330
232
100
AcDbEntity
  8
frame
100
AcDbLine
 10
16.69857561378921
 20
34.53526333679111
 30
0.0
 11
16.69857561378921
 21
31.43668772300225
 31
0.0
1001
AcDbBlockRepETag
1070
     1
1071
      178
1005
2E2
  0
ATTDEF
  5
2E3
330
232
100
AcDbEntity
  8
frame
  6
ByBlock
100
AcDbText
 10
76.75
 20
32.75000000000182
 30
0.0
 40
3.5
  1

 41
0.9
  7
ATOM
 72
     1
 11
76.75
 21
34.50000000000182
 31
0.0
100
AcDbAttributeDefinition
  3
名称?
  2
名称
 70
     0
 74
     2
1001
AcDbBlockRepETag
1070
     1
1071
      159
1005
0
1001
AcDbAttr
1070
     0
1070
     1
  0
ATTDEF
  5
2E4
330
232
100
AcDbEntity
  8
frame
  6
ByBlock
100
AcDbText
 10
35.0
 20
32.78589838486369
 30
0.0
 40
3.5
  1

 41
0.9
  7
ATOM
 72
     1
 11
35.0
 21
34.53589838486369
 31
0.0
100
AcDbAttributeDefinition
  3
尺度?
  2
尺度
 70
     0
 74
     2
1001
AcDbBlockRepETag
1070
     1
1071
      160
1005
0
1001
AcDbAttr
1070
     0
1070
     1
  0
ATTDEF
  5
2E5
330
232
100
AcDbEntity
  8
frame
  6
ByBlock
100
AcDbText
 10
112.25
 20
32.75000000000182
 30
0.0
 40
3.5
  1

 41
0.9
  7
ATOM
 72
     1
 11
112.25
 21
34.50000000000182
 31
0.0
100
AcDbAttributeDefinition
  3
承認?
  2
承認
 70
     0
 74
     2
1001
AcDbBlockRepETag
1070
     1
1071
      180
1005
0
1001
AcDbAttr
1070
     0
1070
     1
  0
ATTDEF
  5
2E6
330
232
100
AcDbEntity
  8
frame
  6
ByBlock
100
AcDbText
 10
112.25
 20
25.75000000000182
 30
0.0
 40
3.5
  1

 41
0.9
  7
ATOM
 72
     1
 11
112.25
 21
27.50000000000182
 31
0.0
100
AcDbAttributeDefinition
  3
検図?
  2
検図
 70
     0
 74
     2
1001
AcDbBlockRepETag
1070
     1
1071
      179
1005
0
1001
AcDbAttr
1070
     0
1070
     1
  0
ATTDEF
  5
2E7
330
232
100
AcDbEntity
  8
frame
  6
ByBlock
100
AcDbText
 10
112.25
 20
18.75000000000182
 30
0.0
 40
3.5
  1

 41
0.9
  7
ATOM
 72
     1
 11
112.25
 21
20.50000000000182
 31
0.0
100
AcDbAttributeDefinition
  3
設計?
  2
設計
 70
     0
 74
     2
1001
AcDbBlockRepETag
1070
     1
1071
      158
1005
0
1001
AcDbAttr
1070
     0
1070
     1
  0
ATTDEF
  5
2E8
330
232
100
AcDbEntity
  8
frame
  6
ByBlock
100
AcDbText
 10
112.25
 20
11.75000000000182
 30
0.0
 40
3.5
  1

 41
0.9
  7
ATOM
 72
     1
 11
112.25
 21
13.50000000000182
 31
0.0
100
AcDbAttributeDefinition
  3
作図?
  2
作図
 70
     0
 74
     2
1001
AcDbBlockRepETag
1070
     1
1071
      157
1005
0
1001
AcDbAttr
1070
     0
1070
     1
  0
ATTDEF
  5
2E9
330
232
100
AcDbEntity
  8
frame
  6
ByBlock
100
AcDbText
 10
130.0
 20
32.75000000000182
 30
0.0
 40
3.5
  1

 41
0.8
  7
ATOM
 72
     1
 11
130.0
 21
34.50000000000182
 31
0.0
100
AcDbAttributeDefinition
  3
承認日?
  2
承認日
 70
     0
 74
     2
1001
AcDbBlockRepETag
1070
     1
1071
      153
1005
0
1001
AcDbAttr
1070
     0
1070
     1
  0
ATTDEF
  5
2EA
330
232
100
AcDbEntity
  8
frame
  6
ByBlock
100
AcDbText
 10
130.0
 20
25.75000000000182
 30
0.0
 40
3.5
  1

 41
0.8
  7
ATOM
 72
     1
 11
130.0
 21
27.50000000000182
 31
0.0
100
AcDbAttributeDefinition
  3
検図日?
  2
検図日
 70
     0
 74
     2
1001
AcDbBlockRepETag
1070
     1
1071
      154
1005
0
1001
AcDbAttr
1070
     0
1070
     1
  0
LINE
  5
2EB
330
232
100
AcDbEntity
  8
frame
  6
ByBlock
100
AcDbLine
 10
12.99999999999909
 20
273.0000000000018
 30
0.0
 11
197.0
 21
273.0000000000018
 31
0.0
1001
AcDbBlockRepETag
1070
     1
1071
      192
1005
2EB
  0
LINE
  5
2EC
330
232
100
AcDbEntity
  8
frame
  6
ByBlock
100
AcDbLine
 10
157.0
 20
280.0000000000018
 30
0.0
 11
157.0
 21
273.0000000000018
 31
0.0
1001
AcDbBlockRepETag
1070
     1
1071
      193
1005
2EC
  0
LINE
  5
2ED
330
232
100
AcDbEntity
  8
frame
  6
ByBlock
100
AcDbLine
 10
132.0
 20
280.0000000000018
 30
0.0
 11
132.0
 21
273.0000000000018
 31
0.0
1001
AcDbBlockRepETag
1070
     1
1071
      194
1005
2ED
  0
LINE
  5
2EE
330
232
100
AcDbEntity
  8
frame
  6
ByBlock
100
AcDbLine
 10
117.0
 20
280.0000000000018
 30
0.0
 11
117.0
 21
273.0000000000018
 31
0.0
1001
AcDbBlockRepETag
1070
     1
1071
      195
1005
2EE
  0
LINE
  5
2EF
330
232
100
AcDbEntity
  8
frame
  6
ByBlock
100
AcDbLine
 10
20.0
 20
280.0000000000018
 30
0.0
 11
20.0
 21
273.0000000000018
 31
0.0
1001
AcDbBlockRepETag
1070
     1
1071
      196
1005
2EF
  0
LINE
  5
2F0
330
232
100
AcDbEntity
  8
frame
  6
ByBlock
100
AcDbLine
 10
172.0
 20
280.0000000000018
 30
0.0
 11
172.0
 21
273.0000000000018
 31
0.0
1001
AcDbBlockRepETag
1070
     1
1071
      197
1005
2F0
  0
ATTDEF
  5
2F1
330
232
100
AcDbEntity
  8
frame
  6
ByBlock
100
AcDbText
 10
130.0
 20
18.75000000000182
 30
0.0
 40
3.5
  1

 41
0.8
  7
ATOM
 72
     1
 11
130.0
 21
20.50000000000182
 31
0.0
100
AcDbAttributeDefinition
  3
設計日?
  2
設計日
 70
     0
 74
     2
1001
AcDbBlockRepETag
1070
     1
1071
      155
1005
0
1001
AcDbAttr
1070
     0
1070
     1
  0
ATTDEF
  5
2F2
330
232
100
AcDbEntity
  8
frame
  6
ByBlock
100
AcDbText
 10
130.0
 20
11.75000000000182
 30
0.0
 40
3.5
  1

 41
0.8
  7
ATOM
 72
     1
 11
130.0
 21
13.50000000000182
 31
0.0
100
AcDbAttributeDefinition
  3
作図日?
  2
作図日
 70
     0
 74
     2
1001
AcDbBlockRepETag
1070
     1
1071
      156
1005
0
1001
AcDbAttr
1070
     0
1070
     1
  0
ATTDEF
  5
2F3
330
232
100
AcDbEntity
  8
frame
  6
ByBlock
100
AcDbText
 10
170.5
 20
32.75000000000182
 30
0.0
 40
3.5
  1

 41
0.9
  7
ATOM
 72
     1
 11
170.5
 21
34.50000000000182
 31
0.0
100
AcDbAttributeDefinition
  3
品名?
  2
品名
 70
     0
 74
     2
1001
AcDbBlockRepETag
1070
     1
1071
      149
1005
0
1001
AcDbAttr
1070
     0
1070
     1
  0
ATTDEF
  5
2F4
330
232
100
AcDbEntity
  8
frame
  6
ByBlock
100
AcDbText
 10
170.5
 20
25.75000000000182
 30
0.0
 40
3.5
  1

 41
0.9
  7
ATOM
 72
     1
 11
170.5
 21
27.50000000000182
 31
0.0
100
AcDbAttributeDefinition
  3
品番?
  2
品番
 70
     0
 74
     2
1001
AcDbBlockRepETag
1070
     1
1071
      150
1005
0
1001
AcDbAttr
1070
     0
1070
     1
  0
ATTDEF
  5
2F5
330
232
100
AcDbEntity
  8
frame
  6
ByBlock
100
AcDbText
 10
170.5
 20
18.75000000000182
 30
0.0
 40
3.5
  1

 41
0.9
  7
ATOM
 72
     1
 11
170.5
 21
20.50000000000182
 31
0.0
100
AcDbAttributeDefinition
  3
図名?
  2
図名
 70
     0
 74
     2
1001
AcDbBlockRepETag
1070
     1
1071
      151
1005
0
1001
AcDbAttr
1070
     0
1070
     1
  0
ATTDEF
  5
2F6
330
232
100
AcDbEntity
  8
frame
  6
ByBlock
100
AcDbText
 10
165.25
 20
11.75000000000182
 30
0.0
 40
3.5
  1

 41
0.9
  7
ATOM
 72
     1
 11
165.25
 21
13.50000000000182
 31
0.0
100
AcDbAttributeDefinition
  3
図番?
  2
図番
 70
     0
 74
     2
1001
AcDbBlockRepETag
1070
     1
1071
      152
1005
0
1001
AcDbAttr
1070
     0
1070
     1
  0
LINE
  5
2F7
330
232
100
AcDbEntity
  8
frame
  6
ByBlock
100
AcDbLine
 10
155.0
 20
52.00000000000182
 30
0.0
 11
155.0
 21
45.00000000000182
 31
0.0
1001
AcDbBlockRepETag
1070
     1
1071
      204
1005
2F7
  0
LINE
  5
2F8
330
232
100
AcDbEntity
  8
frame
  6
ByBlock
100
AcDbLine
 10
105.0
 20
52.00000000000182
 30
0.0
 11
105.0
 21
45.00000000000182
 31
0.0
1001
AcDbBlockRepETag
1070
     1
1071
      205
1005
2F8
  0
LINE
  5
2F9
330
232
100
AcDbEntity
  8
frame
  6
ByBlock
100
AcDbLine
 10
98.0
 20
52.00000000000182
 30
0.0
 11
98.0
 21
45.00000000000182
 31
0.0
1001
AcDbBlockRepETag
1070
     1
1071
      206
1005
2F9
  0
LINE
  5
2FA
330
232
100
AcDbEntity
  8
frame
  6
ByBlock
100
AcDbLine
 10
70.0
 20
52.00000000000182
 30
0.0
 11
70.0
 21
45.00000000000182
 31
0.0
1001
AcDbBlockRepETag
1070
     1
1071
       11
1005
2FA
  0
LINE
  5
2FB
330
232
100
AcDbEntity
  8
frame
  6
ByBlock
100
AcDbLine
 10
20.0
 20
52.00000000000182
 30
0.0
 11
20.0
 21
45.00000000000182
 31
0.0
1001
AcDbBlockRepETag
1070
     1
1071
      207
1005
2FB
  0
LINE
  5
2FC
330
232
100
AcDbEntity
  8
frame
  6
ByBlock
100
AcDbLine
 10
12.99999999999909
 20
52.00000000000182
 30
0.0
 11
197.0
 21
52.00000000000182
 31
0.0
1001
AcDbBlockRepETag
1070
     1
1071
      208
1005
2FC
  0
ATTDEF
  5
2FD
102
{ACAD_XDICTIONARY
360
2FE
102
}
330
232
100
AcDbEntity
  8
frame
  6
ByBlock
100
AcDbText
 10
16.5
 20
47.00000000000182
 30
0.0
 40
3.0
  1

 41
0.9
  7
ATOM
 72
     1
 11
16.5
 21
48.50000000000182
 31
0.0
100
AcDbAttributeDefinition
  3
部番?
  2
部番
 70
     0
 74
     2
1001
AcDbBlockRepETag
1070
     1
1071
      213
1005
0
1001
AcadAnnotative
1000
AnnotativeData
1002
{
1070
     1
1070
     0
1002
}
1001
AcDbAttr
1070
     0
1070
     1
  0
ATTDEF
  5
301
102
{ACAD_XDICTIONARY
360
302
102
}
330
232
100
AcDbEntity
  8
frame
  6
ByBlock
100
AcDbText
 10
45.0
 20
47.00000000000182
 30
0.0
 40
3.0
  1

 41
0.9
  7
ATOM
 72
     1
 11
45.0
 21
48.50000000000182
 31
0.0
100
AcDbAttributeDefinition
  3
部品名?
  2
部　　　　品　　　　名
 70
     0
 74
     2
1001
AcDbBlockRepETag
1070
     1
1071
      211
1005
0
1001
AcadAnnotative
1000
AnnotativeData
1002
{
1070
     1
1070
     0
1002
}
1001
AcDbAttr
1070
     0
1070
     1
  0
ATTDEF
  5
305
102
{ACAD_XDICTIONARY
360
306
102
}
330
232
100
AcDbEntity
  8
frame
  6
ByBlock
100
AcDbText
 10
84.0
 20
47.00000000000182
 30
0.0
 40
3.0
  1

 41
0.9
  7
ATOM
 72
     1
 11
84.0
 21
48.50000000000182
 31
0.0
100
AcDbAttributeDefinition
  3
材質?
  2
材　　質
 70
     0
 74
     2
1001
AcDbBlockRepETag
1070
     1
1071
      210
1005
0
1001
AcadAnnotative
1000
AnnotativeData
1002
{
1070
     1
1070
     0
1002
}
1001
AcDbAttr
1070
     0
1070
     1
  0
ATTDEF
  5
309
102
{ACAD_XDICTIONARY
360
30A
102
}
330
232
100
AcDbEntity
  8
frame
  6
ByBlock
100
AcDbText
 10
101.5
 20
47.00000000000182
 30
0.0
 40
3.0
  1

 41
0.9
  7
ATOM
 72
     1
 11
101.5
 21
48.50000000000182
 31
0.0
100
AcDbAttributeDefinition
  3
数量?
  2
数量
 70
     0
 74
     2
1001
AcDbBlockRepETag
1070
     1
1071
      212
1005
0
1001
AcadAnnotative
1000
AnnotativeData
1002
{
1070
     1
1070
     0
1002
}
1001
AcDbAttr
1070
     0
1070
     1
  0
ATTDEF
  5
30D
102
{ACAD_XDICTIONARY
360
30E
102
}
330
232
100
AcDbEntity
  8
frame
  6
ByBlock
100
AcDbText
 10
130.0
 20
47.00000000000182
 30
0.0
 40
3.0
  1

 41
0.9
  7
ATOM
 72
     1
 11
130.0
 21
48.50000000000182
 31
0.0
100
AcDbAttributeDefinition
  3
表面処理?
  2
表　　面　　処　　理
 70
     0
 74
     2
1001
AcDbBlockRepETag
1070
     1
1071
      209
1005
0
1001
AcadAnnotative
1000
AnnotativeData
1002
{
1070
     1
1070
     0
1002
}
1001
AcDbAttr
1070
     0
1070
     1
  0
ATTDEF
  5
311
102
{ACAD_XDICTIONARY
360
312
102
}
330
232
100
AcDbEntity
  8
frame
  6
ByBlock
100
AcDbText
 10
176.0
 20
47.00000000000182
 30
0.0
 40
3.0
  1

 41
0.9
  7
ATOM
 72
     1
 11
176.0
 21
48.50000000000182
 31
0.0
100
AcDbAttributeDefinition
  3
備考?
  2
備　　　考
 70
     0
 74
     2
1001
AcDbBlockRepETag
1070
     1
1071
      181
1005
0
1001
AcadAnnotative
1000
AnnotativeData
1002
{
1070
     1
1070
     0
1002
}
1001
AcDbAttr
1070
     0
1070
     1
  0
ENDBLK
  5
315
330
232
100
AcDbEntity
  8
0
100
AcDbBlockEnd
  0
ENDSEC
  0
SECTION
  2
ENTITIES
  0
ARC
  5
9C
330
6C
100
AcDbEntity
  8
1
  6
Continuous
 62
     7
100
AcDbCircle
 10
230.5543256028607
 20
212.7865661653708
 30
0.0
 40
0.5999999960884428
100
AcDbArc
 50
149.9999999999994
 51
270.0
  0
LINE
  5
A0
330
6C
100
AcDbEntity
  8
1
  6
Continuous
 62
     7
100
AcDbLine
 10
272.3543253303557
 20
211.7865661718901
 30
0.0
 11
270.6929280471867
 21
211.7865661718901
 31
0.0
  0
LINE
  5
A1
330
6C
100
AcDbEntity
  8
1
  6
Continuous
 62
     7
100
AcDbLine
 10
238.2570376746447
 20
214.3645206190837
 30
0.0
 11
230.954325600253
 21
217.7865661327745
 31
0.0
  0
ARC
  5
A2
330
6C
100
AcDbEntity
  8
1
  6
Continuous
 62
     7
100
AcDbCircle
 10
228.4543256165512
 20
220.3990661157429
 30
0.0
 40
3.012499980360723
100
AcDbArc
 50
240.1371656440007
 51
299.8628343559993
  0
ARC
  5
A3
330
6C
100
AcDbEntity
  8
1
  6
Continuous
 62
     7
100
AcDbCircle
 10
272.3543253303557
 20
212.3865661679786
 30
0.0
 40
0.5999999960884428
100
AcDbArc
 50
270.0
 51
43.49661251200067
  0
LINE
  5
A4
330
6C
100
AcDbEntity
  8
1
  6
Continuous
 62
     7
100
AcDbLine
 10
257.9543254242329
 20
217.7865661327745
 30
0.0
 11
256.9543254307522
 21
217.7865661327745
 31
0.0
  0
LINE
  5
A5
330
6C
100
AcDbEntity
  8
1
  6
Continuous
 62
     7
100
AcDbLine
 10
230.0347103642482
 20
213.0865661634151
 30
0.0
 11
230.6120606284843
 21
214.0865661568958
 31
0.0
  0
LINE
  5
A6
330
6C
100
AcDbEntity
  8
1
  6
Continuous
 62
     7
100
AcDbLine
 10
260.9543254046752
 20
215.5865661471169
 30
0.0
 11
250.1626158510291
 21
215.5865661471169
 31
0.0
  0
LINE
  5
A7
330
6C
100
AcDbEntity
  8
1
  6
Continuous
 62
     7
100
AcDbLine
 10
249.954325476387
 20
217.7865661327745
 30
0.0
 11
248.9543254829063
 21
217.7865661327745
 31
0.0
  0
ARC
  5
A8
330
6C
100
AcDbEntity
  8
1
  6
Continuous
 62
     7
100
AcDbCircle
 10
239.9543255415796
 20
217.9865661314706
 30
0.0
 40
3.999999973922951
100
AcDbArc
 50
244.8922461779992
 51
295.1077538220007
  0
LINE
  5
A9
330
6C
100
AcDbEntity
  8
1
  6
Continuous
 62
     7
100
AcDbLine
 10
253.95432545031
 20
217.7865661327745
 30
0.0
 11
252.9543254568292
 21
217.7865661327745
 31
0.0
  0
ARC
  5
AA
330
6C
100
AcDbEntity
  8
1
  6
Continuous
 62
     7
100
AcDbCircle
 10
261.1829333671848
 20
201.7865662370827
 30
0.0
 40
15.99999989569181
100
AcDbArc
 50
43.49661251200067
 51
90.0
  0
ARC
  5
AB
330
6C
100
AcDbEntity
  8
1
  6
Continuous
 62
     7
100
AcDbCircle
 10
229.7460352301301
 20
214.5865661536362
 30
0.0
 40
0.999999993480738
100
AcDbArc
 50
329.9999999999995
 51
90.0
  0
ARC
  5
AC
330
6C
100
AcDbEntity
  8
1
  6
Continuous
 62
     7
100
AcDbCircle
 10
215.7257177335323
 20
201.7865662370827
 30
0.0
 40
13.79999991003418
100
AcDbArc
 50
101.2331821559995
 51
133.5612844810005
  0
ARC
  5
AD
330
6C
100
AcDbEntity
  8
1
  6
Continuous
 62
     7
100
AcDbCircle
 10
224.4543256426282
 20
220.3990661157429
 30
0.0
 40
3.012499980360723
100
AcDbArc
 50
240.1371656440007
 51
299.8628343559993
  0
LINE
  5
AE
330
6C
100
AcDbEntity
  8
1
  6
Continuous
 62
     7
100
AcDbLine
 10
215.9543256980419
 20
215.5865661471169
 30
0.0
 11
229.7460352301301
 21
215.5865661471169
 31
0.0
  0
ARC
  5
AF
330
6C
100
AcDbEntity
  8
1
  6
Continuous
 62
     7
100
AcDbCircle
 10
250.1626158510291
 20
214.5865661536362
 30
0.0
 40
0.999999993480738
100
AcDbArc
 50
90.0
 51
210.0000000000005
  0
ARC
  5
B0
330
6C
100
AcDbEntity
  8
1
  6
Continuous
 62
     7
100
AcDbCircle
 10
215.7257177335323
 20
201.7865662370827
 30
0.0
 40
15.99999989569181
100
AcDbArc
 50
90.0
 51
136.5033874879993
  0
LINE
  5
B1
330
6C
100
AcDbEntity
  8
1
  6
Continuous
 62
     7
100
AcDbLine
 10
249.873940718911
 20
213.0865661634151
 30
0.0
 11
249.296590452675
 21
214.0865661568958
 31
0.0
  0
ARC
  5
B2
330
6C
100
AcDbEntity
  8
1
  6
Continuous
 62
     7
100
AcDbCircle
 10
249.3543254802986
 20
212.7865661653708
 30
0.0
 40
0.5999999960884428
100
AcDbArc
 50
270.0
 51
30.00000000000053
  0
LINE
  5
B3
330
6C
100
AcDbEntity
  8
1
  6
Continuous
 62
     7
100
AcDbLine
 10
241.6516134065146
 20
214.3645206190837
 30
0.0
 11
248.9543254829063
 21
217.7865661327745
 31
0.0
  0
ARC
  5
B4
330
6C
100
AcDbEntity
  8
1
  6
Continuous
 62
     7
100
AcDbCircle
 10
204.5543257723615
 20
212.3865661679786
 30
0.0
 40
0.5999999960884428
100
AcDbArc
 50
136.5033874879993
 51
270.0
  0
ARC
  5
B5
330
6C
100
AcDbEntity
  8
1
  6
Continuous
 62
     7
100
AcDbCircle
 10
220.4543256687052
 20
220.3990661157429
 30
0.0
 40
3.012499980360723
100
AcDbArc
 50
240.1371656440007
 51
299.8628343559993
  0
LINE
  5
B6
330
6C
100
AcDbEntity
  8
1
  6
Continuous
 62
     7
100
AcDbLine
 10
204.5543257723615
 20
211.7865661718901
 30
0.0
 11
206.2157230535305
 21
211.7865661718901
 31
0.0
  0
LINE
  5
B7
330
6C
100
AcDbEntity
  8
1
  6
Continuous
 62
     7
100
AcDbLine
 10
261.1829333671848
 20
217.7865661327745
 30
0.0
 11
260.9543254046752
 21
217.7865661327745
 31
0.0
  0
LINE
  5
B8
330
6C
100
AcDbEntity
  8
1
  6
Continuous
 62
     7
100
AcDbLine
 10
230.5543256028607
 20
212.1865661692823
 30
0.0
 11
244.3543255128949
 21
212.1865661692823
 31
0.0
  0
LINE
  5
B9
330
6C
100
AcDbEntity
  8
1
  6
Continuous
 62
     7
100
AcDbLine
 10
215.7257177335323
 20
217.7865661327745
 30
0.0
 11
218.9543256784841
 21
217.7865661327745
 31
0.0
  0
LINE
  5
BA
330
6C
100
AcDbEntity
  8
1
  6
Continuous
 62
     7
100
AcDbLine
 10
225.9543256328493
 20
217.7865661327745
 30
0.0
 11
226.95432562633
 21
217.7865661327745
 31
0.0
  0
LINE
  5
BB
330
6C
100
AcDbEntity
  8
1
  6
Continuous
 62
     7
100
AcDbLine
 10
229.9543256067723
 20
217.7865661327745
 30
0.0
 11
230.954325600253
 21
217.7865661327745
 31
0.0
  0
LINE
  5
BC
330
6C
100
AcDbEntity
  8
1
  6
Continuous
 62
     7
100
AcDbLine
 10
221.9543256589263
 20
217.7865661327745
 30
0.0
 11
222.9543256524071
 21
217.7865661327745
 31
0.0
  0
ARC
  5
BD
330
6C
100
AcDbEntity
  8
1
  6
Continuous
 62
     7
100
AcDbCircle
 10
261.1829333671848
 20
201.7865662370827
 30
0.0
 40
13.79999991003418
100
AcDbArc
 50
46.43871551899951
 51
78.76681784400052
  0
ARC
  5
BE
330
6C
100
AcDbEntity
  8
1
  6
Continuous
 62
     7
100
AcDbCircle
 10
259.454325414454
 20
220.3990661157429
 30
0.0
 40
3.012499980360723
100
AcDbArc
 50
240.1371656440007
 51
299.8628343559993
  0
ARC
  5
BF
330
6C
100
AcDbEntity
  8
1
  6
Continuous
 62
     7
100
AcDbCircle
 10
255.4543254405311
 20
220.3990661157429
 30
0.0
 40
3.012499980360723
100
AcDbArc
 50
240.1371656440007
 51
299.8628343559993
  0
ARC
  5
C0
330
6C
100
AcDbEntity
  8
1
  6
Continuous
 62
     7
100
AcDbCircle
 10
251.4543254666081
 20
220.3990661157429
 30
0.0
 40
3.012499980360723
100
AcDbArc
 50
240.1371656440007
 51
299.8628343559993
  0
LINE
  5
C1
330
6C
100
AcDbEntity
  8
1
  6
Continuous
 62
     7
100
AcDbLine
 10
245.5543255050718
 20
212.1865661692823
 30
0.0
 11
244.9543255089833
 21
212.7865661653708
 31
0.0
  0
LINE
  5
C2
330
6C
100
AcDbEntity
  8
1
  6
Continuous
 62
     7
100
AcDbLine
 10
244.9543255089833
 20
212.7865661653708
 30
0.0
 11
244.3543255128949
 21
212.1865661692823
 31
0.0
  0
LINE
  5
C3
330
6C
100
AcDbEntity
  8
1
  6
Continuous
 62
     7
100
AcDbLine
 10
245.5543255050718
 20
212.1865661692823
 30
0.0
 11
249.3543254802986
 21
212.1865661692823
 31
0.0
  0
ARC
  5
C4
330
6C
100
AcDbEntity
  8
1
  6
Continuous
 62
     7
100
AcDbCircle
 10
213.1543257162958
 20
214.733687182677
 30
0.0
 40
0.5999999960884428
100
AcDbArc
 50
0.0
 51
101.2331821559995
  0
ARC
  5
C5
330
6C
100
AcDbEntity
  8
1
  6
Continuous
 62
     7
100
AcDbCircle
 10
263.7543253864212
 20
214.733687182677
 30
0.0
 40
0.5999999960884428
100
AcDbArc
 50
78.76681784400052
 51
180.0
  0
ARC
  5
C6
330
6C
100
AcDbEntity
  8
1
  6
Continuous
 62
     7
100
AcDbCircle
 10
214.3543257084729
 20
212.3865661679786
 30
0.0
 40
0.5999999960884428
100
AcDbArc
 50
180.0
 51
270.0
  0
ARC
  5
C7
330
6C
100
AcDbEntity
  8
1
  6
Continuous
 62
     7
100
AcDbCircle
 10
215.3543257019535
 20
212.3865661679786
 30
0.0
 40
0.5999999960884428
100
AcDbArc
 50
270.0
 51
0.0
  0
ARC
  5
C8
330
6C
100
AcDbEntity
  8
1
  6
Continuous
 62
     7
100
AcDbCircle
 10
261.5543254007635
 20
212.3865661679786
 30
0.0
 40
0.5999999960884428
100
AcDbArc
 50
180.0
 51
270.0
  0
ARC
  5
C9
330
6C
100
AcDbEntity
  8
1
  6
Continuous
 62
     7
100
AcDbCircle
 10
262.5543253942443
 20
212.3865661679786
 30
0.0
 40
0.5999999960884428
100
AcDbArc
 50
270.0
 51
0.0
  0
LINE
  5
CA
330
6C
100
AcDbEntity
  8
1
  6
Continuous
 62
     7
100
AcDbLine
 10
213.7543257123843
 20
212.3865661679786
 30
0.0
 11
213.7543257123843
 21
214.733687182677
 31
0.0
  0
LINE
  5
CB
330
6C
100
AcDbEntity
  8
1
  6
Continuous
 62
     7
100
AcDbLine
 10
215.3543257019535
 20
211.7865661718901
 30
0.0
 11
214.3543257084729
 21
211.7865661718901
 31
0.0
  0
LINE
  5
CC
330
6C
100
AcDbEntity
  8
1
  6
Continuous
 62
     7
100
AcDbLine
 10
215.9543256980419
 20
215.5865661471169
 30
0.0
 11
215.9543256980419
 21
212.3865661679786
 31
0.0
  0
LINE
  5
CD
330
6C
100
AcDbEntity
  8
1
  6
Continuous
 62
     7
100
AcDbLine
 10
263.1543253903328
 20
212.3865661679786
 30
0.0
 11
263.1543253903328
 21
214.733687182677
 31
0.0
  0
LINE
  5
CE
330
6C
100
AcDbEntity
  8
1
  6
Continuous
 62
     7
100
AcDbLine
 10
261.5543254007635
 20
211.7865661718901
 30
0.0
 11
262.5543253942443
 21
211.7865661718901
 31
0.0
  0
LINE
  5
CF
330
6C
100
AcDbEntity
  8
1
  6
Continuous
 62
     7
100
AcDbLine
 10
260.9543254046752
 20
215.5865661471169
 30
0.0
 11
260.9543254046752
 21
212.3865661679786
 31
0.0
  0
ENDSEC
  0
SECTION
  2
OBJECTS
  0
DICTIONARY
  5
C
330
0
100
AcDbDictionary
281
     1
  3
ACAD_CIP_PREVIOUS_PRODUCT_INFO
350
378
  3
ACAD_COLOR
350
63
  3
ACAD_GROUP
350
D
  3
ACAD_LAYOUT
350
62
  3
ACAD_MATERIAL
350
10
  3
ACAD_MLEADERSTYLE
350
66
  3
ACAD_MLINESTYLE
350
5F
  3
ACAD_PLOTSETTINGS
350
61
  3
ACAD_PLOTSTYLENAME
350
E
  3
ACAD_SCALELIST
350
42
  3
ACAD_TABLESTYLE
350
64
  3
ACAD_VISUALSTYLE
350
29
  3
ACDB_RECOMPOSE_DATA
350
3D4
  3
AcDbVariableDictionary
350
36C
  3
DWGPROPS
350
3D5
  0
DICTIONARY
  5
37E
330
2
100
AcDbDictionary
280
     1
281
     1
  3
ACAD_LAYERSTATES
360
37F
  0
DICTIONARY
  5
379
330
54
100
AcDbDictionary
280
     1
281
     1
  3
ADSK_XREC_LAYER_RECONCILED
360
37A
  0
DICTIONARY
  5
99
330
98
100
AcDbDictionary
280
     1
281
     1
  3
ADSK_XREC_LAYER_RECONCILED
360
9A
  0
DICTIONARY
  5
9E
330
9D
100
AcDbDictionary
280
     1
281
     1
  3
ADSK_XREC_LAYER_RECONCILED
360
9F
  0
DICTIONARY
  5
D4
330
D3
100
AcDbDictionary
280
     1
281
     1
  3
ADSK_XREC_LAYER_RECONCILED
360
D5
  0
DICTIONARY
  5
230
330
22F
100
AcDbDictionary
280
     1
281
     1
  3
ADSK_XREC_LAYER_RECONCILED
360
231
  0
DICTIONARY
  5
22C
330
6C
100
AcDbDictionary
280
     1
281
     1
  3
ACAD_SORTENTS
360
22D
  0
DICTIONARY
  5
233
330
232
100
AcDbDictionary
280
     1
281
     1
  3
ACAD_SORTENTS
360
234
  0
DICTIONARY
  5
2FE
330
2FD
100
AcDbDictionary
280
     1
281
     1
  3
AcDbContextDataManager
360
2FF
  0
DICTIONARY
  5
302
330
301
100
AcDbDictionary
280
     1
281
     1
  3
AcDbContextDataManager
360
303
  0
DICTIONARY
  5
306
330
305
100
AcDbDictionary
280
     1
281
     1
  3
AcDbContextDataManager
360
307
  0
DICTIONARY
  5
30A
330
309
100
AcDbDictionary
280
     1
281
     1
  3
AcDbContextDataManager
360
30B
  0
DICTIONARY
  5
30E
330
30D
100
AcDbDictionary
280
     1
281
     1
  3
AcDbContextDataManager
360
30F
  0
DICTIONARY
  5
312
330
311
100
AcDbDictionary
280
     1
281
     1
  3
AcDbContextDataManager
360
313
  0
XRECORD
  5
378
102
{ACAD_REACTORS
330
C
102
}
330
C
100
AcDbXrecord
280
     1
300
ACD
300
2012
300
ACD_F_S
  0
DICTIONARY
  5
63
102
{ACAD_REACTORS
330
C
102
}
330
C
100
AcDbDictionary
281
     1
  0
DICTIONARY
  5
D
102
{ACAD_REACTORS
330
C
102
}
330
C
100
AcDbDictionary
281
     1
  0
DICTIONARY
  5
62
102
{ACAD_REACTORS
330
C
102
}
330
C
100
AcDbDictionary
281
     1
  3
Model
350
6F
  3
レイアウト1
350
6B
  3
レイアウト2
350
73
  0
DICTIONARY
  5
10
102
{ACAD_REACTORS
330
C
102
}
330
C
100
AcDbDictionary
281
     1
  3
ByBlock
350
19
  3
ByLayer
350
11
  3
Global
350
21
  0
DICTIONARY
  5
66
102
{ACAD_REACTORS
330
C
102
}
330
C
100
AcDbDictionary
281
     1
  3
Standard
350
67
  0
DICTIONARY
  5
5F
102
{ACAD_REACTORS
330
C
102
}
330
C
100
AcDbDictionary
281
     1
  3
Standard
350
60
  0
DICTIONARY
  5
61
102
{ACAD_REACTORS
330
C
102
}
330
C
100
AcDbDictionary
281
     1
  0
ACDBDICTIONARYWDFLT
  5
E
102
{ACAD_REACTORS
330
C
102
}
330
C
100
AcDbDictionary
281
     1
  3
invisible
350
83
  3
Normal
350
F
  3
Style 1
350
84
100
AcDbDictionaryWithDefault
340
F
  0
DICTIONARY
  5
42
102
{ACAD_REACTORS
330
C
102
}
330
C
100
AcDbDictionary
281
     1
  3
*A1
350
85
  3
*A10
350
8D
  3
*A11
350
8E
  3
*A12
350
8F
  3
*A13
350
90
  3
*A14
350
91
  3
*A15
350
92
  3
*A16
350
93
  3
*A17
350
94
  3
*A18
350
95
  3
*A2
350
96
  3
*A3
350
86
  3
*A4
350
87
  3
*A5
350
88
  3
*A6
350
89
  3
*A7
350
8A
  3
*A8
350
8B
  3
*A9
350
8C
  3
A0
350
43
  3
A1
350
44
  3
A2
350
45
  3
A3
350
46
  3
A4
350
47
  3
A5
350
48
  3
A6
350
49
  3
A7
350
4A
  3
A8
350
4B
  3
A9
350
4C
  3
B0
350
4D
  3
B1
350
4E
  3
B2
350
4F
  3
B3
350
50
  3
B4
350
51
  3
B5
350
52
  3
B6
350
53
  0
DICTIONARY
  5
64
102
{ACAD_REACTORS
330
C
102
}
330
C
100
AcDbDictionary
281
     1
  3
Standard
350
65
  0
DICTIONARY
  5
29
102
{ACAD_REACTORS
330
C
102
}
330
C
100
AcDbDictionary
281
     1
  3
2dWireframe
350
2F
  3
Basic
350
2E
  3
Brighten
350
35
  3
ColorChange
350
39
  3
Conceptual
350
32
  3
Dim
350
34
  3
EdgeColorOff
350
41
  3
Facepattern
350
38
  3
Flat
350
2A
  3
FlatWithEdges
350
2B
  3
Gouraud
350
2C
  3
GouraudWithEdges
350
2D
  3
Hidden
350
31
  3
JitterOff
350
3F
  3
Linepattern
350
37
  3
OverhangOff
350
40
  3
Realistic
350
33
  3
Shaded
350
3E
  3
Shaded with edges
350
3D
  3
Shades of Gray
350
3A
  3
Sketchy
350
3B
  3
Thicken
350
36
  3
Wireframe
350
30
  3
X-Ray
350
3C
  0
XRECORD
  5
3D4
102
{ACAD_REACTORS
330
C
102
}
330
C
100
AcDbXrecord
280
     1
 90
        1
330
65
  0
DICTIONARY
  5
36C
102
{ACAD_REACTORS
330
C
102
}
330
C
100
AcDbDictionary
281
     1
  3
ANNOALLVISIBLE
350
36F
  3
CANNOSCALE
350
370
  3
CMLEADERSTYLE
350
36E
  3
CTABLESTYLE
350
36D
  3
DIMASSOC
350
3D0
  3
HIDETEXT
350
3CE
  3
INDEXCTL
350
3CD
  3
LAYEREVAL
350
371
  3
LAYERNOTIFY
350
372
  3
LIGHTINGUNITS
350
38A
  3
MSLTSCALE
350
389
  3
SOLIDHIST
350
38B
  3
SORTENTS
350
3CC
  3
XCLIPFRAME
350
3CF
  0
XRECORD
  5
3D5
102
{ACAD_REACTORS
330
C
102
}
330
C
100
AcDbXrecord
280
     1
  1
DWGPROPS COOKIE
  2

  3

  4

  6

  7

  8
0035sekine
  9

300
=
301
=
302
=
303
=
304
=
305
=
306
=
307
=
308
=
309
=
 40
0.001612650462963
 41
2456630.618970915
 42
2457578.405252164
  1

 90
        0
  0
DICTIONARY
  5
37F
102
{ACAD_REACTORS
330
37E
102
}
330
37E
100
AcDbDictionary
281
     1
  0
XRECORD
  5
37A
102
{ACAD_REACTORS
330
379
102
}
330
379
100
AcDbXrecord
280
     1
290
     1
  0
XRECORD
  5
9A
102
{ACAD_REACTORS
330
99
102
}
330
99
100
AcDbXrecord
280
     1
290
     1
  0
XRECORD
  5
9F
102
{ACAD_REACTORS
330
9E
102
}
330
9E
100
AcDbXrecord
280
     1
290
     1
  0
XRECORD
  5
D5
102
{ACAD_REACTORS
330
D4
102
}
330
D4
100
AcDbXrecord
280
     1
290
     1
  0
XRECORD
  5
231
102
{ACAD_REACTORS
330
230
102
}
330
230
100
AcDbXrecord
280
     1
290
     1
  0
SORTENTSTABLE
  5
22D
102
{ACAD_REACTORS
330
22C
102
}
330
22C
100
AcDbSortentsTable
330
6C
  0
SORTENTSTABLE
  5
234
102
{ACAD_REACTORS
330
233
102
}
330
233
100
AcDbSortentsTable
330
232
  0
DICTIONARY
  5
2FF
102
{ACAD_REACTORS
330
2FE
102
}
330
2FE
100
AcDbDictionary
281
     1
  3
ACDB_ANNOTATIONSCALES
350
300
  0
DICTIONARY
  5
303
102
{ACAD_REACTORS
330
302
102
}
330
302
100
AcDbDictionary
281
     1
  3
ACDB_ANNOTATIONSCALES
350
304
  0
DICTIONARY
  5
307
102
{ACAD_REACTORS
330
306
102
}
330
306
100
AcDbDictionary
281
     1
  3
ACDB_ANNOTATIONSCALES
350
308
  0
DICTIONARY
  5
30B
102
{ACAD_REACTORS
330
30A
102
}
330
30A
100
AcDbDictionary
281
     1
  3
ACDB_ANNOTATIONSCALES
350
30C
  0
DICTIONARY
  5
30F
102
{ACAD_REACTORS
330
30E
102
}
330
30E
100
AcDbDictionary
281
     1
  3
ACDB_ANNOTATIONSCALES
350
310
  0
DICTIONARY
  5
313
102
{ACAD_REACTORS
330
312
102
}
330
312
100
AcDbDictionary
281
     1
  3
ACDB_ANNOTATIONSCALES
350
314
  0
LAYOUT
  5
6F
102
{ACAD_XDICTIONARY
360
384
102
}
102
{ACAD_REACTORS
330
62
102
}
330
62
100
AcDbPlotSettings
  1

  2
none_device
  4
ISO_A4_(210.00_x_297.00_MM)
  6

 40
7.5
 41
20.0
 42
7.5
 43
20.0
 44
210.0
 45
297.0
 46
-4.913417816162108
 47
-4.894748687744138
 48
0.0
 49
0.0
140
0.0
141
0.0
142
1.0
143
3.472000966998697
 70
 11954
 72
     1
 73
     0
 74
     0
  7
monochrome.stb
 75
     0
147
0.2880183529627383
148
89.11852238431947
149
-30.79192510202756
100
AcDbLayout
  1
Model
 70
     1
 71
     0
 10
0.0
 20
0.0
 11
12.0
 21
9.0
 12
0.0
 22
0.0
 32
0.0
 14
0.0
 24
0.0
 34
0.0
 15
0.0
 25
0.0
 35
0.0
146
0.0
 13
0.0
 23
0.0
 33
0.0
 16
1.0
 26
0.0
 36
0.0
 17
0.0
 27
1.0
 37
0.0
 76
     0
330
6C
331
57
1001
ACAD_PSEXT
1000
なし
1000
なし
1000
適切ではありません
1000
新しいプロッタ環境設定名を選択しない限り、レイアウトは印刷されません。
1070
     0
  0
LAYOUT
  5
6B
102
{ACAD_XDICTIONARY
360
407
102
}
102
{ACAD_REACTORS
330
62
102
}
330
62
100
AcDbPlotSettings
  1

  2
\\asrv0030\DocuCentre 230 - 本社９階　開発部
  4

  6

 40
0.0
 41
0.0
 42
0.0
 43
0.0
 44
0.0
 45
0.0
 46
0.0
 47
0.0
 48
0.0
 49
0.0
140
0.0
141
0.0
142
1.0
143
1.0
 70
   688
 72
     0
 73
     0
 74
     5
  7

 75
    16
147
1.0
148
0.0
149
0.0
100
AcDbLayout
  1
レイアウト1
 70
     1
 71
     1
 10
0.0
 20
0.0
 11
12.0
 21
9.0
 12
0.0
 22
0.0
 32
0.0
 14
1.000000000000000E+20
 24
1.000000000000000E+20
 34
1.000000000000000E+20
 15
-1.000000000000000E+20
 25
-1.000000000000000E+20
 35
-1.000000000000000E+20
146
0.0
 13
0.0
 23
0.0
 33
0.0
 16
1.0
 26
0.0
 36
0.0
 17
0.0
 27
1.0
 37
0.0
 76
     0
330
68
  0
LAYOUT
  5
73
102
{ACAD_XDICTIONARY
360
40A
102
}
102
{ACAD_REACTORS
330
62
102
}
330
62
100
AcDbPlotSettings
  1

  2
\\asrv0030\DocuCentre 230 - 本社９階　開発部
  4

  6

 40
0.0
 41
0.0
 42
0.0
 43
0.0
 44
0.0
 45
0.0
 46
0.0
 47
0.0
 48
0.0
 49
0.0
140
0.0
141
0.0
142
1.0
143
1.0
 70
   688
 72
     0
 73
     0
 74
     5
  7

 75
    16
147
1.0
148
0.0
149
0.0
100
AcDbLayout
  1
レイアウト2
 70
     1
 71
     2
 10
0.0
 20
0.0
 11
12.0
 21
9.0
 12
0.0
 22
0.0
 32
0.0
 14
0.0
 24
0.0
 34
0.0
 15
0.0
 25
0.0
 35
0.0
146
0.0
 13
0.0
 23
0.0
 33
0.0
 16
1.0
 26
0.0
 36
0.0
 17
0.0
 27
1.0
 37
0.0
 76
     0
330
70
  0
MATERIAL
  5
19
102
{ACAD_XDICTIONARY
360
1A
102
}
102
{ACAD_REACTORS
330
10
102
}
330
10
100
AcDbMaterial
  1
ByBlock
 72
     0
 43
0.0208333333333333
 43
0.0
 43
0.0
 43
0.0
 43
0.0
 43
0.0208333333333333
 43
0.0
 43
0.0
 43
0.0
 43
0.0
 43
1.0
 43
0.0
 43
0.0
 43
0.0
 43
0.0
 43
1.0
 77
     0
 47
0.0208333333333333
 47
0.0
 47
0.0
 47
0.0
 47
0.0
 47
0.0208333333333333
 47
0.0
 47
0.0
 47
0.0
 47
0.0
 47
1.0
 47
0.0
 47
0.0
 47
0.0
 47
0.0
 47
1.0
171
     0
 49
0.0208333333333333
 49
0.0
 49
0.0
 49
0.0
 49
0.0
 49
0.0208333333333333
 49
0.0
 49
0.0
 49
0.0
 49
0.0
 49
1.0
 49
0.0
 49
0.0
 49
0.0
 49
0.0
 49
1.0
175
     0
142
0.0208333333333333
142
0.0
142
0.0
142
0.0
142
0.0
142
0.0208333333333333
142
0.0
142
0.0
142
0.0
142
0.0
142
1.0
142
0.0
142
0.0
142
0.0
142
0.0
142
1.0
179
     0
144
0.0208333333333333
144
0.0
144
0.0
144
0.0
144
0.0
144
0.0208333333333333
144
0.0
144
0.0
144
0.0
144
0.0
144
1.0
144
0.0
144
0.0
144
0.0
144
0.0
144
1.0
147
0.0208333333333333
147
0.0
147
0.0
147
0.0
147
0.0
147
0.0208333333333333
147
0.0
147
0.0
147
0.0
147
0.0
147
1.0
147
0.0
147
0.0
147
0.0
147
0.0
147
1.0
  0
MATERIAL
  5
11
102
{ACAD_XDICTIONARY
360
12
102
}
102
{ACAD_REACTORS
330
10
102
}
330
10
100
AcDbMaterial
  1
ByLayer
 72
     0
 43
0.0208333333333333
 43
0.0
 43
0.0
 43
0.0
 43
0.0
 43
0.0208333333333333
 43
0.0
 43
0.0
 43
0.0
 43
0.0
 43
1.0
 43
0.0
 43
0.0
 43
0.0
 43
0.0
 43
1.0
 77
     0
 47
0.0208333333333333
 47
0.0
 47
0.0
 47
0.0
 47
0.0
 47
0.0208333333333333
 47
0.0
 47
0.0
 47
0.0
 47
0.0
 47
1.0
 47
0.0
 47
0.0
 47
0.0
 47
0.0
 47
1.0
171
     0
 49
0.0208333333333333
 49
0.0
 49
0.0
 49
0.0
 49
0.0
 49
0.0208333333333333
 49
0.0
 49
0.0
 49
0.0
 49
0.0
 49
1.0
 49
0.0
 49
0.0
 49
0.0
 49
0.0
 49
1.0
175
     0
142
0.0208333333333333
142
0.0
142
0.0
142
0.0
142
0.0
142
0.0208333333333333
142
0.0
142
0.0
142
0.0
142
0.0
142
1.0
142
0.0
142
0.0
142
0.0
142
0.0
142
1.0
179
     0
144
0.0208333333333333
144
0.0
144
0.0
144
0.0
144
0.0
144
0.0208333333333333
144
0.0
144
0.0
144
0.0
144
0.0
144
1.0
144
0.0
144
0.0
144
0.0
144
0.0
144
1.0
147
0.0208333333333333
147
0.0
147
0.0
147
0.0
147
0.0
147
0.0208333333333333
147
0.0
147
0.0
147
0.0
147
0.0
147
1.0
147
0.0
147
0.0
147
0.0
147
0.0
147
1.0
  0
MATERIAL
  5
21
102
{ACAD_XDICTIONARY
360
22
102
}
102
{ACAD_REACTORS
330
10
102
}
330
10
100
AcDbMaterial
  1
Global
 72
     0
 43
0.0208333333333333
 43
0.0
 43
0.0
 43
0.0
 43
0.0
 43
0.0208333333333333
 43
0.0
 43
0.0
 43
0.0
 43
0.0
 43
1.0
 43
0.0
 43
0.0
 43
0.0
 43
0.0
 43
1.0
 77
     0
 47
0.0208333333333333
 47
0.0
 47
0.0
 47
0.0
 47
0.0
 47
0.0208333333333333
 47
0.0
 47
0.0
 47
0.0
 47
0.0
 47
1.0
 47
0.0
 47
0.0
 47
0.0
 47
0.0
 47
1.0
171
     0
 49
0.0208333333333333
 49
0.0
 49
0.0
 49
0.0
 49
0.0
 49
0.0208333333333333
 49
0.0
 49
0.0
 49
0.0
 49
0.0
 49
1.0
 49
0.0
 49
0.0
 49
0.0
 49
0.0
 49
1.0
175
     0
142
0.0208333333333333
142
0.0
142
0.0
142
0.0
142
0.0
142
0.0208333333333333
142
0.0
142
0.0
142
0.0
142
0.0
142
1.0
142
0.0
142
0.0
142
0.0
142
0.0
142
1.0
179
     0
144
0.0208333333333333
144
0.0
144
0.0
144
0.0
144
0.0
144
0.0208333333333333
144
0.0
144
0.0
144
0.0
144
0.0
144
1.0
144
0.0
144
0.0
144
0.0
144
0.0
144
1.0
147
0.0208333333333333
147
0.0
147
0.0
147
0.0
147
0.0
147
0.0208333333333333
147
0.0
147
0.0
147
0.0
147
0.0
147
1.0
147
0.0
147
0.0
147
0.0
147
0.0
147
1.0
  0
MLEADERSTYLE
  5
67
102
{ACAD_XDICTIONARY
360
3D2
102
}
102
{ACAD_REACTORS
330
66
102
}
330
66
100
AcDbMLeaderStyle
170
     2
171
     1
172
     0
 90
        2
 40
0.0
 41
0.0
173
     1
 91
-1056964608
340
5B
 92
       -2
290
     1
 42
0.09
291
     1
 43
0.36
  3
Standard
 44
0.18
300

342
55
174
     1
178
     6
175
     1
176
     0
 93
-1056964608
 45
0.18
292
     0
297
     0
 46
0.18
 94
-1056964608
 47
1.0
 49
1.0
140
1.0
293
     1
141
0.0
294
     1
177
     0
142
1.0
295
     0
296
     0
143
0.125
1001
ACAD_MLEADERVER
1070
     2
  0
MLINESTYLE
  5
60
102
{ACAD_REACTORS
330
5F
102
}
330
5F
100
AcDbMlineStyle
  2
STANDARD
 70
     0
  3

 62
   256
 51
90.0
 52
90.0
 71
     2
 49
0.5
 62
   256
  6
BYLAYER
 49
-0.5
 62
   256
  6
BYLAYER
  0
ACDBPLACEHOLDER
  5
83
102
{ACAD_REACTORS
330
E
102
}
330
E
  0
ACDBPLACEHOLDER
  5
F
102
{ACAD_REACTORS
330
E
102
}
330
E
  0
ACDBPLACEHOLDER
  5
84
102
{ACAD_REACTORS
330
E
102
}
330
E
  0
SCALE
  5
85
102
{ACAD_REACTORS
330
42
102
}
330
42
100
AcDbScale
 70
     0
300
3:1
140
3.0
141
1.0
290
     0
  0
SCALE
  5
8D
102
{ACAD_REACTORS
330
42
102
}
330
42
100
AcDbScale
 70
     0
300
3/16" = 1'-0"
140
0.1875
141
12.0
290
     0
  0
SCALE
  5
8E
102
{ACAD_REACTORS
330
42
102
}
330
42
100
AcDbScale
 70
     0
300
1/4" = 1'-0"
140
0.25
141
12.0
290
     0
  0
SCALE
  5
8F
102
{ACAD_REACTORS
330
42
102
}
330
42
100
AcDbScale
 70
     0
300
3/8" = 1'-0"
140
0.375
141
12.0
290
     0
  0
SCALE
  5
90
102
{ACAD_REACTORS
330
42
102
}
330
42
100
AcDbScale
 70
     0
300
1/2" = 1'-0"
140
0.5
141
12.0
290
     0
  0
SCALE
  5
91
102
{ACAD_REACTORS
330
42
102
}
330
42
100
AcDbScale
 70
     0
300
3/4" = 1'-0"
140
0.75
141
12.0
290
     0
  0
SCALE
  5
92
102
{ACAD_REACTORS
330
42
102
}
330
42
100
AcDbScale
 70
     0
300
1" = 1'-0"
140
1.0
141
12.0
290
     0
  0
SCALE
  5
93
102
{ACAD_REACTORS
330
42
102
}
330
42
100
AcDbScale
 70
     0
300
1-1/2" = 1'-0"
140
1.5
141
12.0
290
     0
  0
SCALE
  5
94
102
{ACAD_REACTORS
330
42
102
}
330
42
100
AcDbScale
 70
     0
300
3" = 1'-0"
140
3.0
141
12.0
290
     0
  0
SCALE
  5
95
102
{ACAD_REACTORS
330
42
102
}
330
42
100
AcDbScale
 70
     0
300
6" = 1'-0"
140
6.0
141
12.0
290
     0
  0
SCALE
  5
96
102
{ACAD_REACTORS
330
42
102
}
330
42
100
AcDbScale
 70
     0
300
1'-0" = 1'-0"
140
12.0
141
12.0
290
     0
  0
SCALE
  5
86
102
{ACAD_REACTORS
330
42
102
}
330
42
100
AcDbScale
 70
     0
300
5:1
140
5.0
141
1.0
290
     0
  0
SCALE
  5
87
102
{ACAD_REACTORS
330
42
102
}
330
42
100
AcDbScale
 70
     0
300
1/128" = 1'-0"
140
0.0078125
141
12.0
290
     0
  0
SCALE
  5
88
102
{ACAD_REACTORS
330
42
102
}
330
42
100
AcDbScale
 70
     0
300
1/64" = 1'-0"
140
0.015625
141
12.0
290
     0
  0
SCALE
  5
89
102
{ACAD_REACTORS
330
42
102
}
330
42
100
AcDbScale
 70
     0
300
1/32" = 1'-0"
140
0.03125
141
12.0
290
     0
  0
SCALE
  5
8A
102
{ACAD_REACTORS
330
42
102
}
330
42
100
AcDbScale
 70
     0
300
1/16" = 1'-0"
140
0.0625
141
12.0
290
     0
  0
SCALE
  5
8B
102
{ACAD_REACTORS
330
42
102
}
330
42
100
AcDbScale
 70
     0
300
3/32" = 1'-0"
140
0.09375
141
12.0
290
     0
  0
SCALE
  5
8C
102
{ACAD_REACTORS
330
42
102
}
330
42
100
AcDbScale
 70
     0
300
1/8" = 1'-0"
140
0.125
141
12.0
290
     0
  0
SCALE
  5
43
102
{ACAD_REACTORS
330
42
102
}
330
42
100
AcDbScale
 70
     0
300
1:1
140
1.0
141
1.0
290
     1
  0
SCALE
  5
44
102
{ACAD_REACTORS
330
42
102
}
330
42
100
AcDbScale
 70
     0
300
1:2
140
1.0
141
2.0
290
     0
  0
SCALE
  5
45
102
{ACAD_REACTORS
330
42
102
}
330
42
100
AcDbScale
 70
     0
300
1:4
140
1.0
141
4.0
290
     0
  0
SCALE
  5
46
102
{ACAD_REACTORS
330
42
102
}
330
42
100
AcDbScale
 70
     0
300
1:5
140
1.0
141
5.0
290
     0
  0
SCALE
  5
47
102
{ACAD_REACTORS
330
42
102
}
330
42
100
AcDbScale
 70
     0
300
1:8
140
1.0
141
8.0
290
     0
  0
SCALE
  5
48
102
{ACAD_REACTORS
330
42
102
}
330
42
100
AcDbScale
 70
     0
300
1:10
140
1.0
141
10.0
290
     0
  0
SCALE
  5
49
102
{ACAD_REACTORS
330
42
102
}
330
42
100
AcDbScale
 70
     0
300
1:16
140
1.0
141
16.0
290
     0
  0
SCALE
  5
4A
102
{ACAD_REACTORS
330
42
102
}
330
42
100
AcDbScale
 70
     0
300
1:20
140
1.0
141
20.0
290
     0
  0
SCALE
  5
4B
102
{ACAD_REACTORS
330
42
102
}
330
42
100
AcDbScale
 70
     0
300
1:30
140
1.0
141
30.0
290
     0
  0
SCALE
  5
4C
102
{ACAD_REACTORS
330
42
102
}
330
42
100
AcDbScale
 70
     0
300
1:40
140
1.0
141
40.0
290
     0
  0
SCALE
  5
4D
102
{ACAD_REACTORS
330
42
102
}
330
42
100
AcDbScale
 70
     0
300
1:50
140
1.0
141
50.0
290
     0
  0
SCALE
  5
4E
102
{ACAD_REACTORS
330
42
102
}
330
42
100
AcDbScale
 70
     0
300
1:100
140
1.0
141
100.0
290
     0
  0
SCALE
  5
4F
102
{ACAD_REACTORS
330
42
102
}
330
42
100
AcDbScale
 70
     0
300
2:1
140
2.0
141
1.0
290
     0
  0
SCALE
  5
50
102
{ACAD_REACTORS
330
42
102
}
330
42
100
AcDbScale
 70
     0
300
4:1
140
4.0
141
1.0
290
     0
  0
SCALE
  5
51
102
{ACAD_REACTORS
330
42
102
}
330
42
100
AcDbScale
 70
     0
300
8:1
140
8.0
141
1.0
290
     0
  0
SCALE
  5
52
102
{ACAD_REACTORS
330
42
102
}
330
42
100
AcDbScale
 70
     0
300
10:1
140
10.0
141
1.0
290
     0
  0
SCALE
  5
53
102
{ACAD_REACTORS
330
42
102
}
330
42
100
AcDbScale
 70
     0
300
100:1
140
100.0
141
1.0
290
     0
  0
TABLESTYLE
  5
65
102
{ACAD_XDICTIONARY
360
38C
102
}
102
{ACAD_REACTORS
330
64
102
}
330
64
100
AcDbTableStyle
  3
Standard
 70
     0
 71
     3
 40
1.5
 41
1.5
280
     0
281
     0
  7
Standard
140
4.5
170
     2
 62
     0
 63
     7
283
     0
274
    -2
284
     1
 64
     0
275
    -2
285
     1
 65
     0
276
    -2
286
     1
 66
     0
277
    -2
287
     1
 67
     0
278
    -2
288
     1
 68
     0
279
    -2
289
     1
 69
     0
  7
Standard
140
6.0
170
     5
 62
     0
 63
     7
283
     0
274
    -2
284
     1
 64
     0
275
    -2
285
     1
 65
     0
276
    -2
286
     1
 66
     0
277
    -2
287
     1
 67
     0
278
    -2
288
     1
 68
     0
279
    -2
289
     1
 69
     0
  7
Standard
140
4.5
170
     5
 62
     0
 63
     7
283
     0
274
    -2
284
     1
 64
     0
275
    -2
285
     1
 65
     0
276
    -2
286
     1
 66
     0
277
    -2
287
     1
 67
     0
278
    -2
288
     1
 68
     0
279
    -2
289
     1
 69
     0
  0
VISUALSTYLE
  5
2F
102
{ACAD_XDICTIONARY
360
3E0
102
}
102
{ACAD_REACTORS
330
29
102
}
330
29
100
AcDbVisualStyle
  2

 70
     4
 71
     0
 72
     2
 73
     0
 90
        0
 40
-0.6
 41
-30.0
 62
     5
 63
     7
 74
     1
 91
        4
 64
     7
 65
   257
 75
     1
175
     1
 42
1.0
 92
        0
 66
   257
 43
1.0
 76
     1
 77
     6
 78
     2
 67
     7
 79
     5
170
     0
171
     0
290
     0
174
     0
 93
        1
 44
0.0
173
     0
291
     0
 45
0.0
1001
ACAD
1000
AcDbSavedByObjectVersion
1070
     0
  0
VISUALSTYLE
  5
2E
102
{ACAD_XDICTIONARY
360
3DE
102
}
102
{ACAD_REACTORS
330
29
102
}
330
29
100
AcDbVisualStyle
  2

 70
     7
 71
     1
 72
     0
 73
     1
 90
        0
 40
-0.6
 41
-30.0
 62
     5
 63
     7
 74
     0
 91
        4
 64
     7
 65
   257
 75
     1
175
     1
 42
1.0
 92
        8
 66
     7
 43
1.0
 76
     1
 77
     6
 78
     2
 67
     7
 79
     5
170
     0
171
     0
290
     0
174
     0
 93
        1
 44
0.0
173
     0
291
     1
 45
0.0
1001
ACAD
1000
AcDbSavedByObjectVersion
1070
     0
  0
VISUALSTYLE
  5
35
102
{ACAD_XDICTIONARY
360
3EC
102
}
102
{ACAD_REACTORS
330
29
102
}
330
29
100
AcDbVisualStyle
  2

 70
    12
 71
     2
 72
     2
 73
     0
 90
        0
 40
-0.6
 41
-30.0
 62
     5
 63
     7
 74
     1
 91
        4
 64
     7
 65
   257
 75
     1
175
     1
 42
1.0
 92
        8
 66
     7
 43
1.0
 76
     1
 77
     6
 78
     2
 67
     7
 79
     5
170
     0
171
     0
290
     0
174
     0
 93
        1
 44
50.0
173
     0
291
     1
 45
0.0
1001
ACAD
1000
AcDbSavedByObjectVersion
1070
     0
  0
VISUALSTYLE
  5
39
102
{ACAD_XDICTIONARY
360
3F4
102
}
102
{ACAD_REACTORS
330
29
102
}
330
29
100
AcDbVisualStyle
  2

 70
    16
 71
     2
 72
     2
 73
     3
 90
        0
 40
-0.6
 41
-30.0
 62
     5
 63
     8
 74
     1
 91
        4
 64
     7
 65
   257
 75
     1
175
     1
 42
1.0
 92
        8
 66
     8
 43
1.0
 76
     1
 77
     6
 78
     2
 67
     7
 79
     5
170
     0
171
     0
290
     0
174
     0
 93
        1
 44
0.0
173
     0
291
     1
 45
0.0
1001
ACAD
1000
AcDbSavedByObjectVersion
1070
     0
  0
VISUALSTYLE
  5
32
102
{ACAD_XDICTIONARY
360
3E6
102
}
102
{ACAD_REACTORS
330
29
102
}
330
29
100
AcDbVisualStyle
  2

 70
     9
 71
     3
 72
     2
 73
     0
 90
        0
 40
-0.6
 41
-30.0
 62
     5
 63
     7
 74
     2
 91
        2
 64
     7
 65
   257
 75
     1
175
     1
 42
179.0
 92
        8
 66
     7
 43
1.0
 76
     1
 77
     6
 78
     2
 67
     7
 79
     3
170
     0
171
     0
290
     0
174
     0
 93
        1
 44
0.0
173
     0
291
     0
 45
0.0
1001
ACAD
1000
AcDbSavedByObjectVersion
1070
     0
  0
VISUALSTYLE
  5
34
102
{ACAD_XDICTIONARY
360
3EA
102
}
102
{ACAD_REACTORS
330
29
102
}
330
29
100
AcDbVisualStyle
  2

 70
    11
 71
     2
 72
     2
 73
     0
 90
        0
 40
-0.6
 41
-30.0
 62
     5
 63
     7
 74
     1
 91
        4
 64
     7
 65
   257
 75
     1
175
     1
 42
1.0
 92
        8
 66
     7
 43
1.0
 76
     1
 77
     6
 78
     2
 67
     7
 79
     5
170
     0
171
     0
290
     0
174
     0
 93
        1
 44
-50.0
173
     0
291
     1
 45
0.0
1001
ACAD
1000
AcDbSavedByObjectVersion
1070
     0
  0
VISUALSTYLE
  5
41
102
{ACAD_XDICTIONARY
360
404
102
}
102
{ACAD_REACTORS
330
29
102
}
330
29
100
AcDbVisualStyle
  2

 70
    22
 71
     2
 72
     2
 73
     0
 90
        0
 40
-0.6
 41
-30.0
 62
     5
 63
     7
 74
     1
 91
        4
 64
     7
 65
   257
 75
     1
175
     1
 42
1.0
 92
        8
 66
     7
 43
1.0
 76
     1
 77
     6
 78
     2
 67
     7
 79
     5
170
     0
171
     0
290
     0
174
     0
 93
        1
 44
0.0
173
     0
291
     1
 45
0.0
1001
ACAD
1000
AcDbSavedByObjectVersion
1070
     0
  0
VISUALSTYLE
  5
38
102
{ACAD_XDICTIONARY
360
3F2
102
}
102
{ACAD_REACTORS
330
29
102
}
330
29
100
AcDbVisualStyle
  2

 70
    15
 71
     2
 72
     2
 73
     0
 90
        0
 40
-0.6
 41
-30.0
 62
     5
 63
     7
 74
     1
 91
        4
 64
     7
 65
   257
 75
     1
175
     1
 42
1.0
 92
        8
 66
     7
 43
1.0
 76
     1
 77
     6
 78
     2
 67
     7
 79
     5
170
     0
171
     0
290
     0
174
     0
 93
        1
 44
0.0
173
     0
291
     1
 45
0.0
1001
ACAD
1000
AcDbSavedByObjectVersion
1070
     0
  0
VISUALSTYLE
  5
2A
102
{ACAD_XDICTIONARY
360
3D6
102
}
102
{ACAD_REACTORS
330
29
102
}
330
29
100
AcDbVisualStyle
  2

 70
     0
 71
     2
 72
     1
 73
     1
 90
        2
 40
-0.6
 41
30.0
 62
     5
 63
     7
 74
     0
 91
        0
 64
     7
 65
   257
 75
     1
175
     1
 42
1.0
 92
        8
 66
     7
 43
1.0
 76
     1
 77
     6
 78
     2
 67
     7
 79
     5
170
     0
171
     0
290
     0
174
     0
 93
       13
 44
0.0
173
     0
291
     1
 45
0.0
1001
ACAD
1000
AcDbSavedByObjectVersion
1070
     0
  0
VISUALSTYLE
  5
2B
102
{ACAD_XDICTIONARY
360
3D8
102
}
102
{ACAD_REACTORS
330
29
102
}
330
29
100
AcDbVisualStyle
  2

 70
     1
 71
     2
 72
     1
 73
     1
 90
        2
 40
-0.6
 41
30.0
 62
     5
 63
     7
 74
     1
 91
        0
 64
     7
 65
   257
 75
     1
175
     1
 42
1.0
 92
        0
 66
   257
 43
1.0
 76
     1
 77
     6
 78
     2
 67
     7
 79
     5
170
     0
171
     0
290
     0
174
     0
 93
       13
 44
0.0
173
     0
291
     1
 45
0.0
1001
ACAD
1000
AcDbSavedByObjectVersion
1070
     0
  0
VISUALSTYLE
  5
2C
102
{ACAD_XDICTIONARY
360
3DA
102
}
102
{ACAD_REACTORS
330
29
102
}
330
29
100
AcDbVisualStyle
  2

 70
     2
 71
     2
 72
     2
 73
     1
 90
        2
 40
-0.6
 41
30.0
 62
     5
 63
     7
 74
     0
 91
        0
 64
     7
 65
   257
 75
     1
175
     1
 42
1.0
 92
        0
 66
     7
 43
1.0
 76
     1
 77
     6
 78
     2
 67
     7
 79
     5
170
     0
171
     0
290
     0
174
     0
 93
       13
 44
0.0
173
     0
291
     1
 45
0.0
1001
ACAD
1000
AcDbSavedByObjectVersion
1070
     0
  0
VISUALSTYLE
  5
2D
102
{ACAD_XDICTIONARY
360
3DC
102
}
102
{ACAD_REACTORS
330
29
102
}
330
29
100
AcDbVisualStyle
  2

 70
     3
 71
     2
 72
     2
 73
     1
 90
        2
 40
-0.6
 41
30.0
 62
     5
 63
     7
 74
     1
 91
        0
 64
     7
 65
   257
 75
     1
175
     1
 42
1.0
 92
        0
 66
   257
 43
1.0
 76
     1
 77
     6
 78
     2
 67
     7
 79
     5
170
     0
171
     0
290
     0
174
     0
 93
       13
 44
0.0
173
     0
291
     1
 45
0.0
1001
ACAD
1000
AcDbSavedByObjectVersion
1070
     0
  0
VISUALSTYLE
  5
31
102
{ACAD_XDICTIONARY
360
3E4
102
}
102
{ACAD_REACTORS
330
29
102
}
330
29
100
AcDbVisualStyle
  2

 70
     6
 71
     1
 72
     2
 73
     2
 90
        0
 40
-0.6
 41
-30.0
 62
     5
 63
     7
 74
     2
 91
        2
 64
     7
 65
   257
 75
     2
175
     1
 42
40.0
 92
        0
 66
   257
 43
1.0
 76
     1
 77
     6
 78
     2
 67
     7
 79
     3
170
     0
171
     0
290
     0
174
     0
 93
        1
 44
0.0
173
     0
291
     0
 45
0.0
1001
ACAD
1000
AcDbSavedByObjectVersion
1070
     0
  0
VISUALSTYLE
  5
3F
102
{ACAD_XDICTIONARY
360
400
102
}
102
{ACAD_REACTORS
330
29
102
}
330
29
100
AcDbVisualStyle
  2

 70
    20
 71
     2
 72
     2
 73
     0
 90
        0
 40
-0.6
 41
-30.0
 62
     5
 63
     7
 74
     1
 91
        4
 64
     7
 65
   257
 75
     1
175
     1
 42
1.0
 92
       10
 66
     7
 43
1.0
 76
     1
 77
     6
 78
     2
 67
     7
 79
     5
170
     0
171
     0
290
     0
174
     0
 93
        1
 44
0.0
173
     0
291
     1
 45
0.0
1001
ACAD
1000
AcDbSavedByObjectVersion
1070
     0
  0
VISUALSTYLE
  5
37
102
{ACAD_XDICTIONARY
360
3F0
102
}
102
{ACAD_REACTORS
330
29
102
}
330
29
100
AcDbVisualStyle
  2

 70
    14
 71
     2
 72
     2
 73
     0
 90
        0
 40
-0.6
 41
-30.0
 62
     5
 63
     7
 74
     1
 91
        4
 64
     7
 65
   257
 75
     7
175
     7
 42
1.0
 92
        8
 66
     7
 43
1.0
 76
     1
 77
     6
 78
     2
 67
     7
 79
     5
170
     0
171
     0
290
     0
174
     0
 93
        1
 44
0.0
173
     0
291
     1
 45
0.0
1001
ACAD
1000
AcDbSavedByObjectVersion
1070
     0
  0
VISUALSTYLE
  5
40
102
{ACAD_XDICTIONARY
360
402
102
}
102
{ACAD_REACTORS
330
29
102
}
330
29
100
AcDbVisualStyle
  2

 70
    21
 71
     2
 72
     2
 73
     0
 90
        0
 40
-0.6
 41
-30.0
 62
     5
 63
     7
 74
     1
 91
        4
 64
     7
 65
   257
 75
     1
175
     1
 42
1.0
 92
        9
 66
     7
 43
1.0
 76
     1
 77
     6
 78
     2
 67
     7
 79
     5
170
     0
171
     0
290
     0
174
     0
 93
        1
 44
0.0
173
     0
291
     1
 45
0.0
1001
ACAD
1000
AcDbSavedByObjectVersion
1070
     0
  0
VISUALSTYLE
  5
33
102
{ACAD_XDICTIONARY
360
3E8
102
}
102
{ACAD_REACTORS
330
29
102
}
330
29
100
AcDbVisualStyle
  2

 70
     8
 71
     2
 72
     3
 73
     0
 90
        2
 40
-0.6
 41
30.0
 62
     5
 63
     7
 74
     0
 91
        0
 64
     7
 65
   257
 75
     1
175
     1
 42
1.0
 92
        8
 66
   257
 43
1.0
 76
     1
 77
     6
 78
     2
 67
     7
 79
     3
170
     0
171
     0
290
     0
174
     0
 93
       13
 44
0.0
173
     0
291
     0
 45
0.0
1001
ACAD
1000
AcDbSavedByObjectVersion
1070
     0
  0
VISUALSTYLE
  5
3E
102
{ACAD_XDICTIONARY
360
3FE
102
}
102
{ACAD_REACTORS
330
29
102
}
330
29
100
AcDbVisualStyle
  2

 70
    27
 71
     2
 72
     2
 73
     1
 90
        2
 40
-0.6
 41
30.0
 62
     5
 63
     7
 74
     0
 91
        4
 64
     7
 65
   257
 75
     1
175
     1
 42
1.0
 92
        8
 66
   257
 43
1.0
 76
     1
 77
     6
 78
     2
 67
     8
 79
     3
170
     0
171
     0
290
     0
174
     0
 93
        5
 44
0.0
173
     0
291
     0
 45
0.0
1001
ACAD
1000
AcDbSavedByObjectVersion
1070
     0
  0
VISUALSTYLE
  5
3D
102
{ACAD_XDICTIONARY
360
3FC
102
}
102
{ACAD_REACTORS
330
29
102
}
330
29
100
AcDbVisualStyle
  2

 70
    26
 71
     2
 72
     2
 73
     1
 90
        2
 40
-0.6
 41
30.0
 62
     5
 63
     7
 74
     1
 91
       10
 64
     7
 65
   257
 75
     2
175
     1
 42
1.0
 92
        8
 66
   257
 43
1.0
 76
     1
 77
     6
 78
     2
 67
     7
 79
     3
170
     0
171
     0
290
     0
174
     0
 93
        5
 44
0.0
173
     0
291
     0
 45
0.0
1001
ACAD
1000
AcDbSavedByObjectVersion
1070
     0
  0
VISUALSTYLE
  5
3A
102
{ACAD_XDICTIONARY
360
3F6
102
}
102
{ACAD_REACTORS
330
29
102
}
330
29
100
AcDbVisualStyle
  2

 70
    23
 71
     2
 72
     2
 73
     3
 90
        0
 40
-0.6
 41
-30.0
 62
     5
 63
     7
 74
     2
 91
        2
 64
     7
 65
     7
 75
     1
175
     1
 42
40.0
 92
        8
 66
     7
 43
1.0
 76
     1
 77
     6
 78
     2
 67
     7
 79
     3
170
     0
171
     0
290
     0
174
     0
 93
        1
 44
0.0
173
     0
291
     0
 45
0.0
1001
ACAD
1000
AcDbSavedByObjectVersion
1070
     0
  0
VISUALSTYLE
  5
3B
102
{ACAD_XDICTIONARY
360
3F8
102
}
102
{ACAD_REACTORS
330
29
102
}
330
29
100
AcDbVisualStyle
  2

 70
    24
 71
     1
 72
     2
 73
     2
 90
        0
 40
-0.6
 41
-30.0
 62
     5
 63
     7
 74
     2
 91
        2
 64
     7
 65
     7
 75
     1
175
     1
 42
40.0
 92
       11
 66
     7
 43
1.0
 76
     1
 77
     6
 78
     2
 67
     7
 79
     6
170
     0
171
     0
290
     0
174
     0
 93
        1
 44
0.0
173
     0
291
     0
 45
0.0
1001
ACAD
1000
AcDbSavedByObjectVersion
1070
     0
  0
VISUALSTYLE
  5
36
102
{ACAD_XDICTIONARY
360
3EE
102
}
102
{ACAD_REACTORS
330
29
102
}
330
29
100
AcDbVisualStyle
  2

 70
    13
 71
     2
 72
     2
 73
     0
 90
        0
 40
-0.6
 41
-30.0
 62
     5
 63
     7
 74
     1
 91
        4
 64
     7
 65
   257
 75
     1
175
     1
 42
1.0
 92
       12
 66
     7
 43
1.0
 76
     1
 77
     6
 78
     2
 67
     7
 79
     5
170
     0
171
     0
290
     0
174
     0
 93
        1
 44
0.0
173
     0
291
     1
 45
0.0
1001
ACAD
1000
AcDbSavedByObjectVersion
1070
     0
  0
VISUALSTYLE
  5
30
102
{ACAD_XDICTIONARY
360
3E2
102
}
102
{ACAD_REACTORS
330
29
102
}
330
29
100
AcDbVisualStyle
  2

 70
     5
 71
     0
 72
     2
 73
     0
 90
        0
 40
-0.6
 41
-30.0
 62
     5
 63
     7
 74
     1
 91
        4
 64
     7
 65
   257
 75
     1
175
     1
 42
1.0
 92
        0
 66
   257
 43
1.0
 76
     1
 77
     6
 78
     2
 67
     7
 79
     3
170
     0
171
     0
290
     0
174
     0
 93
        1
 44
0.0
173
     0
291
     0
 45
0.0
1001
ACAD
1000
AcDbSavedByObjectVersion
1070
     0
  0
VISUALSTYLE
  5
3C
102
{ACAD_XDICTIONARY
360
3FA
102
}
102
{ACAD_REACTORS
330
29
102
}
330
29
100
AcDbVisualStyle
  2

 70
    25
 71
     2
 72
     2
 73
     1
 90
        1
 40
0.5
 41
-30.0
 62
     5
 63
     7
 74
     1
 91
        0
 64
     7
 65
   257
 75
     1
175
     1
 42
1.0
 92
        8
 66
     7
 43
1.0
 76
     1
 77
     6
 78
     2
 67
     7
 79
     3
170
     0
171
     0
290
     0
174
     0
 93
       13
 44
0.0
173
     0
291
     0
 45
0.0
1001
ACAD
1000
AcDbSavedByObjectVersion
1070
     0
  0
DICTIONARYVAR
  5
36F
102
{ACAD_REACTORS
330
36C
102
}
330
36C
100
DictionaryVariables
280
     0
  1
0
  0
DICTIONARYVAR
  5
370
102
{ACAD_REACTORS
330
36C
102
}
330
36C
100
DictionaryVariables
280
     0
  1
1:1
  0
DICTIONARYVAR
  5
36E
102
{ACAD_REACTORS
330
36C
102
}
330
36C
100
DictionaryVariables
280
     0
  1
STANDARD
  0
DICTIONARYVAR
  5
36D
102
{ACAD_REACTORS
330
36C
102
}
330
36C
100
DictionaryVariables
280
     0
  1
STANDARD
  0
DICTIONARYVAR
  5
3D0
102
{ACAD_REACTORS
330
36C
102
}
330
36C
100
DictionaryVariables
280
     0
  1
2
  0
DICTIONARYVAR
  5
3CE
102
{ACAD_REACTORS
330
36C
102
}
330
36C
100
DictionaryVariables
280
     0
  1
1
  0
DICTIONARYVAR
  5
3CD
102
{ACAD_REACTORS
330
36C
102
}
330
36C
100
DictionaryVariables
280
     0
  1
0
  0
DICTIONARYVAR
  5
371
102
{ACAD_REACTORS
330
36C
102
}
330
36C
100
DictionaryVariables
280
     0
  1
1
  0
DICTIONARYVAR
  5
372
102
{ACAD_REACTORS
330
36C
102
}
330
36C
100
DictionaryVariables
280
     0
  1
15
  0
DICTIONARYVAR
  5
38A
102
{ACAD_REACTORS
330
36C
102
}
330
36C
100
DictionaryVariables
280
     0
  1
2
  0
DICTIONARYVAR
  5
389
102
{ACAD_REACTORS
330
36C
102
}
330
36C
100
DictionaryVariables
280
     0
  1
1
  0
DICTIONARYVAR
  5
38B
102
{ACAD_REACTORS
330
36C
102
}
330
36C
100
DictionaryVariables
280
     0
  1
1
  0
DICTIONARYVAR
  5
3CC
102
{ACAD_REACTORS
330
36C
102
}
330
36C
100
DictionaryVariables
280
     0
  1
127
  0
DICTIONARYVAR
  5
3CF
102
{ACAD_REACTORS
330
36C
102
}
330
36C
100
DictionaryVariables
280
     0
  1
0
  0
DICTIONARY
  5
300
102
{ACAD_REACTORS
330
2FF
102
}
330
2FF
100
AcDbDictionary
281
     1
  0
DICTIONARY
  5
304
102
{ACAD_REACTORS
330
303
102
}
330
303
100
AcDbDictionary
281
     1
  0
DICTIONARY
  5
308
102
{ACAD_REACTORS
330
307
102
}
330
307
100
AcDbDictionary
281
     1
  0
DICTIONARY
  5
30C
102
{ACAD_REACTORS
330
30B
102
}
330
30B
100
AcDbDictionary
281
     1
  0
DICTIONARY
  5
310
102
{ACAD_REACTORS
330
30F
102
}
330
30F
100
AcDbDictionary
281
     1
  0
DICTIONARY
  5
314
102
{ACAD_REACTORS
330
313
102
}
330
313
100
AcDbDictionary
281
     1
  0
DICTIONARY
  5
384
330
6F
100
AcDbDictionary
280
     1
281
     1
  3
ACAD_XREC_ROUNDTRIP
360
409
  3
ADSK_XREC_LAYOUTTHUMBNAIL
360
385
  0
DICTIONARY
  5
407
330
6B
100
AcDbDictionary
280
     1
281
     1
  3
ACAD_XREC_ROUNDTRIP
360
408
  0
DICTIONARY
  5
40A
330
73
100
AcDbDictionary
280
     1
281
     1
  3
ACAD_XREC_ROUNDTRIP
360
40B
  0
DICTIONARY
  5
1A
330
19
100
AcDbDictionary
280
     1
281
     1
  3
ACAD_XREC_ROUNDTRIP
360
392
  3
BUMPTILE
360
1C
  3
DIFFUSETILE
360
1B
  3
OPACITYTILE
360
1F
  3
REFLECTIONTILE
360
1E
  3
REFRACTIONTILE
360
20
  3
SPECULARTILE
360
1D
  0
DICTIONARY
  5
12
330
11
100
AcDbDictionary
280
     1
281
     1
  3
ACAD_XREC_ROUNDTRIP
360
391
  3
BUMPTILE
360
14
  3
DIFFUSETILE
360
13
  3
OPACITYTILE
360
17
  3
REFLECTIONTILE
360
16
  3
REFRACTIONTILE
360
18
  3
SPECULARTILE
360
15
  0
DICTIONARY
  5
22
330
21
100
AcDbDictionary
280
     1
281
     1
  3
ACAD_XREC_ROUNDTRIP
360
393
  3
BUMPTILE
360
24
  3
DIFFUSETILE
360
23
  3
OPACITYTILE
360
27
  3
REFLECTIONTILE
360
26
  3
REFRACTIONTILE
360
28
  3
SPECULARTILE
360
25
  0
DICTIONARY
  5
3D2
330
67
100
AcDbDictionary
280
     1
281
     1
  3
ACAD_XREC_ROUNDTRIP
360
3D3
  0
DICTIONARY
  5
38C
330
65
100
AcDbDictionary
280
     1
281
     1
  3
ACAD_ROUNDTRIP_2008_TABLESTYLE_CELLSTYLEMAP
360
3D1
  3
ACAD_XREC_ROUNDTRIP
360
406
  0
DICTIONARY
  5
3E0
330
2F
100
AcDbDictionary
280
     1
281
     1
  3
ACAD_XREC_ROUNDTRIP
360
3E1
  0
DICTIONARY
  5
3DE
330
2E
100
AcDbDictionary
280
     1
281
     1
  3
ACAD_XREC_ROUNDTRIP
360
3DF
  0
DICTIONARY
  5
3EC
330
35
100
AcDbDictionary
280
     1
281
     1
  3
ACAD_XREC_ROUNDTRIP
360
3ED
  0
DICTIONARY
  5
3F4
330
39
100
AcDbDictionary
280
     1
281
     1
  3
ACAD_XREC_ROUNDTRIP
360
3F5
  0
DICTIONARY
  5
3E6
330
32
100
AcDbDictionary
280
     1
281
     1
  3
ACAD_XREC_ROUNDTRIP
360
3E7
  0
DICTIONARY
  5
3EA
330
34
100
AcDbDictionary
280
     1
281
     1
  3
ACAD_XREC_ROUNDTRIP
360
3EB
  0
DICTIONARY
  5
404
330
41
100
AcDbDictionary
280
     1
281
     1
  3
ACAD_XREC_ROUNDTRIP
360
405
  0
DICTIONARY
  5
3F2
330
38
100
AcDbDictionary
280
     1
281
     1
  3
ACAD_XREC_ROUNDTRIP
360
3F3
  0
DICTIONARY
  5
3D6
330
2A
100
AcDbDictionary
280
     1
281
     1
  3
ACAD_XREC_ROUNDTRIP
360
3D7
  0
DICTIONARY
  5
3D8
330
2B
100
AcDbDictionary
280
     1
281
     1
  3
ACAD_XREC_ROUNDTRIP
360
3D9
  0
DICTIONARY
  5
3DA
330
2C
100
AcDbDictionary
280
     1
281
     1
  3
ACAD_XREC_ROUNDTRIP
360
3DB
  0
DICTIONARY
  5
3DC
330
2D
100
AcDbDictionary
280
     1
281
     1
  3
ACAD_XREC_ROUNDTRIP
360
3DD
  0
DICTIONARY
  5
3E4
330
31
100
AcDbDictionary
280
     1
281
     1
  3
ACAD_XREC_ROUNDTRIP
360
3E5
  0
DICTIONARY
  5
400
330
3F
100
AcDbDictionary
280
     1
281
     1
  3
ACAD_XREC_ROUNDTRIP
360
401
  0
DICTIONARY
  5
3F0
330
37
100
AcDbDictionary
280
     1
281
     1
  3
ACAD_XREC_ROUNDTRIP
360
3F1
  0
DICTIONARY
  5
402
330
40
100
AcDbDictionary
280
     1
281
     1
  3
ACAD_XREC_ROUNDTRIP
360
403
  0
DICTIONARY
  5
3E8
330
33
100
AcDbDictionary
280
     1
281
     1
  3
ACAD_XREC_ROUNDTRIP
360
3E9
  0
DICTIONARY
  5
3FE
330
3E
100
AcDbDictionary
280
     1
281
     1
  3
ACAD_XREC_ROUNDTRIP
360
3FF
  0
DICTIONARY
  5
3FC
330
3D
100
AcDbDictionary
280
     1
281
     1
  3
ACAD_XREC_ROUNDTRIP
360
3FD
  0
DICTIONARY
  5
3F6
330
3A
100
AcDbDictionary
280
     1
281
     1
  3
ACAD_XREC_ROUNDTRIP
360
3F7
  0
DICTIONARY
  5
3F8
330
3B
100
AcDbDictionary
280
     1
281
     1
  3
ACAD_XREC_ROUNDTRIP
360
3F9
  0
DICTIONARY
  5
3EE
330
36
100
AcDbDictionary
280
     1
281
     1
  3
ACAD_XREC_ROUNDTRIP
360
3EF
  0
DICTIONARY
  5
3E2
330
30
100
AcDbDictionary
280
     1
281
     1
  3
ACAD_XREC_ROUNDTRIP
360
3E3
  0
DICTIONARY
  5
3FA
330
3C
100
AcDbDictionary
280
     1
281
     1
  3
ACAD_XREC_ROUNDTRIP
360
3FB
  0
XRECORD
  5
409
102
{ACAD_REACTORS
330
384
102
}
330
384
100
AcDbXrecord
280
     1
102
SHADEPLOT
 70
     0
102
SHADEPLOTRESLEVEL
 70
     2
102
SHADEPLOTCUSTOMDPI
 70
   300
  0
XRECORD
  5
385
102
{ACAD_REACTORS
330
384
102
}
330
384
100
AcDbXrecord
280
     1
310
280000000001000083000000010008000000000000830000000000000000000000010000000000000000000000000000FFFFFF000000000000000000000000000000000000000000000000000000000000000000330000006600000099000000CC000000FF00000000330000333300006633000099330000CC330000FF3300
310
0000660000336600006666000099660000CC660000FF66000000990000339900006699000099990000CC990000FF99000000CC000033CC000066CC000099CC0000CCCC0000FFCC000000FF000033FF000066FF000099FF0000CCFF0000FFFF000000003300330033006600330099003300CC003300FF003300003333003333
310
33006633330099333300CC333300FF33330000663300336633006666330099663300CC663300FF66330000993300339933006699330099993300CC993300FF99330000CC330033CC330066CC330099CC3300CCCC3300FFCC330000FF330033FF330066FF330099FF3300CCFF3300FFFF330000006600330066006600660099
310
006600CC006600FF00660000336600333366006633660099336600CC336600FF33660000666600336666006666660099666600CC666600FF66660000996600339966006699660099996600CC996600FF99660000CC660033CC660066CC660099CC6600CCCC6600FFCC660000FF660033FF660066FF660099FF6600CCFF6600
310
FFFF660000009900330099006600990099009900CC009900FF00990000339900333399006633990099339900CC339900FF33990000669900336699006666990099669900CC669900FF66990000999900339999006699990099999900CC999900FF99990000CC990033CC990066CC990099CC9900CCCC9900FFCC990000FF99
310
0033FF990066FF990099FF9900CCFF9900FFFF99000000CC003300CC006600CC009900CC00CC00CC00FF00CC000033CC003333CC006633CC009933CC00CC33CC00FF33CC000066CC003366CC006666CC009966CC00CC66CC00FF66CC000099CC003399CC006699CC009999CC00CC99CC00FF99CC0000CCCC0033CCCC0066CC
310
CC0099CCCC00CCCCCC00FFCCCC0000FFCC0033FFCC0066FFCC0099FFCC00CCFFCC00FFFFCC000000FF003300FF006600FF009900FF00CC00FF00FF00FF000033FF003333FF006633FF009933FF00CC33FF00FF33FF000066FF003366FF006666FF009966FF00CC66FF00FF66FF000099FF003399FF006699FF009999FF00CC
310
99FF00FF99FF0000CCFF0033CCFF0066CCFF0099CCFF00CCCCFF00FFCCFF0000FFFF0033FFFF0066FFFF0099FFFF00CCFFFF00FFFFFF00000000000D0D0D001A1A1A00282828003535350043434300505050005D5D5D006B6B6B00787878008686860093939300A1A1A100AEAEAE00BBBBBB00C9C9C900D6D6D600E4E4E400
310
F1F1F100FFFFFF000000000000000000000000000000000000000000000000000000000000000000000000000000000000000000000000000000000000000000000000000000000000000000000000000000000000000000000000000000000000000000000000000000000000000000000000000000000000000000000000
310
00000000000000000000000000000000000000000000000000000000000000000000000000000000000000000000000000000000000000000000000000000000000000000000000000000000000000000000000000000000000000000000000000000000000000000000000000000000000000000000000000000000000000
310
00000000000000000000000000000000000000000000000000000000000000000000000000000000000000000000000000000000000000000000000000000000000000000000000000000000000000000000000000000000000000000000000000000000000000000000000000000000000000000000000000000000000000
310
00000000000000000000000000000000000000000000000000000000000000000000000000000000000000000000000000000000000000000000000000000000000000000000000000000000000000000000000000000000000000000000000000000000000000000000000000000000000000000000000000000000000000
310
00000000000000000000000000000000000000000000000000000000000000000000000000000000000000000000000000000000000000000000000000000000000000000000000000000000000000000000000000000000000000000000000000000000000000000000000000000000000000000000000000000000000000
310
00000000000000000000000000000000000000000000000000000000000000000000000000000000000000000000000000000000000000000000000000000000000000000000000000000000000000000000000000000000000000000000000000000000000000000000000000000000000000000000000000000000000000
310
00000000000000000000000000000000000000000000000000000000000000000000000000000000000000000000000000000000000000000000000000000000000000000000000000000000000000000000000000000000000000000000000000000000000000000000000000000000000000000000000000000000000000
310
00000000000000000000000000000000000000000000000000000000000000000000000000000000000000000000000000000000000000000000000000000000000000000000000000000000000000000000000000000000000000000000000000000000000000000000000000000000000000000000000000000000000000
310
00000000000000000000000000000000000000000000000000000000000000000000000000000000000000000000000000000000000000000000000000000000000000000000000000000000000000000000000000000000000000000000000000000000000000000000000000000000000000000000000000000000000000
310
00000000000000000000000000000000000000000000000000000000000000000000000000000000000000000000000000000000000000000000000000000000000000000000000000000000000000000000000000000000000000000000000000000000000000000000000000000000000000000000000000000000000000
310
00000000000000000000000000000000000000000000000000000000000000000000000000000000000000000000000000000000000000000000000000000000000000000000000000000000000000000000000000000000000000000000000000000000000000000000000000000000000000000000000000000000000000
310
00000000000000000000000000000000000000000000000000000000000000000000000000000000000000000000000000000000000000000000000000000000000000000000000000000000000000000000000000000000000000000000000000000000000000000000000000000000000000000000000000000000000000
310
00000000000000000000000000000000000000000000000000000000000000000000000000000000000000000000000000000000000000000000000000000000000000000000000000000000000000000000000000000000000000000000000000000000000000000000000000000000000000000000000000000000000000
310
00000000000000000000000000000000000000000000000000000000000000000000000000000000000000000000000000000000000000000000000000000000000000000000000000000000000000000000000000000000000000000000000000000000000000000000000000000000000000000000000000000000000000
310
00000000000000000000000000000000000000000000000000000000000000000000000000000000000000000000000000000000000000000000000000000000000000000000000000000000000000000000000000000000000000000000000000000000000000000000000000000000000000000000000000000000000000
310
00000000000000000000000000000000000000000000000000000000000000000000000000000000000000000000000000000000000000000000000000000000000000000000000000000000000000000000000000000000000000000000000000000000000000000000000000000000000000000000000000000000000000
310
00000000000000000000000000000000000000000000000000000000000000000000000000000000000000000000000000000000000000000000000000000000000000000000000000000000000000000000000000000000000000000000000000000000000000000000000000000000000000000000000000000000000000
310
00000000000000000000000000000000000000000000000000000000000000000000000000000000000000000000000000000000000000000000000000000000000000000000000000000000000000000000000000000000000000000000000000000000000000000000000000000000000000000000000000000000000000
310
00000000000000000000000000000000000000000000000000000000000000000000000000000000000000000000000000000000000000000000000000000000000000000000000000000000000000000000000000000000000000000000000000000000000000000000000000000000000000000000000000000000000000
310
00000000000000000000000000000000000000000000000000000000000000000000000000000000000000000000000000000000000000000000000000000000000000000000000000000000000000000000000000000000000000000000000000000000000000000000000000000000000000000000000000000000000000
310
00000000000000000000000000000000000000000000000000000000000000000000000000000000000000000000000000000000000000000000000000000000000000000000000000000000000000000000000000000000000000000000000000000000000000000000000000000000000000000000000000000000000000
310
00000000000000000000000000000000000000000000000000000000000000000000000000000000000000000000000000000000000000000000000000000000000000000000000000000000000000000000000000000000000000000000000000000000000000000000000000000000000000000000000000000000000000
310
00000000000000000000000000000000000000000000000000000000000000000000000000000000000000000000000000000000000000000000000000000000000000000000000000000000000000000000000000000000000000000000000000000000000000000000000000000000000000000000000000000000000000
310
00000000000000000000000000000000000000000000000000000000000000000000000000000000000000000000000000000000000000000000000000000000000000000000000000000000000000000000000000000000000000000000000000000000000000000000000000000000000000000000000000000000000000
310
00000000000000000000000000000000000000000000000000000000000000000000000000000000000000000000000000000000000000000000000000000000000000000000000000000000000000000000000000000000000000000000000000000000000000000000000000000000000000000000000000000000000000
310
00000000000000000000000000000000000000000000000000000000000000000000000000000000000000000000000000000000000000000000000000000000000000000000000000000000000000000000000000000000000000000000000000000000000000000000000000000000000000000000000000000000000000
310
00000000000000000000000000000000000000000000000000000000000000000000000000000000000000000000000000000000000000000000000000000000000000000000000000000000000000000000000000000000000000000000000000000000000000000000000000000000000000000000000000000000000000
310
00000000000000000000000000000000000000000000000000000000000000000000000000000000000000000000000000000000000000000000000000000000000000000000000000000000000000000000000000000000000000000000000000000000000000000000000000000000000000000000000000000000000000
310
00000000000000000000000000000000000000000000000000000000000000000000000000000000000000000000000000000000000000000000000000000000000000000000000000000000000000000000000000000000000000000000000000000000000000000000000000000000000000000000000000000000000000
310
00000000000000000000000000000000000000000000000000000000000000000000000000000000000000000000000000000000000000000000000000000000000000000000000000000000000000000000000000000000000000000000000000000000000000000000000000000000000000000000000000000000000000
310
00000000000000000000000000000000000000000000000000000000000000000000000000000000000000000000000000000000000000000000000000000000000000000000000000000000000000000000000000000000000000000000000000000000000000000000000000000000000000000000000000000000000000
310
00000000000000000000000000000000000000000000000000000000000000000000000000000000000000000000000000000000000000000000000000000000000000000000000000000000000000000000000000000000000000000000000000000000000000000000000000000000000000000000000000000000000000
310
00000000000000000000000000000000000000000000000000000000000000000000000000000000000000000000000000000000000000000000000000000000000000000000000000000000000000000000000000000000000000000000000000000000000000000000000000000000000000000000000000000000000000
310
00000000000000000000000000000000000000000000000000000000000000000000000000000000000000000000000000000000000000000000000000000000000000000000000000000000000000000000000000000000000000000000000000000000000000000000000000000000000000000000000000000000000000
310
00000000000000000000000000000000000000000000000000000000000000000000000000000000000000000000000000000000000000000000000000000000000000000000000000000000000000000000000000000000000000000000000000000000000000000000000000000000000000000000000000000000000000
310
000000000000000000000000000000000000000000000000000000000000000000000000000000000000000000000000000000002D2D2D2D2D2D2D2D2D2D2D2D2D2D2D2D2D2D2D2D2D2D2D2D2D2D2D2D2D2D2D2D2D2D2DF52D2D2D2D2D2D2D2D2D2D2D2D2D2D2D2D2D2D2D2D2D2D2D2D2D2D2D2D2D2D2D2D2D2D2D00000000
310
00000000000000000000000000000000000000000000000000000000000000000000000000000000000000000000000000000000000000000000000000000000000000000000000000000000000000000000000000000000000000000000000000000000000000000000000000000000000000000000000000000000000000
310
0000000000000000000000000000000000000000000000000000000000000000000000000000000000000000000000000000000000002D00000000000000000000000000000000000000000000000000000000000000000000F5000000000000000000000000000000000000000000000000000000000000000000002D0000
310
00000000000000000000000000000000000000000000000000000000000000000000000000000000000000000000000000000000000000000000000000000000000000000000000000000000000000000000000000000000000000000000000000000000000000000000000000000000000000000000000000000000000000
310
00000000000000000000000000000000000000000000000000000000000000000000000000000000000000000000000000000000000000002D00000000000000000000000000000000000000000000000000000000000000000000F5000000000000000000000000000000000000000000000000000000000000000000002D
310
00000000000000000000000000000000000000000000000000000000000000000000000000000000000000000000000000000000000000000000000000000000000000000000000000000000000000000000000000000000000000000000000000000000000000000000000000000000000000000000000000000000000000
310
000000000000000000000000000000000000000000000000000000000000000000000000000000000000000000000000000000000000000000002D000000F5F5F5F5F5F5F5F5F5F5F5F5F5F5F5F5F5F5F5F5F5F5F5F5F5F5F5F5F5F5F5F5F5F5F5F5F5F5F5F5F5F5F5F5F5F5F5F5F5F5F5F5F5F5F5F5F5F5F5F5F5F5F50000
310
002D0000000000000000000000000000000000000000000000000000000000000000000000000000000000000000000000000000000000000000000000000000000000000000000000000000000000000000000000000000000000000000000000000000000000000000000000000000000000000000000000000000000000
310
0000000000000000000000000000000000000000000000000000000000000000000000000000000000000000000000000000000000000000000000002D000000F5F5F5F5F5F5F5F5F5F5F5F5F5F5F5F5F5F500F5F5F5F5F5F5F5F5F5F5F5F5F5F5F5F5F5F5F5F5F5F5F5F5F5F500000000000000000000000000F5000000F5
310
0000002D000000000000000000000000000000000000000000000000000000000000000000000000000000000000000000000000000000000000000000000000000000000000000000000000000000000000000000000000000000000000000000000000000000000000000000000000000000000000000000000000000000
310
00000000000000000000000000000000000000000000000000000000000000000000000000000000000000000000000000000000000000000000000000002D000000F5F5F5F5F5F5F5F5F5F5F5F5F5F5F5F5F5F500F5F5F5F5F5F5F5F5F5F5F5F5F5F5F5F500F5F5F5F5F5F5F5F5F500000000000000000000000000F50000
310
00F50000002D00000000000000000000000000000000000000000000000000000000000000000000000000000000000000000000000000000000000000000000000000000000000000000000000000000000000000000000000000000000000000000000000000000000000000000000000000000000000000000000000000
310
000000000000000000000000000000000000000000000000000000000000000000000000000000000000000000000000000000000000000000000000000000002D000000F5F5F5F5F5F5F5F5F5F5F5F5F5F5F5F5F50000F5F5F5F5F5F50000000000F5F5F5F5F5F5F5F5F5F5F5F5F5F5F5F5F5F5F5F5F5F5F5F5F5F5F5F5F5
310
F5F5F5F50000002D0000000000000000000000000000000000000000000000000000000000000000000000000000000000000000000000000000000000000000000000000000000000000000000000000000000000000000000000000000000000000000000000000000000000000000000000000000000000000000000000
310
0000000000000000000000000000000000000000000000000000000000000000000000000000000000000000000000000000000000000000000000000000000000002D000000F5F500F5F5F5F5F5F5F5F5F5F5F5F5F5000000F5F5F5F5F5F50000F5F500F5F500000000F5000000000000F5F5000000000000000000000000
310
0000000000F50000002D000000000000000000000000000000000000000000000000000000000000000000000000000000000000000000000000000000000000000000000000000000000000000000000000000000000000000000000000000000000000000000000000000000000000000000000000000000000000000000
310
00000000000000000000000000000000000000000000000000000000000000000000000000000000000000000000000000000000000000000000000000000000000000002D000000F5F500F5F5F5F5F5F500F5F5F5F5F5F5000000F5F50000F5F50000F5F500F5F5F5F5F5F5F5F5F5F5F5F5F5F5F5F5F5F5F5F5F5F5F5F5F5
310
F5F5F5F5F5F5F5F50000002D00000000000000000000000000000000000000000000000000000000000000000000000000000000000000000000000000000000000000000000000000000000000000000000000000000000000000000000000000000000000000000000000000000000000000000000000000000000000000
310
000000000000000000000000000000000000000000000000000000000000000000000000000000000000000000000000000000000000000000000000000000000000000000002D000000F5F50000F5F5F5F5F5F5F5F5F5F5F5F5F500000000000000000000000000F5F500000000F5000000000000F5F50000000000000000
310
000000000000000000F50000002D0000000000000000000000000000000000000000000000000000000000000000000000000000000000000000000000000000000000000000000000000000000000000000000000000000000000000000000000000000000000000000000000000000000000000000000000000000000000
310
0000000000000000000000000000000000000000000000000000000000000000000000000000000000000000000000000000000000000000000000000000000000000000000000002D000000F5F5F5F5F5F5F5F5F5F5F5F5F5F5F5F5F5F5F5F5F5F5F5F5F5F5F5F5F5F5F5F5F5F5F5F5F5F5F5F5F5F5F5F5F5F5F5F5F5F5F5
310
F5F5F5F5F5F5F5F5F5F5F5F50000002D000000000000000000000000000000000000000000000000000000000000000000000000000000000000000000000000000000000000000000000000000000000000000000000000000000000000000000000000000000000000000000000000000000000000000000000000000000
310
00000000000000000000000000000000000000000000000000000000000000000000000000000000000000000000000000000000000000000000000000000000000000000000000000002D000000F5F5F5F5F5F5F5F5F5F5F5F5F5F500000000000000000000000000000000F5F500000000F5000000000000F5F50000F5F5
310
F5F5F5F5F5F5F5F5F5F5F50000F50000002D00000000000000000000000000000000000000000000000000000000000000000000000000000000000000000000000000000000000000000000000000000000000000000000000000000000000000000000000000000000000000000000000000000000000000000000000000
310
000000000000000000000000000000000000000000000000000000000000000000000000000000000000000000000000000000000000000000000000000000000000000000000000000000002D000000F5F5F5F5F5F5F5F5F5F5F5F5F5F5F5F5F5F5F5F5F5F5F5F5F5F5F5F5F5F5F5F5F5F5F5F5F5F5F5F5F5F5F5F5F5F5F5
310
F5F5F5F5F5F5F5F5F5F5F5F5F5F5F5F50000002D0000000000000000000000000000000000000000000000000000000000000000000000000000000000000000000000000000000000000000000000000000000000000000000000000000000000000000000000000000000000000000000000000000000000000000000000
310
0000000000000000000000000000000000000000000000000000000000000000000000000000000000000000000000000000000000000000000000000000000000000000000000000000000000002D000000F5F5F5F500F5F500000000F5F5000000F5F500F50000F5F500F5F50000F5F5F50000F5F500F5F50000F50000F5
310
F50000F5000000F5F50000F5F500000000F50000002D000000000000000000000000000000000000000000000000000000000000000000000000000000000000000000000000000000000000000000000000000000000000000000000000000000000000000000000000000000000000000000000000000000000000000000
310
00000000000000000000000000000000000000000000000000000000000000000000000000000000000000000000000000000000000000000000000000000000000000000000000000000000000000002D000000F5F5F5F500F5F500000000F5F5000000F5F500F50000F5F500F5F50000F5F5F50000F5F500F5F50000F500
310
00F5F50000F5000000F5F50000F5F500000000F50000002D00000000000000000000000000000000000000000000000000000000000000000000000000000000000000000000000000000000000000000000000000000000000000000000000000000000000000000000000000000000000000000000000000000000000000
310
000000000000000000000000000000000000000000000000000000000000000000000000000000000000000000000000000000000000000000000000000000000000000000000000000000000000000000002D000000F5F5F5F5F5F5F5F5F5F5F5F5F5F5F5F5F5F5F5F5F5F5F5F5F5F5F5F5F5F5F5F5F5F5F5F5F5F5F5F5F5
310
F5F5F5F5F5F5F5F5F5F5F5F5F5F5F5F5F5F5F5F5F5F50000002D0000000000000000000000000000000000000000000000000000000000000000000000000000000000000000000000000000000000000000000000000000000000000000000000000000000000000000000000000000000000000000000000000000000000
310
0000000000000000000000000000000000000000000000000000000000000000000000000000000000000000000000000000000000000000000000000000000000000000000000000000000000000000000000002D000000F5F500F50000F5F5F5F5F5F5F5F5F5F5F50000F5F5F5F5F5F5F5F5F5F5F500F5000000F5F5F5F5
310
F5F5F5F5F5F5000000F500000000000000000000000000F50000002D000000000000000000000000000000000000000000000000000000000000000000000000000000000000000000000000000000000000000000000000000000000000000000000000000000000000000000000000000000000000000000000000000000
310
00000000000000000000000000000000000000000000000000000000000000000000000000000000000000000000000000000000000000000000000000000000000000000000000000000000000000000000000000002D000000F5F5F5F5F5F5F5F5F5F5F5F5F5F5F5F5F5F5F5F5F5F5F5F5F5F5F5F5F5F5F5F5F5F5F5F5F5
310
F5F5F5F5F5F5F5F5F5F5F5F5F5F5F5F5F5F5F5F5F5F5F5F5F5F50000002D00000000000000000000000000000000000000000000000000000000000000000000000000000000000000000000000000000000000000000000000000000000000000000000000000000000000000000000000000000000000000000000000000
310
000000000000000000000000000000000000000000000000000000000000000000000000000000000000000000000000000000000000000000000000000000000000000000000000000000000000000000000000000000002D000000F5F5000000000000000000000000000000000000000000000000000000000000000000
310
000000000000000000000000000000000000000000000000000000F50000002D0000000000000000000000000000000000000000000000000000000000000000000000000000000000000000000000000000000000000000000000000000000000000000000000000000000000000000000000000000000000000000000000
310
0000000000000000000000000000000000000000000000000000000000000000000000000000000000000000000000000000000000000000000000000000000000000000000000000000000000000000000000000000000000002D000000F5F500000000000000000000000000000000000000000000000000000000000000
310
0000000000000000000000000000000000000000000000000000000000F50000002D000000000000000000000000000000000000000000000000000000000000000000000000000000000000000000000000000000000000000000000000000000000000000000000000000000000000000000000000000000000000000000
310
00000000000000000000000000000000000000000000000000000000000000000000000000000000000000000000000000000000000000000000000000000000000000000000000000000000000000000000000000000000000000002D000000F5F50000000000000000000000000000000000000000000000000000000000
310
00000000000000000000000000000000000000000000000000000000000000F50000002D00000000000000000000000000000000000000000000000000000000000000000000000000000000000000000000000000000000000000000000000000000000000000000000000000000000000000000000000000000000000000
310
000000000000000000000000000000000000000000000000000000000000000000000000000000000000000000000000000000000000000000000000000000000000000000000000000000000000000000000000000000000000000000002D000000F5F5000000000000000000000000000000000000000000000000000000
310
000000000000000000000000000000000000000000000000000000000000000000F50000002D0000000000000000000000000000000000000000000000000000000000000000000000000000000000000000000000000000000000000000000000000000000000000000000000000000000000000000000000000000000000
310
0000000000000000000000000000000000000000000000000000000000000000000000000000000000000000000000000000000000000000000000000000000000000000000000000000000000000000000000000000000000000000000000002D000000F5F500000000000000000000000000000000000000000000000000
310
0000000000000000000000000000000000000000000000000000000000000000000000F50000002D000000000000000000000000000000000000000000000000000000000000000000000000000000000000000000000000000000000000000000000000000000000000000000000000000000000000000000000000000000
310
00000000000000000000000000000000000000000000000000000000000000000000000000000000000000000000000000000000000000000000000000000000000000000000000000000000000000000000000000000000000000000000000000002D000000F5F50000000000000000000000000000000000000000000000
310
00000000000000000000000000000000000000000000000000000000000000000000000000F50000002D00000000000000000000000000000000000000000000000000000000000000000000000000000000000000000000000000000000000000000000000000000000000000000000000000000000000000000000000000
310
000000000000000000000000000000000000000000000000000000000000000000000000000000000000000000000000000000000000000000000000000000000000000000000000000000000000000000000000000000000000000000000000000000002D000000F5F5000000000000000000000000000000000000000000
310
000000000000000000000000000000000000000000000000000000000000000000000000000000F50000002D0000000000000000000000000000000000000000000000000000000000000000000000000000000000000000000000000000000000000000000000000000000000000000000000000000000000000000000000
310
0000000000000000000000000000000000000000000000000000000000000000000000000000000000000000000000000000000000000000000000000000000000000000000000000000000000000000000000000000000000000000000000000000000000002D000000F5F500000000000000000000000000000000000000
310
0000000000000000000000000000000000000000000000000000000000000000000000000000000000F50000002D000000000000000000000000000000000000000000000000000000000000000000000000000000000000000000000000000000000000000000000000000000000000000000000000000000000000000000
310
00000000000000000000000000000000000000000000000000000000000000000000000000000000000000000000000000000000000000000000000000000000000000000000000000000000000000000000000000000000000000000000000000000000000000002D000000F5F50000F5F5F5F5F5F5F5F5F5F5F5F5F5F5F5
310
F5F5F5F5F5F5F5F5F5F5F5F5F5F5F5F5F5F5F5F5F5F5F5F5F5F5F5F5F5F5F5F5F5F5F5F5F5F5F5F5F50000F50000002D00000000000000000000000000000000000000000000000000000000000000000000000000000000000000000000000000000000000000000000000000000000000000000000000000000000000000
310
000000000000000000000000000000000000000000000000000000000000000000000000000000000000000000000000000000000000000000000000000000000000000000000000000000000000000000000000000000000000000000000000000000000000000000002D000000F5F50000F5000000000000000000000000
310
000000000000000000000000000000000000000000000000000000000000000000000000000000000000F50000F50000002D0000000000000000000000000000000000000000000000000000000000000000000000000000000000000000000000000000000000000000000000000000000000000000000000000000000000
310
0000000000000000000000000000000000000000000000000000000000000000000000000000000000000000000000000000000000000000000000000000000000000000000000000000000000000000000000000000000000000000000000000000000000000000000000002D000000F5F50000F500000000000000000000
310
0000000000000000000000000000000000000000000000000000000000000000000000000000000000000000F50000F50000002D000000000000000000000000000000000000000000000000000000000000000000000000000000000000000000000000000000000000000000000000000000000000000000000000000000
310
00000000000000000000000000000000000000000000000000000000000000000000000000000000000000000000000000000000000000000000000000000000000000000000000000000000000000000000000000000000000000000000000000000000000000000000000000002D000000F5F50000F50000000000000000
310
00000000000000000000000000000000000000000000000000000000000000000000000000000000000000000000F50000F50000002D00000000000000000000000000000000000000000000000000000000000000000000000000000000000000000000000000000000000000000000000000000000000000000000000000
310
000000000000000000000000000000000000000000000000000000000000000000000000000000000000000000000000000000000000000000000000000000000000000000000000000000000000000000000000000000000000000000000000000000000000000000000000000000002D000000F5F50000F5000000000000
310
000000000000000000000000000000000000000000000000000000000000000000000000000000000000000000000000F50000F50000002D0000000000000000000000000000000000000000000000000000000000000000000000000000000000000000000000000000000000000000000000000000000000000000000000
310
0000000000000000000000000000000000000000000000000000000000000000000000000000000000000000000000000000000000000000000000000000000000000000000000000000000000000000000000000000000000000000000000000000000000000000000000000000000000002D000000F5F50000F500000000
310
0000000000000000000000000000000000000000000000000000000000000000000000000000000000000000000000000000F50000F50000002D000000000000000000000000000000000000000000000000000000000000000000000000000000000000000000000000000000000000000000000000000000000000000000
310
00000000000000000000000000000000000000000000000000000000000000000000000000000000000000000000000000000000000000000000000000000000000000000000000000000000000000000000000000000000000000000000000000000000000000000000000000000000000000002D000000F5F50000F50000
310
00000000000000000000000000000000000000000000000000000000000000000000000000000000000000000000000000000000F50000F50000002D00000000000000000000000000000000000000000000000000000000000000000000000000000000000000000000000000000000000000000000000000000000000000
310
000000000000000000000000000000000000000000000000000000000000000000000000000000000000000000000000000000000000000000000000000000000000000000000000000000000000000000000000000000000000000000000000000000000000000000000000000000000000000000002D000000F5F50000F5
310
000000000000000000000000000000000000000000000000000000000000000000000000000000000000000000000000000000000000F50000F50000002D0000000000000000000000000000000000000000000000000000000000000000000000000000000000000000000000000000000000000000000000000000000000
310
0000000000000000000000000000000000000000000000000000000000000000000000000000000000000000000000000000000000000000000000000000000000000000000000000000000000000000000000000000000000000000000000000000000000000000000000000000000000000000000000002D000000F5F500
310
00F5000000000000000000000000000000000000000000000000000000000000000000000000000000000000000000000000000000000000F50000F50000002D000000000000000000000000000000000000000000000000000000000000000000000000000000000000000000000000000000000000000000000000000000
310
00000000000000000000000000000000000000000000000000000000000000000000000000000000000000000000000000000000000000000000000000000000000000000000000000000000000000000000000000000000000000000000000000000000000000000000000000000000000000000000000000002D000000F5
310
F50000F5000000000000000000000000000000000000000000000000000000000000000000000000000000000000000000000000000000000000F50000F50000002D00000000000000000000000000000000000000000000000000000000000000000000000000000000000000000000000000000000000000000000000000
310
000000000000000000000000000000000000000000000000000000000000000000000000000000000000000000000000000000000000000000000000000000000000000000000000000000000000000000000000000000000000000000000000000000000000000000000000000000000000000000000000000000002D0000
310
00F5F50000F5000000000000000000000000000000000000000000000000000000000000000000000000000000000000000000000000000000000000F50000F50000002D0000000000000000000000000000000000000000000000000000000000000000000000000000000000000000000000000000000000000000000000
310
0000000000000000000000000000000000000000000000000000000000000000000000000000000000000000000000000000000000000000000000000000000000000000000000000000000000000000000000000000000000000000000000000000000000000000000000000000000000000000000000000000000000002D
310
000000F5F50000F5000000000000000000000000000000000000000000000000000000000000000000000000000000000000000000000000000000000000F50000F50000002D000000000000000000000000000000000000000000000000000000000000000000000000000000000000000000000000000000000000000000
310
00000000000000000000000000000000000000000000000000000000000000000000000000000000000000000000000000000000000000000000000000000000000000000000000000000000000000000000000000000000000000000000000000000000000000000000000000000000000000000000000000000000000000
310
002D000000F5F50000F5000000000000000000000000000000000000000000000000000000000000000000000000000000000000000000000000000000000000F50000F50000002D00000000000000000000000000000000000000000000000000000000000000000000000000000000000000000000000000000000000000
310
00000000000000000000000000000000000000000000000000000000000000000000000000000000000000000000000000000000000000000000000000000000000000000000000000000000000000000000000000000000000000000000000000000000000000000000000000000000000000000000000000000000000000
310
0000002D000000F5F50000F5000000000000000000000000000000000000000000000000000000000000000000000000000000000000000000000000000000000000F50000F50000002D0000000000000000000000000000000000000000000000000000000000000000000000000000000000000000000000000000000000
310
00000000000000000000000000000000000000000000000000000000000000000000000000000000000000000000000000000000000000000000000000000000000000000000000000000000000000000000000000000000000000000000000000000000000000000000000000000000000000000000000000000000000000
310
00000000002D000000F5F50000F5000000000000000000000000000000000000000000000000000000000000000000000000000000000000000000000000000000000000F50000F50000002D000000000000000000000000000000000000000000000000000000000000000000000000000000000000000000000000000000
310
00000000000000000000000000000000000000000000000000000000000000000000000000000000000000000000000000000000000000000000000000000000000000000000000000000000000000000000000000000000000000000000000000000000000000000000000000000000000000000000000000000000000000
310
000000000000002D000000F5F50000F5000000000000000000000000000000000000000000000000000000000000000000000000000000000000000000000000000000000000F50000F50000002D00000000000000000000000000000000000000000000000000000000000000000000000000000000000000000000000000
310
00000000000000000000000000000000000000000000000000000000000000000000000000000000000000000000000000000000000000000000000000000000000000000000000000000000000000000000000000000000000000000000000000000000000000000000000000000000000000000000000000000000000000
310
0000000000000000002D000000F5F50000F5000000000000000000000000000000000000000000000000000000000000000000000000000000000000000000000000000000000000F50000F50000002D0000000000000000000000000000000000000000000000000000000000000000000000000000000000000000000000
310
00000000000000000000000000000000000000000000000000000000000000000000000000000000000000000000000000000000000000000000000000000000000000000000000000000000000000000000000000000000000000000000000000000000000000000000000000000000000000000000000000000000000000
310
00000000000000000000002D000000F5F50000F5000000000000000000000000000000000000000000000000000000000000000000000000000000000000000000000000000000000000F50000F50000002D000000000000000000000000000000000000000000000000000000000000000000000000000000000000000000
310
00000000000000000000000000000000000000000000000000000000000000000000000000000000000000000000000000000000000000000000000000000000000000000000000000000000000000000000000000000000000000000000000000000000000000000000000000000000000000000000000000000000000000
310
000000000000000000000000002D000000F5F50000F5000000000000000000000000000000000000000000000000000000000000000000000000000000000000000000000000000000000000F50000F50000002D00000000000000000000000000000000000000000000000000000000000000000000000000000000000000
310
00000000000000000000000000000000000000000000000000000000000000000000000000000000000000000000000000000000000000000000000000000000000000000000000000000000000000000000000000000000000000000000000000000000000000000000000000000000000000000000000000000000000000
310
0000000000000000000000000000002D000000F5F50000F5000000000000000000000000000000000000000000000000000000000000000000000000000000000000000000000000000000000000F50000F50000002D0000000000000000000000000000000000000000000000000000000000000000000000000000000000
310
00000000000000000000000000000000000000000000000000000000000000000000000000000000000000000000000000000000000000000000000000000000000000000000000000000000000000000000000000000000000000000000000000000000000000000000000000000000000000000000000000000000000000
310
00000000000000000000000000000000002D000000F5F50000F5000000000000000000000000000000000000000000000000000000000000000000000000000000000000000000000000000000000000F50000F50000002D000000000000000000000000000000000000000000000000000000000000000000000000000000
310
00000000000000000000000000000000000000000000000000000000000000000000000000000000000000000000000000000000000000000000000000000000000000000000000000000000000000000000000000000000000000000000000000000000000000000000000000000000000000000000000000000000000000
310
000000000000000000000000000000000000002D000000F5F50000F5000000000000000000000000000000000000000000000000000000000000000000000000000000000000000000000000000000000000F50000F50000002D00000000000000000000000000000000000000000000000000000000000000000000000000
310
00000000000000000000000000000000000000000000000000000000000000000000000000000000000000000000000000000000000000000000000000000000000000000000000000000000000000000000000000000000000000000000000000000000000000000000000000000000000000000000000000000000000000
310
0000000000000000000000000000000000000000002D000000F5F50000F5000000000000000000000000000000000000000000000000000000000000000000000000000000000000000000000000000000000000F50000F50000002D0000000000000000000000000000000000000000000000000000000000000000000000
310
00000000000000000000000000000000000000000000000000000000000000000000000000000000000000000000000000000000000000000000000000000000000000000000000000000000000000000000000000000000000000000000000000000000000000000000000000000000000000000000000000000000000000
310
0000000000000000000000000000000000000000000000F5F5F5F5F5F50000F50000000000000000000000000000000000000000000000F5F5F5F5F5F5F5F50000000000000000000000000000000000000000000000F50000F5F5F5F5F5000000000000000000000000000000000000000000000000000000000000000000
310
00000000000000000000000000000000000000000000000000000000000000000000000000000000000000000000000000000000000000000000000000000000000000000000000000000000000000000000000000000000000000000000000000000000000000000000000000000000000000000000000000000000000000
310
000000000000000000000000000000000000000000000000002D000000F5F50000F50000000000000000000000000000000000000000000000F50000F5F50000F50000000000000000000000000000000000000000000000F50000F50000002D00000000000000000000000000000000000000000000000000000000000000
310
00000000000000000000000000000000000000000000000000000000000000000000000000000000000000000000000000000000000000000000000000000000000000000000000000000000000000000000000000000000000000000000000000000000000000000000000000000000000000000000000000000000000000
310
0000000000000000000000000000000000000000000000000000002D000000F5F50000F50000000000000000000000000000000000000000000000F5000000000000F50000000000000000000000000000000000000000000000F50000F50000002D0000000000000000000000000000000000000000000000000000000000
310
00000000000000000000000000000000000000000000000000000000000000000000000000000000000000000000000000000000000000000000000000000000000000000000000000000000000000000000000000000000000000000000000000000000000000000000000000000000000000000000000000000000000000
310
00000000000000000000000000000000000000000000000000000000002D000000F5F50000F50000000000000000000000F5F5F5F5F50000F5F5000000F5F5F5F5F5F5F5F5000000F50000F5F5000000000000000000000000000000F50000F50000002D000000000000000000000000000000000000000000000000000000
310
00000000000000000000000000000000000000000000000000000000000000000000000000000000000000000000000000000000000000000000000000000000000000000000000000000000000000000000000000000000000000000000000000000000000000000000000000000000000000000000000000000000000000
310
000000000000000000000000000000000000000000000000000000000000002D000000F5F50000F500000000000000000000F5F5000000F5F5F5F5F5000000F5F500F5F5F500F5000000F5F5F5F5F5000000000000000000000000000000F50000F50000002D00000000000000000000000000000000000000000000000000
310
00000000000000000000000000000000000000000000000000000000000000000000000000000000000000000000000000000000000000000000000000000000000000000000000000000000000000000000000000000000000000000000000000000000000000000000000000000000000000000000000000000000000000
310
0000000000000000000000000000000000000000000000000000000000000000002D000000F5F50000F500000000000000000000F5F5F5F5F5F5F5F5F5F5F5F5F5F5F5F500F500F5F5F5F5F5F5F5F500F5000000000000000000000000000000F50000F50000002D0000000000000000000000000000000000000000000000
310
00000000000000000000000000000000000000000000000000000000000000000000000000000000000000000000000000000000000000000000000000000000000000000000000000000000000000000000000000000000000000000000000000000000000000000000000000000000000000000000000000000000000000
310
00000000000000000000000000000000000000000000000000000000000000000000002D000000F5F50000F5000000000000000000000000000000F50000000000000000F50000F50000F500000000000000F5000000000000000000000000000000F50000F50000002D000000000000000000000000000000000000000000
310
00000000000000000000000000000000000000000000000000000000000000000000000000000000000000000000000000000000000000000000000000000000000000000000000000000000000000000000000000000000000000000000000000000000000000000000000000000000000000000000000000000000000000
310
000000000000000000000000000000000000000000000000000000000000000000000000002D000000F5F50000F5000000000000000000000000000000F50000000000000000F50000F50000F500000000000000F5000000000000000000000000000000F50000F50000002D00000000000000000000000000000000000000
310
00000000000000000000000000000000000000000000000000000000000000000000000000000000000000000000000000000000000000000000000000000000000000000000000000000000000000000000000000000000000000000000000000000000000000000000000000000000000000000000000000000000000000
310
0000000000000000000000000000000000000000000000000000000000000000000000000000002D000000F5F50000F5000000000000000000000000000000F50000000000000000F50000F50000F500000000000000F5000000000000000000000000000000F50000F50000002D0000000000000000000000000000000000
310
00000000000000000000000000000000000000000000000000000000000000000000000000000000000000000000000000000000000000000000000000000000000000000000000000000000000000000000000000000000000000000000000000000000000000000000000000000000000000000000000000000000000000
310
00000000000000000000000000000000000000000000000000000000000000000000000000000000002D000000F5F50000F5000000000000000000000000000000F50000000000000000F50000F50000F500000000000000F5000000000000000000000000000000F50000F50000002D000000000000000000000000000000
310
00000000000000000000000000000000000000000000000000000000000000000000000000000000000000000000000000000000000000000000000000000000000000000000000000000000000000000000000000000000000000000000000000000000000000000000000000000000000000000000000000000000000000
310
000000000000000000000000000000000000000000000000000000000000000000000000000000000000002D000000F5F50000F5000000000000000000000000000000F50000000000000000F5F5F5F5F5F5F500000000000000F5000000000000000000000000000000F50000F50000002D00000000000000000000000000
310
00000000000000000000000000000000000000000000000000000000000000000000000000000000000000000000000000000000000000000000000000000000000000000000000000000000000000000000000000000000000000000000000000000000000000000000000000000000000000000000000000000000000000
310
0000000000000000000000000000000000000000000000000000000000000000000000000000000000000000002D000000F5F50000F5000000000000000000000000000000F5000000000000000000F5F5F5000000000000000000F5F5000000000000000000000000000000F50000F50000002D0000000000000000000000
310
00000000000000000000000000000000000000000000000000000000000000000000000000000000000000000000000000000000000000000000000000000000000000000000000000000000000000000000000000000000000000000000000000000000000000000000000000000000000000000000000000000000000000
310
00000000000000000000000000000000000000000000000000000000000000000000000000000000000000000000002D000000F5F50000F5000000000000000000000000000000F5F5F5F5F5F5F5F5F5F5F5F5F5F5F5F5F5F5F5F5F5F5F5F5000000000000000000000000000000F50000F50000002D000000000000000000
310
00000000000000000000000000000000000000000000000000000000000000000000000000000000000000000000000000000000000000000000000000000000000000000000000000000000000000000000000000000000000000000000000000000000000000000000000000000000000000000000000000000000000000
310
000000000000000000000000000000000000000000000000000000000000000000000000000000000000000000000000002D000000F5F50000F5000000000000000000000000000000F500000000F5F5000000000000000000F5F5F5000000F5F5000000000000000000000000000000F50000F50000002D00000000000000
310
00000000000000000000000000000000000000000000000000000000000000000000000000000000000000000000000000000000000000000000000000000000000000000000000000000000000000000000000000000000000000000000000000000000000000000000000000000000000000000000000000000000000000
310
0000000000000000000000000000000000000000000000000000000000000000000000000000000000000000000000000000002D000000F5F50000F5000000000000000000000000000000F5F5F5F5F5F5F5F5F5F5F5F5F5F5F5F5F5F5F5F5F5F5F5F5000000000000000000000000000000F50000F50000002D0000000000
310
00000000000000000000000000000000000000000000000000000000000000000000000000000000000000000000000000000000000000000000000000000000000000000000000000000000000000000000000000000000000000000000000000000000000000000000000000000000000000000000000000000000000000
310
00000000000000000000000000000000000000000000000000000000000000000000000000000000000000000000000000000000002D000000F5F50000F500000000000000000000000000000000000000000000000000F5F5F5F500000000000000000000000000000000000000000000000000F50000F50000002D000000
310
00000000000000000000000000000000000000000000000000000000000000000000000000000000000000000000000000000000000000000000000000000000000000000000000000000000000000000000000000000000000000000000000000000000000000000000000000000000000000000000000000000000000000
310
000000000000000000000000000000000000000000000000000000000000000000000000000000000000000000000000000000000000002D000000F5F50000F5000000000000000000000000000000000000000000000000000000000000000000000000000000000000000000000000000000000000F50000F50000002D00
310
00000000000000000000000000000000000000000000000000000000000000000000000000000000000000000000000000000000000000000000000000000000000000000000000000000000000000000000000000000000000000000000000000000000000000000000000000000000000000000000000000000000000000
310
0000000000000000000000000000000000000000000000000000000000000000000000000000000000000000000000000000000000000000002D000000F5F50000F5000000000000000000000000000000000000000000000000000000000000000000000000000000000000000000000000000000000000F50000F5000000
310
2D000000000000000000000000000000000000000000000000000000000000000000000000000000000000000000000000000000000000000000000000000000000000000000000000000000000000000000000000000000000000000000000000000000000000000000000000000000000000000000000000000000000000
310
00000000000000000000000000000000000000000000000000000000000000000000000000000000000000000000000000000000000000000000002D000000F5F50000F5000000000000000000000000000000000000000000000000000000000000000000000000000000000000000000000000000000000000F50000F500
310
00002D00000000000000000000000000000000000000000000000000000000000000000000000000000000000000000000000000000000000000000000000000000000000000000000000000000000000000000000000000000000000000000000000000000000000000000000000000000000000000000000000000000000
310
000000000000000000000000000000000000000000000000000000000000000000000000000000000000000000000000000000000000000000000000002D000000F5F50000F5000000000000000000000000000000000000000000000000000000000000000000000000000000000000000000000000000000000000F50000
310
F50000002D0000000000000000000000000000000000000000000000000000000000000000000000000000000000000000000000000000000000000000000000000000000000000000000000000000000000000000000000000000000000000000000000000000000000000000000000000000000000000000000000000000
310
0000000000000000000000000000000000000000000000000000000000000000000000000000000000000000000000000000000000000000000000000000002D000000F5F50000F5000000000000000000000000000000000000000000000000000000000000000000000000000000000000000000000000000000000000F5
310
0000F50000002D000000000000000000000000000000000000000000000000000000000000000000000000000000000000000000000000000000000000000000000000000000000000000000000000000000000000000000000000000000000000000000000000000000000000000000000000000000000000000000000000
310
00000000000000000000000000000000000000000000000000000000000000000000000000000000000000000000000000000000000000000000000000000000002D000000F5F50000F50000000000000000000000000000000000000000000000000000000000000000000000000000000000000000000000000000000000
310
00F50000F50000002D00000000000000000000000000000000000000000000000000000000000000000000000000000000000000000000000000000000000000000000000000000000000000000000000000000000000000000000000000000000000000000000000000000000000000000000000000000000000000000000
310
000000000000000000000000000000000000000000000000000000000000000000000000000000000000000000000000000000000000000000000000000000000000002D000000F5F50000F5000000000000000000000000000000000000000000000000000000000000000000000000000000000000000000000000000000
310
000000F50000F50000002D0000000000000000000000000000000000000000000000000000000000000000000000000000000000000000000000000000000000000000000000000000000000000000000000000000000000000000000000000000000000000000000000000000000000000000000000000000000000000000
310
0000000000000000000000000000000000000000000000000000000000000000000000000000000000000000000000000000000000000000000000000000000000000000002D000000F5F50000F500000000000000000000000000000000000000000000000000000000000000000000000000000000000000000000000000
310
0000000000F50000F50000002D000000000000000000000000000000000000000000000000000000000000000000000000000000000000000000000000000000000000000000000000000000000000000000000000000000000000000000000000000000000000000000000000000000000000000000000000000000000000
310
00000000000000000000000000000000000000000000000000000000000000000000000000000000000000000000000000000000000000000000000000000000000000000000002D000000F5F50000F50000000000000000000000000000000000000000000000000000000000000000000000000000000000000000000000
310
00000000000000F50000F50000002D00000000000000000000000000000000000000000000000000000000000000000000000000000000000000000000000000000000000000000000000000000000000000000000000000000000000000000000000000000000000000000000000000000000000000000000000000000000
310
000000000000000000000000000000000000000000000000000000000000000000000000000000000000000000000000000000000000000000000000000000000000000000000000002D000000F5F50000F5000000000000000000000000000000000000000000000000000000000000000000000000000000000000000000
310
000000000000000000F50000F50000002D0000000000000000000000000000000000000000000000000000000000000000000000000000000000000000000000000000000000000000000000000000000000000000000000000000000000000000000000000000000000000000000000000000000000000000000000000000
310
0000000000000000000000000000000000000000000000000000000000000000000000000000000000000000000000000000000000000000000000000000000000000000000000000000002D000000F5F50000F500000000000000000000000000000000000000000000000000000000000000000000000000000000000000
310
0000000000000000000000F50000F50000002D000000000000000000000000000000000000000000000000000000000000000000000000000000000000000000000000000000000000000000000000000000000000000000000000000000000000000000000000000000000000000000000000000000000000000000000000
310
00000000000000000000000000000000000000000000000000000000000000000000000000000000000000000000000000000000000000000000000000000000000000000000000000000000002D000000F5F50000F50000000000000000000000000000000000000000000000000000000000000000000000000000000000
310
00000000000000000000000000F50000F50000002D00000000000000000000000000000000000000000000000000000000000000000000000000000000000000000000000000000000000000000000000000000000000000000000000000000000000000000000000000000000000000000000000000000000000000000000
310
000000000000000000000000000000000000000000000000000000000000000000000000000000000000000000000000000000000000000000000000000000000000000000000000000000000000002D000000F5F50000F5000000000000000000000000000000000000000000000000000000000000000000000000000000
310
000000000000000000000000000000F50000F50000002D0000000000000000000000000000000000000000000000000000000000000000000000000000000000000000000000000000000000000000000000000000000000000000000000000000000000000000000000000000000000000000000000000000000000000000
310
0000000000000000000000000000000000000000000000000000000000000000000000000000000000000000000000000000000000000000000000000000000000000000000000000000000000000000002D000000F5F50000F500000000000000000000000000000000000000000000000000000000000000000000000000
310
0000000000000000000000000000000000F50000F50000002D000000000000000000000000000000000000000000000000000000000000000000000000000000000000000000000000000000000000000000000000000000000000000000000000000000000000000000000000000000000000000000000000000000000000
310
00000000000000000000000000000000000000000000000000000000000000000000000000000000000000000000000000000000000000000000000000000000000000000000000000000000000000000000002D000000F5F50000F50000000000000000000000000000000000000000000000000000000000000000000000
310
00000000000000000000000000000000000000F50000F50000002D00000000000000000000000000000000000000000000000000000000000000000000000000000000000000000000000000000000000000000000000000000000000000000000000000000000000000000000000000000000000000000000000000000000
310
000000000000000000000000000000000000000000000000000000000000000000000000000000000000000000000000000000000000000000000000000000000000000000000000000000000000000000000000002D000000F5F50000F5000000000000000000000000000000000000000000000000000000000000000000
310
000000000000000000000000000000000000000000F50000F50000002D0000000000000000000000000000000000000000000000000000000000000000000000000000000000000000000000000000000000000000000000000000000000000000000000000000000000000000000000000000000000000000000000000000
310
0000000000000000000000000000000000000000000000000000000000000000000000000000000000000000000000000000000000000000000000000000000000000000000000000000000000000000000000000000002D000000F5F50000F500000000000000000000000000000000000000000000000000000000000000
310
0000000000000000000000000000000000000000000000F50000F50000002D000000000000000000000000000000000000000000000000000000000000000000000000000000000000000000000000000000000000000000000000000000000000000000000000000000000000000000000000000000000000000000000000
310
00000000000000000000000000000000000000000000000000000000000000000000000000000000000000000000000000000000000000000000000000000000000000000000000000000000000000000000000000000000002D000000F5F50000F50000000000000000000000000000000000000000000000000000000000
310
00000000000000000000000000000000000000000000000000F50000F50000002D00000000000000000000000000000000000000000000000000000000000000000000000000000000000000000000000000000000000000000000000000000000000000000000000000000000000000000000000000000000000000000000
310
000000000000000000000000000000000000000000000000000000000000000000000000000000000000000000000000000000000000000000000000000000000000000000000000000000000000000000000000000000000000002D000000F5F50000F5000000000000000000000000000000000000000000000000000000
310
000000000000000000000000000000000000000000000000000000F50000F50000002D0000000000000000000000000000000000000000000000000000000000000000000000000000000000000000000000000000000000000000000000000000000000000000000000000000000000000000000000000000000000000000
310
0000000000000000000000000000000000000000000000000000000000000000000000000000000000000000000000000000000000000000000000000000000000000000000000000000000000000000000000000000000000000000002D000000F5F50000F500000000000000000000000000000000000000000000000000
310
0000000000000000000000000000000000000000000000000000000000F50000F50000002D000000000000000000000000000000000000000000000000000000000000000000000000000000000000000000000000000000000000000000000000000000000000000000000000000000000000000000000000000000000000
310
00000000000000000000000000000000000000000000000000000000000000000000000000000000000000000000000000000000000000000000000000000000000000000000000000000000000000000000000000000000000000000000002D000000F5F50000F50000000000000000000000000000000000000000000000
310
00000000000000000000000000000000000000000000000000000000000000F50000F50000002D00000000000000000000000000000000000000000000000000000000000000000000000000000000000000000000000000000000000000000000000000000000000000000000000000000000000000000000000000000000
310
000000000000000000000000000000000000000000000000000000000000000000000000000000000000000000000000000000000000000000000000000000000000000000000000000000000000000000000000000000000000000000000000002D000000F5F50000F5000000000000000000000000000000000000000000
310
000000000000000000000000000000000000000000000000000000000000000000F50000F50000002D0000000000000000000000000000000000000000000000000000000000000000000000000000000000000000000000000000000000000000000000000000000000000000000000000000000000000000000000000000
310
0000000000000000000000000000000000000000000000000000000000000000000000000000000000000000000000000000000000000000000000000000000000000000000000000000000000000000000000000000000000000000000000000000002D000000F5F50000F500000000000000000000000000000000000000
310
0000000000000000000000000000000000000000000000000000000000000000000000F50000F50000002D000000000000000000000000000000000000000000000000000000000000000000000000000000000000000000000000000000000000000000000000000000000000000000000000000000000000000000000000
310
00000000000000000000000000000000000000000000000000000000000000000000000000000000000000000000000000000000000000000000000000000000000000000000000000000000000000000000000000000000000000000000000000000000002D000000F5F50000F5F5F5F5F5F5F5F5F5F5F5F5F5F5F5F5F5F5
310
F5F5F5F5F5F5F5F5F5F5F5F5F5F5F5F5F5F5F5F5F5F5F5F5F5F5F5F5F5F5F5F5F5F5F5F5F5F50000F50000002D00000000000000000000000000000000000000000000000000000000000000000000000000000000000000000000000000000000000000000000000000000000000000000000000000000000000000000000
310
000000000000000000000000000000000000000000000000000000000000000000000000000000000000000000000000000000000000000000000000000000000000000000000000000000000000000000000000000000000000000000000000000000000000002D000000F5F5000000000000000000000000000000000000
310
000000000000000000000000000000000000000000000000000000000000000000000000000000000000F50000002D0000000000000000000000000000000000000000000000000000000000000000000000000000000000000000000000000000000000000000000000000000000000000000000000000000000000000000
310
0000000000000000000000000000000000000000000000000000000000000000000000000000000000000000000000000000000000000000000000000000000000000000000000000000000000000000000000000000000000000000000000000000000000000000002D000000F5F5F5F5F5F5F5F5F5F5F5F5F5F5F5F5F5F5
310
F5F5F5F5F5F5F5F5F5F5F5F5F5F5F5F5F5F5F5F5F5F5F5F5F5F5F5F5F5F5F5F5F5F5F5F5F5F5F5F5F5F5F5F5F50000002D000000000000000000000000000000000000000000000000000000000000000000000000000000000000000000000000000000000000000000000000000000000000000000000000000000000000
310
00000000000000000000000000000000000000000000000000000000000000000000000000000000000000000000000000000000000000000000000000000000000000000000000000000000000000000000000000000000000000000000000000000000000000000000002D000000F5F500F5000000000000000000000000
310
00000000000000000000000000000000000000F500000000F500000000000000F500000000F50000000000000000F50000002D00000000000000000000000000000000000000000000000000000000000000000000000000000000000000000000000000000000000000000000000000000000000000000000000000000000
310
000000000000000000000000000000000000000000000000000000000000000000000000000000000000000000000000000000000000000000000000000000000000000000000000000000000000000000000000000000000000000000000000000000000000000000000000002D000000F5F5F5F5F5F5F5F5F5F5F5F5F5F5
310
F5F5F5F5F5F5F5F5F5F5F5F5F5F5F5F5F5F5F5F5F5F5F5F5F5F5F5F5F5F5F5F5F5F5F5F5F5F5F5F5F5F5F5F5F5F5F5F5F50000002D0000000000000000000000000000000000000000000000000000000000000000000000000000000000000000000000000000000000000000000000000000000000000000000000000000
310
0000000000000000000000000000000000000000000000000000000000000000000000000000000000000000000000000000000000000000000000000000000000000000000000000000000000000000000000000000000000000000000000000000000000000000000000000000002D000000F5F5F5F500000000000000F5
310
00000000F5F5000000F5F500000000F500000000000000F5F5F5F5F5F500F5F5F5F5F5F5F5F5F5F5F5F50000F5F5F5F50000F50000002D000000000000000000000000000000000000000000000000000000000000000000000000000000000000000000000000000000000000000000000000000000000000000000000000
310
00000000000000000000000000000000000000000000000000000000000000000000000000000000000000000000000000000000000000000000000000000000000000000000000000000000000000000000000000000000000000000000000000000000000000000000000000000000002D000000F5F5F5F5F5F5F5F5F5F5
310
F5F5F5F5F5F5F5F5F5F5F5F5F5F5F5F5F5F5F5F5F5F5F5F5F5F5F5F5F5F5F5F5F5F5F5F5F5F5F5F5F5F5F5F5F5F5F5F5F5F5F5F5F50000002D00000000000000000000000000000000000000000000000000000000000000000000000000000000000000000000000000000000000000000000000000000000000000000000
310
000000000000000000000000000000000000000000000000000000000000000000000000000000000000000000000000000000000000000000000000000000000000000000000000000000000000000000000000000000000000000000000000000000000000000000000000000000000000002D0000000000000000000000
310
0000000000000000000000000000000000000000000000F5000000000000000000000000000000000000000000000000000000000000000000002D0000000000000000000000000000000000000000000000000000000000000000000000000000000000000000000000000000000000000000000000000000000000000000
310
0000000000000000000000000000000000000000000000000000000000000000000000000000000000000000000000000000000000000000000000000000000000000000000000000000000000000000000000000000000000000000000000000000000000000000000000000000000000000000002D000000000000000000
310
00000000000000000000000000000000000000000000000000F5000000000000000000000000000000000000000000000000000000000000000000002D000000000000000000000000000000000000000000000000000000000000000000000000000000000000000000000000000000000000000000000000000000000000
310
00000000000000000000000000000000000000000000000000000000000000000000000000000000000000000000000000000000000000000000000000000000000000000000000000000000000000000000000000000000000000000000000000000000000000000000000000000000000000000000002D00000000000000
310
000000000000000000000000000000000000000000000000000000F5000000000000000000000000000000000000000000000000000000000000000000002D00000000000000000000000000000000000000000000000000000000000000000000000000000000000000000000000000000000000000000000000000000000
310
000000000000000000000000000000000000000000000000000000000000000000000000000000000000000000000000000000000000000000000000000000000000000000000000000000000000000000000000000000000000000000000000000000000000000000000000000000000000000000000000002D2D2D2D2D2D
310
2D2D2D2D2D2D2D2D2D2D2D2D2D2D2D2D2D2D2D2D2D2D2D2D2D2D2D2D2DF52D2D2D2D2D2D2D2D2D2D2D2D2D2D2D2D2D2D2D2D2D2D2D2D2D2D2D2D2D2D2D2D2D2D2D0000000000000000000000000000000000000000000000000000000000000000000000000000000000000000000000000000000000000000000000000000
310
00000000000000000000000000000000000000000000000000000000000000000000000000000000000000000000000000000000000000000000000000000000000000000000000000000000000000000000000000000000000000000000000000000000000000000000000000000000000000000000000000000000000000
310
00000000000000000000000000000000000000000000000000000000000000000000000000000000000000000000000000000000000000000000000000000000000000000000000000000000000000000000000000000000000000000000000000000000000000000000000000000000000000000000000000000000000000
310
00000000000000000000000000000000000000000000000000000000000000000000000000000000000000000000000000000000000000000000000000000000000000000000000000000000000000000000000000000000000000000000000000000000000000000000000000000000000000000000000000000000000000
310
00000000000000000000000000000000000000000000000000000000000000000000000000000000000000000000000000000000000000000000000000000000000000000000000000000000000000000000000000000000000000000000000000000000000000000000000000000000000000000000000000000000000000
310
00000000000000000000000000000000000000000000000000000000000000000000000000000000000000000000000000000000000000000000000000000000000000000000000000000000000000000000000000000000000000000000000000000000000000000000000000000000000000000000000000000000000000
310
00000000000000000000000000000000000000000000000000000000000000000000000000000000000000000000000000000000000000000000000000000000000000000000000000000000000000000000000000000000000000000000000000000000000000000000000000000000000000000000000000000000000000
310
00000000000000000000000000000000000000000000000000000000000000000000000000000000000000000000000000000000000000000000000000000000000000000000000000000000000000000000000000000000000000000000000000000000000000000000000000000000000000000000000000000000000000
310
00000000000000000000000000000000000000000000000000000000000000000000000000000000000000000000000000000000000000000000000000000000000000000000000000000000000000000000000000000000000000000000000000000000000000000000000000000000000000000000000000000000000000
310
00000000000000000000000000000000000000000000000000000000000000000000000000000000000000000000000000000000000000000000000000000000000000000000000000000000000000000000000000000000000000000000000000000000000000000000000000000000000000000000000000000000000000
310
00000000000000000000000000000000000000000000000000000000000000000000000000000000000000000000000000000000000000000000000000000000000000000000000000000000000000000000000000000000000000000000000000000000000000000000000000000000000000000000000000000000000000
310
00000000000000000000000000000000000000000000000000000000000000000000000000000000000000000000000000000000000000000000000000000000000000000000000000000000000000000000000000000000000000000000000000000000000000000000000000000000000000000000000000000000000000
310
00000000000000000000000000000000000000000000000000000000000000000000000000000000000000000000000000000000000000000000000000000000000000000000000000000000000000000000000000000000000000000000000000000000000000000000000000000000000000000000000000000000000000
310
00000000000000000000000000000000000000000000000000000000000000000000000000000000000000000000000000000000000000000000000000000000000000000000000000000000000000000000000000000000000000000000000000000000000000000000000000000000000000000000000000000000000000
310
00000000000000000000000000000000000000000000000000000000000000000000000000000000000000000000000000000000000000000000000000000000000000000000000000000000000000000000000000000000000000000000000000000000000000000000000000000000000000000000000000000000000000
310
00000000000000000000000000000000000000000000000000000000000000000000000000000000000000000000000000000000000000000000000000000000000000000000000000000000000000000000000000000000000000000000000000000000000000000000000000000000000000000000000000000000000000
310
00000000000000000000000000000000000000000000000000000000000000000000000000000000000000000000000000000000000000000000000000000000000000000000000000000000000000000000000000000000000000000000000000000000000000000000000000000000000000000000000000000000000000
310
00000000000000000000000000000000000000000000000000000000000000000000000000000000000000000000000000000000000000000000000000000000000000000000000000000000000000000000000000000000000000000000000000000000000000000000000000000000000000000000000000000000000000
310
00000000000000000000000000000000000000000000000000000000000000000000000000000000000000000000000000000000000000000000000000000000000000000000000000000000000000000000000000000000000000000000000000000000000000000000000000000000000000000000000000000000000000
310
00000000000000000000000000000000000000000000000000000000000000000000000000000000000000000000000000000000000000000000000000000000000000000000000000000000000000000000000000000000000000000000000000000000000000000000000000000000000000000000000000000000000000
310
00000000000000000000000000000000000000000000000000000000000000000000000000000000000000000000000000000000000000000000000000000000000000000000000000000000000000000000000000000000000000000000000000000000000000000000000000000000000000000000000000000000000000
310
00000000000000000000000000000000000000000000000000000000000000000000000000000000000000000000000000000000000000000000000000000000000000000000000000000000000000000000000000000000000000000000000000000000000000000000000000000000000000000000000000000000000000
310
00000000000000000000000000000000000000000000000000000000000000000000000000000000000000000000000000000000000000000000000000000000000000000000000000000000000000000000000000000000000000000000000000000000000000000000000000000000000000000000000000000000000000
310
00000000000000000000000000000000000000000000000000000000000000000000000000000000000000000000000000000000000000000000000000000000000000000000000000000000000000000000000000000000000000000000000000000000000000000000000000000000000000000000000000000000000000
310
00000000000000000000000000000000000000000000000000000000000000000000000000000000000000000000000000000000000000000000000000000000000000000000000000000000000000000000000000000000000000000000000000000000000000000000000000000000000000000000000000000000000000
310
00000000000000000000000000000000000000000000000000000000000000000000000000000000000000000000000000000000000000000000000000000000000000000000000000000000000000000000000000000000000000000000000000000000000000000000000000000000000000000000000000000000000000
310
00000000000000000000000000000000000000000000000000000000000000000000000000000000000000000000000000000000000000000000000000000000000000000000000000000000000000000000000000000000000000000000000000000000000000000000000000000000000000000000000000000000000000
310
00000000000000000000000000000000000000000000000000000000000000000000000000000000000000000000000000000000000000000000000000000000000000000000000000000000000000000000000000000000000000000000000000000000000000000000000000000000000000000000000000000000000000
310
00000000000000000000000000000000000000000000000000000000000000000000000000000000000000000000000000000000000000000000000000000000000000000000000000000000000000000000000000000000000000000000000000000000000000000000000000000000000000000000000000000000000000
310
00000000000000000000000000000000000000000000000000000000000000000000000000000000000000000000000000000000000000000000000000000000000000000000000000000000000000000000000000000000000000000000000000000000000000000000000000000000000000000000000000000000000000
310
00000000000000000000000000000000000000000000000000000000000000000000000000000000000000000000000000000000000000000000000000000000000000000000000000000000000000000000000000000000000000000000000000000000000000000000000000000000000000000000000000000000000000
310
0000000000000000000000000000000000000000000000000000000000000000000000000000000000000000000000000000000000000000
  0
XRECORD
  5
408
102
{ACAD_REACTORS
330
407
102
}
330
407
100
AcDbXrecord
280
     1
102
SHADEPLOT
 70
     0
102
SHADEPLOTRESLEVEL
 70
     2
102
SHADEPLOTCUSTOMDPI
 70
   300
  0
XRECORD
  5
40B
102
{ACAD_REACTORS
330
40A
102
}
330
40A
100
AcDbXrecord
280
     1
102
SHADEPLOT
 70
     0
102
SHADEPLOTRESLEVEL
 70
     2
102
SHADEPLOTCUSTOMDPI
 70
   300
  0
XRECORD
  5
392
102
{ACAD_REACTORS
330
1A
102
}
330
1A
100
AcDbXrecord
280
     1
102
MATERIAL
148
0.0
149
0.0
149
0.0
 93
        0
 94
      127
282
     0
 72
     0
 77
     0
171
     0
175
     0
179
     0
273
     0
  0
XRECORD
  5
1C
102
{ACAD_REACTORS
330
1A
102
}
330
1A
100
AcDbXrecord
280
     1
270
     1
271
     1
  0
XRECORD
  5
1B
102
{ACAD_REACTORS
330
1A
102
}
330
1A
100
AcDbXrecord
280
     1
270
     1
271
     1
  0
XRECORD
  5
1F
102
{ACAD_REACTORS
330
1A
102
}
330
1A
100
AcDbXrecord
280
     1
270
     1
271
     1
  0
XRECORD
  5
1E
102
{ACAD_REACTORS
330
1A
102
}
330
1A
100
AcDbXrecord
280
     1
270
     1
271
     1
  0
XRECORD
  5
20
102
{ACAD_REACTORS
330
1A
102
}
330
1A
100
AcDbXrecord
280
     1
270
     1
271
     1
  0
XRECORD
  5
1D
102
{ACAD_REACTORS
330
1A
102
}
330
1A
100
AcDbXrecord
280
     1
270
     1
271
     1
  0
XRECORD
  5
391
102
{ACAD_REACTORS
330
12
102
}
330
12
100
AcDbXrecord
280
     1
102
MATERIAL
148
0.0
149
0.0
149
0.0
 93
        0
 94
      127
282
     0
 72
     0
 77
     0
171
     0
175
     0
179
     0
273
     0
  0
XRECORD
  5
14
102
{ACAD_REACTORS
330
12
102
}
330
12
100
AcDbXrecord
280
     1
270
     1
271
     1
  0
XRECORD
  5
13
102
{ACAD_REACTORS
330
12
102
}
330
12
100
AcDbXrecord
280
     1
270
     1
271
     1
  0
XRECORD
  5
17
102
{ACAD_REACTORS
330
12
102
}
330
12
100
AcDbXrecord
280
     1
270
     1
271
     1
  0
XRECORD
  5
16
102
{ACAD_REACTORS
330
12
102
}
330
12
100
AcDbXrecord
280
     1
270
     1
271
     1
  0
XRECORD
  5
18
102
{ACAD_REACTORS
330
12
102
}
330
12
100
AcDbXrecord
280
     1
270
     1
271
     1
  0
XRECORD
  5
15
102
{ACAD_REACTORS
330
12
102
}
330
12
100
AcDbXrecord
280
     1
270
     1
271
     1
  0
XRECORD
  5
393
102
{ACAD_REACTORS
330
22
102
}
330
22
100
AcDbXrecord
280
     1
102
MATERIAL
148
0.0
149
0.0
149
0.0
 93
        0
 94
      127
282
     0
 72
     0
 77
     0
171
     0
175
     0
179
     0
273
     0
  0
XRECORD
  5
24
102
{ACAD_REACTORS
330
22
102
}
330
22
100
AcDbXrecord
280
     1
270
     1
271
     1
  0
XRECORD
  5
23
102
{ACAD_REACTORS
330
22
102
}
330
22
100
AcDbXrecord
280
     1
270
     1
271
     1
  0
XRECORD
  5
27
102
{ACAD_REACTORS
330
22
102
}
330
22
100
AcDbXrecord
280
     1
270
     1
271
     1
  0
XRECORD
  5
26
102
{ACAD_REACTORS
330
22
102
}
330
22
100
AcDbXrecord
280
     1
270
     1
271
     1
  0
XRECORD
  5
28
102
{ACAD_REACTORS
330
22
102
}
330
22
100
AcDbXrecord
280
     1
270
     1
271
     1
  0
XRECORD
  5
25
102
{ACAD_REACTORS
330
22
102
}
330
22
100
AcDbXrecord
280
     1
270
     1
271
     1
  0
XRECORD
  5
3D3
102
{ACAD_REACTORS
330
3D2
102
}
330
3D2
100
AcDbXrecord
280
     1
102
ACAD_ROUNDTRIP_2012_MLEADER_STYLE
298
     1
  0
CELLSTYLEMAP
  5
3D1
102
{ACAD_REACTORS
330
38C
102
}
330
38C
100
AcDbCellStyleMap
 90
        3
300
CELLSTYLE
  1
TABLEFORMAT_BEGIN
 90
        5
170
     1
 91
        0
 92
    32768
 62
   257
 93
        1
300
CONTENTFORMAT
  1
CONTENTFORMAT_BEGIN
 90
        0
 91
        0
 92
      512
 93
        0
300

 40
0.0
140
1.0
 94
        5
 62
     0
340
55
144
6.0
309
CONTENTFORMAT_END
171
     1
301
MARGIN
  1
CELLMARGIN_BEGIN
 40
1.5
 40
1.5
 40
1.5
 40
1.5
 40
0.18
 40
0.18
309
CELLMARGIN_END
 94
        6
 95
        1
302
GRIDFORMAT
  1
GRIDFORMAT_BEGIN
 90
        0
 91
        1
 62
     0
 92
       -2
340
0
 93
        0
 40
1.125
309
GRIDFORMAT_END
 95
        2
302
GRIDFORMAT
  1
GRIDFORMAT_BEGIN
 90
        0
 91
        1
 62
     0
 92
       -2
340
0
 93
        0
 40
1.125
309
GRIDFORMAT_END
 95
        4
302
GRIDFORMAT
  1
GRIDFORMAT_BEGIN
 90
        0
 91
        1
 62
     0
 92
       -2
340
0
 93
        0
 40
1.125
309
GRIDFORMAT_END
 95
        8
302
GRIDFORMAT
  1
GRIDFORMAT_BEGIN
 90
        0
 91
        1
 62
     0
 92
       -2
340
0
 93
        0
 40
1.125
309
GRIDFORMAT_END
 95
       16
302
GRIDFORMAT
  1
GRIDFORMAT_BEGIN
 90
        0
 91
        1
 62
     0
 92
       -2
340
0
 93
        0
 40
1.125
309
GRIDFORMAT_END
 95
       32
302
GRIDFORMAT
  1
GRIDFORMAT_BEGIN
 90
        0
 91
        1
 62
     0
 92
       -2
340
0
 93
        0
 40
1.125
309
GRIDFORMAT_END
309
TABLEFORMAT_END
  1
CELLSTYLE_BEGIN
 90
        1
 91
        1
300
_TITLE
309
CELLSTYLE_END
300
CELLSTYLE
  1
TABLEFORMAT_BEGIN
 90
        5
170
     1
 91
        0
 92
        0
 62
   257
 93
        1
300
CONTENTFORMAT
  1
CONTENTFORMAT_BEGIN
 90
        0
 91
        0
 92
      512
 93
        0
300

 40
0.0
140
1.0
 94
        5
 62
     0
340
55
144
4.5
309
CONTENTFORMAT_END
171
     1
301
MARGIN
  1
CELLMARGIN_BEGIN
 40
1.5
 40
1.5
 40
1.5
 40
1.5
 40
0.18
 40
0.18
309
CELLMARGIN_END
 94
        6
 95
        1
302
GRIDFORMAT
  1
GRIDFORMAT_BEGIN
 90
        0
 91
        1
 62
     0
 92
       -2
340
0
 93
        0
 40
1.125
309
GRIDFORMAT_END
 95
        2
302
GRIDFORMAT
  1
GRIDFORMAT_BEGIN
 90
        0
 91
        1
 62
     0
 92
       -2
340
0
 93
        0
 40
1.125
309
GRIDFORMAT_END
 95
        4
302
GRIDFORMAT
  1
GRIDFORMAT_BEGIN
 90
        0
 91
        1
 62
     0
 92
       -2
340
0
 93
        0
 40
1.125
309
GRIDFORMAT_END
 95
        8
302
GRIDFORMAT
  1
GRIDFORMAT_BEGIN
 90
        0
 91
        1
 62
     0
 92
       -2
340
0
 93
        0
 40
1.125
309
GRIDFORMAT_END
 95
       16
302
GRIDFORMAT
  1
GRIDFORMAT_BEGIN
 90
        0
 91
        1
 62
     0
 92
       -2
340
0
 93
        0
 40
1.125
309
GRIDFORMAT_END
 95
       32
302
GRIDFORMAT
  1
GRIDFORMAT_BEGIN
 90
        0
 91
        1
 62
     0
 92
       -2
340
0
 93
        0
 40
1.125
309
GRIDFORMAT_END
309
TABLEFORMAT_END
  1
CELLSTYLE_BEGIN
 90
        2
 91
        1
300
_HEADER
309
CELLSTYLE_END
300
CELLSTYLE
  1
TABLEFORMAT_BEGIN
 90
        5
170
     1
 91
        0
 92
        0
 62
   257
 93
        1
300
CONTENTFORMAT
  1
CONTENTFORMAT_BEGIN
 90
        0
 91
        0
 92
      512
 93
        0
300

 40
0.0
140
1.0
 94
        2
 62
     0
340
55
144
4.5
309
CONTENTFORMAT_END
171
     1
301
MARGIN
  1
CELLMARGIN_BEGIN
 40
1.5
 40
1.5
 40
1.5
 40
1.5
 40
0.18
 40
0.18
309
CELLMARGIN_END
 94
        6
 95
        1
302
GRIDFORMAT
  1
GRIDFORMAT_BEGIN
 90
        0
 91
        1
 62
     0
 92
       -2
340
0
 93
        0
 40
1.125
309
GRIDFORMAT_END
 95
        2
302
GRIDFORMAT
  1
GRIDFORMAT_BEGIN
 90
        0
 91
        1
 62
     0
 92
       -2
340
0
 93
        0
 40
1.125
309
GRIDFORMAT_END
 95
        4
302
GRIDFORMAT
  1
GRIDFORMAT_BEGIN
 90
        0
 91
        1
 62
     0
 92
       -2
340
0
 93
        0
 40
1.125
309
GRIDFORMAT_END
 95
        8
302
GRIDFORMAT
  1
GRIDFORMAT_BEGIN
 90
        0
 91
        1
 62
     0
 92
       -2
340
0
 93
        0
 40
1.125
309
GRIDFORMAT_END
 95
       16
302
GRIDFORMAT
  1
GRIDFORMAT_BEGIN
 90
        0
 91
        1
 62
     0
 92
       -2
340
0
 93
        0
 40
1.125
309
GRIDFORMAT_END
 95
       32
302
GRIDFORMAT
  1
GRIDFORMAT_BEGIN
 90
        0
 91
        1
 62
     0
 92
       -2
340
0
 93
        0
 40
1.125
309
GRIDFORMAT_END
309
TABLEFORMAT_END
  1
CELLSTYLE_BEGIN
 90
        3
 91
        2
300
_DATA
309
CELLSTYLE_END
  0
XRECORD
  5
406
102
{ACAD_REACTORS
330
38C
102
}
330
38C
100
AcDbXrecord
280
     1
102
ACAD_ROUNDTRIP_PRE2007_TABLESTYLE
 90
      512
 91
        0
  1

 92
      512
 93
        0
  2

 94
      512
 95
        0
  3

  0
XRECORD
  5
3E1
102
{ACAD_REACTORS
330
3E0
102
}
330
3E0
100
AcDbXrecord
280
     1
102
RTVSPropertyOp0
 70
     1
102
RTVSPropertyOp1
 70
     1
102
RTVSPropertyOp2
 70
     1
102
RTVSPropertyOp3
 70
     1
102
RTVSPropertyOp4
 70
     1
102
RTVSPropertyOp5
 70
     1
102
RTVSPropertyOp6
 70
     1
102
RTVSPropertyOp7
 70
     1
102
RTVSPropertyOp8
 70
     1
102
RTVSPropertyOp9
 70
     1
102
RTVSPropertyOp10
 70
     1
102
RTVSPropertyOp11
 70
     1
102
RTVSPropertyOp12
 70
     1
102
RTVSPropertyOp13
 70
     1
102
RTVSPropertyOp14
 70
     1
102
RTVSPropertyOp15
 70
     1
102
RTVSPropertyOp16
 70
     1
102
RTVSPropertyOp17
 70
     1
102
RTVSPropertyOp18
 70
     1
102
RTVSPropertyOp19
 70
     1
102
RTVSPropertyOp20
 70
     1
102
RTVSPropertyOp21
 70
     1
102
RTVSPropertyOp22
 70
     1
102
RTVSPropertyOp23
 70
     1
102
RTVSPropertyOp24
 70
     1
102
RTVSPropertyOp25
 70
     1
102
RTVSPropertyOp26
 70
     1
102
RTVSPropertyOp27
 70
     1
102
RTVSPropertyOp28
 70
     1
102
RTVSPropertyOp29
 70
     1
102
RTVSPropertyOp30
 70
     1
102
RTVSPropertyOp31
 70
     1
102
RTVSPropertyOp32
 70
     1
  0
XRECORD
  5
3DF
102
{ACAD_REACTORS
330
3DE
102
}
330
3DE
100
AcDbXrecord
280
     1
102
RTVSPropertyOp0
 70
     1
102
RTVSPropertyOp1
 70
     1
102
RTVSPropertyOp2
 70
     1
102
RTVSPropertyOp3
 70
     1
102
RTVSPropertyOp4
 70
     1
102
RTVSPropertyOp5
 70
     1
102
RTVSPropertyOp6
 70
     1
102
RTVSPropertyOp7
 70
     1
102
RTVSPropertyOp8
 70
     1
102
RTVSPropertyOp9
 70
     1
102
RTVSPropertyOp10
 70
     1
102
RTVSPropertyOp11
 70
     1
102
RTVSPropertyOp12
 70
     1
102
RTVSPropertyOp13
 70
     1
102
RTVSPropertyOp14
 70
     1
102
RTVSPropertyOp15
 70
     1
102
RTVSPropertyOp16
 70
     1
102
RTVSPropertyOp17
 70
     1
102
RTVSPropertyOp18
 70
     1
102
RTVSPropertyOp19
 70
     1
102
RTVSPropertyOp20
 70
     1
102
RTVSPropertyOp21
 70
     1
102
RTVSPropertyOp22
 70
     1
102
RTVSPropertyOp23
 70
     1
102
RTVSPropertyOp24
 70
     1
102
RTVSPropertyOp25
 70
     1
102
RTVSPropertyOp26
 70
     1
102
RTVSPropertyOp27
 70
     1
102
RTVSPropertyOp28
 70
     1
102
RTVSPropertyOp29
 70
     1
102
RTVSPropertyOp30
 70
     1
102
RTVSPropertyOp31
 70
     1
102
RTVSPropertyOp32
 70
     1
  0
XRECORD
  5
3ED
102
{ACAD_REACTORS
330
3EC
102
}
330
3EC
100
AcDbXrecord
280
     1
102
RTVSPropertyOp0
 70
     1
102
RTVSPropertyOp1
 70
     1
102
RTVSPropertyOp2
 70
     1
102
RTVSPropertyOp3
 70
     1
102
RTVSPropertyOp4
 70
     1
102
RTVSPropertyOp5
 70
     1
102
RTVSPropertyOp6
 70
     1
102
RTVSPropertyOp7
 70
     1
102
RTVSPropertyOp8
 70
     1
102
RTVSPropertyOp9
 70
     1
102
RTVSPropertyOp10
 70
     1
102
RTVSPropertyOp11
 70
     1
102
RTVSPropertyOp12
 70
     1
102
RTVSPropertyOp13
 70
     1
102
RTVSPropertyOp14
 70
     1
102
RTVSPropertyOp15
 70
     1
102
RTVSPropertyOp16
 70
     1
102
RTVSPropertyOp17
 70
     1
102
RTVSPropertyOp18
 70
     1
102
RTVSPropertyOp19
 70
     1
102
RTVSPropertyOp20
 70
     1
102
RTVSPropertyOp21
 70
     1
102
RTVSPropertyOp22
 70
     1
102
RTVSPropertyOp23
 70
     1
102
RTVSPropertyOp24
 70
     1
102
RTVSPropertyOp25
 70
     1
102
RTVSPropertyOp26
 70
     1
102
RTVSPropertyOp27
 70
     1
102
RTVSPropertyOp28
 70
     1
102
RTVSPropertyOp29
 70
     1
102
RTVSPropertyOp30
 70
     1
102
RTVSPropertyOp31
 70
     1
102
RTVSPropertyOp32
 70
     1
  0
XRECORD
  5
3F5
102
{ACAD_REACTORS
330
3F4
102
}
330
3F4
100
AcDbXrecord
280
     1
102
RTVSPropertyOp0
 70
     1
102
RTVSPropertyOp1
 70
     1
102
RTVSPropertyOp2
 70
     1
102
RTVSPropertyOp3
 70
     1
102
RTVSPropertyOp4
 70
     1
102
RTVSPropertyOp5
 70
     1
102
RTVSPropertyOp6
 70
     1
102
RTVSPropertyOp7
 70
     1
102
RTVSPropertyOp8
 70
     1
102
RTVSPropertyOp9
 70
     1
102
RTVSPropertyOp10
 70
     1
102
RTVSPropertyOp11
 70
     1
102
RTVSPropertyOp12
 70
     1
102
RTVSPropertyOp13
 70
     1
102
RTVSPropertyOp14
 70
     1
102
RTVSPropertyOp15
 70
     1
102
RTVSPropertyOp16
 70
     1
102
RTVSPropertyOp17
 70
     1
102
RTVSPropertyOp18
 70
     1
102
RTVSPropertyOp19
 70
     1
102
RTVSPropertyOp20
 70
     1
102
RTVSPropertyOp21
 70
     1
102
RTVSPropertyOp22
 70
     1
102
RTVSPropertyOp23
 70
     1
102
RTVSPropertyOp24
 70
     1
102
RTVSPropertyOp25
 70
     1
102
RTVSPropertyOp26
 70
     1
102
RTVSPropertyOp27
 70
     1
102
RTVSPropertyOp28
 70
     1
102
RTVSPropertyOp29
 70
     1
102
RTVSPropertyOp30
 70
     1
102
RTVSPropertyOp31
 70
     1
102
RTVSPropertyOp32
 70
     1
  0
XRECORD
  5
3E7
102
{ACAD_REACTORS
330
3E6
102
}
330
3E6
100
AcDbXrecord
280
     1
102
RTVSPropertyOp0
 70
     1
102
RTVSPropertyOp1
 70
     1
102
RTVSPropertyOp2
 70
     1
102
RTVSPropertyOp3
 70
     1
102
RTVSPropertyOp4
 70
     1
102
RTVSPropertyOp5
 70
     1
102
RTVSPropertyOp6
 70
     1
102
RTVSPropertyOp7
 70
     1
102
RTVSPropertyOp8
 70
     1
102
RTVSPropertyOp9
 70
     1
102
RTVSPropertyOp10
 70
     1
102
RTVSPropertyOp11
 70
     1
102
RTVSPropertyOp12
 70
     1
102
RTVSPropertyOp13
 70
     1
102
RTVSPropertyOp14
 70
     1
102
RTVSPropertyOp15
 70
     1
102
RTVSPropertyOp16
 70
     1
102
RTVSPropertyOp17
 70
     1
102
RTVSPropertyOp18
 70
     1
102
RTVSPropertyOp19
 70
     1
102
RTVSPropertyOp20
 70
     1
102
RTVSPropertyOp21
 70
     1
102
RTVSPropertyOp22
 70
     1
102
RTVSPropertyOp23
 70
     1
102
RTVSPropertyOp24
 70
     1
102
RTVSPropertyOp25
 70
     1
102
RTVSPropertyOp26
 70
     1
102
RTVSPropertyOp27
 70
     1
102
RTVSPropertyOp28
 70
     1
102
RTVSPropertyOp29
 70
     1
102
RTVSPropertyOp30
 70
     1
102
RTVSPropertyOp31
 70
     1
102
RTVSPropertyOp32
 70
     1
  0
XRECORD
  5
3EB
102
{ACAD_REACTORS
330
3EA
102
}
330
3EA
100
AcDbXrecord
280
     1
102
RTVSPropertyOp0
 70
     1
102
RTVSPropertyOp1
 70
     1
102
RTVSPropertyOp2
 70
     1
102
RTVSPropertyOp3
 70
     1
102
RTVSPropertyOp4
 70
     1
102
RTVSPropertyOp5
 70
     1
102
RTVSPropertyOp6
 70
     1
102
RTVSPropertyOp7
 70
     1
102
RTVSPropertyOp8
 70
     1
102
RTVSPropertyOp9
 70
     1
102
RTVSPropertyOp10
 70
     1
102
RTVSPropertyOp11
 70
     1
102
RTVSPropertyOp12
 70
     1
102
RTVSPropertyOp13
 70
     1
102
RTVSPropertyOp14
 70
     1
102
RTVSPropertyOp15
 70
     1
102
RTVSPropertyOp16
 70
     1
102
RTVSPropertyOp17
 70
     1
102
RTVSPropertyOp18
 70
     1
102
RTVSPropertyOp19
 70
     1
102
RTVSPropertyOp20
 70
     1
102
RTVSPropertyOp21
 70
     1
102
RTVSPropertyOp22
 70
     1
102
RTVSPropertyOp23
 70
     1
102
RTVSPropertyOp24
 70
     1
102
RTVSPropertyOp25
 70
     1
102
RTVSPropertyOp26
 70
     1
102
RTVSPropertyOp27
 70
     1
102
RTVSPropertyOp28
 70
     1
102
RTVSPropertyOp29
 70
     1
102
RTVSPropertyOp30
 70
     1
102
RTVSPropertyOp31
 70
     1
102
RTVSPropertyOp32
 70
     1
  0
XRECORD
  5
405
102
{ACAD_REACTORS
330
404
102
}
330
404
100
AcDbXrecord
280
     1
102
RTVSPropertyOp0
 70
     0
102
RTVSPropertyOp1
 70
     0
102
RTVSPropertyOp2
 70
     0
102
RTVSPropertyOp3
 70
     0
102
RTVSPropertyOp4
 70
     0
102
RTVSPropertyOp5
 70
     0
102
RTVSPropertyOp6
 70
     0
102
RTVSPropertyOp7
 70
     0
102
RTVSPropertyOp8
 70
     0
102
RTVSPropertyOp9
 70
     0
102
RTVSPropertyOp10
 70
     0
102
RTVSPropertyOp11
 70
     0
102
RTVSPropertyOp12
 70
     0
102
RTVSPropertyOp13
 70
     0
102
RTVSPropertyOp14
 70
     2
102
RTVSPropertyOp15
 70
     0
102
RTVSPropertyOp16
 70
     0
102
RTVSPropertyOp17
 70
     0
102
RTVSPropertyOp18
 70
     0
102
RTVSPropertyOp19
 70
     0
102
RTVSPropertyOp20
 70
     0
102
RTVSPropertyOp21
 70
     0
102
RTVSPropertyOp22
 70
     0
102
RTVSPropertyOp23
 70
     0
102
RTVSPropertyOp24
 70
     0
102
RTVSPropertyOp25
 70
     0
102
RTVSPropertyOp26
 70
     0
102
RTVSPropertyOp27
 70
     0
102
RTVSPropertyOp28
 70
     1
102
RTVSPropertyOp29
 70
     1
102
RTVSPropertyOp30
 70
     1
102
RTVSPropertyOp31
 70
     1
102
RTVSPropertyOp32
 70
     1
  0
XRECORD
  5
3F3
102
{ACAD_REACTORS
330
3F2
102
}
330
3F2
100
AcDbXrecord
280
     1
102
RTVSPropertyOp0
 70
     1
102
RTVSPropertyOp1
 70
     1
102
RTVSPropertyOp2
 70
     1
102
RTVSPropertyOp3
 70
     1
102
RTVSPropertyOp4
 70
     1
102
RTVSPropertyOp5
 70
     1
102
RTVSPropertyOp6
 70
     1
102
RTVSPropertyOp7
 70
     1
102
RTVSPropertyOp8
 70
     1
102
RTVSPropertyOp9
 70
     1
102
RTVSPropertyOp10
 70
     1
102
RTVSPropertyOp11
 70
     1
102
RTVSPropertyOp12
 70
     1
102
RTVSPropertyOp13
 70
     1
102
RTVSPropertyOp14
 70
     1
102
RTVSPropertyOp15
 70
     1
102
RTVSPropertyOp16
 70
     1
102
RTVSPropertyOp17
 70
     1
102
RTVSPropertyOp18
 70
     1
102
RTVSPropertyOp19
 70
     1
102
RTVSPropertyOp20
 70
     1
102
RTVSPropertyOp21
 70
     1
102
RTVSPropertyOp22
 70
     1
102
RTVSPropertyOp23
 70
     1
102
RTVSPropertyOp24
 70
     1
102
RTVSPropertyOp25
 70
     1
102
RTVSPropertyOp26
 70
     1
102
RTVSPropertyOp27
 70
     1
102
RTVSPropertyOp28
 70
     1
102
RTVSPropertyOp29
 70
     1
102
RTVSPropertyOp30
 70
     1
102
RTVSPropertyOp31
 70
     1
102
RTVSPropertyOp32
 70
     1
  0
XRECORD
  5
3D7
102
{ACAD_REACTORS
330
3D6
102
}
330
3D6
100
AcDbXrecord
280
     1
102
RTVSPropertyOp0
 70
     1
102
RTVSPropertyOp1
 70
     1
102
RTVSPropertyOp2
 70
     1
102
RTVSPropertyOp3
 70
     1
102
RTVSPropertyOp4
 70
     1
102
RTVSPropertyOp5
 70
     1
102
RTVSPropertyOp6
 70
     1
102
RTVSPropertyOp7
 70
     1
102
RTVSPropertyOp8
 70
     1
102
RTVSPropertyOp9
 70
     1
102
RTVSPropertyOp10
 70
     1
102
RTVSPropertyOp11
 70
     1
102
RTVSPropertyOp12
 70
     1
102
RTVSPropertyOp13
 70
     1
102
RTVSPropertyOp14
 70
     1
102
RTVSPropertyOp15
 70
     1
102
RTVSPropertyOp16
 70
     1
102
RTVSPropertyOp17
 70
     1
102
RTVSPropertyOp18
 70
     1
102
RTVSPropertyOp19
 70
     1
102
RTVSPropertyOp20
 70
     1
102
RTVSPropertyOp21
 70
     1
102
RTVSPropertyOp22
 70
     1
102
RTVSPropertyOp23
 70
     1
102
RTVSPropertyOp24
 70
     1
102
RTVSPropertyOp25
 70
     1
102
RTVSPropertyOp26
 70
     1
102
RTVSPropertyOp27
 70
     1
102
RTVSPropertyOp28
 70
     1
102
RTVSPropertyOp29
 70
     1
102
RTVSPropertyOp30
 70
     1
102
RTVSPropertyOp31
 70
     1
102
RTVSPropertyOp32
 70
     1
  0
XRECORD
  5
3D9
102
{ACAD_REACTORS
330
3D8
102
}
330
3D8
100
AcDbXrecord
280
     1
102
RTVSPropertyOp0
 70
     1
102
RTVSPropertyOp1
 70
     1
102
RTVSPropertyOp2
 70
     1
102
RTVSPropertyOp3
 70
     1
102
RTVSPropertyOp4
 70
     1
102
RTVSPropertyOp5
 70
     1
102
RTVSPropertyOp6
 70
     1
102
RTVSPropertyOp7
 70
     1
102
RTVSPropertyOp8
 70
     1
102
RTVSPropertyOp9
 70
     1
102
RTVSPropertyOp10
 70
     1
102
RTVSPropertyOp11
 70
     1
102
RTVSPropertyOp12
 70
     1
102
RTVSPropertyOp13
 70
     1
102
RTVSPropertyOp14
 70
     1
102
RTVSPropertyOp15
 70
     1
102
RTVSPropertyOp16
 70
     1
102
RTVSPropertyOp17
 70
     1
102
RTVSPropertyOp18
 70
     1
102
RTVSPropertyOp19
 70
     1
102
RTVSPropertyOp20
 70
     1
102
RTVSPropertyOp21
 70
     1
102
RTVSPropertyOp22
 70
     1
102
RTVSPropertyOp23
 70
     1
102
RTVSPropertyOp24
 70
     1
102
RTVSPropertyOp25
 70
     1
102
RTVSPropertyOp26
 70
     1
102
RTVSPropertyOp27
 70
     1
102
RTVSPropertyOp28
 70
     1
102
RTVSPropertyOp29
 70
     1
102
RTVSPropertyOp30
 70
     1
102
RTVSPropertyOp31
 70
     1
102
RTVSPropertyOp32
 70
     1
  0
XRECORD
  5
3DB
102
{ACAD_REACTORS
330
3DA
102
}
330
3DA
100
AcDbXrecord
280
     1
102
RTVSPropertyOp0
 70
     1
102
RTVSPropertyOp1
 70
     1
102
RTVSPropertyOp2
 70
     1
102
RTVSPropertyOp3
 70
     1
102
RTVSPropertyOp4
 70
     1
102
RTVSPropertyOp5
 70
     1
102
RTVSPropertyOp6
 70
     1
102
RTVSPropertyOp7
 70
     1
102
RTVSPropertyOp8
 70
     1
102
RTVSPropertyOp9
 70
     1
102
RTVSPropertyOp10
 70
     1
102
RTVSPropertyOp11
 70
     1
102
RTVSPropertyOp12
 70
     1
102
RTVSPropertyOp13
 70
     1
102
RTVSPropertyOp14
 70
     1
102
RTVSPropertyOp15
 70
     1
102
RTVSPropertyOp16
 70
     1
102
RTVSPropertyOp17
 70
     1
102
RTVSPropertyOp18
 70
     1
102
RTVSPropertyOp19
 70
     1
102
RTVSPropertyOp20
 70
     1
102
RTVSPropertyOp21
 70
     1
102
RTVSPropertyOp22
 70
     1
102
RTVSPropertyOp23
 70
     1
102
RTVSPropertyOp24
 70
     1
102
RTVSPropertyOp25
 70
     1
102
RTVSPropertyOp26
 70
     1
102
RTVSPropertyOp27
 70
     1
102
RTVSPropertyOp28
 70
     1
102
RTVSPropertyOp29
 70
     1
102
RTVSPropertyOp30
 70
     1
102
RTVSPropertyOp31
 70
     1
102
RTVSPropertyOp32
 70
     1
  0
XRECORD
  5
3DD
102
{ACAD_REACTORS
330
3DC
102
}
330
3DC
100
AcDbXrecord
280
     1
102
RTVSPropertyOp0
 70
     1
102
RTVSPropertyOp1
 70
     1
102
RTVSPropertyOp2
 70
     1
102
RTVSPropertyOp3
 70
     1
102
RTVSPropertyOp4
 70
     1
102
RTVSPropertyOp5
 70
     1
102
RTVSPropertyOp6
 70
     1
102
RTVSPropertyOp7
 70
     1
102
RTVSPropertyOp8
 70
     1
102
RTVSPropertyOp9
 70
     1
102
RTVSPropertyOp10
 70
     1
102
RTVSPropertyOp11
 70
     1
102
RTVSPropertyOp12
 70
     1
102
RTVSPropertyOp13
 70
     1
102
RTVSPropertyOp14
 70
     1
102
RTVSPropertyOp15
 70
     1
102
RTVSPropertyOp16
 70
     1
102
RTVSPropertyOp17
 70
     1
102
RTVSPropertyOp18
 70
     1
102
RTVSPropertyOp19
 70
     1
102
RTVSPropertyOp20
 70
     1
102
RTVSPropertyOp21
 70
     1
102
RTVSPropertyOp22
 70
     1
102
RTVSPropertyOp23
 70
     1
102
RTVSPropertyOp24
 70
     1
102
RTVSPropertyOp25
 70
     1
102
RTVSPropertyOp26
 70
     1
102
RTVSPropertyOp27
 70
     1
102
RTVSPropertyOp28
 70
     1
102
RTVSPropertyOp29
 70
     1
102
RTVSPropertyOp30
 70
     1
102
RTVSPropertyOp31
 70
     1
102
RTVSPropertyOp32
 70
     1
  0
XRECORD
  5
3E5
102
{ACAD_REACTORS
330
3E4
102
}
330
3E4
100
AcDbXrecord
280
     1
102
RTVSPropertyOp0
 70
     1
102
RTVSPropertyOp1
 70
     1
102
RTVSPropertyOp2
 70
     1
102
RTVSPropertyOp3
 70
     1
102
RTVSPropertyOp4
 70
     1
102
RTVSPropertyOp5
 70
     1
102
RTVSPropertyOp6
 70
     1
102
RTVSPropertyOp7
 70
     1
102
RTVSPropertyOp8
 70
     1
102
RTVSPropertyOp9
 70
     1
102
RTVSPropertyOp10
 70
     1
102
RTVSPropertyOp11
 70
     1
102
RTVSPropertyOp12
 70
     1
102
RTVSPropertyOp13
 70
     1
102
RTVSPropertyOp14
 70
     1
102
RTVSPropertyOp15
 70
     1
102
RTVSPropertyOp16
 70
     1
102
RTVSPropertyOp17
 70
     1
102
RTVSPropertyOp18
 70
     1
102
RTVSPropertyOp19
 70
     1
102
RTVSPropertyOp20
 70
     1
102
RTVSPropertyOp21
 70
     1
102
RTVSPropertyOp22
 70
     1
102
RTVSPropertyOp23
 70
     1
102
RTVSPropertyOp24
 70
     1
102
RTVSPropertyOp25
 70
     1
102
RTVSPropertyOp26
 70
     1
102
RTVSPropertyOp27
 70
     1
102
RTVSPropertyOp28
 70
     1
102
RTVSPropertyOp29
 70
     1
102
RTVSPropertyOp30
 70
     1
102
RTVSPropertyOp31
 70
     1
102
RTVSPropertyOp32
 70
     1
  0
XRECORD
  5
401
102
{ACAD_REACTORS
330
400
102
}
330
400
100
AcDbXrecord
280
     1
102
RTVSPropertyOp0
 70
     0
102
RTVSPropertyOp1
 70
     0
102
RTVSPropertyOp2
 70
     0
102
RTVSPropertyOp3
 70
     0
102
RTVSPropertyOp4
 70
     0
102
RTVSPropertyOp5
 70
     0
102
RTVSPropertyOp6
 70
     0
102
RTVSPropertyOp7
 70
     0
102
RTVSPropertyOp8
 70
     0
102
RTVSPropertyOp9
 70
     0
102
RTVSPropertyOp10
 70
     0
102
RTVSPropertyOp11
 70
     0
102
RTVSPropertyOp12
 70
     0
102
RTVSPropertyOp13
 70
     0
102
RTVSPropertyOp14
 70
     2
102
RTVSPropertyOp15
 70
     0
102
RTVSPropertyOp16
 70
     0
102
RTVSPropertyOp17
 70
     0
102
RTVSPropertyOp18
 70
     0
102
RTVSPropertyOp19
 70
     0
102
RTVSPropertyOp20
 70
     0
102
RTVSPropertyOp21
 70
     0
102
RTVSPropertyOp22
 70
     0
102
RTVSPropertyOp23
 70
     0
102
RTVSPropertyOp24
 70
     0
102
RTVSPropertyOp25
 70
     0
102
RTVSPropertyOp26
 70
     0
102
RTVSPropertyOp27
 70
     0
102
RTVSPropertyOp28
 70
     1
102
RTVSPropertyOp29
 70
     1
102
RTVSPropertyOp30
 70
     1
102
RTVSPropertyOp31
 70
     1
102
RTVSPropertyOp32
 70
     1
  0
XRECORD
  5
3F1
102
{ACAD_REACTORS
330
3F0
102
}
330
3F0
100
AcDbXrecord
280
     1
102
RTVSPropertyOp0
 70
     1
102
RTVSPropertyOp1
 70
     1
102
RTVSPropertyOp2
 70
     1
102
RTVSPropertyOp3
 70
     1
102
RTVSPropertyOp4
 70
     1
102
RTVSPropertyOp5
 70
     1
102
RTVSPropertyOp6
 70
     1
102
RTVSPropertyOp7
 70
     1
102
RTVSPropertyOp8
 70
     1
102
RTVSPropertyOp9
 70
     1
102
RTVSPropertyOp10
 70
     1
102
RTVSPropertyOp11
 70
     1
102
RTVSPropertyOp12
 70
     1
102
RTVSPropertyOp13
 70
     1
102
RTVSPropertyOp14
 70
     1
102
RTVSPropertyOp15
 70
     1
102
RTVSPropertyOp16
 70
     1
102
RTVSPropertyOp17
 70
     1
102
RTVSPropertyOp18
 70
     1
102
RTVSPropertyOp19
 70
     1
102
RTVSPropertyOp20
 70
     1
102
RTVSPropertyOp21
 70
     1
102
RTVSPropertyOp22
 70
     1
102
RTVSPropertyOp23
 70
     1
102
RTVSPropertyOp24
 70
     1
102
RTVSPropertyOp25
 70
     1
102
RTVSPropertyOp26
 70
     1
102
RTVSPropertyOp27
 70
     1
102
RTVSPropertyOp28
 70
     1
102
RTVSPropertyOp29
 70
     1
102
RTVSPropertyOp30
 70
     1
102
RTVSPropertyOp31
 70
     1
102
RTVSPropertyOp32
 70
     1
  0
XRECORD
  5
403
102
{ACAD_REACTORS
330
402
102
}
330
402
100
AcDbXrecord
280
     1
102
RTVSPropertyOp0
 70
     0
102
RTVSPropertyOp1
 70
     0
102
RTVSPropertyOp2
 70
     0
102
RTVSPropertyOp3
 70
     0
102
RTVSPropertyOp4
 70
     0
102
RTVSPropertyOp5
 70
     0
102
RTVSPropertyOp6
 70
     0
102
RTVSPropertyOp7
 70
     0
102
RTVSPropertyOp8
 70
     0
102
RTVSPropertyOp9
 70
     0
102
RTVSPropertyOp10
 70
     0
102
RTVSPropertyOp11
 70
     0
102
RTVSPropertyOp12
 70
     0
102
RTVSPropertyOp13
 70
     0
102
RTVSPropertyOp14
 70
     2
102
RTVSPropertyOp15
 70
     0
102
RTVSPropertyOp16
 70
     0
102
RTVSPropertyOp17
 70
     0
102
RTVSPropertyOp18
 70
     0
102
RTVSPropertyOp19
 70
     0
102
RTVSPropertyOp20
 70
     0
102
RTVSPropertyOp21
 70
     0
102
RTVSPropertyOp22
 70
     0
102
RTVSPropertyOp23
 70
     0
102
RTVSPropertyOp24
 70
     0
102
RTVSPropertyOp25
 70
     0
102
RTVSPropertyOp26
 70
     0
102
RTVSPropertyOp27
 70
     0
102
RTVSPropertyOp28
 70
     1
102
RTVSPropertyOp29
 70
     1
102
RTVSPropertyOp30
 70
     1
102
RTVSPropertyOp31
 70
     1
102
RTVSPropertyOp32
 70
     1
  0
XRECORD
  5
3E9
102
{ACAD_REACTORS
330
3E8
102
}
330
3E8
100
AcDbXrecord
280
     1
102
RTVSPropertyOp0
 70
     1
102
RTVSPropertyOp1
 70
     1
102
RTVSPropertyOp2
 70
     1
102
RTVSPropertyOp3
 70
     1
102
RTVSPropertyOp4
 70
     1
102
RTVSPropertyOp5
 70
     1
102
RTVSPropertyOp6
 70
     1
102
RTVSPropertyOp7
 70
     1
102
RTVSPropertyOp8
 70
     1
102
RTVSPropertyOp9
 70
     1
102
RTVSPropertyOp10
 70
     1
102
RTVSPropertyOp11
 70
     1
102
RTVSPropertyOp12
 70
     1
102
RTVSPropertyOp13
 70
     1
102
RTVSPropertyOp14
 70
     1
102
RTVSPropertyOp15
 70
     1
102
RTVSPropertyOp16
 70
     1
102
RTVSPropertyOp17
 70
     1
102
RTVSPropertyOp18
 70
     1
102
RTVSPropertyOp19
 70
     1
102
RTVSPropertyOp20
 70
     1
102
RTVSPropertyOp21
 70
     1
102
RTVSPropertyOp22
 70
     1
102
RTVSPropertyOp23
 70
     1
102
RTVSPropertyOp24
 70
     1
102
RTVSPropertyOp25
 70
     1
102
RTVSPropertyOp26
 70
     1
102
RTVSPropertyOp27
 70
     1
102
RTVSPropertyOp28
 70
     1
102
RTVSPropertyOp29
 70
     1
102
RTVSPropertyOp30
 70
     1
102
RTVSPropertyOp31
 70
     1
102
RTVSPropertyOp32
 70
     1
  0
XRECORD
  5
3FF
102
{ACAD_REACTORS
330
3FE
102
}
330
3FE
100
AcDbXrecord
280
     1
102
RTVSPropertyOp0
 70
     1
102
RTVSPropertyOp1
 70
     1
102
RTVSPropertyOp2
 70
     1
102
RTVSPropertyOp3
 70
     1
102
RTVSPropertyOp4
 70
     1
102
RTVSPropertyOp5
 70
     1
102
RTVSPropertyOp6
 70
     1
102
RTVSPropertyOp7
 70
     1
102
RTVSPropertyOp8
 70
     1
102
RTVSPropertyOp9
 70
     1
102
RTVSPropertyOp10
 70
     1
102
RTVSPropertyOp11
 70
     1
102
RTVSPropertyOp12
 70
     1
102
RTVSPropertyOp13
 70
     1
102
RTVSPropertyOp14
 70
     1
102
RTVSPropertyOp15
 70
     1
102
RTVSPropertyOp16
 70
     1
102
RTVSPropertyOp17
 70
     1
102
RTVSPropertyOp18
 70
     1
102
RTVSPropertyOp19
 70
     1
102
RTVSPropertyOp20
 70
     1
102
RTVSPropertyOp21
 70
     1
102
RTVSPropertyOp22
 70
     1
102
RTVSPropertyOp23
 70
     1
102
RTVSPropertyOp24
 70
     1
102
RTVSPropertyOp25
 70
     1
102
RTVSPropertyOp26
 70
     1
102
RTVSPropertyOp27
 70
     1
102
RTVSPropertyOp28
 70
     1
102
RTVSPropertyOp29
 70
     1
102
RTVSPropertyOp30
 70
     1
102
RTVSPropertyOp31
 70
     1
102
RTVSPropertyOp32
 70
     1
  0
XRECORD
  5
3FD
102
{ACAD_REACTORS
330
3FC
102
}
330
3FC
100
AcDbXrecord
280
     1
102
RTVSPropertyOp0
 70
     1
102
RTVSPropertyOp1
 70
     1
102
RTVSPropertyOp2
 70
     1
102
RTVSPropertyOp3
 70
     1
102
RTVSPropertyOp4
 70
     1
102
RTVSPropertyOp5
 70
     1
102
RTVSPropertyOp6
 70
     1
102
RTVSPropertyOp7
 70
     1
102
RTVSPropertyOp8
 70
     1
102
RTVSPropertyOp9
 70
     1
102
RTVSPropertyOp10
 70
     1
102
RTVSPropertyOp11
 70
     1
102
RTVSPropertyOp12
 70
     1
102
RTVSPropertyOp13
 70
     1
102
RTVSPropertyOp14
 70
     1
102
RTVSPropertyOp15
 70
     1
102
RTVSPropertyOp16
 70
     1
102
RTVSPropertyOp17
 70
     1
102
RTVSPropertyOp18
 70
     1
102
RTVSPropertyOp19
 70
     1
102
RTVSPropertyOp20
 70
     1
102
RTVSPropertyOp21
 70
     1
102
RTVSPropertyOp22
 70
     1
102
RTVSPropertyOp23
 70
     1
102
RTVSPropertyOp24
 70
     1
102
RTVSPropertyOp25
 70
     1
102
RTVSPropertyOp26
 70
     1
102
RTVSPropertyOp27
 70
     1
102
RTVSPropertyOp28
 70
     1
102
RTVSPropertyOp29
 70
     1
102
RTVSPropertyOp30
 70
     1
102
RTVSPropertyOp31
 70
     1
102
RTVSPropertyOp32
 70
     1
  0
XRECORD
  5
3F7
102
{ACAD_REACTORS
330
3F6
102
}
330
3F6
100
AcDbXrecord
280
     1
102
RTVSPropertyOp0
 70
     1
102
RTVSPropertyOp1
 70
     1
102
RTVSPropertyOp2
 70
     1
102
RTVSPropertyOp3
 70
     1
102
RTVSPropertyOp4
 70
     1
102
RTVSPropertyOp5
 70
     1
102
RTVSPropertyOp6
 70
     1
102
RTVSPropertyOp7
 70
     1
102
RTVSPropertyOp8
 70
     1
102
RTVSPropertyOp9
 70
     1
102
RTVSPropertyOp10
 70
     1
102
RTVSPropertyOp11
 70
     1
102
RTVSPropertyOp12
 70
     1
102
RTVSPropertyOp13
 70
     1
102
RTVSPropertyOp14
 70
     1
102
RTVSPropertyOp15
 70
     1
102
RTVSPropertyOp16
 70
     1
102
RTVSPropertyOp17
 70
     1
102
RTVSPropertyOp18
 70
     1
102
RTVSPropertyOp19
 70
     1
102
RTVSPropertyOp20
 70
     1
102
RTVSPropertyOp21
 70
     1
102
RTVSPropertyOp22
 70
     1
102
RTVSPropertyOp23
 70
     1
102
RTVSPropertyOp24
 70
     1
102
RTVSPropertyOp25
 70
     1
102
RTVSPropertyOp26
 70
     1
102
RTVSPropertyOp27
 70
     1
102
RTVSPropertyOp28
 70
     1
102
RTVSPropertyOp29
 70
     1
102
RTVSPropertyOp30
 70
     1
102
RTVSPropertyOp31
 70
     1
102
RTVSPropertyOp32
 70
     1
  0
XRECORD
  5
3F9
102
{ACAD_REACTORS
330
3F8
102
}
330
3F8
100
AcDbXrecord
280
     1
102
RTVSPropertyOp0
 70
     1
102
RTVSPropertyOp1
 70
     1
102
RTVSPropertyOp2
 70
     1
102
RTVSPropertyOp3
 70
     1
102
RTVSPropertyOp4
 70
     1
102
RTVSPropertyOp5
 70
     1
102
RTVSPropertyOp6
 70
     1
102
RTVSPropertyOp7
 70
     1
102
RTVSPropertyOp8
 70
     1
102
RTVSPropertyOp9
 70
     1
102
RTVSPropertyOp10
 70
     1
102
RTVSPropertyOp11
 70
     1
102
RTVSPropertyOp12
 70
     1
102
RTVSPropertyOp13
 70
     1
102
RTVSPropertyOp14
 70
     1
102
RTVSPropertyOp15
 70
     1
102
RTVSPropertyOp16
 70
     1
102
RTVSPropertyOp17
 70
     1
102
RTVSPropertyOp18
 70
     1
102
RTVSPropertyOp19
 70
     1
102
RTVSPropertyOp20
 70
     1
102
RTVSPropertyOp21
 70
     1
102
RTVSPropertyOp22
 70
     1
102
RTVSPropertyOp23
 70
     1
102
RTVSPropertyOp24
 70
     1
102
RTVSPropertyOp25
 70
     1
102
RTVSPropertyOp26
 70
     1
102
RTVSPropertyOp27
 70
     1
102
RTVSPropertyOp28
 70
     1
102
RTVSPropertyOp29
 70
     1
102
RTVSPropertyOp30
 70
     1
102
RTVSPropertyOp31
 70
     1
102
RTVSPropertyOp32
 70
     1
  0
XRECORD
  5
3EF
102
{ACAD_REACTORS
330
3EE
102
}
330
3EE
100
AcDbXrecord
280
     1
102
RTVSPropertyOp0
 70
     1
102
RTVSPropertyOp1
 70
     1
102
RTVSPropertyOp2
 70
     1
102
RTVSPropertyOp3
 70
     1
102
RTVSPropertyOp4
 70
     1
102
RTVSPropertyOp5
 70
     1
102
RTVSPropertyOp6
 70
     1
102
RTVSPropertyOp7
 70
     1
102
RTVSPropertyOp8
 70
     1
102
RTVSPropertyOp9
 70
     1
102
RTVSPropertyOp10
 70
     1
102
RTVSPropertyOp11
 70
     1
102
RTVSPropertyOp12
 70
     1
102
RTVSPropertyOp13
 70
     1
102
RTVSPropertyOp14
 70
     1
102
RTVSPropertyOp15
 70
     1
102
RTVSPropertyOp16
 70
     1
102
RTVSPropertyOp17
 70
     1
102
RTVSPropertyOp18
 70
     1
102
RTVSPropertyOp19
 70
     1
102
RTVSPropertyOp20
 70
     1
102
RTVSPropertyOp21
 70
     1
102
RTVSPropertyOp22
 70
     1
102
RTVSPropertyOp23
 70
     1
102
RTVSPropertyOp24
 70
     1
102
RTVSPropertyOp25
 70
     1
102
RTVSPropertyOp26
 70
     1
102
RTVSPropertyOp27
 70
     1
102
RTVSPropertyOp28
 70
     1
102
RTVSPropertyOp29
 70
     1
102
RTVSPropertyOp30
 70
     1
102
RTVSPropertyOp31
 70
     1
102
RTVSPropertyOp32
 70
     1
  0
XRECORD
  5
3E3
102
{ACAD_REACTORS
330
3E2
102
}
330
3E2
100
AcDbXrecord
280
     1
102
RTVSPropertyOp0
 70
     1
102
RTVSPropertyOp1
 70
     1
102
RTVSPropertyOp2
 70
     1
102
RTVSPropertyOp3
 70
     1
102
RTVSPropertyOp4
 70
     1
102
RTVSPropertyOp5
 70
     1
102
RTVSPropertyOp6
 70
     1
102
RTVSPropertyOp7
 70
     1
102
RTVSPropertyOp8
 70
     1
102
RTVSPropertyOp9
 70
     1
102
RTVSPropertyOp10
 70
     1
102
RTVSPropertyOp11
 70
     1
102
RTVSPropertyOp12
 70
     1
102
RTVSPropertyOp13
 70
     1
102
RTVSPropertyOp14
 70
     1
102
RTVSPropertyOp15
 70
     1
102
RTVSPropertyOp16
 70
     1
102
RTVSPropertyOp17
 70
     1
102
RTVSPropertyOp18
 70
     1
102
RTVSPropertyOp19
 70
     1
102
RTVSPropertyOp20
 70
     1
102
RTVSPropertyOp21
 70
     1
102
RTVSPropertyOp22
 70
     1
102
RTVSPropertyOp23
 70
     1
102
RTVSPropertyOp24
 70
     1
102
RTVSPropertyOp25
 70
     1
102
RTVSPropertyOp26
 70
     1
102
RTVSPropertyOp27
 70
     1
102
RTVSPropertyOp28
 70
     1
102
RTVSPropertyOp29
 70
     1
102
RTVSPropertyOp30
 70
     1
102
RTVSPropertyOp31
 70
     1
102
RTVSPropertyOp32
 70
     1
  0
XRECORD
  5
3FB
102
{ACAD_REACTORS
330
3FA
102
}
330
3FA
100
AcDbXrecord
280
     1
102
RTVSPropertyOp0
 70
     1
102
RTVSPropertyOp1
 70
     1
102
RTVSPropertyOp2
 70
     1
102
RTVSPropertyOp3
 70
     1
102
RTVSPropertyOp4
 70
     1
102
RTVSPropertyOp5
 70
     1
102
RTVSPropertyOp6
 70
     1
102
RTVSPropertyOp7
 70
     1
102
RTVSPropertyOp8
 70
     1
102
RTVSPropertyOp9
 70
     1
102
RTVSPropertyOp10
 70
     1
102
RTVSPropertyOp11
 70
     1
102
RTVSPropertyOp12
 70
     1
102
RTVSPropertyOp13
 70
     1
102
RTVSPropertyOp14
 70
     1
102
RTVSPropertyOp15
 70
     1
102
RTVSPropertyOp16
 70
     1
102
RTVSPropertyOp17
 70
     1
102
RTVSPropertyOp18
 70
     1
102
RTVSPropertyOp19
 70
     1
102
RTVSPropertyOp20
 70
     1
102
RTVSPropertyOp21
 70
     1
102
RTVSPropertyOp22
 70
     1
102
RTVSPropertyOp23
 70
     1
102
RTVSPropertyOp24
 70
     1
102
RTVSPropertyOp25
 70
     1
102
RTVSPropertyOp26
 70
     1
102
RTVSPropertyOp27
 70
     1
102
RTVSPropertyOp28
 70
     1
102
RTVSPropertyOp29
 70
     1
102
RTVSPropertyOp30
 70
     1
102
RTVSPropertyOp31
 70
     1
102
RTVSPropertyOp32
 70
     1
  0
ENDSEC
  0
EOF
