  0
SECTION
  2
HEADER
  9
$ACADVER
  1
AC1015
  9
$ACADMAINTVER
 70
    20
  9
$DWGCODEPAGE
  3
ANSI_932
  9
$INSBASE
 10
0.0
 20
0.0
 30
0.0
  9
$EXTMIN
 10
4647.755851288549
 20
-1669.746542584139
 30
0.0
  9
$EXTMAX
 10
5022.75585128855
 20
-1399.746542584139
 30
0.0
  9
$LIMMIN
 10
0.0
 20
0.0
  9
$LIMMAX
 10
12.0
 20
9.0
  9
$ORTHOMODE
 70
     1
  9
$REGENMODE
 70
     1
  9
$FILLMODE
 70
     1
  9
$QTEXTMODE
 70
     0
  9
$MIRRTEXT
 70
     1
  9
$LTSCALE
 40
1.0
  9
$ATTMODE
 70
     1
  9
$TEXTSIZE
 40
0.2
  9
$TRACEWID
 40
0.05
  9
$TEXTSTYLE
  7
Standard
  9
$CLAYER
  8
0
  9
$CELTYPE
  6
ByLayer
  9
$CECOLOR
 62
   256
  9
$CELTSCALE
 40
1.0
  9
$DISPSILH
 70
     0
  9
$DIMSCALE
 40
1.0
  9
$DIMASZ
 40
0.18
  9
$DIMEXO
 40
0.0625
  9
$DIMDLI
 40
0.38
  9
$DIMRND
 40
0.0
  9
$DIMDLE
 40
0.0
  9
$DIMEXE
 40
0.18
  9
$DIMTP
 40
0.0
  9
$DIMTM
 40
0.0
  9
$DIMTXT
 40
0.18
  9
$DIMCEN
 40
0.09
  9
$DIMTSZ
 40
0.0
  9
$DIMTOL
 70
     0
  9
$DIMLIM
 70
     0
  9
$DIMTIH
 70
     1
  9
$DIMTOH
 70
     1
  9
$DIMSE1
 70
     0
  9
$DIMSE2
 70
     0
  9
$DIMTAD
 70
     0
  9
$DIMZIN
 70
     0
  9
$DIMBLK
  1

  9
$DIMASO
 70
     1
  9
$DIMSHO
 70
     1
  9
$DIMPOST
  1

  9
$DIMAPOST
  1

  9
$DIMALT
 70
     0
  9
$DIMALTD
 70
     2
  9
$DIMALTF
 40
25.4
  9
$DIMLFAC
 40
1.0
  9
$DIMTOFL
 70
     0
  9
$DIMTVP
 40
0.0
  9
$DIMTIX
 70
     0
  9
$DIMSOXD
 70
     0
  9
$DIMSAH
 70
     0
  9
$DIMBLK1
  1

  9
$DIMBLK2
  1

  9
$DIMSTYLE
  2
Standard
  9
$DIMCLRD
 70
     0
  9
$DIMCLRE
 70
     0
  9
$DIMCLRT
 70
     0
  9
$DIMTFAC
 40
1.0
  9
$DIMGAP
 40
0.09
  9
$DIMJUST
 70
     0
  9
$DIMSD1
 70
     0
  9
$DIMSD2
 70
     0
  9
$DIMTOLJ
 70
     1
  9
$DIMTZIN
 70
     0
  9
$DIMALTZ
 70
     0
  9
$DIMALTTZ
 70
     0
  9
$DIMUPT
 70
     0
  9
$DIMDEC
 70
     4
  9
$DIMTDEC
 70
     4
  9
$DIMALTU
 70
     2
  9
$DIMALTTD
 70
     2
  9
$DIMTXSTY
  7
Standard
  9
$DIMAUNIT
 70
     0
  9
$DIMADEC
 70
     0
  9
$DIMALTRND
 40
0.0
  9
$DIMAZIN
 70
     0
  9
$DIMDSEP
 70
    46
  9
$DIMATFIT
 70
     3
  9
$DIMFRAC
 70
     0
  9
$DIMLDRBLK
  1

  9
$DIMLUNIT
 70
     2
  9
$DIMLWD
 70
    -2
  9
$DIMLWE
 70
    -2
  9
$DIMTMOVE
 70
     0
  9
$LUNITS
 70
     2
  9
$LUPREC
 70
     4
  9
$SKETCHINC
 40
0.1
  9
$FILLETRAD
 40
0.5
  9
$AUNITS
 70
     0
  9
$AUPREC
 70
     0
  9
$MENU
  1
.
  9
$ELEVATION
 40
0.0
  9
$PELEVATION
 40
0.0
  9
$THICKNESS
 40
0.0
  9
$LIMCHECK
 70
     0
  9
$CHAMFERA
 40
0.5
  9
$CHAMFERB
 40
0.5
  9
$CHAMFERC
 40
1.0
  9
$CHAMFERD
 40
0.0
  9
$SKPOLY
 70
     0
  9
$TDCREATE
 40
2454445.907482454
  9
$TDUCREATE
 40
2454445.532482454
  9
$TDUPDATE
 40
2457577.466916123
  9
$TDUUPDATE
 40
2457577.091916123
  9
$TDINDWG
 40
0.0014225926
  9
$TDUSRTIMER
 40
0.0014225926
  9
$USRTIMER
 70
     1
  9
$ANGBASE
 50
0.0
  9
$ANGDIR
 70
     0
  9
$PDMODE
 70
     0
  9
$PDSIZE
 40
0.0
  9
$PLINEWID
 40
0.0
  9
$SPLFRAME
 70
     0
  9
$SPLINETYPE
 70
     6
  9
$SPLINESEGS
 70
     8
  9
$HANDSEED
  5
338
  9
$SURFTAB1
 70
     6
  9
$SURFTAB2
 70
     6
  9
$SURFTYPE
 70
     6
  9
$SURFU
 70
     6
  9
$SURFV
 70
     6
  9
$UCSBASE
  2

  9
$UCSNAME
  2

  9
$UCSORG
 10
0.0
 20
0.0
 30
0.0
  9
$UCSXDIR
 10
1.0
 20
0.0
 30
0.0
  9
$UCSYDIR
 10
0.0
 20
1.0
 30
0.0
  9
$UCSORTHOREF
  2

  9
$UCSORTHOVIEW
 70
     0
  9
$UCSORGTOP
 10
0.0
 20
0.0
 30
0.0
  9
$UCSORGBOTTOM
 10
0.0
 20
0.0
 30
0.0
  9
$UCSORGLEFT
 10
0.0
 20
0.0
 30
0.0
  9
$UCSORGRIGHT
 10
0.0
 20
0.0
 30
0.0
  9
$UCSORGFRONT
 10
0.0
 20
0.0
 30
0.0
  9
$UCSORGBACK
 10
0.0
 20
0.0
 30
0.0
  9
$PUCSBASE
  2

  9
$PUCSNAME
  2

  9
$PUCSORG
 10
0.0
 20
0.0
 30
0.0
  9
$PUCSXDIR
 10
1.0
 20
0.0
 30
0.0
  9
$PUCSYDIR
 10
0.0
 20
1.0
 30
0.0
  9
$PUCSORTHOREF
  2

  9
$PUCSORTHOVIEW
 70
     0
  9
$PUCSORGTOP
 10
0.0
 20
0.0
 30
0.0
  9
$PUCSORGBOTTOM
 10
0.0
 20
0.0
 30
0.0
  9
$PUCSORGLEFT
 10
0.0
 20
0.0
 30
0.0
  9
$PUCSORGRIGHT
 10
0.0
 20
0.0
 30
0.0
  9
$PUCSORGFRONT
 10
0.0
 20
0.0
 30
0.0
  9
$PUCSORGBACK
 10
0.0
 20
0.0
 30
0.0
  9
$USERI1
 70
     0
  9
$USERI2
 70
     0
  9
$USERI3
 70
     0
  9
$USERI4
 70
     0
  9
$USERI5
 70
     0
  9
$USERR1
 40
14.5
  9
$USERR2
 40
0.0
  9
$USERR3
 40
0.0
  9
$USERR4
 40
0.0
  9
$USERR5
 40
0.0
  9
$WORLDVIEW
 70
     1
  9
$SHADEDGE
 70
     3
  9
$SHADEDIF
 70
    70
  9
$TILEMODE
 70
     1
  9
$MAXACTVP
 70
    64
  9
$PINSBASE
 10
0.0
 20
0.0
 30
0.0
  9
$PLIMCHECK
 70
     0
  9
$PEXTMIN
 10
1.000000000000000E+20
 20
1.000000000000000E+20
 30
1.000000000000000E+20
  9
$PEXTMAX
 10
-1.000000000000000E+20
 20
-1.000000000000000E+20
 30
-1.000000000000000E+20
  9
$PLIMMIN
 10
0.0
 20
0.0
  9
$PLIMMAX
 10
12.0
 20
9.0
  9
$UNITMODE
 70
     0
  9
$VISRETAIN
 70
     1
  9
$PLINEGEN
 70
     0
  9
$PSLTSCALE
 70
     1
  9
$TREEDEPTH
 70
  3020
  9
$CMLSTYLE
  2
Standard
  9
$CMLJUST
 70
     0
  9
$CMLSCALE
 40
1.0
  9
$PROXYGRAPHICS
 70
     1
  9
$MEASUREMENT
 70
     0
  9
$CELWEIGHT
370
    -1
  9
$ENDCAPS
280
     0
  9
$JOINSTYLE
280
     0
  9
$LWDISPLAY
290
     0
  9
$INSUNITS
 70
     1
  9
$HYPERLINKBASE
  1

  9
$STYLESHEET
  1

  9
$XEDIT
290
     1
  9
$CEPSNTYPE
380
     0
  9
$PSTYLEMODE
290
     1
  9
$FINGERPRINTGUID
  2
{E41AB41A-BDBF-437E-BCFB-FF319898A7E3}
  9
$VERSIONGUID
  2
{D251E6DA-0B88-497B-9206-605D6E304FC5}
  9
$EXTNAMES
290
     1
  9
$PSVPSCALE
 40
0.0
  9
$OLESTARTUP
290
     0
  0
ENDSEC
  0
SECTION
  2
CLASSES
  0
CLASS
  1
ACDBDICTIONARYWDFLT
  2
AcDbDictionaryWithDefault
  3
ObjectDBX Classes
 90
        0
280
     0
281
     0
  0
CLASS
  1

  2
exOdDbPolyline
  3

 90
    32768
280
     1
281
     1
  0
CLASS
  1

  2
exOdDbCircle
  3

 90
    32768
280
     1
281
     1
  0
CLASS
  1
ACDBPLACEHOLDER
  2
AcDbPlaceHolder
  3
ObjectDBX Classes
 90
        0
280
     0
281
     0
  0
CLASS
  1
LAYOUT
  2
AcDbLayout
  3
ObjectDBX Classes
 90
        0
280
     0
281
     0
  0
CLASS
  1
MATERIAL
  2
AcDbMaterial
  3
ObjectDBX Classes
 90
     1153
280
     0
281
     0
  0
CLASS
  1
VISUALSTYLE
  2
AcDbVisualStyle
  3
ObjectDBX Classes
 90
     4095
280
     0
281
     0
  0
CLASS
  1
TABLESTYLE
  2
AcDbTableStyle
  3
ObjectDBX Classes
 90
     4095
280
     0
281
     0
  0
CLASS
  1
SCALE
  2
AcDbScale
  3
ObjectDBX Classes
 90
     1153
280
     0
281
     0
  0
CLASS
  1
MLEADERSTYLE
  2
AcDbMLeaderStyle
  3
ACDB_MLEADERSTYLE_CLASS
 90
     4095
280
     0
281
     0
  0
CLASS
  1
SORTENTSTABLE
  2
AcDbSortentsTable
  3
ObjectDBX Classes
 90
        0
280
     0
281
     0
  0
CLASS
  1
DICTIONARYVAR
  2
AcDbDictionaryVar
  3
ObjectDBX Classes
 90
        0
280
     0
281
     0
  0
CLASS
  1
CELLSTYLEMAP
  2
AcDbCellStyleMap
  3
ObjectDBX Classes
 90
     1152
280
     0
281
     0
  0
ENDSEC
  0
SECTION
  2
TABLES
  0
TABLE
  2
VPORT
  5
8
330
0
100
AcDbSymbolTable
 70
     1
  0
VPORT
  5
29
330
8
100
AcDbSymbolTableRecord
100
AcDbViewportTableRecord
  2
*Active
 70
     0
 10
0.0
 20
0.0
 11
1.0
 21
1.0
 12
4917.269510562225
 22
-1518.905165602821
 13
0.0
 23
0.0
 14
0.5
 24
0.5
 15
0.5
 25
0.5
 16
0.0
 26
0.0
 36
1.0
 17
0.0
 27
0.0
 37
0.0
 40
125.8774693830666
 41
2.01418439716312
 42
50.0
 43
0.0
 44
0.0
 50
0.0
 51
0.0
 71
     8
 72
   100
 73
     1
 74
     3
 75
     0
 76
     0
 77
     0
 78
     0
281
     0
 65
     1
110
0.0
120
0.0
130
0.0
111
1.0
121
0.0
131
0.0
112
0.0
122
1.0
132
0.0
 79
     0
146
0.0
1001
ACAD_NAV_VCDISPLAY
1070
     3
  0
ENDTAB
  0
TABLE
  2
LTYPE
  5
5
330
0
100
AcDbSymbolTable
 70
     8
  0
LTYPE
  5
14
330
5
100
AcDbSymbolTableRecord
100
AcDbLinetypeTableRecord
  2
ByBlock
 70
     0
  3

 72
    65
 73
     0
 40
0.0
  0
LTYPE
  5
15
330
5
100
AcDbSymbolTableRecord
100
AcDbLinetypeTableRecord
  2
ByLayer
 70
     0
  3

 72
    65
 73
     0
 40
0.0
  0
LTYPE
  5
16
330
5
100
AcDbSymbolTableRecord
100
AcDbLinetypeTableRecord
  2
Continuous
 70
     0
  3
Solid line
 72
    65
 73
     0
 40
0.0
  0
LTYPE
  5
2A
330
5
100
AcDbSymbolTableRecord
100
AcDbLinetypeTableRecord
  2
DASHED
 70
     0
  3
Dashed
 72
    65
 73
     2
 40
15.0
 49
7.0
 74
     0
 49
-8.0
 74
     0
  0
LTYPE
  5
2B
330
5
100
AcDbSymbolTableRecord
100
AcDbLinetypeTableRecord
  2
DASHED_NEW
 70
     0
  3
 _ _ _ _ _ _ _ _
 72
    65
 73
     2
 40
1.6
 49
0.8
 74
     0
 49
-0.8
 74
     0
  0
LTYPE
  5
2C
330
5
100
AcDbSymbolTableRecord
100
AcDbLinetypeTableRecord
  2
CENTER_NEW
 70
     0
  3
－ － － － － －
 72
    65
 73
     4
 40
7.5
 49
6.0
 74
     0
 49
-0.5
 74
     0
 49
0.5
 74
     0
 49
-0.5
 74
     0
  0
LTYPE
  5
2D
330
5
100
AcDbSymbolTableRecord
100
AcDbLinetypeTableRecord
  2
LONG_DASHED
 70
     0
  3
Long_Dashed
 72
    65
 73
     2
 40
15.0
 49
10.0
 74
     0
 49
-5.0
 74
     0
  0
LTYPE
  5
2E
330
5
100
AcDbSymbolTableRecord
100
AcDbLinetypeTableRecord
  2
DASH_CENTER
 70
     0
  3
Dash_Center
 72
    65
 73
     4
 40
14.0
 49
11.0
 74
     0
 49
-1.0
 74
     0
 49
1.0
 74
     0
 49
-1.0
 74
     0
  0
LTYPE
  5
2F
330
5
100
AcDbSymbolTableRecord
100
AcDbLinetypeTableRecord
  2
PHANTOM_NEW
 70
     0
  3
－ － － － － －
 72
    65
 73
     6
 40
7.5
 49
5.0
 74
     0
 49
-0.5
 74
     0
 49
0.5
 74
     0
 49
-0.5
 74
     0
 49
0.5
 74
     0
 49
-0.5
 74
     0
  0
LTYPE
  5
30
330
5
100
AcDbSymbolTableRecord
100
AcDbLinetypeTableRecord
  2
CENTER_DASH_DASH_NEW
 70
     0
  3
－ － － － － －
 72
    65
 73
     6
 40
7.5
 49
4.0
 74
     0
 49
-0.5
 74
     0
 49
1.0
 74
     0
 49
-0.5
 74
     0
 49
1.0
 74
     0
 49
-0.5
 74
     0
  0
ENDTAB
  0
TABLE
  2
LAYER
  5
2
330
0
100
AcDbSymbolTable
 70
     2
  0
LAYER
  5
10
102
{ACAD_XDICTIONARY
360
2E5
102
}
330
2
100
AcDbSymbolTableRecord
100
AcDbLayerTableRecord
  2
0
 70
     0
 62
     7
  6
Continuous
370
    -3
390
F
  0
LAYER
  5
31
102
{ACAD_XDICTIONARY
360
2E7
102
}
330
2
100
AcDbSymbolTableRecord
100
AcDbLayerTableRecord
  2
1
 70
     0
 62
     7
  6
Continuous
370
    -3
390
F
  0
ENDTAB
  0
TABLE
  2
STYLE
  5
3
330
0
100
AcDbSymbolTable
 70
     7
  0
STYLE
  5
11
330
3
100
AcDbSymbolTableRecord
100
AcDbTextStyleTableRecord
  2
Standard
 70
     0
 40
0.0
 41
0.9
 50
0.0
 71
     0
 42
0.2
  3
txt
  4

  0
STYLE
  5
178
330
3
100
AcDbSymbolTableRecord
100
AcDbTextStyleTableRecord
  2
CONVERTER_11
 70
     0
 40
0.0
 41
0.5607
 50
0.0
 71
     0
 42
0.2
  3
simplex.shx
  4
extfont2.shx
  0
STYLE
  5
17B
330
3
100
AcDbSymbolTableRecord
100
AcDbTextStyleTableRecord
  2
CONVERTER_12
 70
     0
 40
0.0
 41
0.5670000000000001
 50
0.0
 71
     0
 42
0.2
  3
simplex.shx
  4

  0
STYLE
  5
18F
330
3
100
AcDbSymbolTableRecord
100
AcDbTextStyleTableRecord
  2
CONVERTER_13
 70
     0
 40
0.0
 41
0.8009999999999999
 50
0.0
 71
     0
 42
0.2
  3
simplex.shx
  4
extfont2.shx
  0
STYLE
  5
1A0
330
3
100
AcDbSymbolTableRecord
100
AcDbTextStyleTableRecord
  2
CONVERTER_14
 70
     0
 40
0.0
 41
0.8100000000000001
 50
0.0
 71
     0
 42
0.2
  3
simplex.shx
  4

  0
STYLE
  5
1A4
330
3
100
AcDbSymbolTableRecord
100
AcDbTextStyleTableRecord
  2
CONVERTER_15
 70
     0
 40
0.0
 41
0.6840000000000001
 50
0.0
 71
     0
 42
0.2
  3
simplex.shx
  4

  0
STYLE
  5
1C1
330
3
100
AcDbSymbolTableRecord
100
AcDbTextStyleTableRecord
  2
CONVERTER_16
 70
     0
 40
0.0
 41
0.5985000000000001
 50
0.0
 71
     0
 42
0.2
  3
simplex.shx
  4

  0
ENDTAB
  0
TABLE
  2
VIEW
  5
6
330
0
100
AcDbSymbolTable
 70
     0
  0
ENDTAB
  0
TABLE
  2
UCS
  5
7
330
0
100
AcDbSymbolTable
 70
     0
  0
ENDTAB
  0
TABLE
  2
APPID
  5
9
330
0
100
AcDbSymbolTable
 70
     4
  0
APPID
  5
12
330
9
100
AcDbSymbolTableRecord
100
AcDbRegAppTableRecord
  2
ACAD
 70
     0
  0
APPID
  5
2EB
330
9
100
AcDbSymbolTableRecord
100
AcDbRegAppTableRecord
  2
DCO15
 70
     0
  0
APPID
  5
2F6
330
9
100
AcDbSymbolTableRecord
100
AcDbRegAppTableRecord
  2
ACAD_NAV_VCDISPLAY
 70
     0
  0
APPID
  5
337
330
9
100
AcDbSymbolTableRecord
100
AcDbRegAppTableRecord
  2
ACAD_MLEADERVER
 70
     0
  0
ENDTAB
  0
TABLE
  2
DIMSTYLE
  5
A
330
0
100
AcDbSymbolTable
 70
     8
100
AcDbDimStyleTable
 71
     0
  0
DIMSTYLE
105
27
330
A
100
AcDbSymbolTableRecord
100
AcDbDimStyleTableRecord
  2
Standard
 70
     0
176
     0
177
     0
178
     0
340
11
  0
DIMSTYLE
105
1CB
330
A
100
AcDbSymbolTableRecord
100
AcDbDimStyleTableRecord
  2
ME10_DIM_10
 70
     0
 41
2.45
 42
1.0
 44
1.0
 73
     0
 74
     0
 77
     1
 78
     8
140
3.5
147
1.0
172
     1
173
     1
176
     2
177
     2
178
     3
271
     2
340
1C1
343
1C5
344
1C5
  0
DIMSTYLE
105
1D8
330
A
100
AcDbSymbolTableRecord
100
AcDbDimStyleTableRecord
  2
ME10_DIM_11
 70
     0
 41
2.45
 42
1.0
 44
1.0
 73
     0
 74
     0
 77
     1
 78
     8
140
3.5
147
1.0
172
     1
173
     1
176
     2
177
     2
178
     3
271
     2
340
1C1
343
1C5
344
1C5
  0
DIMSTYLE
105
1E5
330
A
100
AcDbSymbolTableRecord
100
AcDbDimStyleTableRecord
  2
ME10_DIM_12
 70
     0
 41
2.45
 42
1.0
 44
1.0
 73
     0
 74
     0
 77
     1
 78
     8
140
3.5
147
1.0
172
     1
173
     1
176
     2
177
     2
178
     3
271
     2
340
1C1
343
1C5
344
1C5
  0
DIMSTYLE
105
1F2
330
A
100
AcDbSymbolTableRecord
100
AcDbDimStyleTableRecord
  2
ME10_DIM_13
 70
     0
 41
2.45
 42
1.0
 44
1.0
 73
     0
 74
     0
 77
     1
 78
     8
140
3.5
147
1.0
172
     1
173
     1
176
     2
177
     2
178
     3
271
     2
340
1C1
343
1C5
344
1C5
  0
DIMSTYLE
105
1FF
330
A
100
AcDbSymbolTableRecord
100
AcDbDimStyleTableRecord
  2
ME10_DIM_14
 70
     0
 41
2.45
 42
1.0
 44
1.0
 73
     0
 74
     0
 77
     1
 78
     8
140
3.5
147
1.0
172
     1
173
     1
176
     2
177
     2
178
     3
271
     2
340
1C1
343
1C5
344
1C5
  0
DIMSTYLE
105
20E
330
A
100
AcDbSymbolTableRecord
100
AcDbDimStyleTableRecord
  2
ME10_DIM_15
 70
     0
 41
2.45
 42
1.0
 44
1.0
 73
     0
 74
     0
 77
     1
 78
     8
140
3.5
147
1.0
172
     1
173
     1
176
     2
177
     2
178
     3
271
     2
340
1C1
343
1C5
344
1C5
  0
DIMSTYLE
105
21D
330
A
100
AcDbSymbolTableRecord
100
AcDbDimStyleTableRecord
  2
ME10_DIM_16
 70
     0
 41
2.45
 42
1.0
 44
1.0
 73
     0
 74
     0
 77
     1
 78
     8
140
3.5
147
1.0
172
     1
173
     1
176
     2
177
     2
178
     3
271
     2
340
1C1
343
1C5
344
1C5
  0
ENDTAB
  0
TABLE
  2
BLOCK_RECORD
  5
1
330
0
100
AcDbSymbolTable
 70
    12
  0
BLOCK_RECORD
  5
1F
102
{ACAD_XDICTIONARY
360
2E3
102
}
330
1
100
AcDbSymbolTableRecord
100
AcDbBlockTableRecord
  2
*Model_Space
340
22
  0
BLOCK_RECORD
  5
1B
330
1
100
AcDbSymbolTableRecord
100
AcDbBlockTableRecord
  2
*Paper_Space
340
1E
  0
BLOCK_RECORD
  5
23
330
1
100
AcDbSymbolTableRecord
100
AcDbBlockTableRecord
  2
*Paper_Space0
340
26
  0
BLOCK_RECORD
  5
32
330
1
100
AcDbSymbolTableRecord
100
AcDbBlockTableRecord
  2
_1
340
0
  0
BLOCK_RECORD
  5
35
330
1
100
AcDbSymbolTableRecord
100
AcDbBlockTableRecord
  2
______
340
0
102
{BLKREFS
331
39
102
}
  0
BLOCK_RECORD
  5
38
330
1
100
AcDbSymbolTableRecord
100
AcDbBlockTableRecord
  2
format_A3
340
0
  0
BLOCK_RECORD
  5
1B9
330
1
100
AcDbSymbolTableRecord
100
AcDbBlockTableRecord
  2
*D4
340
0
  0
BLOCK_RECORD
  5
1C5
330
1
100
AcDbSymbolTableRecord
100
AcDbBlockTableRecord
  2
_Open30
340
0
  0
BLOCK_RECORD
  5
1CD
330
1
100
AcDbSymbolTableRecord
100
AcDbBlockTableRecord
  2
*D6
340
0
  0
BLOCK_RECORD
  5
1DA
330
1
100
AcDbSymbolTableRecord
100
AcDbBlockTableRecord
  2
*D7
340
0
  0
BLOCK_RECORD
  5
1E7
330
1
100
AcDbSymbolTableRecord
100
AcDbBlockTableRecord
  2
*D8
340
0
  0
BLOCK_RECORD
  5
1F4
330
1
100
AcDbSymbolTableRecord
100
AcDbBlockTableRecord
  2
*D9
340
0
  0
BLOCK_RECORD
  5
201
330
1
100
AcDbSymbolTableRecord
100
AcDbBlockTableRecord
  2
*D10
340
0
  0
BLOCK_RECORD
  5
210
330
1
100
AcDbSymbolTableRecord
100
AcDbBlockTableRecord
  2
*D11
340
0
  0
ENDTAB
  0
ENDSEC
  0
SECTION
  2
BLOCKS
  0
BLOCK
  5
20
330
1F
100
AcDbEntity
  8
0
100
AcDbBlockBegin
  2
*Model_Space
 70
     0
 10
0.0
 20
0.0
 30
0.0
  3
*Model_Space
  1

  0
ENDBLK
  5
21
330
1F
100
AcDbEntity
  8
0
100
AcDbBlockEnd
  0
BLOCK
  5
1C
330
1B
100
AcDbEntity
 67
     1
  8
0
100
AcDbBlockBegin
  2
*Paper_Space
 70
     0
 10
0.0
 20
0.0
 30
0.0
  3
*Paper_Space
  1

  0
ENDBLK
  5
1D
330
1B
100
AcDbEntity
 67
     1
  8
0
100
AcDbBlockEnd
  0
BLOCK
  5
24
330
23
100
AcDbEntity
 67
     1
  8
0
100
AcDbBlockBegin
  2
*Paper_Space0
 70
     0
 10
0.0
 20
0.0
 30
0.0
  3
*Paper_Space0
  1

  0
ENDBLK
  5
25
330
23
100
AcDbEntity
 67
     1
  8
0
100
AcDbBlockEnd
  0
BLOCK
  5
33
330
32
100
AcDbEntity
  8
0
100
AcDbBlockBegin
  2
_1
 70
     0
 10
4786.2
 20
-1532.5
 30
0.0
  3
_1
  1

  0
LINE
  5
3E
330
32
100
AcDbEntity
  8
1
  6
DASHED_NEW
 62
     7
100
AcDbLine
 10
4880.5
 20
-1505.0
 30
0.0
 11
4880.0
 21
-1505.5
 31
0.0
  0
LINE
  5
3F
330
32
100
AcDbEntity
  8
1
  6
DASHED_NEW
 62
     7
100
AcDbLine
 10
4886.0
 20
-1505.5
 30
0.0
 11
4885.5
 21
-1505.0
 31
0.0
  0
LINE
  5
40
330
32
100
AcDbEntity
  8
1
  6
Continuous
 62
     7
100
AcDbLine
 10
4883.5
 20
-1503.0
 30
0.0
 11
4882.5
 21
-1503.0
 31
0.0
  0
LINE
  5
41
330
32
100
AcDbEntity
  8
1
  6
Continuous
 62
     7
100
AcDbLine
 10
4885.5
 20
-1505.0
 30
0.0
 11
4883.5
 21
-1503.0
 31
0.0
  0
LINE
  5
42
330
32
100
AcDbEntity
  8
1
  6
Continuous
 62
     7
100
AcDbLine
 10
4882.5
 20
-1503.0
 30
0.0
 11
4880.5
 21
-1505.0
 31
0.0
  0
LINE
  5
43
330
32
100
AcDbEntity
  8
1
  6
Continuous
 62
     7
100
AcDbLine
 10
4889.0
 20
-1505.0
 30
0.0
 11
4874.0
 21
-1505.0
 31
0.0
  0
LINE
  5
44
330
32
100
AcDbEntity
  8
1
  6
DASHED_NEW
 62
     7
100
AcDbLine
 10
4880.0
 20
-1505.5
 30
0.0
 11
4880.0
 21
-1509.0
 31
0.0
  0
LINE
  5
45
330
32
100
AcDbEntity
  8
1
  6
DASHED_NEW
 62
     7
100
AcDbLine
 10
4886.0
 20
-1509.0
 30
0.0
 11
4886.0
 21
-1505.5
 31
0.0
  0
LINE
  5
46
330
32
100
AcDbEntity
  8
1
  6
Continuous
 62
     7
100
AcDbLine
 10
4895.033974596215
 20
-1513.2
 30
0.0
 11
4894.052479138593
 21
-1511.5
 31
0.0
  0
LINE
  5
47
330
32
100
AcDbEntity
  8
1
  6
Continuous
 62
     7
100
AcDbLine
 10
4899.307106781186
 20
-1510.707106781186
 30
0.0
 11
4896.607106781186
 21
-1513.407106781187
 31
0.0
  0
LINE
  5
48
330
32
100
AcDbEntity
  8
1
  6
Continuous
 62
     7
100
AcDbLine
 10
4890.0
 20
-1509.0
 30
0.0
 11
4898.6
 21
-1509.0
 31
0.0
  0
LINE
  5
49
330
32
100
AcDbEntity
  8
1
  6
DASHED_NEW
 62
     7
100
AcDbLine
 10
4886.0
 20
-1509.0
 30
0.0
 11
4890.0
 21
-1509.0
 31
0.0
  0
LINE
  5
4A
330
32
100
AcDbEntity
  8
1
  6
Continuous
 62
     7
100
AcDbLine
 10
4890.0
 20
-1511.5
 30
0.0
 11
4890.0
 21
-1506.0
 31
0.0
  0
LINE
  5
4B
330
32
100
AcDbEntity
  8
1
  6
Continuous
 62
     7
100
AcDbLine
 10
4894.052479138593
 20
-1511.5
 30
0.0
 11
4890.0
 21
-1511.5
 31
0.0
  0
LINE
  5
4C
330
32
100
AcDbEntity
  8
1
  6
Continuous
 62
     7
100
AcDbLine
 10
4886.0
 20
-1511.5
 30
0.0
 11
4890.0
 21
-1511.5
 31
0.0
  0
LINE
  5
4D
330
32
100
AcDbEntity
  8
1
  6
DASHED_NEW
 62
     7
100
AcDbLine
 10
4887.5
 20
-1509.0
 30
0.0
 11
4887.5
 21
-1511.5
 31
0.0
  0
LINE
  5
4E
330
32
100
AcDbEntity
  8
1
  6
DASHED_NEW
 62
     7
100
AcDbLine
 10
4886.0
 20
-1509.0
 30
0.0
 11
4886.0
 21
-1511.5
 31
0.0
  0
LINE
  5
4F
330
32
100
AcDbEntity
  8
1
  6
Continuous
 62
     7
100
AcDbLine
 10
4886.0
 20
-1511.5
 30
0.0
 11
4886.0
 21
-1514.5
 31
0.0
  0
LINE
  5
50
330
32
100
AcDbEntity
  8
1
  6
Continuous
 62
     7
100
AcDbLine
 10
4880.0
 20
-1511.5
 30
0.0
 11
4886.0
 21
-1511.5
 31
0.0
  0
LINE
  5
51
330
32
100
AcDbEntity
  8
1
  6
Continuous
 62
     7
100
AcDbLine
 10
4880.0
 20
-1514.5
 30
0.0
 11
4880.0
 21
-1511.5
 31
0.0
  0
LINE
  5
52
330
32
100
AcDbEntity
  8
1
  6
DASHED_NEW
 62
     7
100
AcDbLine
 10
4880.0
 20
-1511.5
 30
0.0
 11
4880.0
 21
-1509.0
 31
0.0
  0
LINE
  5
53
330
32
100
AcDbEntity
  8
1
  6
DASHED_NEW
 62
     7
100
AcDbLine
 10
4878.5
 20
-1511.5
 30
0.0
 11
4878.5
 21
-1509.0
 31
0.0
  0
LINE
  5
54
330
32
100
AcDbEntity
  8
1
  6
Continuous
 62
     7
100
AcDbLine
 10
4877.5
 20
-1511.5
 30
0.0
 11
4880.0
 21
-1511.5
 31
0.0
  0
LINE
  5
55
330
32
100
AcDbEntity
  8
1
  6
Continuous
 62
     7
100
AcDbLine
 10
4876.0
 20
-1513.0
 30
0.0
 11
4876.0
 21
-1514.5
 31
0.0
  0
LINE
  5
56
330
32
100
AcDbEntity
  8
1
  6
Continuous
 62
     7
100
AcDbLine
 10
4890.0
 20
-1514.5
 30
0.0
 11
4886.0
 21
-1514.5
 31
0.0
  0
LINE
  5
57
330
32
100
AcDbEntity
  8
1
  6
Continuous
 62
     7
100
AcDbLine
 10
4880.0
 20
-1514.5
 30
0.0
 11
4876.0
 21
-1514.5
 31
0.0
  0
LINE
  5
58
330
32
100
AcDbEntity
  8
1
  6
Continuous
 62
     7
100
AcDbLine
 10
4886.0
 20
-1514.5
 30
0.0
 11
4880.0
 21
-1514.5
 31
0.0
  0
LINE
  5
59
330
32
100
AcDbEntity
  8
1
  6
DASHED_NEW
 62
     7
100
AcDbLine
 10
4886.0
 20
-1523.0
 30
0.0
 11
4886.0
 21
-1514.5
 31
0.0
  0
LINE
  5
5A
330
32
100
AcDbEntity
  8
1
  6
DASHED_NEW
 62
     7
100
AcDbLine
 10
4880.0
 20
-1514.5
 30
0.0
 11
4880.0
 21
-1523.0
 31
0.0
  0
LINE
  5
5B
330
32
100
AcDbEntity
  8
1
  6
DASHED_NEW
 62
     7
100
AcDbLine
 10
4884.000591380806
 20
-1527.0
 30
0.0
 11
4883.700413966563
 21
-1526.399645171517
 31
0.0
  0
LINE
  5
5C
330
32
100
AcDbEntity
  8
1
  6
DASHED_NEW
 62
     7
100
AcDbLine
 10
4883.700413966563
 20
-1526.399645171517
 30
0.0
 11
4882.299586033436
 21
-1526.399645171517
 31
0.0
  0
LINE
  5
5D
330
32
100
AcDbEntity
  8
1
  6
DASHED_NEW
 62
     7
100
AcDbLine
 10
4882.299586033436
 20
-1526.399645171517
 30
0.0
 11
4881.999408619197
 21
-1527.0
 31
0.0
  0
LINE
  5
5E
330
32
100
AcDbEntity
  8
1
  6
DASHED_NEW
 62
     7
100
AcDbLine
 10
4878.0
 20
-1523.857649754976
 30
0.0
 11
4878.0
 21
-1525.126891206158
 31
0.0
  0
LINE
  5
5F
330
32
100
AcDbEntity
  8
1
  6
DASHED_NEW
 62
     7
100
AcDbLine
 10
4877.5
 20
-1528.5
 30
0.0
 11
4877.5
 21
-1523.0
 31
0.0
  0
LINE
  5
60
330
32
100
AcDbEntity
  8
1
  6
DASHED_NEW
 62
     7
100
AcDbLine
 10
4880.0
 20
-1523.0
 30
0.0
 11
4877.5
 21
-1523.0
 31
0.0
  0
LINE
  5
61
330
32
100
AcDbEntity
  8
1
  6
DASHED_NEW
 62
     7
100
AcDbLine
 10
4886.0
 20
-1523.0
 30
0.0
 11
4880.0
 21
-1523.0
 31
0.0
  0
LINE
  5
62
330
32
100
AcDbEntity
  8
1
  6
DASHED_NEW
 62
     7
100
AcDbLine
 10
4888.5
 20
-1523.0
 30
0.0
 11
4886.0
 21
-1523.0
 31
0.0
  0
LINE
  5
63
330
32
100
AcDbEntity
  8
1
  6
DASHED_NEW
 62
     7
100
AcDbLine
 10
4888.0
 20
-1525.126891206158
 30
0.0
 11
4888.0
 21
-1523.857649754976
 31
0.0
  0
LINE
  5
64
330
32
100
AcDbEntity
  8
1
  6
DASHED_NEW
 62
     7
100
AcDbLine
 10
4888.5
 20
-1528.5
 30
0.0
 11
4888.5
 21
-1523.0
 31
0.0
  0
LINE
  5
65
330
32
100
AcDbEntity
  8
1
  6
DASHED_NEW
 62
     7
100
AcDbLine
 10
4873.0
 20
-1528.5
 30
0.0
 11
4890.0
 21
-1528.5
 31
0.0
  0
LINE
  5
66
330
32
100
AcDbEntity
  8
1
  6
Continuous
 62
     7
100
AcDbLine
 10
4890.0
 20
-1530.0
 30
0.0
 11
4890.0
 21
-1514.5
 31
0.0
  0
LINE
  5
67
330
32
100
AcDbEntity
  8
1
  6
Continuous
 62
     7
100
AcDbLine
 10
4888.0
 20
-1531.0
 30
0.0
 11
4889.0
 21
-1531.0
 31
0.0
  0
LINE
  5
68
330
32
100
AcDbEntity
  8
1
  6
Continuous
 62
     7
100
AcDbLine
 10
4888.0
 20
-1531.0
 30
0.0
 11
4888.0
 21
-1530.142463035442
 31
0.0
  0
LINE
  5
69
330
32
100
AcDbEntity
  8
1
  6
CENTER_NEW
 62
     2
100
AcDbLine
 10
4883.0
 20
-1502.0
 30
0.0
 11
4883.0
 21
-1532.5
 31
0.0
  0
LINE
  5
6A
330
32
100
AcDbEntity
  8
1
  6
Continuous
 62
     7
100
AcDbLine
 10
4888.0
 20
-1530.142463035442
 30
0.0
 11
4875.0
 21
-1530.142463035442
 31
0.0
  0
LINE
  5
6B
330
32
100
AcDbEntity
  8
1
  6
Continuous
 62
     7
100
AcDbLine
 10
4875.0
 20
-1530.142463035442
 30
0.0
 11
4875.0
 21
-1531.0
 31
0.0
  0
LINE
  5
6C
330
32
100
AcDbEntity
  8
1
  6
Continuous
 62
     7
100
AcDbLine
 10
4874.0
 20
-1531.0
 30
0.0
 11
4875.0
 21
-1531.0
 31
0.0
  0
LINE
  5
6D
330
32
100
AcDbEntity
  8
1
  6
Continuous
 62
   133
100
AcDbLine
 10
4872.600000000001
 20
-1528.6
 30
0.0
 11
4873.0
 21
-1529.0
 31
0.0
  0
LINE
  5
6E
330
32
100
AcDbEntity
  8
1
  6
DASHED_NEW
 62
     7
100
AcDbLine
 10
4873.0
 20
-1509.0
 30
0.0
 11
4880.0
 21
-1509.0
 31
0.0
  0
LINE
  5
6F
330
32
100
AcDbEntity
  8
1
  6
Continuous
 62
     7
100
AcDbLine
 10
4873.0
 20
-1506.0
 30
0.0
 11
4873.0
 21
-1530.0
 31
0.0
  0
LINE
  5
70
330
32
100
AcDbEntity
  8
1
  6
Continuous
 62
   133
100
AcDbLine
 10
4873.0
 20
-1507.0
 30
0.0
 11
4872.600000000001
 21
-1507.4
 31
0.0
  0
LINE
  5
71
330
32
100
AcDbEntity
  8
1
  6
Continuous
 62
   133
100
AcDbLine
 10
4872.600000000001
 20
-1507.4
 30
0.0
 11
4872.600000000001
 21
-1528.6
 31
0.0
  0
LINE
  5
72
330
32
100
AcDbEntity
  8
1
  6
Continuous
 62
   133
100
AcDbLine
 10
4810.15
 20
-1507.4
 30
0.0
 11
4809.750000000001
 21
-1507.0
 31
0.0
  0
LINE
  5
73
330
32
100
AcDbEntity
  8
1
  6
Continuous
 62
   133
100
AcDbLine
 10
4812.85
 20
-1507.4
 30
0.0
 11
4813.25
 21
-1507.0
 31
0.0
  0
LINE
  5
74
330
32
100
AcDbEntity
  8
1
  6
Continuous
 62
   133
100
AcDbLine
 10
4812.85
 20
-1528.6
 30
0.0
 11
4813.25
 21
-1529.0
 31
0.0
  0
LINE
  5
75
330
32
100
AcDbEntity
  8
1
  6
Continuous
 62
   133
100
AcDbLine
 10
4810.15
 20
-1528.6
 30
0.0
 11
4809.750000000001
 21
-1529.0
 31
0.0
  0
LINE
  5
76
330
32
100
AcDbEntity
  8
1
  6
Continuous
 62
     7
100
AcDbLine
 10
4798.0
 20
-1505.5
 30
0.0
 11
4798.0
 21
-1509.0
 31
0.0
  0
LINE
  5
77
330
32
100
AcDbEntity
  8
1
  6
Continuous
 62
     7
100
AcDbLine
 10
4800.5
 20
-1503.0
 30
0.0
 11
4798.0
 21
-1505.5
 31
0.0
  0
LINE
  5
78
330
32
100
AcDbEntity
  8
1
  6
Continuous
 62
     7
100
AcDbLine
 10
4801.5
 20
-1503.0
 30
0.0
 11
4800.5
 21
-1503.0
 31
0.0
  0
LINE
  5
79
330
32
100
AcDbEntity
  8
1
  6
Continuous
 62
     7
100
AcDbLine
 10
4804.0
 20
-1505.5
 30
0.0
 11
4801.5
 21
-1503.0
 31
0.0
  0
LINE
  5
7A
330
32
100
AcDbEntity
  8
1
  6
Continuous
 62
     7
100
AcDbLine
 10
4804.0
 20
-1509.0
 30
0.0
 11
4804.0
 21
-1505.5
 31
0.0
  0
LINE
  5
7B
330
32
100
AcDbEntity
  8
1
  6
Continuous
 62
     7
100
AcDbLine
 10
4805.75
 20
-1509.0
 30
0.0
 11
4805.75
 21
-1514.5
 31
0.0
  0
LINE
  5
7C
330
32
100
AcDbEntity
  8
1
  6
Continuous
 62
     7
100
AcDbLine
 10
4805.75
 20
-1514.5
 30
0.0
 11
4808.0
 21
-1514.5
 31
0.0
  0
LINE
  5
7D
330
32
100
AcDbEntity
  8
1
  6
Continuous
 62
     7
100
AcDbLine
 10
4805.75
 20
-1511.5
 30
0.0
 11
4808.0
 21
-1511.5
 31
0.0
  0
LINE
  5
7E
330
32
100
AcDbEntity
  8
1
  6
Continuous
 62
     7
100
AcDbLine
 10
4808.0
 20
-1514.5
 30
0.0
 11
4808.0
 21
-1506.0
 31
0.0
  0
LINE
  5
7F
330
32
100
AcDbEntity
  8
1
  6
Continuous
 62
   133
100
AcDbLine
 10
4810.15
 20
-1507.4
 30
0.0
 11
4812.85
 21
-1507.4
 31
0.0
  0
LINE
  5
80
330
32
100
AcDbEntity
  8
1
  6
Continuous
 62
   133
100
AcDbLine
 10
4813.25
 20
-1507.0
 30
0.0
 11
4809.750000000001
 21
-1507.0
 31
0.0
  0
LINE
  5
81
330
32
100
AcDbEntity
  8
1
  6
Continuous
 62
     7
100
AcDbLine
 10
4809.0
 20
-1505.0
 30
0.0
 11
4811.8
 21
-1505.0
 31
0.0
  0
LINE
  5
82
330
32
100
AcDbEntity
  8
1
  6
Continuous
 62
     7
100
AcDbLine
 10
4815.8
 20
-1509.0
 30
0.0
 11
4815.8
 21
-1527.4
 31
0.0
  0
LINE
  5
83
330
32
100
AcDbEntity
  8
1
  6
Continuous
 62
   133
100
AcDbLine
 10
4809.750000000001
 20
-1529.0
 30
0.0
 11
4813.25
 21
-1529.0
 31
0.0
  0
LINE
  5
84
330
32
100
AcDbEntity
  8
1
  6
Continuous
 62
   133
100
AcDbLine
 10
4812.85
 20
-1528.6
 30
0.0
 11
4810.15
 21
-1528.6
 31
0.0
  0
LINE
  5
85
330
32
100
AcDbEntity
  8
1
  6
Continuous
 62
   133
100
AcDbLine
 10
4813.25
 20
-1529.0
 30
0.0
 11
4813.25
 21
-1507.0
 31
0.0
  0
LINE
  5
86
330
32
100
AcDbEntity
  8
1
  6
Continuous
 62
   133
100
AcDbLine
 10
4812.85
 20
-1507.4
 30
0.0
 11
4812.85
 21
-1528.6
 31
0.0
  0
LINE
  5
87
330
32
100
AcDbEntity
  8
1
  6
Continuous
 62
   133
100
AcDbLine
 10
4810.15
 20
-1528.6
 30
0.0
 11
4810.15
 21
-1507.4
 31
0.0
  0
LINE
  5
88
330
32
100
AcDbEntity
  8
1
  6
Continuous
 62
   133
100
AcDbLine
 10
4809.750000000001
 20
-1507.0
 30
0.0
 11
4809.750000000001
 21
-1529.0
 31
0.0
  0
LINE
  5
89
330
32
100
AcDbEntity
  8
1
  6
Continuous
 62
   133
100
AcDbLine
 10
4788.75
 20
-1507.0
 30
0.0
 11
4789.15
 21
-1507.4
 31
0.0
  0
LINE
  5
8A
330
32
100
AcDbEntity
  8
1
  6
Continuous
 62
   133
100
AcDbLine
 10
4792.25
 20
-1507.0
 30
0.0
 11
4791.85
 21
-1507.4
 31
0.0
  0
LINE
  5
8B
330
32
100
AcDbEntity
  8
1
  6
Continuous
 62
   133
100
AcDbLine
 10
4792.25
 20
-1529.0
 30
0.0
 11
4791.85
 21
-1528.6
 31
0.0
  0
LINE
  5
8C
330
32
100
AcDbEntity
  8
1
  6
Continuous
 62
   133
100
AcDbLine
 10
4788.75
 20
-1529.0
 30
0.0
 11
4789.15
 21
-1528.6
 31
0.0
  0
LINE
  5
8D
330
32
100
AcDbEntity
  8
1
  6
Continuous
 62
   133
100
AcDbLine
 10
4792.25
 20
-1529.0
 30
0.0
 11
4788.75
 21
-1529.0
 31
0.0
  0
LINE
  5
8E
330
32
100
AcDbEntity
  8
1
  6
Continuous
 62
   133
100
AcDbLine
 10
4791.85
 20
-1528.6
 30
0.0
 11
4789.15
 21
-1528.6
 31
0.0
  0
LINE
  5
8F
330
32
100
AcDbEntity
  8
1
  6
Continuous
 62
   133
100
AcDbLine
 10
4792.25
 20
-1507.0
 30
0.0
 11
4788.75
 21
-1507.0
 31
0.0
  0
LINE
  5
90
330
32
100
AcDbEntity
  8
1
  6
Continuous
 62
   133
100
AcDbLine
 10
4789.15
 20
-1507.4
 30
0.0
 11
4791.85
 21
-1507.4
 31
0.0
  0
LINE
  5
91
330
32
100
AcDbEntity
  8
1
  6
Continuous
 62
   133
100
AcDbLine
 10
4792.25
 20
-1507.0
 30
0.0
 11
4792.25
 21
-1529.0
 31
0.0
  0
LINE
  5
92
330
32
100
AcDbEntity
  8
1
  6
Continuous
 62
   133
100
AcDbLine
 10
4791.85
 20
-1507.4
 30
0.0
 11
4791.85
 21
-1528.6
 31
0.0
  0
LINE
  5
93
330
32
100
AcDbEntity
  8
1
  6
Continuous
 62
   133
100
AcDbLine
 10
4789.15
 20
-1528.6
 30
0.0
 11
4789.15
 21
-1507.4
 31
0.0
  0
LINE
  5
94
330
32
100
AcDbEntity
  8
1
  6
Continuous
 62
   133
100
AcDbLine
 10
4788.75
 20
-1507.0
 30
0.0
 11
4788.75
 21
-1529.0
 31
0.0
  0
LINE
  5
95
330
32
100
AcDbEntity
  8
1
  6
Continuous
 62
     7
100
AcDbLine
 10
4794.0
 20
-1509.0
 30
0.0
 11
4808.0
 21
-1509.0
 31
0.0
  0
LINE
  5
96
330
32
100
AcDbEntity
  8
1
  6
Continuous
 62
     7
100
AcDbLine
 10
4796.249999999999
 20
-1514.5
 30
0.0
 11
4796.249999999999
 21
-1509.0
 31
0.0
  0
LINE
  5
97
330
32
100
AcDbEntity
  8
1
  6
Continuous
 62
     7
100
AcDbLine
 10
4794.0
 20
-1514.5
 30
0.0
 11
4796.249999999999
 21
-1514.5
 31
0.0
  0
LINE
  5
98
330
32
100
AcDbEntity
  8
1
  6
Continuous
 62
     7
100
AcDbLine
 10
4794.0
 20
-1511.5
 30
0.0
 11
4796.249999999999
 21
-1511.5
 31
0.0
  0
LINE
  5
99
330
32
100
AcDbEntity
  8
1
  6
Continuous
 62
     7
100
AcDbLine
 10
4794.0
 20
-1506.0
 30
0.0
 11
4794.0
 21
-1514.5
 31
0.0
  0
LINE
  5
9A
330
32
100
AcDbEntity
  8
1
  6
Continuous
 62
     7
100
AcDbLine
 10
4790.2
 20
-1505.0
 30
0.0
 11
4793.0
 21
-1505.0
 31
0.0
  0
LINE
  5
9B
330
32
100
AcDbEntity
  8
1
  6
Continuous
 62
     7
100
AcDbLine
 10
4786.2
 20
-1527.4
 30
0.0
 11
4786.2
 21
-1509.0
 31
0.0
  0
LINE
  5
9C
330
32
100
AcDbEntity
  8
1
  6
Continuous
 62
     7
100
AcDbLine
 10
4806.669872981078
 20
-1528.5
 30
0.0
 11
4795.330127018922
 21
-1528.5
 31
0.0
  0
LINE
  5
9D
330
32
100
AcDbEntity
  8
1
  6
CENTER_NEW
 62
     2
100
AcDbLine
 10
4801.0
 20
-1502.0
 30
0.0
 11
4801.0
 21
-1532.5
 31
0.0
  0
ARC
  5
9E
330
32
100
AcDbEntity
  8
1
  6
Continuous
 62
     7
100
AcDbCircle
 10
4895.9
 20
-1512.7
 30
0.0
 40
1.0
100
AcDbArc
 50
-90.0
 51
-45.00000000000921
  0
ARC
  5
9F
330
32
100
AcDbEntity
  8
1
  6
Continuous
 62
     7
100
AcDbCircle
 10
4898.6
 20
-1510.0
 30
0.0
 40
0.9999999999996864
100
AcDbArc
 50
-44.99999999997236
 51
0.0
  0
ARC
  5
A0
330
32
100
AcDbEntity
  8
1
  6
Continuous
 62
     7
100
AcDbCircle
 10
4898.6
 20
-1510.0
 30
0.0
 40
1.0
100
AcDbArc
 50
0.0
 51
90.0
  0
ARC
  5
A1
330
32
100
AcDbEntity
  8
1
  6
Continuous
 62
     7
100
AcDbCircle
 10
4877.5
 20
-1513.0
 30
0.0
 40
1.5
100
AcDbArc
 50
90.0
 51
180.0
  0
ARC
  5
A2
330
32
100
AcDbEntity
  8
1
  6
DASHED_NEW
 62
     7
100
AcDbCircle
 10
4882.601584100256
 20
-1518.898730771625
 30
0.0
 40
8.123618554598523
100
AcDbArc
 50
-121.3002586469336
 51
-94.25103522879913
  0
ARC
  5
A3
330
32
100
AcDbEntity
  8
1
  6
DASHED_NEW
 62
     7
100
AcDbCircle
 10
4883.398415899747
 20
-1518.898730771625
 30
0.0
 40
8.123618554597751
100
AcDbArc
 50
-85.74896477120088
 51
-58.69974135307735
  0
ARC
  5
A4
330
32
100
AcDbEntity
  8
1
  6
Continuous
 62
     7
100
AcDbCircle
 10
4811.0
 20
-1526.0
 30
0.0
 40
5.000000000000015
100
AcDbArc
 50
-150.0000000000001
 51
-16.26020470831238
  0
ARC
  5
A5
330
32
100
AcDbEntity
  8
1
  6
Continuous
 62
     7
100
AcDbCircle
 10
4791.0
 20
-1526.0
 30
0.0
 40
5.000000000000199
100
AcDbArc
 50
-163.7397952916876
 51
-29.99999999999989
  0
ARC
  5
A6
330
32
100
AcDbEntity
  8
1
  6
Continuous
 62
     7
100
AcDbCircle
 10
4895.9
 20
-1512.7
 30
0.0
 40
0.9999999999996882
100
AcDbArc
 50
-149.9999999999897
 51
-90.0
  0
ARC
  5
A7
330
32
100
AcDbEntity
  8
1
  6
Continuous
 62
     7
100
AcDbCircle
 10
4874.0
 20
-1506.0
 30
0.0
 40
1.0
100
AcDbArc
 50
90.0
 51
180.0
  0
ARC
  5
A8
330
32
100
AcDbEntity
  8
1
  6
Continuous
 62
     7
100
AcDbCircle
 10
4889.0
 20
-1506.0
 30
0.0
 40
1.0
100
AcDbArc
 50
0.0
 51
90.0
  0
ARC
  5
A9
330
32
100
AcDbEntity
  8
1
  6
DASHED_NEW
 62
     7
100
AcDbCircle
 10
4878.857649754976
 20
-1525.126891206158
 30
0.0
 40
0.8576497549756822
100
AcDbArc
 50
180.0
 51
-123.7489885959029
  0
ARC
  5
AA
330
32
100
AcDbEntity
  8
1
  6
DASHED_NEW
 62
     7
100
AcDbCircle
 10
4878.857649754976
 20
-1523.857649754976
 30
0.0
 40
0.8576497549759096
100
AcDbArc
 50
90.0
 51
180.0
  0
ARC
  5
AB
330
32
100
AcDbEntity
  8
1
  6
DASHED_NEW
 62
     7
100
AcDbCircle
 10
4887.142350245024
 20
-1523.857649754976
 30
0.0
 40
0.8576497549756822
100
AcDbArc
 50
0.0
 51
90.0
  0
ARC
  5
AC
330
32
100
AcDbEntity
  8
1
  6
DASHED_NEW
 62
     7
100
AcDbCircle
 10
4887.142350245024
 20
-1525.126891206158
 30
0.0
 40
0.8576497549753611
100
AcDbArc
 50
-56.25101140409707
 51
0.0
  0
ARC
  5
AD
330
32
100
AcDbEntity
  8
1
  6
Continuous
 62
     7
100
AcDbCircle
 10
4889.0
 20
-1530.0
 30
0.0
 40
1.0
100
AcDbArc
 50
-90.0
 51
0.0
  0
ARC
  5
AE
330
32
100
AcDbEntity
  8
1
  6
Continuous
 62
     7
100
AcDbCircle
 10
4874.0
 20
-1530.0
 30
0.0
 40
1.0
100
AcDbArc
 50
180.0
 51
-90.0
  0
ARC
  5
AF
330
32
100
AcDbEntity
  8
1
  6
Continuous
 62
     7
100
AcDbCircle
 10
4809.0
 20
-1506.0
 30
0.0
 40
1.0
100
AcDbArc
 50
90.0
 51
180.0
  0
ARC
  5
B0
330
32
100
AcDbEntity
  8
1
  6
Continuous
 62
     7
100
AcDbCircle
 10
4811.8
 20
-1509.0
 30
0.0
 40
4.0
100
AcDbArc
 50
0.0
 51
90.0
  0
ARC
  5
B1
330
32
100
AcDbEntity
  8
1
  6
Continuous
 62
     7
100
AcDbCircle
 10
4793.0
 20
-1506.0
 30
0.0
 40
1.0
100
AcDbArc
 50
0.0
 51
90.0
  0
ARC
  5
B2
330
32
100
AcDbEntity
  8
1
  6
Continuous
 62
     7
100
AcDbCircle
 10
4790.2
 20
-1509.0
 30
0.0
 40
4.0
100
AcDbArc
 50
90.0
 51
180.0
  0
ENDBLK
  5
34
330
32
100
AcDbEntity
  8
0
100
AcDbBlockEnd
  0
BLOCK
  5
36
330
35
100
AcDbEntity
  8
0
100
AcDbBlockBegin
  2
______
 70
     0
 10
5070.175814997611
 20
-1897.618087150616
 30
0.0
  3
______
  1

  0
LINE
  5
B3
330
35
100
AcDbEntity
  8
1
  6
Continuous
 62
     5
100
AcDbLine
 10
4842.75585128855
 20
-1610.746542584139
 30
0.0
 11
4842.75585128855
 21
-1603.746542584139
 31
0.0
  0
LINE
  5
B4
330
35
100
AcDbEntity
  8
1
  6
Continuous
 62
     5
100
AcDbLine
 10
4842.75585128855
 20
-1603.746542584139
 30
0.0
 11
4857.75585128855
 21
-1603.746542584139
 31
0.0
  0
LINE
  5
B5
330
35
100
AcDbEntity
  8
1
  6
Continuous
 62
     5
100
AcDbLine
 10
4857.75585128855
 20
-1603.746542584139
 30
0.0
 11
4857.75585128855
 21
-1610.746542584139
 31
0.0
  0
LINE
  5
B6
330
35
100
AcDbEntity
  8
1
  6
Continuous
 62
     5
100
AcDbLine
 10
4937.755851288549
 20
-1603.746542584139
 30
0.0
 11
4952.75585128855
 21
-1603.746542584139
 31
0.0
  0
LINE
  5
B7
330
35
100
AcDbEntity
  8
1
  6
Continuous
 62
     5
100
AcDbLine
 10
4907.75585128855
 20
-1603.746542584139
 30
0.0
 11
4937.755851288549
 21
-1603.746542584139
 31
0.0
  0
LINE
  5
B8
330
35
100
AcDbEntity
  8
1
  6
Continuous
 62
     5
100
AcDbLine
 10
4857.75585128855
 20
-1603.746542584139
 30
0.0
 11
4907.75585128855
 21
-1603.746542584139
 31
0.0
  0
LINE
  5
B9
330
35
100
AcDbEntity
  8
1
  6
Continuous
 62
     5
100
AcDbLine
 10
4907.75585128855
 20
-1603.746542584139
 30
0.0
 11
4907.75585128855
 21
-1610.746542584139
 31
0.0
  0
LINE
  5
BA
330
35
100
AcDbEntity
  8
1
  6
Continuous
 62
     5
100
AcDbLine
 10
4937.755851288549
 20
-1603.746542584139
 30
0.0
 11
4937.755851288549
 21
-1610.746542584139
 31
0.0
  0
LINE
  5
BB
330
35
100
AcDbEntity
  8
1
  6
Continuous
 62
     5
100
AcDbLine
 10
4952.75585128855
 20
-1603.746542584139
 30
0.0
 11
4952.75585128855
 21
-1610.746542584139
 31
0.0
  0
LINE
  5
BC
330
35
100
AcDbEntity
  8
1
  6
Continuous
 62
     5
100
AcDbLine
 10
4952.75585128855
 20
-1603.746542584139
 30
0.0
 11
4992.755851288549
 21
-1603.746542584139
 31
0.0
  0
LINE
  5
BD
330
35
100
AcDbEntity
  8
1
  6
Continuous
 62
     5
100
AcDbLine
 10
4992.755851288549
 20
-1603.746542584139
 30
0.0
 11
4992.755851288549
 21
-1610.746542584139
 31
0.0
  0
LINE
  5
BE
330
35
100
AcDbEntity
  8
1
  6
Continuous
 62
     5
100
AcDbLine
 10
4992.755851288549
 20
-1603.746542584139
 30
0.0
 11
5022.75585128855
 21
-1603.746542584139
 31
0.0
  0
LINE
  5
BF
330
35
100
AcDbEntity
  8
1
  6
Continuous
 62
     7
100
AcDbLine
 10
4842.75585128855
 20
-1669.746542584139
 30
0.0
 11
4935.75585128855
 21
-1669.746542584139
 31
0.0
  0
LINE
  5
C0
330
35
100
AcDbEntity
  8
1
  6
Continuous
 62
     7
100
AcDbLine
 10
5022.75585128855
 20
-1669.746542584139
 30
0.0
 11
5022.75585128855
 21
-1654.746542584139
 31
0.0
  0
LINE
  5
C1
330
35
100
AcDbEntity
  8
1
  6
Continuous
 62
     7
100
AcDbLine
 10
5022.75585128855
 20
-1617.746542584139
 30
0.0
 11
4992.755851288549
 21
-1617.746542584139
 31
0.0
  0
LINE
  5
C2
330
35
100
AcDbEntity
  8
1
  6
Continuous
 62
     7
100
AcDbLine
 10
4842.75585128855
 20
-1617.746542584139
 30
0.0
 11
4842.75585128855
 21
-1624.746542584139
 31
0.0
  0
LINE
  5
C3
330
35
100
AcDbEntity
  8
1
  6
Continuous
 62
     7
100
AcDbLine
 10
4842.75585128855
 20
-1624.746542584139
 30
0.0
 11
4857.75585128855
 21
-1624.746542584139
 31
0.0
  0
LINE
  5
C4
330
35
100
AcDbEntity
  8
1
  6
Continuous
 62
     7
100
AcDbLine
 10
4842.75585128855
 20
-1624.746542584139
 30
0.0
 11
4842.75585128855
 21
-1634.746542584139
 31
0.0
  0
LINE
  5
C5
330
35
100
AcDbEntity
  8
1
  6
Continuous
 62
     7
100
AcDbLine
 10
5022.75585128855
 20
-1624.746542584139
 30
0.0
 11
5022.75585128855
 21
-1617.746542584139
 31
0.0
  0
LINE
  5
C6
330
35
100
AcDbEntity
  8
1
  6
Continuous
 62
     7
100
AcDbLine
 10
4935.75585128855
 20
-1624.746542584139
 30
0.0
 11
4935.75585128855
 21
-1631.746542584139
 31
0.0
  0
LINE
  5
C7
330
35
100
AcDbEntity
  8
1
  6
Continuous
 62
     7
100
AcDbLine
 10
4935.75585128855
 20
-1624.746542584139
 30
0.0
 11
4937.755851288549
 21
-1624.746542584139
 31
0.0
  0
LINE
  5
C8
330
35
100
AcDbEntity
  8
1
  6
Continuous
 62
     7
100
AcDbLine
 10
4935.75585128855
 20
-1669.746542584139
 30
0.0
 11
4942.755851288549
 21
-1669.746542584139
 31
0.0
  0
LINE
  5
C9
330
35
100
AcDbEntity
  8
1
  6
Continuous
 62
     7
100
AcDbLine
 10
4942.755851288549
 20
-1624.746542584139
 30
0.0
 11
4942.755851288549
 21
-1669.746542584139
 31
0.0
  0
LINE
  5
CA
330
35
100
AcDbEntity
  8
1
  6
Continuous
 62
     7
100
AcDbLine
 10
4942.755851288549
 20
-1624.746542584139
 30
0.0
 11
4952.75585128855
 21
-1624.746542584139
 31
0.0
  0
LINE
  5
CB
330
35
100
AcDbEntity
  8
1
  6
Continuous
 62
     7
100
AcDbLine
 10
4942.755851288549
 20
-1669.746542584139
 30
0.0
 11
5022.75585128855
 21
-1669.746542584139
 31
0.0
  0
LINE
  5
CC
330
35
100
AcDbEntity
  8
1
  6
Continuous
 62
     7
100
AcDbLine
 10
4935.75585128855
 20
-1639.746542584139
 30
0.0
 11
5022.75585128855
 21
-1639.746542584139
 31
0.0
  0
LINE
  5
CD
330
35
100
AcDbEntity
  8
1
  6
Continuous
 62
     7
100
AcDbLine
 10
4935.75585128855
 20
-1639.746542584139
 30
0.0
 11
4935.75585128855
 21
-1642.746542584139
 31
0.0
  0
LINE
  5
CE
330
35
100
AcDbEntity
  8
1
  6
Continuous
 62
     7
100
AcDbLine
 10
5022.75585128855
 20
-1639.746542584139
 30
0.0
 11
5022.75585128855
 21
-1624.746542584139
 31
0.0
  0
LINE
  5
CF
330
35
100
AcDbEntity
  8
1
  6
Continuous
 62
     7
100
AcDbLine
 10
4935.75585128855
 20
-1654.746542584139
 30
0.0
 11
5022.75585128855
 21
-1654.746542584139
 31
0.0
  0
LINE
  5
D0
330
35
100
AcDbEntity
  8
1
  6
Continuous
 62
     7
100
AcDbLine
 10
4935.75585128855
 20
-1654.746542584139
 30
0.0
 11
4935.75585128855
 21
-1669.746542584139
 31
0.0
  0
LINE
  5
D1
330
35
100
AcDbEntity
  8
1
  6
Continuous
 62
     7
100
AcDbLine
 10
5022.75585128855
 20
-1654.746542584139
 30
0.0
 11
5022.75585128855
 21
-1639.746542584139
 31
0.0
  0
LINE
  5
D2
330
35
100
AcDbEntity
  8
1
  6
Continuous
 62
     7
100
AcDbLine
 10
4875.75585128855
 20
-1624.746542584139
 30
0.0
 11
4875.75585128855
 21
-1631.746542584139
 31
0.0
  0
LINE
  5
D3
330
35
100
AcDbEntity
  8
1
  6
Continuous
 62
     7
100
AcDbLine
 10
4875.75585128855
 20
-1624.746542584139
 30
0.0
 11
4895.75585128855
 21
-1624.746542584139
 31
0.0
  0
LINE
  5
D4
330
35
100
AcDbEntity
  8
1
  6
Continuous
 62
     7
100
AcDbLine
 10
4842.75585128855
 20
-1649.746542584139
 30
0.0
 11
4895.75585128855
 21
-1649.746542584139
 31
0.0
  0
LINE
  5
D5
330
35
100
AcDbEntity
  8
1
  6
Continuous
 62
     7
100
AcDbLine
 10
4842.75585128855
 20
-1649.746542584139
 30
0.0
 11
4842.75585128855
 21
-1669.746542584139
 31
0.0
  0
LINE
  5
D6
330
35
100
AcDbEntity
  8
1
  6
Continuous
 62
     7
100
AcDbLine
 10
4935.75585128855
 20
-1649.746542584139
 30
0.0
 11
4935.75585128855
 21
-1654.746542584139
 31
0.0
  0
LINE
  5
D7
330
35
100
AcDbEntity
  8
1
  6
Continuous
 62
     7
100
AcDbLine
 10
4875.75585128855
 20
-1631.746542584139
 30
0.0
 11
4935.75585128855
 21
-1631.746542584139
 31
0.0
  0
LINE
  5
D8
330
35
100
AcDbEntity
  8
1
  6
Continuous
 62
     7
100
AcDbLine
 10
4875.75585128855
 20
-1631.746542584139
 30
0.0
 11
4875.75585128855
 21
-1634.746542584139
 31
0.0
  0
LINE
  5
D9
330
35
100
AcDbEntity
  8
1
  6
Continuous
 62
     7
100
AcDbLine
 10
4935.75585128855
 20
-1631.746542584139
 30
0.0
 11
4935.75585128855
 21
-1639.746542584139
 31
0.0
  0
LINE
  5
DA
330
35
100
AcDbEntity
  8
1
  6
Continuous
 62
     7
100
AcDbLine
 10
4895.75585128855
 20
-1624.746542584139
 30
0.0
 11
4895.75585128855
 21
-1649.746542584139
 31
0.0
  0
LINE
  5
DB
330
35
100
AcDbEntity
  8
1
  6
Continuous
 62
     7
100
AcDbLine
 10
4895.75585128855
 20
-1624.746542584139
 30
0.0
 11
4907.75585128855
 21
-1624.746542584139
 31
0.0
  0
LINE
  5
DC
330
35
100
AcDbEntity
  8
1
  6
Continuous
 62
     7
100
AcDbLine
 10
4895.75585128855
 20
-1649.746542584139
 30
0.0
 11
4915.75585128855
 21
-1649.746542584139
 31
0.0
  0
LINE
  5
DD
330
35
100
AcDbEntity
  8
1
  6
Continuous
 62
     7
100
AcDbLine
 10
4915.75585128855
 20
-1624.746542584139
 30
0.0
 11
4915.75585128855
 21
-1649.746542584139
 31
0.0
  0
LINE
  5
DE
330
35
100
AcDbEntity
  8
1
  6
Continuous
 62
     7
100
AcDbLine
 10
4915.75585128855
 20
-1624.746542584139
 30
0.0
 11
4935.75585128855
 21
-1624.746542584139
 31
0.0
  0
LINE
  5
DF
330
35
100
AcDbEntity
  8
1
  6
Continuous
 62
     7
100
AcDbLine
 10
4915.75585128855
 20
-1649.746542584139
 30
0.0
 11
4935.75585128855
 21
-1649.746542584139
 31
0.0
  0
LINE
  5
E0
330
35
100
AcDbEntity
  8
1
  6
Continuous
 62
     7
100
AcDbLine
 10
4842.75585128855
 20
-1634.746542584139
 30
0.0
 11
4875.75585128855
 21
-1634.746542584139
 31
0.0
  0
LINE
  5
E1
330
35
100
AcDbEntity
  8
1
  6
Continuous
 62
     7
100
AcDbLine
 10
4842.75585128855
 20
-1634.746542584139
 30
0.0
 11
4842.75585128855
 21
-1649.746542584139
 31
0.0
  0
LINE
  5
E2
330
35
100
AcDbEntity
  8
1
  6
Continuous
 62
     7
100
AcDbLine
 10
4875.75585128855
 20
-1634.746542584139
 30
0.0
 11
4875.75585128855
 21
-1642.746542584139
 31
0.0
  0
LINE
  5
E3
330
35
100
AcDbEntity
  8
1
  6
Continuous
 62
     7
100
AcDbLine
 10
4992.755851288549
 20
-1617.746542584139
 30
0.0
 11
4992.755851288549
 21
-1624.746542584139
 31
0.0
  0
LINE
  5
E4
330
35
100
AcDbEntity
  8
1
  6
Continuous
 62
     7
100
AcDbLine
 10
4992.755851288549
 20
-1617.746542584139
 30
0.0
 11
4952.75585128855
 21
-1617.746542584139
 31
0.0
  0
LINE
  5
E5
330
35
100
AcDbEntity
  8
1
  6
Continuous
 62
     7
100
AcDbLine
 10
4992.755851288549
 20
-1624.746542584139
 30
0.0
 11
5022.75585128855
 21
-1624.746542584139
 31
0.0
  0
LINE
  5
E6
330
35
100
AcDbEntity
  8
1
  6
Continuous
 62
     7
100
AcDbLine
 10
4952.75585128855
 20
-1617.746542584139
 30
0.0
 11
4952.75585128855
 21
-1624.746542584139
 31
0.0
  0
LINE
  5
E7
330
35
100
AcDbEntity
  8
1
  6
Continuous
 62
     7
100
AcDbLine
 10
4952.75585128855
 20
-1617.746542584139
 30
0.0
 11
4937.755851288549
 21
-1617.746542584139
 31
0.0
  0
LINE
  5
E8
330
35
100
AcDbEntity
  8
1
  6
Continuous
 62
     7
100
AcDbLine
 10
4952.75585128855
 20
-1624.746542584139
 30
0.0
 11
4992.755851288549
 21
-1624.746542584139
 31
0.0
  0
LINE
  5
E9
330
35
100
AcDbEntity
  8
1
  6
Continuous
 62
     7
100
AcDbLine
 10
4937.755851288549
 20
-1617.746542584139
 30
0.0
 11
4937.755851288549
 21
-1624.746542584139
 31
0.0
  0
LINE
  5
EA
330
35
100
AcDbEntity
  8
1
  6
Continuous
 62
     7
100
AcDbLine
 10
4937.755851288549
 20
-1617.746542584139
 30
0.0
 11
4907.75585128855
 21
-1617.746542584139
 31
0.0
  0
LINE
  5
EB
330
35
100
AcDbEntity
  8
1
  6
Continuous
 62
     7
100
AcDbLine
 10
4937.755851288549
 20
-1624.746542584139
 30
0.0
 11
4942.755851288549
 21
-1624.746542584139
 31
0.0
  0
LINE
  5
EC
330
35
100
AcDbEntity
  8
1
  6
Continuous
 62
     7
100
AcDbLine
 10
4907.75585128855
 20
-1617.746542584139
 30
0.0
 11
4907.75585128855
 21
-1624.746542584139
 31
0.0
  0
LINE
  5
ED
330
35
100
AcDbEntity
  8
1
  6
Continuous
 62
     7
100
AcDbLine
 10
4907.75585128855
 20
-1617.746542584139
 30
0.0
 11
4857.75585128855
 21
-1617.746542584139
 31
0.0
  0
LINE
  5
EE
330
35
100
AcDbEntity
  8
1
  6
Continuous
 62
     7
100
AcDbLine
 10
4907.75585128855
 20
-1624.746542584139
 30
0.0
 11
4915.75585128855
 21
-1624.746542584139
 31
0.0
  0
LINE
  5
EF
330
35
100
AcDbEntity
  8
1
  6
Continuous
 62
     7
100
AcDbLine
 10
4857.75585128855
 20
-1617.746542584139
 30
0.0
 11
4857.75585128855
 21
-1624.746542584139
 31
0.0
  0
LINE
  5
F0
330
35
100
AcDbEntity
  8
1
  6
Continuous
 62
     7
100
AcDbLine
 10
4857.75585128855
 20
-1617.746542584139
 30
0.0
 11
4842.75585128855
 21
-1617.746542584139
 31
0.0
  0
LINE
  5
F1
330
35
100
AcDbEntity
  8
1
  6
Continuous
 62
     7
100
AcDbLine
 10
4857.75585128855
 20
-1624.746542584139
 30
0.0
 11
4875.75585128855
 21
-1624.746542584139
 31
0.0
  0
LINE
  5
F2
330
35
100
AcDbEntity
  8
1
  6
Continuous
 62
     5
100
AcDbLine
 10
4842.75585128855
 20
-1617.746542584139
 30
0.0
 11
4842.75585128855
 21
-1610.746542584139
 31
0.0
  0
LINE
  5
F3
330
35
100
AcDbEntity
  8
1
  6
Continuous
 62
     5
100
AcDbLine
 10
4842.75585128855
 20
-1610.746542584139
 30
0.0
 11
4857.75585128855
 21
-1610.746542584139
 31
0.0
  0
LINE
  5
F4
330
35
100
AcDbEntity
  8
1
  6
Continuous
 62
     5
100
AcDbLine
 10
5022.75585128855
 20
-1610.746542584139
 30
0.0
 11
5022.75585128855
 21
-1617.746542584139
 31
0.0
  0
LINE
  5
F5
330
35
100
AcDbEntity
  8
1
  6
Continuous
 62
     5
100
AcDbLine
 10
4992.755851288549
 20
-1610.746542584139
 30
0.0
 11
4992.755851288549
 21
-1617.746542584139
 31
0.0
  0
LINE
  5
F6
330
35
100
AcDbEntity
  8
1
  6
Continuous
 62
     5
100
AcDbLine
 10
4992.755851288549
 20
-1610.746542584139
 30
0.0
 11
5022.75585128855
 21
-1610.746542584139
 31
0.0
  0
LINE
  5
F7
330
35
100
AcDbEntity
  8
1
  6
Continuous
 62
     5
100
AcDbLine
 10
4952.75585128855
 20
-1610.746542584139
 30
0.0
 11
4952.75585128855
 21
-1617.746542584139
 31
0.0
  0
LINE
  5
F8
330
35
100
AcDbEntity
  8
1
  6
Continuous
 62
     5
100
AcDbLine
 10
4952.75585128855
 20
-1610.746542584139
 30
0.0
 11
4992.755851288549
 21
-1610.746542584139
 31
0.0
  0
LINE
  5
F9
330
35
100
AcDbEntity
  8
1
  6
Continuous
 62
     5
100
AcDbLine
 10
4937.755851288549
 20
-1610.746542584139
 30
0.0
 11
4937.755851288549
 21
-1617.746542584139
 31
0.0
  0
LINE
  5
FA
330
35
100
AcDbEntity
  8
1
  6
Continuous
 62
     5
100
AcDbLine
 10
4937.755851288549
 20
-1610.746542584139
 30
0.0
 11
4952.75585128855
 21
-1610.746542584139
 31
0.0
  0
LINE
  5
FB
330
35
100
AcDbEntity
  8
1
  6
Continuous
 62
     5
100
AcDbLine
 10
4907.75585128855
 20
-1610.746542584139
 30
0.0
 11
4907.75585128855
 21
-1617.746542584139
 31
0.0
  0
LINE
  5
FC
330
35
100
AcDbEntity
  8
1
  6
Continuous
 62
     5
100
AcDbLine
 10
4907.75585128855
 20
-1610.746542584139
 30
0.0
 11
4937.755851288549
 21
-1610.746542584139
 31
0.0
  0
LINE
  5
FD
330
35
100
AcDbEntity
  8
1
  6
Continuous
 62
     5
100
AcDbLine
 10
4857.75585128855
 20
-1610.746542584139
 30
0.0
 11
4857.75585128855
 21
-1617.746542584139
 31
0.0
  0
LINE
  5
FE
330
35
100
AcDbEntity
  8
1
  6
Continuous
 62
     5
100
AcDbLine
 10
4857.75585128855
 20
-1610.746542584139
 30
0.0
 11
4907.75585128855
 21
-1610.746542584139
 31
0.0
  0
LINE
  5
FF
330
35
100
AcDbEntity
  8
1
  6
Continuous
 62
     5
100
AcDbLine
 10
4875.75585128855
 20
-1642.746542584139
 30
0.0
 11
4935.75585128855
 21
-1642.746542584139
 31
0.0
  0
LINE
  5
100
330
35
100
AcDbEntity
  8
1
  6
Continuous
 62
     7
100
AcDbLine
 10
4875.75585128855
 20
-1642.746542584139
 30
0.0
 11
4875.75585128855
 21
-1649.746542584139
 31
0.0
  0
LINE
  5
101
330
35
100
AcDbEntity
  8
1
  6
Continuous
 62
     7
100
AcDbLine
 10
4935.75585128855
 20
-1642.746542584139
 30
0.0
 11
4935.75585128855
 21
-1649.746542584139
 31
0.0
  0
LINE
  5
102
330
35
100
AcDbEntity
  8
1
  6
Continuous
 62
     7
100
AcDbLine
 10
4846.940485034259
 20
-1661.098513449932
 30
0.0
 11
4845.266742546434
 21
-1661.098513449932
 31
0.0
  0
LINE
  5
103
330
35
100
AcDbEntity
  8
1
  6
Continuous
 62
     7
100
AcDbLine
 10
4845.266742546434
 20
-1661.098513449932
 30
0.0
 11
4845.266742546434
 21
-1660.680077827976
 31
0.0
  0
LINE
  5
104
330
35
100
AcDbEntity
  8
1
  6
Continuous
 62
     7
100
AcDbLine
 10
4845.371351451924
 20
-1660.575468922487
 30
0.0
 11
4845.627673809612
 21
-1660.575468922487
 31
0.0
  0
LINE
  5
105
330
35
100
AcDbEntity
  8
1
  6
Continuous
 62
     7
100
AcDbLine
 10
4845.8777687942
 20
-1660.390408368832
 30
0.0
 11
4847.868047830574
 21
-1653.880498971191
 31
0.0
  0
LINE
  5
106
330
35
100
AcDbEntity
  8
1
  6
Continuous
 62
     7
100
AcDbLine
 10
4847.868047830574
 20
-1653.880498971191
 30
0.0
 11
4849.572287865138
 21
-1653.880498971191
 31
0.0
  0
LINE
  5
107
330
35
100
AcDbEntity
  8
1
  6
Continuous
 62
     7
100
AcDbLine
 10
4849.572287865138
 20
-1653.880498971191
 30
0.0
 11
4851.562566901514
 21
-1660.390408368832
 31
0.0
  0
LINE
  5
108
330
35
100
AcDbEntity
  8
1
  6
Continuous
 62
     7
100
AcDbLine
 10
4851.8126618861
 20
-1660.575468922487
 30
0.0
 11
4852.170930308709
 21
-1660.575468922487
 31
0.0
  0
LINE
  5
109
330
35
100
AcDbEntity
  8
1
  6
Continuous
 62
     7
100
AcDbLine
 10
4852.275539214198
 20
-1660.680077827976
 30
0.0
 11
4852.275539214198
 21
-1661.098513449932
 31
0.0
  0
LINE
  5
10A
330
35
100
AcDbEntity
  8
1
  6
Continuous
 62
     7
100
AcDbLine
 10
4852.275539214198
 20
-1661.098513449932
 30
0.0
 11
4849.137272049528
 21
-1661.098513449932
 31
0.0
  0
LINE
  5
10B
330
35
100
AcDbEntity
  8
1
  6
Continuous
 62
     7
100
AcDbLine
 10
4849.137272049528
 20
-1661.098513449932
 30
0.0
 11
4849.137272049528
 21
-1660.680077827976
 31
0.0
  0
LINE
  5
10C
330
35
100
AcDbEntity
  8
1
  6
Continuous
 62
     7
100
AcDbLine
 10
4849.241880955016
 20
-1660.575468922487
 30
0.0
 11
4849.531490889457
 21
-1660.575468922487
 31
0.0
  0
LINE
  5
10D
330
35
100
AcDbEntity
  8
1
  6
Continuous
 62
     7
100
AcDbLine
 10
4849.731566877128
 20
-1660.305081743455
 30
0.0
 11
4849.219852445739
 21
-1658.631339255631
 31
0.0
  0
LINE
  5
10E
330
35
100
AcDbEntity
  8
1
  6
Continuous
 62
     7
100
AcDbLine
 10
4849.019776458067
 20
-1658.483290812707
 30
0.0
 11
4847.123886272125
 21
-1658.483290812707
 31
0.0
  0
LINE
  5
10F
330
35
100
AcDbEntity
  8
1
  6
Continuous
 62
     7
100
AcDbLine
 10
4846.973829281373
 20
-1658.5943271449
 30
0.0
 11
4846.430132698022
 21
-1660.372678538213
 31
0.0
  0
LINE
  5
110
330
35
100
AcDbEntity
  8
1
  6
Continuous
 62
     7
100
AcDbLine
 10
4846.580189688776
 20
-1660.575468922487
 30
0.0
 11
4846.83587612877
 21
-1660.575468922487
 31
0.0
  0
LINE
  5
111
330
35
100
AcDbEntity
  8
1
  6
Continuous
 62
     7
100
AcDbLine
 10
4846.940485034259
 20
-1660.680077827976
 30
0.0
 11
4846.940485034259
 21
-1661.098513449932
 31
0.0
  0
LINE
  5
112
330
35
100
AcDbEntity
  8
1
  6
Continuous
 62
     7
100
AcDbLine
 10
4847.941126003885
 20
-1655.43044212722
 30
0.0
 11
4847.229686497066
 21
-1657.757455900988
 31
0.0
  0
LINE
  5
113
330
35
100
AcDbEntity
  8
1
  6
Continuous
 62
     7
100
AcDbLine
 10
4847.37974348782
 20
-1657.960246285262
 30
0.0
 11
4848.802622501456
 21
-1657.960246285262
 31
0.0
  0
LINE
  5
114
330
35
100
AcDbEntity
  8
1
  6
Continuous
 62
     7
100
AcDbLine
 10
4848.952679492209
 20
-1657.757455900988
 30
0.0
 11
4848.24123998539
 21
-1655.43044212722
 31
0.0
  0
LINE
  5
115
330
35
100
AcDbEntity
  8
1
  6
Continuous
 62
     7
100
AcDbLine
 10
4854.733848493189
 20
-1653.880498971191
 30
0.0
 11
4857.610593394136
 21
-1653.880498971191
 31
0.0
  0
LINE
  5
116
330
35
100
AcDbEntity
  8
1
  6
Continuous
 62
     7
100
AcDbLine
 10
4857.610593394136
 20
-1653.880498971191
 30
0.0
 11
4857.66276117392
 21
-1655.493483168994
 31
0.0
  0
LINE
  5
117
330
35
100
AcDbEntity
  8
1
  6
Continuous
 62
     7
100
AcDbLine
 10
4857.151920178885
 20
-1655.580460223867
 30
0.0
 11
4856.942743707897
 21
-1654.91594082779
 31
0.0
  0
LINE
  5
118
330
35
100
AcDbEntity
  8
1
  6
Continuous
 62
     7
100
AcDbLine
 10
4856.244268575932
 20
-1654.403543498636
 30
0.0
 11
4856.093764264546
 21
-1654.403543498636
 31
0.0
  0
LINE
  5
119
330
35
100
AcDbEntity
  8
1
  6
Continuous
 62
     7
100
AcDbLine
 10
4855.727633095335
 20
-1654.769674667848
 30
0.0
 11
4855.727633095335
 21
-1660.313946658765
 31
0.0
  0
LINE
  5
11A
330
35
100
AcDbEntity
  8
1
  6
Continuous
 62
     7
100
AcDbLine
 10
4855.989155359057
 20
-1660.575468922487
 30
0.0
 11
4856.198373170036
 21
-1660.575468922487
 31
0.0
  0
LINE
  5
11B
330
35
100
AcDbEntity
  8
1
  6
Continuous
 62
     7
100
AcDbLine
 10
4856.302982075525
 20
-1660.680077827976
 30
0.0
 11
4856.302982075525
 21
-1661.098513449932
 31
0.0
  0
LINE
  5
11C
330
35
100
AcDbEntity
  8
1
  6
Continuous
 62
     7
100
AcDbLine
 10
4856.302982075525
 20
-1661.098513449932
 30
0.0
 11
4854.733848493189
 21
-1661.098513449932
 31
0.0
  0
LINE
  5
11D
330
35
100
AcDbEntity
  8
1
  6
Continuous
 62
     7
100
AcDbLine
 10
4851.857103592241
 20
-1653.880498971191
 30
0.0
 11
4854.733848493189
 21
-1653.880498971191
 31
0.0
  0
LINE
  5
11E
330
35
100
AcDbEntity
  8
1
  6
Continuous
 62
     7
100
AcDbLine
 10
4851.804935812459
 20
-1655.493483168994
 30
0.0
 11
4851.857103592241
 21
-1653.880498971191
 31
0.0
  0
LINE
  5
11F
330
35
100
AcDbEntity
  8
1
  6
Continuous
 62
     7
100
AcDbLine
 10
4852.524953278482
 20
-1654.91594082779
 30
0.0
 11
4852.315776807493
 21
-1655.580460223867
 31
0.0
  0
LINE
  5
120
330
35
100
AcDbEntity
  8
1
  6
Continuous
 62
     7
100
AcDbLine
 10
4853.373932721832
 20
-1654.403543498636
 30
0.0
 11
4853.223428410445
 21
-1654.403543498636
 31
0.0
  0
LINE
  5
121
330
35
100
AcDbEntity
  8
1
  6
Continuous
 62
     7
100
AcDbLine
 10
4853.740063891044
 20
-1660.313946658765
 30
0.0
 11
4853.740063891044
 21
-1654.769674667848
 31
0.0
  0
LINE
  5
122
330
35
100
AcDbEntity
  8
1
  6
Continuous
 62
     7
100
AcDbLine
 10
4853.269323816343
 20
-1660.575468922487
 30
0.0
 11
4853.478541627321
 21
-1660.575468922487
 31
0.0
  0
LINE
  5
123
330
35
100
AcDbEntity
  8
1
  6
Continuous
 62
     7
100
AcDbLine
 10
4853.164714910854
 20
-1661.098513449932
 30
0.0
 11
4853.164714910854
 21
-1660.680077827976
 31
0.0
  0
LINE
  5
124
330
35
100
AcDbEntity
  8
1
  6
Continuous
 62
     7
100
AcDbLine
 10
4854.733848493189
 20
-1661.098513449932
 30
0.0
 11
4853.164714910854
 21
-1661.098513449932
 31
0.0
  0
LINE
  5
125
330
35
100
AcDbEntity
  8
1
  6
Continuous
 62
     7
100
AcDbLine
 10
4864.072689653931
 20
-1656.342976380683
 30
0.0
 11
4860.596115331073
 21
-1659.819550703541
 31
0.0
  0
LINE
  5
126
330
35
100
AcDbEntity
  8
1
  6
Continuous
 62
     7
100
AcDbLine
 10
4859.412600667974
 20
-1658.63603604044
 30
0.0
 11
4862.88917499083
 21
-1655.159461717583
 31
0.0
  0
LINE
  5
127
330
35
100
AcDbEntity
  8
1
  6
Continuous
 62
     7
100
AcDbLine
 10
4869.117572997927
 20
-1653.880498971191
 30
0.0
 11
4869.959790934865
 21
-1657.02369910289
 31
0.0
  0
LINE
  5
128
330
35
100
AcDbEntity
  8
1
  6
Continuous
 62
     7
100
AcDbLine
 10
4870.26292426528
 20
-1657.02369910289
 30
0.0
 11
4871.105142202218
 21
-1653.880498971191
 31
0.0
  0
LINE
  5
129
330
35
100
AcDbEntity
  8
1
  6
Continuous
 62
     7
100
AcDbLine
 10
4867.286917151869
 20
-1660.575468922487
 30
0.0
 11
4867.443830510103
 21
-1660.575468922487
 31
0.0
  0
LINE
  5
12A
330
35
100
AcDbEntity
  8
1
  6
Continuous
 62
     7
100
AcDbLine
 10
4867.548439415593
 20
-1660.680077827976
 30
0.0
 11
4867.548439415593
 21
-1661.098513449932
 31
0.0
  0
LINE
  5
12B
330
35
100
AcDbEntity
  8
1
  6
Continuous
 62
     7
100
AcDbLine
 10
4867.548439415593
 20
-1661.098513449932
 30
0.0
 11
4866.083914738746
 21
-1661.098513449932
 31
0.0
  0
LINE
  5
12C
330
35
100
AcDbEntity
  8
1
  6
Continuous
 62
     7
100
AcDbLine
 10
4866.083914738746
 20
-1661.098513449932
 30
0.0
 11
4866.083914738746
 21
-1660.680077827976
 31
0.0
  0
LINE
  5
12D
330
35
100
AcDbEntity
  8
1
  6
Continuous
 62
     7
100
AcDbLine
 10
4866.188523644235
 20
-1660.575468922487
 30
0.0
 11
4866.450045907957
 21
-1660.575468922487
 31
0.0
  0
LINE
  5
12E
330
35
100
AcDbEntity
  8
1
  6
Continuous
 62
     7
100
AcDbLine
 10
4866.60695926619
 20
-1660.418555564254
 30
0.0
 11
4866.60695926619
 21
-1654.56045685687
 31
0.0
  0
LINE
  5
12F
330
35
100
AcDbEntity
  8
1
  6
Continuous
 62
     7
100
AcDbLine
 10
4866.450045907957
 20
-1654.403543498636
 30
0.0
 11
4866.188523644235
 21
-1654.403543498636
 31
0.0
  0
LINE
  5
130
330
35
100
AcDbEntity
  8
1
  6
Continuous
 62
     7
100
AcDbLine
 10
4866.083914738746
 20
-1654.298934593147
 30
0.0
 11
4866.083914738746
 21
-1653.880498971191
 31
0.0
  0
LINE
  5
131
330
35
100
AcDbEntity
  8
1
  6
Continuous
 62
     7
100
AcDbLine
 10
4866.083914738746
 20
-1653.880498971191
 30
0.0
 11
4869.117572997927
 21
-1653.880498971191
 31
0.0
  0
LINE
  5
132
330
35
100
AcDbEntity
  8
1
  6
Continuous
 62
     7
100
AcDbLine
 10
4871.105142202218
 20
-1653.880498971191
 30
0.0
 11
4874.138800461398
 21
-1653.880498971191
 31
0.0
  0
LINE
  5
133
330
35
100
AcDbEntity
  8
1
  6
Continuous
 62
     7
100
AcDbLine
 10
4874.138800461398
 20
-1653.880498971191
 30
0.0
 11
4874.138800461398
 21
-1654.298934593147
 31
0.0
  0
LINE
  5
134
330
35
100
AcDbEntity
  8
1
  6
Continuous
 62
     7
100
AcDbLine
 10
4874.034191555909
 20
-1654.403543498636
 30
0.0
 11
4873.824973744931
 21
-1654.403543498636
 31
0.0
  0
LINE
  5
135
330
35
100
AcDbEntity
  8
1
  6
Continuous
 62
     7
100
AcDbLine
 10
4873.563451481209
 20
-1654.665065762359
 30
0.0
 11
4873.563451481209
 21
-1660.313946658765
 31
0.0
  0
LINE
  5
136
330
35
100
AcDbEntity
  8
1
  6
Continuous
 62
     7
100
AcDbLine
 10
4873.824973744931
 20
-1660.575468922487
 30
0.0
 11
4874.034191555909
 21
-1660.575468922487
 31
0.0
  0
LINE
  5
137
330
35
100
AcDbEntity
  8
1
  6
Continuous
 62
     7
100
AcDbLine
 10
4874.138800461398
 20
-1660.680077827976
 30
0.0
 11
4874.138800461398
 21
-1661.098513449932
 31
0.0
  0
LINE
  5
138
330
35
100
AcDbEntity
  8
1
  6
Continuous
 62
     7
100
AcDbLine
 10
4874.138800461398
 20
-1661.098513449932
 30
0.0
 11
4871.209751107706
 21
-1661.098513449932
 31
0.0
  0
LINE
  5
139
330
35
100
AcDbEntity
  8
1
  6
Continuous
 62
     7
100
AcDbLine
 10
4871.209751107706
 20
-1661.098513449932
 30
0.0
 11
4871.209751107706
 21
-1660.680077827976
 31
0.0
  0
LINE
  5
13A
330
35
100
AcDbEntity
  8
1
  6
Continuous
 62
     7
100
AcDbLine
 10
4871.314360013196
 20
-1660.575468922487
 30
0.0
 11
4871.523577824174
 21
-1660.575468922487
 31
0.0
  0
LINE
  5
13B
330
35
100
AcDbEntity
  8
1
  6
Continuous
 62
     7
100
AcDbLine
 10
4869.71257659224
 20
-1661.098513449932
 30
0.0
 11
4869.210549310566
 21
-1661.098513449932
 31
0.0
  0
LINE
  5
13C
330
35
100
AcDbEntity
  8
1
  6
Continuous
 62
     7
100
AcDbLine
 10
4867.130003793636
 20
-1660.418555564254
 30
0.0
 11
4867.130003793636
 21
-1654.525687159434
 31
0.0
  0
LINE
  5
13D
330
35
100
AcDbEntity
  8
1
  6
Continuous
 62
     7
100
AcDbLine
 10
4867.438483817076
 20
-1654.485074993892
 30
0.0
 11
4869.210549310566
 21
-1661.098513449932
 31
0.0
  0
LINE
  5
13E
330
35
100
AcDbEntity
  8
1
  6
Continuous
 62
     7
100
AcDbLine
 10
4869.71257659224
 20
-1661.098513449932
 30
0.0
 11
4871.476620064456
 21
-1654.515013584867
 31
0.0
  0
LINE
  5
13F
330
35
100
AcDbEntity
  8
1
  6
Continuous
 62
     7
100
AcDbLine
 10
4871.785100087897
 20
-1654.555625750409
 30
0.0
 11
4871.785100087897
 21
-1660.313946658765
 31
0.0
  0
LINE
  5
140
330
35
100
AcDbEntity
  8
1
  6
Continuous
 62
     5
100
AcDbLine
 10
4860.806177693949
 20
-1644.246542584139
 30
0.0
 11
4860.806177693949
 21
-1640.246542584139
 31
0.0
  0
LINE
  5
141
330
35
100
AcDbEntity
  8
1
  6
Continuous
 62
     5
100
AcDbLine
 10
4860.806177693949
 20
-1640.246542584139
 30
0.0
 11
4870.637534185597
 21
-1638.246542584139
 31
0.0
  0
LINE
  5
142
330
35
100
AcDbEntity
  8
1
  6
Continuous
 62
     5
100
AcDbLine
 10
4870.637534185597
 20
-1638.246542584139
 30
0.0
 11
4870.637534185597
 21
-1646.246542584139
 31
0.0
  0
LINE
  5
143
330
35
100
AcDbEntity
  8
1
  6
Continuous
 62
     5
100
AcDbLine
 10
4870.637534185597
 20
-1646.246542584139
 30
0.0
 11
4860.806177693949
 21
-1644.246542584139
 31
0.0
  0
LINE
  5
144
330
35
100
AcDbEntity
  8
1
  6
Continuous
 62
     5
100
AcDbLine
 10
4845.350135695743
 20
-1642.246542584139
 30
0.0
 11
4849.397468940058
 21
-1642.246542584139
 31
0.0
  0
LINE
  5
145
330
35
100
AcDbEntity
  8
1
  6
Continuous
 62
     5
100
AcDbLine
 10
4849.94625988844
 20
-1642.246542584139
 30
0.0
 11
4851.90132764205
 21
-1642.246542584139
 31
0.0
  0
LINE
  5
146
330
35
100
AcDbEntity
  8
1
  6
Continuous
 62
     5
100
AcDbLine
 10
4852.381519721884
 20
-1642.246542584139
 30
0.0
 11
4864.454920586283
 21
-1642.246542584139
 31
0.0
  0
LINE
  5
147
330
35
100
AcDbEntity
  8
1
  6
Continuous
 62
     5
100
AcDbLine
 10
4864.96941210039
 20
-1642.246542584139
 30
0.0
 11
4865.826897957237
 21
-1642.246542584139
 31
0.0
  0
LINE
  5
148
330
35
100
AcDbEntity
  8
1
  6
Continuous
 62
     5
100
AcDbLine
 10
4866.581485511261
 20
-1642.246542584139
 30
0.0
 11
4873.029779154747
 21
-1642.246542584139
 31
0.0
  0
LINE
  5
149
330
35
100
AcDbEntity
  8
1
  6
Continuous
 62
     5
100
AcDbLine
 10
4850.831297749867
 20
-1636.650503945466
 30
0.0
 11
4850.831297749867
 21
-1641.006532098246
 31
0.0
  0
LINE
  5
14A
330
35
100
AcDbEntity
  8
1
  6
Continuous
 62
     5
100
AcDbLine
 10
4850.831297749867
 20
-1641.452424743806
 30
0.0
 11
4850.831297749867
 21
-1642.961599851856
 31
0.0
  0
LINE
  5
14B
330
35
100
AcDbEntity
  8
1
  6
Continuous
 62
     5
100
AcDbLine
 10
4850.831297749867
 20
-1643.44179193169
 30
0.0
 11
4850.831297749867
 21
-1648.24371273003
 31
0.0
  0
LWPOLYLINE
  5
14C
330
35
100
AcDbEntity
  8
1
  6
Continuous
 62
     3
100
AcDbPolyline
 90
        2
 70
     1
 43
0.0
 10
4996.793814344819
 20
-1607.246542584139
 42
1.0
 10
4993.962691720841
 20
-1608.238885613541
 42
1.0
  0
ARC
  5
14D
330
35
100
AcDbEntity
  8
1
  6
Continuous
 62
     7
100
AcDbCircle
 10
4857.401375583158
 20
-1655.501937006271
 30
0.0
 40
0.2615222637220664
100
AcDbArc
 50
-162.527114729681
 51
1.85243728543678
  0
ARC
  5
14E
330
35
100
AcDbEntity
  8
1
  6
Continuous
 62
     7
100
AcDbCircle
 10
4852.06632140322
 20
-1655.501937006271
 30
0.0
 40
0.2615222637219767
100
AcDbArc
 50
178.1475627145568
 51
-17.47288527019932
  0
ARC
  5
14F
330
35
100
AcDbEntity
  8
1
  6
Continuous
 62
     7
100
AcDbCircle
 10
4863.480932322381
 20
-1655.751219049133
 30
0.0
 40
0.8368712439118217
100
AcDbArc
 50
-45.0
 51
135.000000000011
  0
ARC
  5
150
330
35
100
AcDbEntity
  8
1
  6
Continuous
 62
     7
100
AcDbCircle
 10
4860.004357999524
 20
-1659.22779337199
 30
0.0
 40
0.8368712439110177
100
AcDbArc
 50
134.999999999967
 51
-45.00000000004403
  0
CIRCLE
  5
151
330
35
100
AcDbEntity
  8
1
  6
Continuous
 62
     7
100
AcDbCircle
 10
4861.742645160952
 20
-1657.489506210562
 30
0.0
 40
3.818225050347792
  0
CIRCLE
  5
152
330
35
100
AcDbEntity
  8
1
  6
Continuous
 62
     5
100
AcDbCircle
 10
4850.831297749867
 20
-1642.246542584139
 30
0.0
 40
2.0
  0
CIRCLE
  5
153
330
35
100
AcDbEntity
  8
1
  6
Continuous
 62
     5
100
AcDbCircle
 10
4850.831297749867
 20
-1642.246542584139
 30
0.0
 40
4.0
  0
ARC
  5
154
330
35
100
AcDbEntity
  8
1
  6
Continuous
 62
     7
100
AcDbCircle
 10
4848.091182994638
 20
-1655.47631915326
 30
0.0
 40
0.156913358232647
100
AcDbArc
 50
16.99999999990084
 51
163.0000000001963
  0
ARC
  5
155
330
35
100
AcDbEntity
  8
1
  6
Continuous
 62
     7
100
AcDbCircle
 10
4847.37974348782
 20
-1657.803332927029
 30
0.0
 40
0.1569133582338491
100
AcDbArc
 50
162.9999999997993
 51
-90.0
  0
ARC
  5
156
330
35
100
AcDbEntity
  8
1
  6
Continuous
 62
     7
100
AcDbCircle
 10
4848.802622501456
 20
-1657.803332927029
 30
0.0
 40
0.1569133582329414
100
AcDbArc
 50
-90.0
 51
17.00000000020072
  0
ARC
  5
157
330
35
100
AcDbEntity
  8
1
  6
Continuous
 62
     7
100
AcDbCircle
 10
4847.123886272125
 20
-1658.640204170941
 30
0.0
 40
0.1569133582338509
100
AcDbArc
 50
90.0
 51
162.9999999998787
  0
ARC
  5
158
330
35
100
AcDbEntity
  8
1
  6
Continuous
 62
     7
100
AcDbCircle
 10
4846.580189688776
 20
-1660.418555564254
 30
0.0
 40
0.1569133582337826
100
AcDbArc
 50
162.9999999998787
 51
-90.0
  0
ARC
  5
159
330
35
100
AcDbEntity
  8
1
  6
Continuous
 62
     7
100
AcDbCircle
 10
4849.019776458067
 20
-1658.692508623685
 30
0.0
 40
0.2092178109784895
100
AcDbArc
 50
16.99999999993827
 51
90.0
  0
ARC
  5
15A
330
35
100
AcDbEntity
  8
1
  6
Continuous
 62
     7
100
AcDbCircle
 10
4849.531490889457
 20
-1660.366251111509
 30
0.0
 40
0.2092178109780889
100
AcDbArc
 50
-90.0
 51
16.99999999993827
  0
ARC
  5
15B
330
35
100
AcDbEntity
  8
1
  6
Continuous
 62
     7
100
AcDbCircle
 10
4845.627673809612
 20
-1660.313946658765
 30
0.0
 40
0.2615222637220995
100
AcDbArc
 50
-90.0
 51
-16.99999999988669
  0
ARC
  5
15C
330
35
100
AcDbEntity
  8
1
  6
Continuous
 62
     7
100
AcDbCircle
 10
4851.8126618861
 20
-1660.313946658765
 30
0.0
 40
0.2615222637205871
100
AcDbArc
 50
-162.9999999999968
 51
-90.0
  0
ARC
  5
15D
330
35
100
AcDbEntity
  8
1
  6
Continuous
 62
     7
100
AcDbCircle
 10
4845.371351451924
 20
-1660.680077827976
 30
0.0
 40
0.1046089054889308
100
AcDbArc
 50
90.0
 51
180.0
  0
ARC
  5
15E
330
35
100
AcDbEntity
  8
1
  6
Continuous
 62
     7
100
AcDbCircle
 10
4846.83587612877
 20
-1660.680077827976
 30
0.0
 40
0.1046089054889308
100
AcDbArc
 50
0.0
 51
90.0
  0
ARC
  5
15F
330
35
100
AcDbEntity
  8
1
  6
Continuous
 62
     7
100
AcDbCircle
 10
4849.241880955016
 20
-1660.680077827976
 30
0.0
 40
0.1046089054889308
100
AcDbArc
 50
90.0
 51
180.0
  0
ARC
  5
160
330
35
100
AcDbEntity
  8
1
  6
Continuous
 62
     7
100
AcDbCircle
 10
4852.170930308709
 20
-1660.680077827976
 30
0.0
 40
0.1046089054898403
100
AcDbArc
 50
0.0
 51
90.0
  0
ARC
  5
161
330
35
100
AcDbEntity
  8
1
  6
Continuous
 62
     7
100
AcDbCircle
 10
4853.373932721832
 20
-1654.769674667848
 30
0.0
 40
0.3661311692121672
100
AcDbArc
 50
0.0
 51
90.0
  0
ARC
  5
162
330
35
100
AcDbEntity
  8
1
  6
Continuous
 62
     7
100
AcDbCircle
 10
4856.093764264546
 20
-1654.769674667848
 30
0.0
 40
0.3661311692119398
100
AcDbArc
 50
90.0
 51
180.0
  0
ARC
  5
163
330
35
100
AcDbEntity
  8
1
  6
Continuous
 62
     7
100
AcDbCircle
 10
4856.244268575932
 20
-1655.135805837059
 30
0.0
 40
0.7322623384233338
100
AcDbArc
 50
17.47288527027712
 51
90.0
  0
ARC
  5
164
330
35
100
AcDbEntity
  8
1
  6
Continuous
 62
     7
100
AcDbCircle
 10
4853.223428410445
 20
-1655.135805837059
 30
0.0
 40
0.7322623384229701
100
AcDbArc
 50
90.0
 51
162.5271147297015
  0
ARC
  5
165
330
35
100
AcDbEntity
  8
1
  6
Continuous
 62
     7
100
AcDbCircle
 10
4853.478541627321
 20
-1660.313946658765
 30
0.0
 40
0.2615222637220995
100
AcDbArc
 50
-90.0
 51
0.0
  0
ARC
  5
166
330
35
100
AcDbEntity
  8
1
  6
Continuous
 62
     7
100
AcDbCircle
 10
4855.989155359057
 20
-1660.313946658765
 30
0.0
 40
0.2615222637223269
100
AcDbArc
 50
180.0
 51
-90.0
  0
ARC
  5
167
330
35
100
AcDbEntity
  8
1
  6
Continuous
 62
     7
100
AcDbCircle
 10
4856.198373170036
 20
-1660.680077827976
 30
0.0
 40
0.1046089054889308
100
AcDbArc
 50
0.0
 51
90.0
  0
ARC
  5
168
330
35
100
AcDbEntity
  8
1
  6
Continuous
 62
     7
100
AcDbCircle
 10
4853.269323816343
 20
-1660.680077827976
 30
0.0
 40
0.1046089054889308
100
AcDbArc
 50
90.0
 51
180.0
  0
ARC
  5
169
330
35
100
AcDbEntity
  8
1
  6
Continuous
 62
     7
100
AcDbCircle
 10
4866.188523644235
 20
-1654.298934593147
 30
0.0
 40
0.1046089054889308
100
AcDbArc
 50
180.0
 51
-90.0
  0
ARC
  5
16A
330
35
100
AcDbEntity
  8
1
  6
Continuous
 62
     7
100
AcDbCircle
 10
4874.034191555909
 20
-1654.298934593147
 30
0.0
 40
0.1046089054891581
100
AcDbArc
 50
-90.0
 51
0.0
  0
ARC
  5
16B
330
35
100
AcDbEntity
  8
1
  6
Continuous
 62
     7
100
AcDbCircle
 10
4874.034191555909
 20
-1660.680077827976
 30
0.0
 40
0.1046089054889308
100
AcDbArc
 50
0.0
 51
90.0
  0
ARC
  5
16C
330
35
100
AcDbEntity
  8
1
  6
Continuous
 62
     7
100
AcDbCircle
 10
4871.314360013196
 20
-1660.680077827976
 30
0.0
 40
0.1046089054889308
100
AcDbArc
 50
90.0
 51
180.0
  0
ARC
  5
16D
330
35
100
AcDbEntity
  8
1
  6
Continuous
 62
     7
100
AcDbCircle
 10
4866.188523644235
 20
-1660.680077827976
 30
0.0
 40
0.1046089054889308
100
AcDbArc
 50
90.0
 51
180.0
  0
ARC
  5
16E
330
35
100
AcDbEntity
  8
1
  6
Continuous
 62
     7
100
AcDbCircle
 10
4867.443830510103
 20
-1660.680077827976
 30
0.0
 40
0.1046089054889308
100
AcDbArc
 50
0.0
 51
90.0
  0
ARC
  5
16F
330
35
100
AcDbEntity
  8
1
  6
Continuous
 62
     7
100
AcDbCircle
 10
4866.450045907957
 20
-1654.56045685687
 30
0.0
 40
0.1569133582333961
100
AcDbArc
 50
0.0
 51
90.0
  0
ARC
  5
170
330
35
100
AcDbEntity
  8
1
  6
Continuous
 62
     7
100
AcDbCircle
 10
4866.450045907957
 20
-1660.418555564254
 30
0.0
 40
0.1569133582331688
100
AcDbArc
 50
-90.0
 51
0.0
  0
ARC
  5
171
330
35
100
AcDbEntity
  8
1
  6
Continuous
 62
     7
100
AcDbCircle
 10
4867.286917151869
 20
-1660.418555564254
 30
0.0
 40
0.1569133582333961
100
AcDbArc
 50
180.0
 51
-90.0
  0
ARC
  5
172
330
35
100
AcDbEntity
  8
1
  6
Continuous
 62
     7
100
AcDbCircle
 10
4867.286917151869
 20
-1654.525687159434
 30
0.0
 40
0.156913358233644
100
AcDbArc
 50
15.00000000002045
 51
180.0
  0
ARC
  5
173
330
35
100
AcDbEntity
  8
1
  6
Continuous
 62
     7
100
AcDbCircle
 10
4870.111357600071
 20
-1656.983086937348
 30
0.0
 40
0.1569133582328243
100
AcDbArc
 50
-164.9999999998134
 51
-15.0000000000147
  0
ARC
  5
174
330
35
100
AcDbEntity
  8
1
  6
Continuous
 62
     7
100
AcDbCircle
 10
4871.628186729662
 20
-1654.555625750409
 30
0.0
 40
0.1569133582343056
100
AcDbArc
 50
0.0
 51
164.9999999998134
  0
ARC
  5
175
330
35
100
AcDbEntity
  8
1
  6
Continuous
 62
     7
100
AcDbCircle
 10
4873.824973744931
 20
-1654.665065762359
 30
0.0
 40
0.261522263723009
100
AcDbArc
 50
90.0
 51
180.0
  0
ARC
  5
176
330
35
100
AcDbEntity
  8
1
  6
Continuous
 62
     7
100
AcDbCircle
 10
4871.523577824174
 20
-1660.313946658765
 30
0.0
 40
0.2615222637220995
100
AcDbArc
 50
-90.0
 51
0.0
  0
ARC
  5
177
330
35
100
AcDbEntity
  8
1
  6
Continuous
 62
     7
100
AcDbCircle
 10
4873.824973744931
 20
-1660.313946658765
 30
0.0
 40
0.2615222637223269
100
AcDbArc
 50
180.0
 51
-90.0
  0
MTEXT
  5
179
330
35
100
AcDbEntity
  8
1
 62
     3
100
AcDbMText
 10
4994.75585128855
 20
-1607.246542584139
 30
0.0
 40
3.5
 41
0.0
 71
     4
 72
     1
  1
+なべ小ねじ
  7
CONVERTER_11
 73
     1
 44
1.32052821128451
1001
ACAD
1000
MTEXTBEGIN
1070
    73
1070
     1
1070
    44
1040
1.32052821128451
1070
    74
1070
     0
1000
MTEXTEND
  0
MTEXT
  5
17A
330
35
100
AcDbEntity
  8
1
 62
     3
100
AcDbMText
 10
4954.75585128855
 20
-1607.246542584139
 30
0.0
 40
3.5
 41
0.0
 71
     4
 72
     1
  1
クロメート
  7
CONVERTER_11
 73
     1
 44
1.32052821128451
1001
ACAD
1000
MTEXTBEGIN
1070
    73
1070
     1
1070
    44
1040
1.32052821128451
1070
    74
1070
     0
1000
MTEXTEND
  0
MTEXT
  5
17C
330
35
100
AcDbEntity
  8
1
 62
     3
100
AcDbMText
 10
4909.75585128855
 20
-1607.246542584139
 30
0.0
 40
3.5
 41
0.0
 71
     4
 72
     1
  1
SWCH
  7
CONVERTER_12
 73
     1
 44
1.32052821128451
1001
ACAD
1000
MTEXTBEGIN
1070
    73
1070
     1
1070
    44
1040
1.32052821128451
1070
    74
1070
     0
1000
MTEXTEND
  0
MTEXT
  5
17D
330
35
100
AcDbEntity
  8
1
 62
     3
100
AcDbMText
 10
4859.75585128855
 20
-1607.246542584139
 30
0.0
 40
3.5
 41
0.0
 71
     4
 72
     1
  1
固定ねじ
  7
CONVERTER_11
 73
     1
 44
1.32052821128451
1001
ACAD
1000
MTEXTBEGIN
1070
    73
1070
     1
1070
    44
1040
1.32052821128451
1070
    74
1070
     0
1000
MTEXTEND
  0
MTEXT
  5
17E
330
35
100
AcDbEntity
  8
1
 62
     3
100
AcDbMText
 10
4945.25585128855
 20
-1607.246542584139
 30
0.0
 40
3.5
 41
0.0
 71
     5
 72
     1
  1
1
  7
CONVERTER_12
 73
     1
 44
1.32052821128451
1001
ACAD
1000
MTEXTBEGIN
1070
    73
1070
     1
1070
    44
1040
1.32052821128451
1070
    74
1070
     0
1000
MTEXTEND
  0
MTEXT
  5
17F
330
35
100
AcDbEntity
  8
1
 62
     3
100
AcDbMText
 10
4945.25585128855
 20
-1614.246542584139
 30
0.0
 40
3.5
 41
0.0
 71
     5
 72
     1
  1
1
  7
CONVERTER_12
 73
     1
 44
1.32052821128451
1001
ACAD
1000
MTEXTBEGIN
1070
    73
1070
     1
1070
    44
1040
1.32052821128451
1070
    74
1070
     0
1000
MTEXTEND
  0
MTEXT
  5
180
330
35
100
AcDbEntity
  8
1
 62
     3
100
AcDbMText
 10
4850.25585128855
 20
-1607.246542584139
 30
0.0
 40
3.5
 41
0.0
 71
     5
 72
     1
  1
2
  7
CONVERTER_12
 73
     1
 44
1.32052821128451
1001
ACAD
1000
MTEXTBEGIN
1070
    73
1070
     1
1070
    44
1040
1.32052821128451
1070
    74
1070
     0
1000
MTEXTEND
  0
MTEXT
  5
181
330
35
100
AcDbEntity
  8
1
 62
     3
100
AcDbMText
 10
4850.25585128855
 20
-1614.246542584139
 30
0.0
 40
3.5
 41
0.0
 71
     5
 72
     1
  1
1
  7
CONVERTER_12
 73
     1
 44
1.32052821128451
1001
ACAD
1000
MTEXTBEGIN
1070
    73
1070
     1
1070
    44
1040
1.32052821128451
1070
    74
1070
     0
1000
MTEXTEND
  0
MTEXT
  5
182
330
35
100
AcDbEntity
  8
1
 62
     3
100
AcDbMText
 10
4861.234239367025
 20
-1629.746542584139
 30
0.0
 40
6.0
 41
0.0
 71
     5
 72
     1
  1
1 : 1
  7
CONVERTER_12
 73
     1
 44
1.32052821128451
1001
ACAD
1000
MTEXTBEGIN
1070
    73
1070
     1
1070
    44
1040
1.32052821128451
1070
    74
1070
     0
1000
MTEXTEND
  0
MTEXT
  5
183
330
35
100
AcDbEntity
  8
1
 62
     3
100
AcDbMText
 10
4885.75585128855
 20
-1637.246542584139
 30
0.0
 40
6.0
 41
0.0
 71
     5
 72
     1
  1
逢坂
  7
CONVERTER_11
 73
     1
 44
1.32052821128451
1001
ACAD
1000
MTEXTBEGIN
1070
    73
1070
     1
1070
    44
1040
1.32052821128451
1070
    74
1070
     0
1000
MTEXTEND
  0
MTEXT
  5
184
330
35
100
AcDbEntity
  8
1
 62
     3
100
AcDbMText
 10
4885.75585128855
 20
-1646.246542584139
 30
0.0
 40
3.5
 41
0.0
 71
     5
 72
     1
  1
1999.4.14.
  7
CONVERTER_12
 73
     1
 44
1.32052821128451
1001
ACAD
1000
MTEXTBEGIN
1070
    73
1070
     1
1070
    44
1040
1.32052821128451
1070
    74
1070
     0
1000
MTEXTEND
  0
MTEXT
  5
185
330
35
100
AcDbEntity
  8
1
 62
     3
100
AcDbMText
 10
4905.755851288549
 20
-1646.246542584139
 30
0.0
 40
3.5
 41
0.0
 71
     5
 72
     1
  1
1999.4.14.
  7
CONVERTER_12
 73
     1
 44
1.32052821128451
1001
ACAD
1000
MTEXTBEGIN
1070
    73
1070
     1
1070
    44
1040
1.32052821128451
1070
    74
1070
     0
1000
MTEXTEND
  0
MTEXT
  5
186
330
35
100
AcDbEntity
  8
1
 62
     3
100
AcDbMText
 10
4905.755851288549
 20
-1637.246542584139
 30
0.0
 40
6.0
 41
0.0
 71
     5
 72
     1
  1
中島
  7
CONVERTER_11
 73
     1
 44
1.32052821128451
1001
ACAD
1000
MTEXTBEGIN
1070
    73
1070
     1
1070
    44
1040
1.32052821128451
1070
    74
1070
     0
1000
MTEXTEND
  0
MTEXT
  5
187
330
35
100
AcDbEntity
  8
1
 62
     3
100
AcDbMText
 10
4925.75585128855
 20
-1637.246542584139
 30
0.0
 40
6.0
 41
0.0
 71
     5
 72
     1
  1
緒方
  7
CONVERTER_11
 73
     1
 44
1.32052821128451
1001
ACAD
1000
MTEXTBEGIN
1070
    73
1070
     1
1070
    44
1040
1.32052821128451
1070
    74
1070
     0
1000
MTEXTEND
  0
MTEXT
  5
188
330
35
100
AcDbEntity
  8
1
 62
     3
100
AcDbMText
 10
4925.75585128855
 20
-1646.246542584139
 30
0.0
 40
3.5
 41
0.0
 71
     5
 72
     1
  1
1999.4.14.
  7
CONVERTER_12
 73
     1
 44
1.32052821128451
1001
ACAD
1000
MTEXTBEGIN
1070
    73
1070
     1
1070
    44
1040
1.32052821128451
1070
    74
1070
     0
1000
MTEXTEND
  0
MTEXT
  5
189
330
35
100
AcDbEntity
  8
1
 62
     3
100
AcDbMText
 10
4859.75585128855
 20
-1614.246542584139
 30
0.0
 40
3.5
 41
0.0
 71
     4
 72
     1
  1
本 体
  7
CONVERTER_11
 73
     1
 44
1.32052821128451
1001
ACAD
1000
MTEXTBEGIN
1070
    73
1070
     1
1070
    44
1040
1.32052821128451
1070
    74
1070
     0
1000
MTEXTEND
  0
MTEXT
  5
18A
330
35
100
AcDbEntity
  8
1
 62
     3
100
AcDbMText
 10
4909.75585128855
 20
-1614.246542584139
 30
0.0
 40
3.5
 41
0.0
 71
     4
 72
     1
  1
ジュラコン
  7
CONVERTER_11
 73
     1
 44
1.32052821128451
1001
ACAD
1000
MTEXTBEGIN
1070
    73
1070
     1
1070
    44
1040
1.32052821128451
1070
    74
1070
     0
1000
MTEXTEND
  0
MTEXT
  5
18B
330
35
100
AcDbEntity
  8
1
 62
     3
100
AcDbMText
 10
4954.75585128855
 20
-1614.246542584139
 30
0.0
 40
3.5
 41
0.0
 71
     4
 72
     1
  1
ダークブラウン色
  7
CONVERTER_11
 73
     1
 44
1.32052821128451
1001
ACAD
1000
MTEXTBEGIN
1070
    73
1070
     1
1070
    44
1040
1.32052821128451
1070
    74
1070
     0
1000
MTEXTEND
  0
MTEXT
  5
18C
330
35
100
AcDbEntity
  8
1
 62
     3
100
AcDbMText
 10
4944.75585128855
 20
-1662.246542584139
 30
0.0
 40
6.0
 41
0.0
 71
     4
 72
     1
  1
GDFD-LS3-A01
  7
CONVERTER_12
 73
     1
 44
1.32052821128451
1001
ACAD
1000
MTEXTBEGIN
1070
    73
1070
     1
1070
    44
1040
1.32052821128451
1070
    74
1070
     0
1000
MTEXTEND
  0
MTEXT
  5
18D
330
35
100
AcDbEntity
  8
1
 62
     3
100
AcDbMText
 10
4944.75585128855
 20
-1647.246542584139
 30
0.0
 40
6.0
 41
0.0
 71
     4
 72
     1
  1
組 立 図
  7
CONVERTER_11
 73
     1
 44
1.32052821128451
1001
ACAD
1000
MTEXTBEGIN
1070
    73
1070
     1
1070
    44
1040
1.32052821128451
1070
    74
1070
     0
1000
MTEXTEND
  0
MTEXT
  5
18E
330
35
100
AcDbEntity
  8
1
 62
     3
100
AcDbMText
 10
4944.75585128855
 20
-1632.246542584139
 30
0.0
 40
6.0
 41
0.0
 71
     4
 72
     1
  1
SD-3000
  7
CONVERTER_12
 73
     1
 44
1.32052821128451
1001
ACAD
1000
MTEXTBEGIN
1070
    73
1070
     1
1070
    44
1040
1.32052821128451
1070
    74
1070
     0
1000
MTEXTEND
  0
MTEXT
  5
190
330
35
100
AcDbEntity
  8
1
 62
     4
100
AcDbMText
 10
4935.695851288549
 20
-1632.246542584139
 30
0.0
 40
4.0
 41
0.0
 71
     4
 72
     1
  1
品\P名
  7
CONVERTER_13
 73
     1
 44
1.200480192076829
1001
ACAD
1000
MTEXTBEGIN
1070
    73
1070
     1
1070
    44
1040
1.200480192076829
1070
    74
1070
     0
1000
MTEXTEND
  0
MTEXT
  5
191
330
35
100
AcDbEntity
  8
1
 62
     4
100
AcDbMText
 10
4935.695851288549
 20
-1647.246542584139
 30
0.0
 40
4.0
 41
0.0
 71
     4
 72
     1
  1
図\P名
  7
CONVERTER_13
 73
     1
 44
1.200480192076829
1001
ACAD
1000
MTEXTBEGIN
1070
    73
1070
     1
1070
    44
1040
1.200480192076829
1070
    74
1070
     0
1000
MTEXTEND
  0
MTEXT
  5
192
330
35
100
AcDbEntity
  8
1
 62
     4
100
AcDbMText
 10
4935.695851288549
 20
-1662.246542584139
 30
0.0
 40
4.0
 41
0.0
 71
     4
 72
     1
  1
図\P番
  7
CONVERTER_13
 73
     1
 44
1.200480192076829
1001
ACAD
1000
MTEXTBEGIN
1070
    73
1070
     1
1070
    44
1040
1.200480192076829
1070
    74
1070
     0
1000
MTEXTEND
  0
MTEXT
  5
193
330
35
100
AcDbEntity
  8
1
 62
     4
100
AcDbMText
 10
4850.25585128855
 20
-1621.246542584139
 30
0.0
 40
4.0
 41
0.0
 71
     5
 72
     1
  1
品 番
  7
CONVERTER_13
 73
     1
 44
1.200480192076829
1001
ACAD
1000
MTEXTBEGIN
1070
    73
1070
     1
1070
    44
1040
1.200480192076829
1070
    74
1070
     0
1000
MTEXTEND
  0
MTEXT
  5
194
330
35
100
AcDbEntity
  8
1
 62
     4
100
AcDbMText
 10
4882.75585128855
 20
-1621.246542584139
 30
0.0
 40
4.0
 41
0.0
 71
     5
 72
     1
  1
品        名
  7
CONVERTER_13
 73
     1
 44
1.200480192076829
1001
ACAD
1000
MTEXTBEGIN
1070
    73
1070
     1
1070
    44
1040
1.200480192076829
1070
    74
1070
     0
1000
MTEXTEND
  0
MTEXT
  5
195
330
35
100
AcDbEntity
  8
1
 62
     4
100
AcDbMText
 10
4922.75585128855
 20
-1621.246542584139
 30
0.0
 40
4.0
 41
0.0
 71
     5
 72
     1
  1
材   質
  7
CONVERTER_13
 73
     1
 44
1.200480192076829
1001
ACAD
1000
MTEXTBEGIN
1070
    73
1070
     1
1070
    44
1040
1.200480192076829
1070
    74
1070
     0
1000
MTEXTEND
  0
MTEXT
  5
196
330
35
100
AcDbEntity
  8
1
 62
     4
100
AcDbMText
 10
4945.25585128855
 20
-1621.246542584139
 30
0.0
 40
4.0
 41
0.0
 71
     5
 72
     1
  1
数 量
  7
CONVERTER_13
 73
     1
 44
1.200480192076829
1001
ACAD
1000
MTEXTBEGIN
1070
    73
1070
     1
1070
    44
1040
1.200480192076829
1070
    74
1070
     0
1000
MTEXTEND
  0
MTEXT
  5
197
330
35
100
AcDbEntity
  8
1
 62
     4
100
AcDbMText
 10
4972.75585128855
 20
-1621.246542584139
 30
0.0
 40
4.0
 41
0.0
 71
     5
 72
     1
  1
仕   上   げ
  7
CONVERTER_13
 73
     1
 44
1.200480192076829
1001
ACAD
1000
MTEXTBEGIN
1070
    73
1070
     1
1070
    44
1040
1.200480192076829
1070
    74
1070
     0
1000
MTEXTEND
  0
MTEXT
  5
198
330
35
100
AcDbEntity
  8
1
 62
     4
100
AcDbMText
 10
5007.75585128855
 20
-1621.246542584139
 30
0.0
 40
4.0
 41
0.0
 71
     5
 72
     1
  1
記   事
  7
CONVERTER_13
 73
     1
 44
1.200480192076829
1001
ACAD
1000
MTEXTBEGIN
1070
    73
1070
     1
1070
    44
1040
1.200480192076829
1070
    74
1070
     0
1000
MTEXTEND
  0
MTEXT
  5
199
330
35
100
AcDbEntity
  8
1
 62
     4
100
AcDbMText
 10
4885.75585128855
 20
-1628.246542584139
 30
0.0
 40
4.0
 41
0.0
 71
     5
 72
     1
  1
承  認
  7
CONVERTER_13
 73
     1
 44
1.200480192076829
1001
ACAD
1000
MTEXTBEGIN
1070
    73
1070
     1
1070
    44
1040
1.200480192076829
1070
    74
1070
     0
1000
MTEXTEND
  0
MTEXT
  5
19A
330
35
100
AcDbEntity
  8
1
 62
     4
100
AcDbMText
 10
4905.755851288549
 20
-1628.246542584139
 30
0.0
 40
4.0
 41
0.0
 71
     5
 72
     1
  1
検  図
  7
CONVERTER_13
 73
     1
 44
1.200480192076829
1001
ACAD
1000
MTEXTBEGIN
1070
    73
1070
     1
1070
    44
1040
1.200480192076829
1070
    74
1070
     0
1000
MTEXTEND
  0
MTEXT
  5
19B
330
35
100
AcDbEntity
  8
1
 62
     4
100
AcDbMText
 10
4925.75585128855
 20
-1628.246542584139
 30
0.0
 40
4.0
 41
0.0
 71
     5
 72
     1
  1
担  当
  7
CONVERTER_13
 73
     1
 44
1.200480192076829
1001
ACAD
1000
MTEXTBEGIN
1070
    73
1070
     1
1070
    44
1040
1.200480192076829
1070
    74
1070
     0
1000
MTEXTEND
  0
MTEXT
  5
19C
330
35
100
AcDbEntity
  8
1
 62
     4
100
AcDbMText
 10
4846.942922787082
 20
-1627.253398607646
 30
0.0
 40
4.0
 41
0.0
 71
     5
 72
     1
  1
尺度
  7
CONVERTER_13
 73
     1
 44
1.200480192076829
1001
ACAD
1000
MTEXTBEGIN
1070
    73
1070
     1
1070
    44
1040
1.200480192076829
1070
    74
1070
     0
1000
MTEXTEND
  0
MTEXT
  5
19D
330
35
100
AcDbEntity
  8
1
 62
     4
100
AcDbMText
 10
4859.68076611814
 20
-1665.340172294606
 30
0.0
 40
4.0
 41
0.0
 71
     5
 72
     1
  1
高橋金物株式会社
  7
CONVERTER_13
 73
     1
 44
1.200480192076829
1001
ACAD
1000
MTEXTBEGIN
1070
    73
1070
     1
1070
    44
1040
1.200480192076829
1070
    74
1070
     0
1000
MTEXTEND
  0
MTEXT
  5
19E
330
35
100
AcDbEntity
  8
1
 62
     4
100
AcDbMText
 10
4887.245563416144
 20
-1655.069746966929
 30
0.0
 40
3.0
 41
0.0
 71
     5
 72
     1
  1
本社
  7
CONVERTER_13
 73
     1
 44
1.200480192076829
1001
ACAD
1000
MTEXTBEGIN
1070
    73
1070
     1
1070
    44
1040
1.200480192076829
1070
    74
1070
     0
1000
MTEXTEND
  0
MTEXT
  5
19F
330
35
100
AcDbEntity
  8
1
 62
     4
100
AcDbMText
 10
4907.391707898181
 20
-1659.798653447008
 30
0.0
 40
2.5
 41
0.0
 71
     5
 72
     1
  1
東京都台東区入谷
  7
CONVERTER_13
 73
     1
 44
1.200480192076829
1001
ACAD
1000
MTEXTBEGIN
1070
    73
1070
     1
1070
    44
1040
1.200480192076829
1070
    74
1070
     0
1000
MTEXTEND
  0
MTEXT
  5
1A1
330
35
100
AcDbEntity
  8
1
 62
     4
100
AcDbMText
 10
4923.667754216389
 20
-1659.780235736573
 30
0.0
 40
2.0
 41
0.0
 71
     5
 72
     1
  1
1-27-4
  7
CONVERTER_14
 73
     1
 44
1.200480192076829
1001
ACAD
1000
MTEXTBEGIN
1070
    73
1070
     1
1070
    44
1040
1.200480192076829
1070
    74
1070
     0
1000
MTEXTEND
  0
MTEXT
  5
1A2
330
35
100
AcDbEntity
  8
1
 62
     4
100
AcDbMText
 10
4904.542055975434
 20
-1664.957480853068
 30
0.0
 40
2.0
 41
0.0
 71
     5
 72
     1
  1
03 (3876) 0600
  7
CONVERTER_14
 73
     1
 44
1.200480192076829
1001
ACAD
1000
MTEXTBEGIN
1070
    73
1070
     1
1070
    44
1040
1.200480192076829
1070
    74
1070
     0
1000
MTEXTEND
  0
MTEXT
  5
1A3
330
35
100
AcDbEntity
  8
1
 62
     4
100
AcDbMText
 10
4885.905640101539
 20
-1659.895807146834
 30
0.0
 40
2.5
 41
0.0
 71
     5
 72
     1
  1
〒
  7
CONVERTER_13
 73
     1
 44
1.200480192076829
1001
ACAD
1000
MTEXTBEGIN
1070
    73
1070
     1
1070
    44
1040
1.200480192076829
1070
    74
1070
     0
1000
MTEXTEND
  0
MTEXT
  5
1A5
330
35
100
AcDbEntity
  8
1
 62
     4
100
AcDbMText
 10
4888.876662922013
 20
-1664.937542842188
 30
0.0
 40
2.0
 41
0.0
 71
     5
 72
     1
  1
TEL
  7
CONVERTER_15
 73
     1
 44
1.200480192076829
1001
ACAD
1000
MTEXTBEGIN
1070
    73
1070
     1
1070
    44
1040
1.200480192076829
1070
    74
1070
     0
1000
MTEXTEND
  0
MTEXT
  5
1A6
330
35
100
AcDbEntity
  8
1
 62
     4
100
AcDbMText
 10
4890.054561085904
 20
-1659.833350061377
 30
0.0
 40
2.0
 41
0.0
 71
     5
 72
     1
  1
110
  7
CONVERTER_14
 73
     1
 44
1.200480192076829
1001
ACAD
1000
MTEXTBEGIN
1070
    73
1070
     1
1070
    44
1040
1.200480192076829
1070
    74
1070
     0
1000
MTEXTEND
  0
ENDBLK
  5
37
330
35
100
AcDbEntity
  8
0
100
AcDbBlockEnd
  0
BLOCK
  5
3A
330
38
100
AcDbEntity
  8
0
100
AcDbBlockBegin
  2
format_A3
 70
     0
 10
4673.755851288549
 20
-1875.74654258414
 30
0.0
  3
format_A3
  1

  0
INSERT
  5
39
330
38
100
AcDbEntity
  8
0
100
AcDbBlockReference
  2
______
 10
5070.175814997611
 20
-1897.618087150616
 30
0.0
  0
LINE
  5
1A7
330
38
100
AcDbEntity
  8
1
  6
Continuous
 62
     7
100
AcDbLine
 10
4647.755851288549
 20
-1399.746542584139
 30
0.0
 11
4647.755851288549
 21
-1669.746542584139
 31
0.0
  0
LINE
  5
1A8
330
38
100
AcDbEntity
  8
1
  6
Continuous
 62
     7
100
AcDbLine
 10
5022.75585128855
 20
-1399.74654258414
 30
0.0
 11
4647.755851288549
 21
-1399.746542584139
 31
0.0
  0
LINE
  5
1A9
330
38
100
AcDbEntity
  8
1
  6
Continuous
 62
     7
100
AcDbLine
 10
5022.75585128855
 20
-1617.746542584139
 30
0.0
 11
5022.75585128855
 21
-1399.74654258414
 31
0.0
  0
LINE
  5
1AA
330
38
100
AcDbEntity
  8
1
  6
Continuous
 62
     7
100
AcDbLine
 10
4842.75585128855
 20
-1669.746542584139
 30
0.0
 11
4647.755851288549
 21
-1669.746542584139
 31
0.0
  0
ENDBLK
  5
3B
330
38
100
AcDbEntity
  8
0
100
AcDbBlockEnd
  0
BLOCK
  5
1C3
330
1B9
100
AcDbEntity
  8
0
100
AcDbBlockBegin
  2
*D4
 70
     1
 10
0.0
 20
0.0
 30
0.0
  3
*D4
  1

  0
LINE
  5
1BA
330
1B9
100
AcDbEntity
  8
1
  6
Continuous
 62
     2
100
AcDbLine
 10
4786.2
 20
-1545.0
 30
0.0
 11
4815.8
 21
-1545.0
 31
0.0
  0
LINE
  5
1BB
330
1B9
100
AcDbEntity
  8
1
  6
Continuous
 62
     2
100
AcDbLine
 10
4815.8
 20
-1528.4
 30
0.0
 11
4815.8
 21
-1546.0
 31
0.0
  0
LINE
  5
1BC
330
1B9
100
AcDbEntity
  8
1
  6
Continuous
 62
     2
100
AcDbLine
 10
4786.2
 20
-1528.4
 30
0.0
 11
4786.2
 21
-1546.0
 31
0.0
  0
LINE
  5
1BD
330
1B9
100
AcDbEntity
  8
1
 62
     2
100
AcDbLine
 10
4815.8
 20
-1545.0
 30
0.0
 11
4813.35
 21
-1545.656475521456
 31
0.0
  0
LINE
  5
1BE
330
1B9
100
AcDbEntity
  8
1
 62
     2
100
AcDbLine
 10
4815.8
 20
-1545.0
 30
0.0
 11
4813.35
 21
-1544.343524478544
 31
0.0
  0
LINE
  5
1BF
330
1B9
100
AcDbEntity
  8
1
 62
     2
100
AcDbLine
 10
4786.2
 20
-1545.0
 30
0.0
 11
4788.649999999999
 21
-1544.343524478544
 31
0.0
  0
LINE
  5
1C0
330
1B9
100
AcDbEntity
  8
1
 62
     2
100
AcDbLine
 10
4786.2
 20
-1545.0
 30
0.0
 11
4788.649999999999
 21
-1545.656475521456
 31
0.0
  0
MTEXT
  5
1C2
330
1B9
100
AcDbEntity
  8
1
 62
     3
100
AcDbMText
 10
4797.631250000001
 20
-1544.0
 30
0.0
 40
3.5
 41
0.0
 71
     7
 72
     1
  1
29.6
  7
CONVERTER_16
 11
0.9999999999970619
 21
0.0000024240684055
 31
0.0
 73
     1
 44
0.6002400960384201
1001
ACAD
1000
MTEXTBEGIN
1070
    73
1070
     1
1070
    44
1040
0.6002400960384201
1070
    74
1070
     0
1000
MTEXTEND
  0
ENDBLK
  5
1C4
330
1B9
100
AcDbEntity
  8
0
100
AcDbBlockEnd
  0
BLOCK
  5
1C6
330
1C5
100
AcDbEntity
  8
0
100
AcDbBlockBegin
  2
_Open30
 70
     0
 10
0.0
 20
0.0
 30
0.0
  3
_Open30
  1

  0
LINE
  5
1C8
330
1C5
100
AcDbEntity
  8
0
  6
ByBlock
 62
     0
370
    -2
100
AcDbLine
 10
-1.0
 20
0.267949
 30
0.0
 11
0.0
 21
0.0
 31
0.0
  0
LINE
  5
1C9
330
1C5
100
AcDbEntity
  8
0
  6
ByBlock
 62
     0
370
    -2
100
AcDbLine
 10
0.0
 20
0.0
 30
0.0
 11
-1.0
 21
-0.267949
 31
0.0
  0
LINE
  5
1CA
330
1C5
100
AcDbEntity
  8
0
  6
ByBlock
 62
     0
370
    -2
100
AcDbLine
 10
0.0
 20
0.0
 30
0.0
 11
-1.0
 21
0.0
 31
0.0
  0
ENDBLK
  5
1C7
330
1C5
100
AcDbEntity
  8
0
100
AcDbBlockEnd
  0
BLOCK
  5
1D6
330
1CD
100
AcDbEntity
  8
0
100
AcDbBlockBegin
  2
*D6
 70
     1
 10
0.0
 20
0.0
 30
0.0
  3
*D6
  1

  0
LINE
  5
1CE
330
1CD
100
AcDbEntity
  8
1
  6
Continuous
 62
     2
100
AcDbLine
 10
4865.6
 20
-1531.0
 30
0.0
 11
4865.6
 21
-1505.0
 31
0.0
  0
LINE
  5
1CF
330
1CD
100
AcDbEntity
  8
1
  6
Continuous
 62
     2
100
AcDbLine
 10
4873.0
 20
-1505.0
 30
0.0
 11
4864.600000000001
 21
-1505.0
 31
0.0
  0
LINE
  5
1D0
330
1CD
100
AcDbEntity
  8
1
  6
Continuous
 62
     2
100
AcDbLine
 10
4873.0
 20
-1531.0
 30
0.0
 11
4864.600000000001
 21
-1531.0
 31
0.0
  0
LINE
  5
1D1
330
1CD
100
AcDbEntity
  8
1
 62
     2
100
AcDbLine
 10
4865.6
 20
-1531.0
 30
0.0
 11
4864.943524478546
 21
-1528.55
 31
0.0
  0
LINE
  5
1D2
330
1CD
100
AcDbEntity
  8
1
 62
     2
100
AcDbLine
 10
4865.6
 20
-1531.0
 30
0.0
 11
4866.256475521456
 21
-1528.55
 31
0.0
  0
LINE
  5
1D3
330
1CD
100
AcDbEntity
  8
1
 62
     2
100
AcDbLine
 10
4865.6
 20
-1505.0
 30
0.0
 11
4866.256475521456
 21
-1507.45
 31
0.0
  0
LINE
  5
1D4
330
1CD
100
AcDbEntity
  8
1
 62
     2
100
AcDbLine
 10
4865.6
 20
-1505.0
 30
0.0
 11
4864.943524478546
 21
-1507.45
 31
0.0
  0
MTEXT
  5
1D5
330
1CD
100
AcDbEntity
  8
1
 62
     3
100
AcDbMText
 10
4864.600000000001
 20
-1519.8375
 30
0.0
 40
3.5
 41
0.0
 71
     7
 72
     1
  1
26
  7
CONVERTER_16
 11
0.0
 21
1.0
 31
0.0
 73
     1
 44
0.6002400960384201
1001
ACAD
1000
MTEXTBEGIN
1070
    73
1070
     1
1070
    44
1040
0.6002400960384201
1070
    74
1070
     0
1000
MTEXTEND
  0
ENDBLK
  5
1D7
330
1CD
100
AcDbEntity
  8
0
100
AcDbBlockEnd
  0
BLOCK
  5
1E3
330
1DA
100
AcDbEntity
  8
0
100
AcDbBlockBegin
  2
*D7
 70
     1
 10
0.0
 20
0.0
 30
0.0
  3
*D7
  1

  0
LINE
  5
1DB
330
1DA
100
AcDbEntity
  8
1
  6
Continuous
 62
     2
100
AcDbLine
 10
4873.0
 20
-1496.0
 30
0.0
 11
4883.0
 21
-1496.0
 31
0.0
  0
LINE
  5
1DC
330
1DA
100
AcDbEntity
  8
1
  6
Continuous
 62
     2
100
AcDbLine
 10
4883.0
 20
-1501.0
 30
0.0
 11
4883.0
 21
-1495.0
 31
0.0
  0
LINE
  5
1DD
330
1DA
100
AcDbEntity
  8
1
  6
Continuous
 62
     2
100
AcDbLine
 10
4873.0
 20
-1505.0
 30
0.0
 11
4873.0
 21
-1495.0
 31
0.0
  0
LINE
  5
1DE
330
1DA
100
AcDbEntity
  8
1
 62
     2
100
AcDbLine
 10
4883.0
 20
-1496.0
 30
0.0
 11
4880.55
 21
-1496.656475521456
 31
0.0
  0
LINE
  5
1DF
330
1DA
100
AcDbEntity
  8
1
 62
     2
100
AcDbLine
 10
4883.0
 20
-1496.0
 30
0.0
 11
4880.55
 21
-1495.343524478544
 31
0.0
  0
LINE
  5
1E0
330
1DA
100
AcDbEntity
  8
1
 62
     2
100
AcDbLine
 10
4873.0
 20
-1496.0
 30
0.0
 11
4875.45
 21
-1495.343524478544
 31
0.0
  0
LINE
  5
1E1
330
1DA
100
AcDbEntity
  8
1
 62
     2
100
AcDbLine
 10
4873.0
 20
-1496.0
 30
0.0
 11
4875.45
 21
-1496.656475521456
 31
0.0
  0
MTEXT
  5
1E2
330
1DA
100
AcDbEntity
  8
1
 62
     3
100
AcDbMText
 10
4876.529999999999
 20
-1495.0
 30
0.0
 40
3.5
 41
0.0
 71
     7
 72
     1
  1
10
  7
CONVERTER_16
 11
0.9999999999970619
 21
0.0000024240684055
 31
0.0
 73
     1
 44
0.6002400960384201
1001
ACAD
1000
MTEXTBEGIN
1070
    73
1070
     1
1070
    44
1040
0.6002400960384201
1070
    74
1070
     0
1000
MTEXTEND
  0
ENDBLK
  5
1E4
330
1DA
100
AcDbEntity
  8
0
100
AcDbBlockEnd
  0
BLOCK
  5
1F0
330
1E7
100
AcDbEntity
  8
0
100
AcDbBlockBegin
  2
*D8
 70
     1
 10
0.0
 20
0.0
 30
0.0
  3
*D8
  1

  0
LINE
  5
1E8
330
1E7
100
AcDbEntity
  8
1
  6
Continuous
 62
     2
100
AcDbLine
 10
4873.0
 20
-1545.0
 30
0.0
 11
4890.0
 21
-1545.0
 31
0.0
  0
LINE
  5
1E9
330
1E7
100
AcDbEntity
  8
1
  6
Continuous
 62
     2
100
AcDbLine
 10
4890.0
 20
-1531.0
 30
0.0
 11
4890.0
 21
-1546.0
 31
0.0
  0
LINE
  5
1EA
330
1E7
100
AcDbEntity
  8
1
  6
Continuous
 62
     2
100
AcDbLine
 10
4873.0
 20
-1531.0
 30
0.0
 11
4873.0
 21
-1546.0
 31
0.0
  0
LINE
  5
1EB
330
1E7
100
AcDbEntity
  8
1
 62
     2
100
AcDbLine
 10
4873.0
 20
-1545.0
 30
0.0
 11
4875.45
 21
-1544.343524478544
 31
0.0
  0
LINE
  5
1EC
330
1E7
100
AcDbEntity
  8
1
 62
     2
100
AcDbLine
 10
4873.0
 20
-1545.0
 30
0.0
 11
4875.45
 21
-1545.656475521456
 31
0.0
  0
LINE
  5
1ED
330
1E7
100
AcDbEntity
  8
1
 62
     2
100
AcDbLine
 10
4890.0
 20
-1545.0
 30
0.0
 11
4887.55
 21
-1545.656475521456
 31
0.0
  0
LINE
  5
1EE
330
1E7
100
AcDbEntity
  8
1
 62
     2
100
AcDbLine
 10
4890.0
 20
-1545.0
 30
0.0
 11
4887.55
 21
-1544.343524478544
 31
0.0
  0
MTEXT
  5
1EF
330
1E7
100
AcDbEntity
  8
1
 62
     3
100
AcDbMText
 10
4880.03
 20
-1544.0
 30
0.0
 40
3.5
 41
0.0
 71
     7
 72
     1
  1
17
  7
CONVERTER_16
 11
0.9999999999970619
 21
0.0000024240684055
 31
0.0
 73
     1
 44
0.6002400960384201
1001
ACAD
1000
MTEXTBEGIN
1070
    73
1070
     1
1070
    44
1040
0.6002400960384201
1070
    74
1070
     0
1000
MTEXTEND
  0
ENDBLK
  5
1F1
330
1E7
100
AcDbEntity
  8
0
100
AcDbBlockEnd
  0
BLOCK
  5
1FD
330
1F4
100
AcDbEntity
  8
0
100
AcDbBlockBegin
  2
*D9
 70
     1
 10
0.0
 20
0.0
 30
0.0
  3
*D9
  1

  0
LINE
  5
1F5
330
1F4
100
AcDbEntity
  8
1
  6
Continuous
 62
     2
100
AcDbLine
 10
4873.0
 20
-1489.0
 30
0.0
 11
4899.6
 21
-1489.0
 31
0.0
  0
LINE
  5
1F6
330
1F4
100
AcDbEntity
  8
1
  6
Continuous
 62
     2
100
AcDbLine
 10
4899.6
 20
-1509.0
 30
0.0
 11
4899.6
 21
-1488.0
 31
0.0
  0
LINE
  5
1F7
330
1F4
100
AcDbEntity
  8
1
  6
Continuous
 62
     2
100
AcDbLine
 10
4873.0
 20
-1505.0
 30
0.0
 11
4873.0
 21
-1488.0
 31
0.0
  0
LINE
  5
1F8
330
1F4
100
AcDbEntity
  8
1
 62
     2
100
AcDbLine
 10
4873.0
 20
-1489.0
 30
0.0
 11
4875.45
 21
-1488.343524478544
 31
0.0
  0
LINE
  5
1F9
330
1F4
100
AcDbEntity
  8
1
 62
     2
100
AcDbLine
 10
4873.0
 20
-1489.0
 30
0.0
 11
4875.45
 21
-1489.656475521456
 31
0.0
  0
LINE
  5
1FA
330
1F4
100
AcDbEntity
  8
1
 62
     2
100
AcDbLine
 10
4899.6
 20
-1489.0
 30
0.0
 11
4897.15
 21
-1489.656475521456
 31
0.0
  0
LINE
  5
1FB
330
1F4
100
AcDbEntity
  8
1
 62
     2
100
AcDbLine
 10
4899.6
 20
-1489.0
 30
0.0
 11
4897.15
 21
-1488.343524478544
 31
0.0
  0
MTEXT
  5
1FC
330
1F4
100
AcDbEntity
  8
1
 62
     3
100
AcDbMText
 10
4882.931250000001
 20
-1488.0
 30
0.0
 40
3.5
 41
0.0
 71
     7
 72
     1
  1
26.6
  7
CONVERTER_16
 11
0.9999999999970619
 21
0.0000024240684055
 31
0.0
 73
     1
 44
0.6002400960384201
1001
ACAD
1000
MTEXTBEGIN
1070
    73
1070
     1
1070
    44
1040
0.6002400960384201
1070
    74
1070
     0
1000
MTEXTEND
  0
ENDBLK
  5
1FE
330
1F4
100
AcDbEntity
  8
0
100
AcDbBlockEnd
  0
BLOCK
  5
20C
330
201
100
AcDbEntity
  8
0
100
AcDbBlockBegin
  2
*D10
 70
     1
 10
0.0
 20
0.0
 30
0.0
  3
*D10
  1

  0
LINE
  5
202
330
201
100
AcDbEntity
  8
1
  6
Continuous
 62
     2
100
AcDbLine
 10
4911.0
 20
-1509.0
 30
0.0
 11
4911.0
 21
-1505.0
 31
0.0
  0
LINE
  5
203
330
201
100
AcDbEntity
  8
1
  6
Continuous
 62
     2
100
AcDbLine
 10
4911.0
 20
-1509.0
 30
0.0
 11
4911.0
 21
-1513.9
 31
0.0
  0
LINE
  5
204
330
201
100
AcDbEntity
  8
1
  6
Continuous
 62
     2
100
AcDbLine
 10
4911.0
 20
-1505.0
 30
0.0
 11
4911.0
 21
-1500.1
 31
0.0
  0
LINE
  5
205
330
201
100
AcDbEntity
  8
1
  6
Continuous
 62
     2
100
AcDbLine
 10
4899.6
 20
-1509.0
 30
0.0
 11
4912.0
 21
-1509.0
 31
0.0
  0
LINE
  5
206
330
201
100
AcDbEntity
  8
1
  6
Continuous
 62
     2
100
AcDbLine
 10
4890.0
 20
-1505.0
 30
0.0
 11
4912.0
 21
-1505.0
 31
0.0
  0
LINE
  5
207
330
201
100
AcDbEntity
  8
1
 62
     2
100
AcDbLine
 10
4911.0
 20
-1505.0
 30
0.0
 11
4910.343524478545
 21
-1502.55
 31
0.0
  0
LINE
  5
208
330
201
100
AcDbEntity
  8
1
 62
     2
100
AcDbLine
 10
4911.0
 20
-1505.0
 30
0.0
 11
4911.656475521456
 21
-1502.55
 31
0.0
  0
LINE
  5
209
330
201
100
AcDbEntity
  8
1
 62
     2
100
AcDbLine
 10
4911.0
 20
-1509.0
 30
0.0
 11
4911.656475521456
 21
-1511.45
 31
0.0
  0
LINE
  5
20A
330
201
100
AcDbEntity
  8
1
 62
     2
100
AcDbLine
 10
4911.0
 20
-1509.0
 30
0.0
 11
4910.343524478545
 21
-1511.45
 31
0.0
  0
MTEXT
  5
20B
330
201
100
AcDbEntity
  8
1
 62
     3
100
AcDbMText
 10
4910.0
 20
-1507.735
 30
0.0
 40
3.5
 41
0.0
 71
     7
 72
     1
  1
4
  7
CONVERTER_16
 11
0.0
 21
1.0
 31
0.0
 73
     1
 44
0.6002400960384201
1001
ACAD
1000
MTEXTBEGIN
1070
    73
1070
     1
1070
    44
1040
0.6002400960384201
1070
    74
1070
     0
1000
MTEXTEND
  0
ENDBLK
  5
20D
330
201
100
AcDbEntity
  8
0
100
AcDbBlockEnd
  0
BLOCK
  5
21B
330
210
100
AcDbEntity
  8
0
100
AcDbBlockBegin
  2
*D11
 70
     1
 10
0.0
 20
0.0
 30
0.0
  3
*D11
  1

  0
LINE
  5
211
330
210
100
AcDbEntity
  8
1
  6
Continuous
 62
     2
100
AcDbLine
 10
4911.0
 20
-1504.1
 30
0.0
 11
4911.0
 21
-1509.0
 31
0.0
  0
LINE
  5
212
330
210
100
AcDbEntity
  8
1
  6
Continuous
 62
     2
100
AcDbLine
 10
4911.0
 20
-1513.7
 30
0.0
 11
4911.0
 21
-1509.0
 31
0.0
  0
LINE
  5
213
330
210
100
AcDbEntity
  8
1
  6
Continuous
 62
     2
100
AcDbLine
 10
4911.0
 20
-1513.7
 30
0.0
 11
4911.0
 21
-1521.8998120083
 31
0.0
  0
LINE
  5
214
330
210
100
AcDbEntity
  8
1
  6
Continuous
 62
     2
100
AcDbLine
 10
4896.899999999999
 20
-1513.7
 30
0.0
 11
4912.0
 21
-1513.7
 31
0.0
  0
LINE
  5
215
330
210
100
AcDbEntity
  8
1
  6
Continuous
 62
     2
100
AcDbLine
 10
4899.6
 20
-1509.0
 30
0.0
 11
4912.0
 21
-1509.0
 31
0.0
  0
LINE
  5
216
330
210
100
AcDbEntity
  8
1
 62
     2
100
AcDbLine
 10
4911.0
 20
-1509.0
 30
0.0
 11
4910.343524478545
 21
-1506.55
 31
0.0
  0
LINE
  5
217
330
210
100
AcDbEntity
  8
1
 62
     2
100
AcDbLine
 10
4911.0
 20
-1509.0
 30
0.0
 11
4911.656475521456
 21
-1506.55
 31
0.0
  0
LINE
  5
218
330
210
100
AcDbEntity
  8
1
 62
     2
100
AcDbLine
 10
4911.0
 20
-1513.7
 30
0.0
 11
4911.656475521456
 21
-1516.15
 31
0.0
  0
LINE
  5
219
330
210
100
AcDbEntity
  8
1
 62
     2
100
AcDbLine
 10
4911.0
 20
-1513.7
 30
0.0
 11
4910.343524478545
 21
-1516.15
 31
0.0
  0
MTEXT
  5
21A
330
210
100
AcDbEntity
  8
1
 62
     3
100
AcDbMText
 10
4910.0
 20
-1521.8998120083
 30
0.0
 40
3.5
 41
0.0
 71
     7
 72
     1
  1
4.7
  7
CONVERTER_16
 11
0.0
 21
1.0
 31
0.0
 73
     1
 44
0.6002400960384201
1001
ACAD
1000
MTEXTBEGIN
1070
    73
1070
     1
1070
    44
1040
0.6002400960384201
1070
    74
1070
     0
1000
MTEXTEND
  0
ENDBLK
  5
21C
330
210
100
AcDbEntity
  8
0
100
AcDbBlockEnd
  0
ENDSEC
  0
SECTION
  2
ENTITIES
  0
LINE
  5
270
330
1F
100
AcDbEntity
  8
1
  6
Continuous
 62
     7
100
AcDbLine
 10
4883.5
 20
-1503.0
 30
0.0
 11
4882.5
 21
-1503.0
 31
0.0
  0
LINE
  5
271
330
1F
100
AcDbEntity
  8
1
  6
Continuous
 62
     7
100
AcDbLine
 10
4885.5
 20
-1505.0
 30
0.0
 11
4883.5
 21
-1503.0
 31
0.0
  0
LINE
  5
272
330
1F
100
AcDbEntity
  8
1
  6
Continuous
 62
     7
100
AcDbLine
 10
4882.5
 20
-1503.0
 30
0.0
 11
4880.5
 21
-1505.0
 31
0.0
  0
LINE
  5
273
330
1F
100
AcDbEntity
  8
1
  6
Continuous
 62
     7
100
AcDbLine
 10
4889.0
 20
-1505.0
 30
0.0
 11
4874.0
 21
-1505.0
 31
0.0
  0
LINE
  5
276
330
1F
100
AcDbEntity
  8
1
  6
Continuous
 62
     7
100
AcDbLine
 10
4895.033974596215
 20
-1513.2
 30
0.0
 11
4894.052479138593
 21
-1511.5
 31
0.0
  0
LINE
  5
277
330
1F
100
AcDbEntity
  8
1
  6
Continuous
 62
     7
100
AcDbLine
 10
4899.307106781186
 20
-1510.707106781186
 30
0.0
 11
4896.607106781186
 21
-1513.407106781187
 31
0.0
  0
LINE
  5
278
330
1F
100
AcDbEntity
  8
1
  6
Continuous
 62
     7
100
AcDbLine
 10
4890.0
 20
-1509.0
 30
0.0
 11
4898.6
 21
-1509.0
 31
0.0
  0
LINE
  5
27A
330
1F
100
AcDbEntity
  8
1
  6
Continuous
 62
     7
100
AcDbLine
 10
4890.0
 20
-1511.5
 30
0.0
 11
4890.0
 21
-1506.0
 31
0.0
  0
LINE
  5
27B
330
1F
100
AcDbEntity
  8
1
  6
Continuous
 62
     7
100
AcDbLine
 10
4894.052479138593
 20
-1511.5
 30
0.0
 11
4890.0
 21
-1511.5
 31
0.0
  0
LINE
  5
27C
330
1F
100
AcDbEntity
  8
1
  6
Continuous
 62
     7
100
AcDbLine
 10
4886.0
 20
-1511.5
 30
0.0
 11
4890.0
 21
-1511.5
 31
0.0
  0
LINE
  5
27F
330
1F
100
AcDbEntity
  8
1
  6
Continuous
 62
     7
100
AcDbLine
 10
4886.0
 20
-1511.5
 30
0.0
 11
4886.0
 21
-1514.5
 31
0.0
  0
LINE
  5
280
330
1F
100
AcDbEntity
  8
1
  6
Continuous
 62
     7
100
AcDbLine
 10
4880.0
 20
-1511.5
 30
0.0
 11
4886.0
 21
-1511.5
 31
0.0
  0
LINE
  5
281
330
1F
100
AcDbEntity
  8
1
  6
Continuous
 62
     7
100
AcDbLine
 10
4880.0
 20
-1514.5
 30
0.0
 11
4880.0
 21
-1511.5
 31
0.0
  0
LINE
  5
284
330
1F
100
AcDbEntity
  8
1
  6
Continuous
 62
     7
100
AcDbLine
 10
4877.5
 20
-1511.5
 30
0.0
 11
4880.0
 21
-1511.5
 31
0.0
  0
LINE
  5
285
330
1F
100
AcDbEntity
  8
1
  6
Continuous
 62
     7
100
AcDbLine
 10
4876.0
 20
-1513.0
 30
0.0
 11
4876.0
 21
-1514.5
 31
0.0
  0
LINE
  5
286
330
1F
100
AcDbEntity
  8
1
  6
Continuous
 62
     7
100
AcDbLine
 10
4890.0
 20
-1514.5
 30
0.0
 11
4886.0
 21
-1514.5
 31
0.0
  0
LINE
  5
287
330
1F
100
AcDbEntity
  8
1
  6
Continuous
 62
     7
100
AcDbLine
 10
4880.0
 20
-1514.5
 30
0.0
 11
4876.0
 21
-1514.5
 31
0.0
  0
LINE
  5
288
330
1F
100
AcDbEntity
  8
1
  6
Continuous
 62
     7
100
AcDbLine
 10
4886.0
 20
-1514.5
 30
0.0
 11
4880.0
 21
-1514.5
 31
0.0
  0
LINE
  5
296
330
1F
100
AcDbEntity
  8
1
  6
Continuous
 62
     7
100
AcDbLine
 10
4890.0
 20
-1530.0
 30
0.0
 11
4890.0
 21
-1514.5
 31
0.0
  0
LINE
  5
297
330
1F
100
AcDbEntity
  8
1
  6
Continuous
 62
     7
100
AcDbLine
 10
4888.0
 20
-1531.0
 30
0.0
 11
4889.0
 21
-1531.0
 31
0.0
  0
LINE
  5
298
330
1F
100
AcDbEntity
  8
1
  6
Continuous
 62
     7
100
AcDbLine
 10
4888.0
 20
-1531.0
 30
0.0
 11
4888.0
 21
-1530.142463035442
 31
0.0
  0
LINE
  5
299
330
1F
100
AcDbEntity
  8
1
  6
CENTER_NEW
 62
     2
100
AcDbLine
 10
4883.0
 20
-1502.0
 30
0.0
 11
4883.0
 21
-1532.5
 31
0.0
  0
LINE
  5
29A
330
1F
100
AcDbEntity
  8
1
  6
Continuous
 62
     7
100
AcDbLine
 10
4888.0
 20
-1530.142463035442
 30
0.0
 11
4875.0
 21
-1530.142463035442
 31
0.0
  0
LINE
  5
29B
330
1F
100
AcDbEntity
  8
1
  6
Continuous
 62
     7
100
AcDbLine
 10
4875.0
 20
-1530.142463035442
 30
0.0
 11
4875.0
 21
-1531.0
 31
0.0
  0
LINE
  5
29C
330
1F
100
AcDbEntity
  8
1
  6
Continuous
 62
     7
100
AcDbLine
 10
4874.0
 20
-1531.0
 30
0.0
 11
4875.0
 21
-1531.0
 31
0.0
  0
LINE
  5
29F
330
1F
100
AcDbEntity
  8
1
  6
Continuous
 62
     7
100
AcDbLine
 10
4873.0
 20
-1506.0
 30
0.0
 11
4873.0
 21
-1530.0
 31
0.0
  0
LINE
  5
2A6
330
1F
100
AcDbEntity
  8
1
  6
Continuous
 62
     7
100
AcDbLine
 10
4834.775083228558
 20
-1505.5
 30
0.0
 11
4834.775083228558
 21
-1509.0
 31
0.0
  0
LINE
  5
2A7
330
1F
100
AcDbEntity
  8
1
  6
Continuous
 62
     7
100
AcDbLine
 10
4837.275083228558
 20
-1503.0
 30
0.0
 11
4834.775083228558
 21
-1505.5
 31
0.0
  0
LINE
  5
2A8
330
1F
100
AcDbEntity
  8
1
  6
Continuous
 62
     7
100
AcDbLine
 10
4838.275083228558
 20
-1503.0
 30
0.0
 11
4837.275083228558
 21
-1503.0
 31
0.0
  0
LINE
  5
2A9
330
1F
100
AcDbEntity
  8
1
  6
Continuous
 62
     7
100
AcDbLine
 10
4840.775083228558
 20
-1505.5
 30
0.0
 11
4838.275083228558
 21
-1503.0
 31
0.0
  0
LINE
  5
2AA
330
1F
100
AcDbEntity
  8
1
  6
Continuous
 62
     7
100
AcDbLine
 10
4840.775083228558
 20
-1509.0
 30
0.0
 11
4840.775083228558
 21
-1505.5
 31
0.0
  0
LINE
  5
2AB
330
1F
100
AcDbEntity
  8
1
  6
Continuous
 62
     7
100
AcDbLine
 10
4842.525083228558
 20
-1509.0
 30
0.0
 11
4842.525083228558
 21
-1514.5
 31
0.0
  0
LINE
  5
2AC
330
1F
100
AcDbEntity
  8
1
  6
Continuous
 62
     7
100
AcDbLine
 10
4842.525083228558
 20
-1514.5
 30
0.0
 11
4844.775083228558
 21
-1514.5
 31
0.0
  0
LINE
  5
2AD
330
1F
100
AcDbEntity
  8
1
  6
Continuous
 62
     7
100
AcDbLine
 10
4842.525083228558
 20
-1511.5
 30
0.0
 11
4844.775083228558
 21
-1511.5
 31
0.0
  0
LINE
  5
2AE
330
1F
100
AcDbEntity
  8
1
  6
Continuous
 62
     7
100
AcDbLine
 10
4844.775083228558
 20
-1514.5
 30
0.0
 11
4844.775083228558
 21
-1506.0
 31
0.0
  0
LINE
  5
2B1
330
1F
100
AcDbEntity
  8
1
  6
Continuous
 62
     7
100
AcDbLine
 10
4845.775083228558
 20
-1505.0
 30
0.0
 11
4848.575083228559
 21
-1505.0
 31
0.0
  0
LINE
  5
2B2
330
1F
100
AcDbEntity
  8
1
  6
Continuous
 62
     7
100
AcDbLine
 10
4852.575083228559
 20
-1509.0
 30
0.0
 11
4852.575083228559
 21
-1527.4
 31
0.0
  0
LINE
  5
2C5
330
1F
100
AcDbEntity
  8
1
  6
Continuous
 62
     7
100
AcDbLine
 10
4830.775083228559
 20
-1509.0
 30
0.0
 11
4844.775083228558
 21
-1509.0
 31
0.0
  0
LINE
  5
2C6
330
1F
100
AcDbEntity
  8
1
  6
Continuous
 62
     7
100
AcDbLine
 10
4833.025083228559
 20
-1514.5
 30
0.0
 11
4833.025083228559
 21
-1509.0
 31
0.0
  0
LINE
  5
2C7
330
1F
100
AcDbEntity
  8
1
  6
Continuous
 62
     7
100
AcDbLine
 10
4830.775083228559
 20
-1514.5
 30
0.0
 11
4833.025083228559
 21
-1514.5
 31
0.0
  0
LINE
  5
2C8
330
1F
100
AcDbEntity
  8
1
  6
Continuous
 62
     7
100
AcDbLine
 10
4830.775083228559
 20
-1511.5
 30
0.0
 11
4833.025083228559
 21
-1511.5
 31
0.0
  0
LINE
  5
2C9
330
1F
100
AcDbEntity
  8
1
  6
Continuous
 62
     7
100
AcDbLine
 10
4830.775083228559
 20
-1506.0
 30
0.0
 11
4830.775083228559
 21
-1514.5
 31
0.0
  0
LINE
  5
2CA
330
1F
100
AcDbEntity
  8
1
  6
Continuous
 62
     7
100
AcDbLine
 10
4826.975083228558
 20
-1505.0
 30
0.0
 11
4829.775083228558
 21
-1505.0
 31
0.0
  0
LINE
  5
2CB
330
1F
100
AcDbEntity
  8
1
  6
Continuous
 62
     7
100
AcDbLine
 10
4822.975083228558
 20
-1527.4
 30
0.0
 11
4822.975083228558
 21
-1509.0
 31
0.0
  0
LINE
  5
2CC
330
1F
100
AcDbEntity
  8
1
  6
Continuous
 62
     7
100
AcDbLine
 10
4843.444956209636
 20
-1528.5
 30
0.0
 11
4832.105210247481
 21
-1528.5
 31
0.0
  0
LINE
  5
2CD
330
1F
100
AcDbEntity
  8
1
  6
CENTER_NEW
 62
     2
100
AcDbLine
 10
4837.775083228558
 20
-1502.0
 30
0.0
 11
4837.775083228558
 21
-1532.5
 31
0.0
  0
ARC
  5
2CE
330
1F
100
AcDbEntity
  8
1
  6
Continuous
 62
     7
100
AcDbCircle
 10
4895.9
 20
-1512.7
 30
0.0
 40
1.0
100
AcDbArc
 50
270.0
 51
314.9999999999908
  0
ARC
  5
2CF
330
1F
100
AcDbEntity
  8
1
  6
Continuous
 62
     7
100
AcDbCircle
 10
4898.6
 20
-1510.0
 30
0.0
 40
0.9999999999996864
100
AcDbArc
 50
315.0000000000276
 51
0.0
  0
ARC
  5
2D0
330
1F
100
AcDbEntity
  8
1
  6
Continuous
 62
     7
100
AcDbCircle
 10
4898.6
 20
-1510.0
 30
0.0
 40
1.0
100
AcDbArc
 50
0.0
 51
90.0
  0
ARC
  5
2D1
330
1F
100
AcDbEntity
  8
1
  6
Continuous
 62
     7
100
AcDbCircle
 10
4877.5
 20
-1513.0
 30
0.0
 40
1.5
100
AcDbArc
 50
90.0
 51
180.0
  0
ARC
  5
2D4
330
1F
100
AcDbEntity
  8
1
  6
Continuous
 62
     7
100
AcDbCircle
 10
4847.775083228558
 20
-1526.0
 30
0.0
 40
5.000000000000015
100
AcDbArc
 50
209.9999999999998
 51
343.7397952916877
  0
ARC
  5
2D5
330
1F
100
AcDbEntity
  8
1
  6
Continuous
 62
     7
100
AcDbCircle
 10
4827.775083228559
 20
-1526.0
 30
0.0
 40
5.000000000000199
100
AcDbArc
 50
196.2602047083123
 51
330.0000000000001
  0
ARC
  5
2D6
330
1F
100
AcDbEntity
  8
1
  6
Continuous
 62
     7
100
AcDbCircle
 10
4895.9
 20
-1512.7
 30
0.0
 40
0.9999999999996882
100
AcDbArc
 50
210.0000000000103
 51
270.0
  0
ARC
  5
2D7
330
1F
100
AcDbEntity
  8
1
  6
Continuous
 62
     7
100
AcDbCircle
 10
4874.0
 20
-1506.0
 30
0.0
 40
1.0
100
AcDbArc
 50
90.0
 51
180.0
  0
ARC
  5
2D8
330
1F
100
AcDbEntity
  8
1
  6
Continuous
 62
     7
100
AcDbCircle
 10
4889.0
 20
-1506.0
 30
0.0
 40
1.0
100
AcDbArc
 50
0.0
 51
90.0
  0
ARC
  5
2DD
330
1F
100
AcDbEntity
  8
1
  6
Continuous
 62
     7
100
AcDbCircle
 10
4889.0
 20
-1530.0
 30
0.0
 40
1.0
100
AcDbArc
 50
270.0
 51
0.0
  0
ARC
  5
2DE
330
1F
100
AcDbEntity
  8
1
  6
Continuous
 62
     7
100
AcDbCircle
 10
4874.0
 20
-1530.0
 30
0.0
 40
1.0
100
AcDbArc
 50
180.0
 51
270.0
  0
ARC
  5
2DF
330
1F
100
AcDbEntity
  8
1
  6
Continuous
 62
     7
100
AcDbCircle
 10
4845.775083228558
 20
-1506.0
 30
0.0
 40
1.0
100
AcDbArc
 50
90.0
 51
180.0
  0
ARC
  5
2E0
330
1F
100
AcDbEntity
  8
1
  6
Continuous
 62
     7
100
AcDbCircle
 10
4848.575083228559
 20
-1509.0
 30
0.0
 40
4.0
100
AcDbArc
 50
0.0
 51
90.0
  0
ARC
  5
2E1
330
1F
100
AcDbEntity
  8
1
  6
Continuous
 62
     7
100
AcDbCircle
 10
4829.775083228558
 20
-1506.0
 30
0.0
 40
1.0
100
AcDbArc
 50
0.0
 51
90.0
  0
ARC
  5
2E2
330
1F
100
AcDbEntity
  8
1
  6
Continuous
 62
     7
100
AcDbCircle
 10
4826.975083228558
 20
-1509.0
 30
0.0
 40
4.0
100
AcDbArc
 50
90.0
 51
180.0
  0
ENDSEC
  0
SECTION
  2
OBJECTS
  0
DICTIONARY
  5
C
330
0
100
AcDbDictionary
281
     1
  3
ACAD_CIP_PREVIOUS_PRODUCT_INFO
350
26D
  3
ACAD_COLOR
350
252
  3
ACAD_GROUP
350
D
  3
ACAD_LAYOUT
350
1A
  3
ACAD_MATERIAL
350
220
  3
ACAD_MLEADERSTYLE
350
267
  3
ACAD_MLINESTYLE
350
17
  3
ACAD_PLOTSETTINGS
350
19
  3
ACAD_PLOTSTYLENAME
350
E
  3
ACAD_SCALELIST
350
255
  3
ACAD_TABLESTYLE
350
253
  3
ACAD_VISUALSTYLE
350
239
  3
ACDB_RECOMPOSE_DATA
350
2FB
  3
AcDbVariableDictionary
350
2ED
  3
ASE_INDEX_DICTIONARY
350
2EA
  3
DWGPROPS
350
2FC
  0
DICTIONARY
  5
2E5
330
10
100
AcDbDictionary
280
     1
281
     1
  3
ADSK_XREC_LAYER_RECONCILED
360
2E6
  0
DICTIONARY
  5
2E7
330
31
100
AcDbDictionary
280
     1
281
     1
  3
ADSK_XREC_LAYER_RECONCILED
360
2E8
  0
DICTIONARY
  5
2E3
330
1F
100
AcDbDictionary
280
     1
281
     1
  3
ACAD_SORTENTS
360
2E4
  0
XRECORD
  5
26D
102
{ACAD_REACTORS
330
C
102
}
330
C
100
AcDbXrecord
280
     1
300
ACD
300
2012
300
ACD_F_S
  0
DICTIONARY
  5
252
102
{ACAD_REACTORS
330
C
102
}
330
C
100
AcDbDictionary
281
     1
  0
DICTIONARY
  5
D
102
{ACAD_REACTORS
330
C
102
}
330
C
100
AcDbDictionary
281
     1
  0
DICTIONARY
  5
1A
102
{ACAD_REACTORS
330
C
102
}
330
C
100
AcDbDictionary
281
     1
  3
Layout1
350
1E
  3
Layout2
350
26
  3
Model
350
22
  0
DICTIONARY
  5
220
102
{ACAD_REACTORS
330
C
102
}
330
C
100
AcDbDictionary
281
     1
  3
ByBlock
350
229
  3
ByLayer
350
221
  3
Global
350
231
  0
DICTIONARY
  5
267
102
{ACAD_REACTORS
330
C
102
}
330
C
100
AcDbDictionary
281
     1
  3
Standard
350
268
  0
DICTIONARY
  5
17
102
{ACAD_REACTORS
330
C
102
}
330
C
100
AcDbDictionary
281
     1
  3
Standard
350
18
  0
DICTIONARY
  5
19
102
{ACAD_REACTORS
330
C
102
}
330
C
100
AcDbDictionary
281
     1
  0
ACDBDICTIONARYWDFLT
  5
E
102
{ACAD_REACTORS
330
C
102
}
330
C
100
AcDbDictionary
281
     1
  3
Normal
350
F
100
AcDbDictionaryWithDefault
340
F
  0
DICTIONARY
  5
255
102
{ACAD_REACTORS
330
C
102
}
330
C
100
AcDbDictionary
281
     1
  3
A0
350
256
  3
A1
350
257
  3
A2
350
258
  3
A3
350
259
  3
A4
350
25A
  3
A5
350
25B
  3
A6
350
25C
  3
A7
350
25D
  3
A8
350
25E
  3
A9
350
25F
  3
B0
350
260
  3
B1
350
261
  3
B2
350
262
  3
B3
350
263
  3
B4
350
264
  3
B5
350
265
  3
B6
350
266
  0
DICTIONARY
  5
253
102
{ACAD_REACTORS
330
C
102
}
330
C
100
AcDbDictionary
281
     1
  3
Standard
350
254
  0
DICTIONARY
  5
239
102
{ACAD_REACTORS
330
C
102
}
330
C
100
AcDbDictionary
281
     1
  3
2dWireframe
350
23F
  3
Basic
350
23E
  3
Brighten
350
245
  3
ColorChange
350
249
  3
Conceptual
350
242
  3
Dim
350
244
  3
EdgeColorOff
350
251
  3
Facepattern
350
248
  3
Flat
350
23A
  3
FlatWithEdges
350
23B
  3
Gouraud
350
23C
  3
GouraudWithEdges
350
23D
  3
Hidden
350
241
  3
JitterOff
350
24F
  3
Linepattern
350
247
  3
OverhangOff
350
250
  3
Realistic
350
243
  3
Shaded
350
24E
  3
Shaded with edges
350
24D
  3
Shades of Gray
350
24A
  3
Sketchy
350
24B
  3
Thicken
350
246
  3
Wireframe
350
240
  3
X-Ray
350
24C
  0
XRECORD
  5
2FB
102
{ACAD_REACTORS
330
C
102
}
330
C
100
AcDbXrecord
280
     1
 90
        1
330
254
  0
DICTIONARY
  5
2ED
102
{ACAD_REACTORS
330
C
102
}
330
C
100
AcDbDictionary
281
     1
  3
CANNOSCALE
350
2F0
  3
CMLEADERSTYLE
350
2EF
  3
CTABLESTYLE
350
2EE
  3
DIMASSOC
350
2F5
  3
HIDETEXT
350
2F3
  3
INDEXCTL
350
2F2
  3
SORTENTS
350
2F1
  3
XCLIPFRAME
350
2F4
  0
DICTIONARY
  5
2EA
102
{ACAD_REACTORS
330
C
102
}
330
C
100
AcDbDictionary
281
     1
  3
ASEBlockHierarchyIndexRecord
350
2EC
1001
DCO15
1040
1881295637.553
  0
XRECORD
  5
2FC
102
{ACAD_REACTORS
330
C
102
}
330
C
100
AcDbXrecord
280
     1
  1
DWGPROPS COOKIE
  2

  3

  4

  6

  7

  8
0035sekine
  9

300
=
301
=
302
=
303
=
304
=
305
=
306
=
307
=
308
=
309
=
 40
0.0014220486111111
 41
2454445.907482454
 42
2457577.466916123
  1

 90
        0
  0
XRECORD
  5
2E6
102
{ACAD_REACTORS
330
2E5
102
}
330
2E5
100
AcDbXrecord
280
     1
290
     1
  0
XRECORD
  5
2E8
102
{ACAD_REACTORS
330
2E7
102
}
330
2E7
100
AcDbXrecord
280
     1
290
     1
  0
SORTENTSTABLE
  5
2E4
102
{ACAD_REACTORS
330
2E3
102
}
330
2E3
100
AcDbSortentsTable
330
1F
331
2C9
  5
2BD
331
2A7
  5
29B
331
296
  5
28A
331
285
  5
279
331
2D0
  5
2C4
331
2E1
  5
2D5
331
2C7
  5
2BB
331
272
  5
1B2
331
2DF
  5
2D3
331
2C5
  5
2B9
331
281
  5
275
331
270
  5
1AF
331
2DD
  5
2D1
331
27F
  5
273
331
2B2
  5
2A6
331
29F
  5
293
331
27B
  5
26F
331
2AE
  5
2A2
331
2D7
  5
2CB
331
29B
  5
28F
331
2CE
  5
2C2
331
2AC
  5
2A0
331
2D5
  5
2C9
331
299
  5
28D
331
2CC
  5
2C0
331
2AA
  5
29E
331
277
  5
200
331
288
  5
27C
331
2CA
  5
2BE
331
2A8
  5
29C
331
297
  5
28B
331
286
  5
27A
331
2D1
  5
2C5
331
2E2
  5
2D6
331
2C8
  5
2BC
331
2A6
  5
29A
331
284
  5
278
331
273
  5
1B4
331
2E0
  5
2D4
331
2C6
  5
2BA
331
271
  5
1B1
331
2DE
  5
2D2
331
280
  5
274
331
2B1
  5
2A5
331
27C
  5
270
331
2D8
  5
2CC
331
29C
  5
290
331
27A
  5
26E
331
2CF
  5
2C3
331
2AD
  5
2A1
331
2D6
  5
2CA
331
29A
  5
28E
331
278
  5
20F
331
2CD
  5
2C1
331
2AB
  5
29F
331
2D4
  5
2C8
331
298
  5
28C
331
2CB
  5
2BF
331
2A9
  5
29D
331
287
  5
27B
331
276
  5
1F3
  0
LAYOUT
  5
1E
102
{ACAD_XDICTIONARY
360
2FD
102
}
102
{ACAD_REACTORS
330
1A
102
}
330
1A
100
AcDbPlotSettings
  1

  2

  4

  6

 40
0.0
 41
0.0
 42
0.0
 43
0.0
 44
0.0
 45
0.0
 46
0.0
 47
0.0
 48
0.0
 49
0.0
140
0.0
141
0.0
142
1.0
143
1.0
 70
   688
 72
     0
 73
     0
 74
     5
  7

 75
    16
147
1.0
148
0.0
149
0.0
100
AcDbLayout
  1
Layout1
 70
     1
 71
     1
 10
0.0
 20
0.0
 11
12.0
 21
9.0
 12
0.0
 22
0.0
 32
0.0
 14
1.000000000000000E+20
 24
1.000000000000000E+20
 34
1.000000000000000E+20
 15
-1.000000000000000E+20
 25
-1.000000000000000E+20
 35
-1.000000000000000E+20
146
0.0
 13
0.0
 23
0.0
 33
0.0
 16
1.0
 26
0.0
 36
0.0
 17
0.0
 27
1.0
 37
0.0
 76
     0
330
1B
  0
LAYOUT
  5
26
102
{ACAD_XDICTIONARY
360
301
102
}
102
{ACAD_REACTORS
330
1A
102
}
330
1A
100
AcDbPlotSettings
  1

  2

  4

  6

 40
0.0
 41
0.0
 42
0.0
 43
0.0
 44
0.0
 45
0.0
 46
0.0
 47
0.0
 48
0.0
 49
0.0
140
0.0
141
0.0
142
1.0
143
1.0
 70
   688
 72
     0
 73
     0
 74
     5
  7

 75
    16
147
1.0
148
0.0
149
0.0
100
AcDbLayout
  1
Layout2
 70
     1
 71
     2
 10
0.0
 20
0.0
 11
0.0
 21
0.0
 12
0.0
 22
0.0
 32
0.0
 14
0.0
 24
0.0
 34
0.0
 15
0.0
 25
0.0
 35
0.0
146
0.0
 13
0.0
 23
0.0
 33
0.0
 16
1.0
 26
0.0
 36
0.0
 17
0.0
 27
1.0
 37
0.0
 76
     0
330
23
  0
LAYOUT
  5
22
102
{ACAD_XDICTIONARY
360
2FF
102
}
102
{ACAD_REACTORS
330
1A
102
}
330
1A
100
AcDbPlotSettings
  1

  2

  4

  6

 40
0.0
 41
0.0
 42
0.0
 43
0.0
 44
0.0
 45
0.0
 46
0.0
 47
0.0
 48
0.0
 49
0.0
140
0.0
141
0.0
142
1.0
143
1.0
 70
  1712
 72
     0
 73
     0
 74
     0
  7

 75
     0
147
1.0
148
0.0
149
0.0
100
AcDbLayout
  1
Model
 70
     1
 71
     0
 10
0.0
 20
0.0
 11
0.0
 21
0.0
 12
0.0
 22
0.0
 32
0.0
 14
4647.755851288549
 24
-1669.746542584139
 34
0.0
 15
5022.75585128855
 25
-1399.746542584139
 35
0.0
146
0.0
 13
0.0
 23
0.0
 33
0.0
 16
1.0
 26
0.0
 36
0.0
 17
0.0
 27
1.0
 37
0.0
 76
     0
330
1F
331
29
  0
MATERIAL
  5
229
102
{ACAD_XDICTIONARY
360
22A
102
}
102
{ACAD_REACTORS
330
220
102
}
330
220
100
AcDbMaterial
  1
ByBlock
 72
     0
 43
0.0208333333333333
 43
0.0
 43
0.0
 43
0.0
 43
0.0
 43
0.0208333333333333
 43
0.0
 43
0.0
 43
0.0
 43
0.0
 43
1.0
 43
0.0
 43
0.0
 43
0.0
 43
0.0
 43
1.0
 77
     0
 47
0.0208333333333333
 47
0.0
 47
0.0
 47
0.0
 47
0.0
 47
0.0208333333333333
 47
0.0
 47
0.0
 47
0.0
 47
0.0
 47
1.0
 47
0.0
 47
0.0
 47
0.0
 47
0.0
 47
1.0
171
     0
 49
0.0208333333333333
 49
0.0
 49
0.0
 49
0.0
 49
0.0
 49
0.0208333333333333
 49
0.0
 49
0.0
 49
0.0
 49
0.0
 49
1.0
 49
0.0
 49
0.0
 49
0.0
 49
0.0
 49
1.0
175
     0
142
0.0208333333333333
142
0.0
142
0.0
142
0.0
142
0.0
142
0.0208333333333333
142
0.0
142
0.0
142
0.0
142
0.0
142
1.0
142
0.0
142
0.0
142
0.0
142
0.0
142
1.0
179
     0
144
0.0208333333333333
144
0.0
144
0.0
144
0.0
144
0.0
144
0.0208333333333333
144
0.0
144
0.0
144
0.0
144
0.0
144
1.0
144
0.0
144
0.0
144
0.0
144
0.0
144
1.0
147
0.0208333333333333
147
0.0
147
0.0
147
0.0
147
0.0
147
0.0208333333333333
147
0.0
147
0.0
147
0.0
147
0.0
147
1.0
147
0.0
147
0.0
147
0.0
147
0.0
147
1.0
  0
MATERIAL
  5
221
102
{ACAD_XDICTIONARY
360
222
102
}
102
{ACAD_REACTORS
330
220
102
}
330
220
100
AcDbMaterial
  1
ByLayer
 72
     0
 43
0.0208333333333333
 43
0.0
 43
0.0
 43
0.0
 43
0.0
 43
0.0208333333333333
 43
0.0
 43
0.0
 43
0.0
 43
0.0
 43
1.0
 43
0.0
 43
0.0
 43
0.0
 43
0.0
 43
1.0
 77
     0
 47
0.0208333333333333
 47
0.0
 47
0.0
 47
0.0
 47
0.0
 47
0.0208333333333333
 47
0.0
 47
0.0
 47
0.0
 47
0.0
 47
1.0
 47
0.0
 47
0.0
 47
0.0
 47
0.0
 47
1.0
171
     0
 49
0.0208333333333333
 49
0.0
 49
0.0
 49
0.0
 49
0.0
 49
0.0208333333333333
 49
0.0
 49
0.0
 49
0.0
 49
0.0
 49
1.0
 49
0.0
 49
0.0
 49
0.0
 49
0.0
 49
1.0
175
     0
142
0.0208333333333333
142
0.0
142
0.0
142
0.0
142
0.0
142
0.0208333333333333
142
0.0
142
0.0
142
0.0
142
0.0
142
1.0
142
0.0
142
0.0
142
0.0
142
0.0
142
1.0
179
     0
144
0.0208333333333333
144
0.0
144
0.0
144
0.0
144
0.0
144
0.0208333333333333
144
0.0
144
0.0
144
0.0
144
0.0
144
1.0
144
0.0
144
0.0
144
0.0
144
0.0
144
1.0
147
0.0208333333333333
147
0.0
147
0.0
147
0.0
147
0.0
147
0.0208333333333333
147
0.0
147
0.0
147
0.0
147
0.0
147
1.0
147
0.0
147
0.0
147
0.0
147
0.0
147
1.0
  0
MATERIAL
  5
231
102
{ACAD_XDICTIONARY
360
232
102
}
102
{ACAD_REACTORS
330
220
102
}
330
220
100
AcDbMaterial
  1
Global
 72
     0
 43
0.0208333333333333
 43
0.0
 43
0.0
 43
0.0
 43
0.0
 43
0.0208333333333333
 43
0.0
 43
0.0
 43
0.0
 43
0.0
 43
1.0
 43
0.0
 43
0.0
 43
0.0
 43
0.0
 43
1.0
 77
     0
 47
0.0208333333333333
 47
0.0
 47
0.0
 47
0.0
 47
0.0
 47
0.0208333333333333
 47
0.0
 47
0.0
 47
0.0
 47
0.0
 47
1.0
 47
0.0
 47
0.0
 47
0.0
 47
0.0
 47
1.0
171
     0
 49
0.0208333333333333
 49
0.0
 49
0.0
 49
0.0
 49
0.0
 49
0.0208333333333333
 49
0.0
 49
0.0
 49
0.0
 49
0.0
 49
1.0
 49
0.0
 49
0.0
 49
0.0
 49
0.0
 49
1.0
175
     0
142
0.0208333333333333
142
0.0
142
0.0
142
0.0
142
0.0
142
0.0208333333333333
142
0.0
142
0.0
142
0.0
142
0.0
142
1.0
142
0.0
142
0.0
142
0.0
142
0.0
142
1.0
179
     0
144
0.0208333333333333
144
0.0
144
0.0
144
0.0
144
0.0
144
0.0208333333333333
144
0.0
144
0.0
144
0.0
144
0.0
144
1.0
144
0.0
144
0.0
144
0.0
144
0.0
144
1.0
147
0.0208333333333333
147
0.0
147
0.0
147
0.0
147
0.0
147
0.0208333333333333
147
0.0
147
0.0
147
0.0
147
0.0
147
1.0
147
0.0
147
0.0
147
0.0
147
0.0
147
1.0
  0
MLEADERSTYLE
  5
268
102
{ACAD_XDICTIONARY
360
2F9
102
}
102
{ACAD_REACTORS
330
267
102
}
330
267
100
AcDbMLeaderStyle
170
     2
171
     1
172
     0
 90
        2
 40
0.0
 41
0.0
173
     1
 91
-1056964608
340
14
 92
       -2
290
     1
 42
0.09
291
     1
 43
0.36
  3
Standard
 44
0.18
300

342
11
174
     1
178
     6
175
     1
176
     0
 93
-1056964608
 45
0.18
292
     0
297
     0
 46
0.18
 94
-1056964608
 47
1.0
 49
1.0
140
1.0
293
     1
141
0.0
294
     1
177
     0
142
1.0
295
     0
296
     0
143
0.125
1001
ACAD_MLEADERVER
1070
     2
  0
MLINESTYLE
  5
18
102
{ACAD_REACTORS
330
17
102
}
330
17
100
AcDbMlineStyle
  2
STANDARD
 70
     0
  3

 62
   256
 51
90.0
 52
90.0
 71
     2
 49
0.5
 62
   256
  6
BYLAYER
 49
-0.5
 62
   256
  6
BYLAYER
  0
ACDBPLACEHOLDER
  5
F
102
{ACAD_REACTORS
330
E
102
}
330
E
  0
SCALE
  5
256
102
{ACAD_REACTORS
330
255
102
}
330
255
100
AcDbScale
 70
     0
300
1:1
140
1.0
141
1.0
290
     1
  0
SCALE
  5
257
102
{ACAD_REACTORS
330
255
102
}
330
255
100
AcDbScale
 70
     0
300
1/128" = 1'-0"
140
0.0078125
141
12.0
290
     0
  0
SCALE
  5
258
102
{ACAD_REACTORS
330
255
102
}
330
255
100
AcDbScale
 70
     0
300
1/64" = 1'-0"
140
0.015625
141
12.0
290
     0
  0
SCALE
  5
259
102
{ACAD_REACTORS
330
255
102
}
330
255
100
AcDbScale
 70
     0
300
1/32" = 1'-0"
140
0.03125
141
12.0
290
     0
  0
SCALE
  5
25A
102
{ACAD_REACTORS
330
255
102
}
330
255
100
AcDbScale
 70
     0
300
1/16" = 1'-0"
140
0.0625
141
12.0
290
     0
  0
SCALE
  5
25B
102
{ACAD_REACTORS
330
255
102
}
330
255
100
AcDbScale
 70
     0
300
3/32" = 1'-0"
140
0.09375
141
12.0
290
     0
  0
SCALE
  5
25C
102
{ACAD_REACTORS
330
255
102
}
330
255
100
AcDbScale
 70
     0
300
1/8" = 1'-0"
140
0.125
141
12.0
290
     0
  0
SCALE
  5
25D
102
{ACAD_REACTORS
330
255
102
}
330
255
100
AcDbScale
 70
     0
300
3/16" = 1'-0"
140
0.1875
141
12.0
290
     0
  0
SCALE
  5
25E
102
{ACAD_REACTORS
330
255
102
}
330
255
100
AcDbScale
 70
     0
300
1/4" = 1'-0"
140
0.25
141
12.0
290
     0
  0
SCALE
  5
25F
102
{ACAD_REACTORS
330
255
102
}
330
255
100
AcDbScale
 70
     0
300
3/8" = 1'-0"
140
0.375
141
12.0
290
     0
  0
SCALE
  5
260
102
{ACAD_REACTORS
330
255
102
}
330
255
100
AcDbScale
 70
     0
300
1/2" = 1'-0"
140
0.5
141
12.0
290
     0
  0
SCALE
  5
261
102
{ACAD_REACTORS
330
255
102
}
330
255
100
AcDbScale
 70
     0
300
3/4" = 1'-0"
140
0.75
141
12.0
290
     0
  0
SCALE
  5
262
102
{ACAD_REACTORS
330
255
102
}
330
255
100
AcDbScale
 70
     0
300
1" = 1'-0"
140
1.0
141
12.0
290
     0
  0
SCALE
  5
263
102
{ACAD_REACTORS
330
255
102
}
330
255
100
AcDbScale
 70
     0
300
1-1/2" = 1'-0"
140
1.5
141
12.0
290
     0
  0
SCALE
  5
264
102
{ACAD_REACTORS
330
255
102
}
330
255
100
AcDbScale
 70
     0
300
3" = 1'-0"
140
3.0
141
12.0
290
     0
  0
SCALE
  5
265
102
{ACAD_REACTORS
330
255
102
}
330
255
100
AcDbScale
 70
     0
300
6" = 1'-0"
140
6.0
141
12.0
290
     0
  0
SCALE
  5
266
102
{ACAD_REACTORS
330
255
102
}
330
255
100
AcDbScale
 70
     0
300
1'-0" = 1'-0"
140
12.0
141
12.0
290
     0
  0
TABLESTYLE
  5
254
102
{ACAD_XDICTIONARY
360
2F7
102
}
102
{ACAD_REACTORS
330
253
102
}
330
253
100
AcDbTableStyle
  3
Standard
 70
     0
 71
     0
 40
0.06
 41
0.06
280
     0
281
     0
  7
Standard
140
0.18
170
     2
 62
     0
 63
     7
283
     0
274
    -2
284
     1
 64
     0
275
    -2
285
     1
 65
     0
276
    -2
286
     1
 66
     0
277
    -2
287
     1
 67
     0
278
    -2
288
     1
 68
     0
279
    -2
289
     1
 69
     0
  7
Standard
140
0.25
170
     5
 62
     0
 63
     7
283
     0
274
    -2
284
     1
 64
     0
275
    -2
285
     1
 65
     0
276
    -2
286
     1
 66
     0
277
    -2
287
     1
 67
     0
278
    -2
288
     1
 68
     0
279
    -2
289
     1
 69
     0
  7
Standard
140
0.18
170
     5
 62
     0
 63
     7
283
     0
274
    -2
284
     1
 64
     0
275
    -2
285
     1
 65
     0
276
    -2
286
     1
 66
     0
277
    -2
287
     1
 67
     0
278
    -2
288
     1
 68
     0
279
    -2
289
     1
 69
     0
  0
VISUALSTYLE
  5
23F
102
{ACAD_XDICTIONARY
360
310
102
}
102
{ACAD_REACTORS
330
239
102
}
330
239
100
AcDbVisualStyle
  2
2dWireframe
 70
     4
 71
     0
 72
     2
 73
     0
 90
        0
 40
-0.6
 41
-30.0
 62
     5
 63
     7
 74
     1
 91
        4
 64
     7
 65
   257
 75
     1
175
     1
 42
1.0
 92
        0
 66
   257
 43
1.0
 76
     1
 77
     6
 78
     2
 67
     7
 79
     5
170
     0
171
     0
290
     0
174
     0
 93
        1
 44
0.0
173
     0
291
     0
 45
0.0
1001
ACAD
1000
AcDbSavedByObjectVersion
1070
     0
  0
VISUALSTYLE
  5
23E
102
{ACAD_XDICTIONARY
360
30E
102
}
102
{ACAD_REACTORS
330
239
102
}
330
239
100
AcDbVisualStyle
  2
Basic
 70
     7
 71
     1
 72
     0
 73
     1
 90
        0
 40
-0.6
 41
-30.0
 62
     5
 63
     7
 74
     0
 91
        4
 64
     7
 65
   257
 75
     1
175
     1
 42
1.0
 92
        8
 66
     7
 43
1.0
 76
     1
 77
     6
 78
     2
 67
     7
 79
     5
170
     0
171
     0
290
     0
174
     0
 93
        1
 44
0.0
173
     0
291
     1
 45
0.0
1001
ACAD
1000
AcDbSavedByObjectVersion
1070
     0
  0
VISUALSTYLE
  5
245
102
{ACAD_XDICTIONARY
360
31C
102
}
102
{ACAD_REACTORS
330
239
102
}
330
239
100
AcDbVisualStyle
  2
Brighten
 70
    12
 71
     2
 72
     2
 73
     0
 90
        0
 40
-0.6
 41
-30.0
 62
     5
 63
     7
 74
     1
 91
        4
 64
     7
 65
   257
 75
     1
175
     1
 42
1.0
 92
        8
 66
     7
 43
1.0
 76
     1
 77
     6
 78
     2
 67
     7
 79
     5
170
     0
171
     0
290
     0
174
     0
 93
        1
 44
50.0
173
     0
291
     1
 45
0.0
1001
ACAD
1000
AcDbSavedByObjectVersion
1070
     0
  0
VISUALSTYLE
  5
249
102
{ACAD_XDICTIONARY
360
324
102
}
102
{ACAD_REACTORS
330
239
102
}
330
239
100
AcDbVisualStyle
  2
ColorChange
 70
    16
 71
     2
 72
     2
 73
     3
 90
        0
 40
-0.6
 41
-30.0
 62
     5
 63
     8
 74
     1
 91
        4
 64
     7
 65
   257
 75
     1
175
     1
 42
1.0
 92
        8
 66
     8
 43
1.0
 76
     1
 77
     6
 78
     2
 67
     7
 79
     5
170
     0
171
     0
290
     0
174
     0
 93
        1
 44
0.0
173
     0
291
     1
 45
0.0
1001
ACAD
1000
AcDbSavedByObjectVersion
1070
     0
  0
VISUALSTYLE
  5
242
102
{ACAD_XDICTIONARY
360
316
102
}
102
{ACAD_REACTORS
330
239
102
}
330
239
100
AcDbVisualStyle
  2
Conceptual
 70
     9
 71
     3
 72
     2
 73
     0
 90
        0
 40
-0.6
 41
-30.0
 62
     5
 63
     7
 74
     2
 91
        2
 64
     7
 65
   257
 75
     1
175
     1
 42
179.0
 92
        8
 66
     7
 43
1.0
 76
     1
 77
     6
 78
     2
 67
     7
 79
     3
170
     0
171
     0
290
     0
174
     0
 93
        1
 44
0.0
173
     0
291
     0
 45
0.0
1001
ACAD
1000
AcDbSavedByObjectVersion
1070
     0
  0
VISUALSTYLE
  5
244
102
{ACAD_XDICTIONARY
360
31A
102
}
102
{ACAD_REACTORS
330
239
102
}
330
239
100
AcDbVisualStyle
  2
Dim
 70
    11
 71
     2
 72
     2
 73
     0
 90
        0
 40
-0.6
 41
-30.0
 62
     5
 63
     7
 74
     1
 91
        4
 64
     7
 65
   257
 75
     1
175
     1
 42
1.0
 92
        8
 66
     7
 43
1.0
 76
     1
 77
     6
 78
     2
 67
     7
 79
     5
170
     0
171
     0
290
     0
174
     0
 93
        1
 44
-50.0
173
     0
291
     1
 45
0.0
1001
ACAD
1000
AcDbSavedByObjectVersion
1070
     0
  0
VISUALSTYLE
  5
251
102
{ACAD_XDICTIONARY
360
334
102
}
102
{ACAD_REACTORS
330
239
102
}
330
239
100
AcDbVisualStyle
  2
EdgeColorOff
 70
    22
 71
     2
 72
     2
 73
     0
 90
        0
 40
-0.6
 41
-30.0
 62
     5
 63
     7
 74
     1
 91
        4
 64
     7
 65
   257
 75
     1
175
     1
 42
1.0
 92
        8
 66
     7
 43
1.0
 76
     1
 77
     6
 78
     2
 67
     7
 79
     5
170
     0
171
     0
290
     0
174
     0
 93
        1
 44
0.0
173
     0
291
     1
 45
0.0
1001
ACAD
1000
AcDbSavedByObjectVersion
1070
     0
  0
VISUALSTYLE
  5
248
102
{ACAD_XDICTIONARY
360
322
102
}
102
{ACAD_REACTORS
330
239
102
}
330
239
100
AcDbVisualStyle
  2
Facepattern
 70
    15
 71
     2
 72
     2
 73
     0
 90
        0
 40
-0.6
 41
-30.0
 62
     5
 63
     7
 74
     1
 91
        4
 64
     7
 65
   257
 75
     1
175
     1
 42
1.0
 92
        8
 66
     7
 43
1.0
 76
     1
 77
     6
 78
     2
 67
     7
 79
     5
170
     0
171
     0
290
     0
174
     0
 93
        1
 44
0.0
173
     0
291
     1
 45
0.0
1001
ACAD
1000
AcDbSavedByObjectVersion
1070
     0
  0
VISUALSTYLE
  5
23A
102
{ACAD_XDICTIONARY
360
306
102
}
102
{ACAD_REACTORS
330
239
102
}
330
239
100
AcDbVisualStyle
  2
Flat
 70
     0
 71
     2
 72
     1
 73
     1
 90
        2
 40
-0.6
 41
30.0
 62
     5
 63
     7
 74
     0
 91
        0
 64
     7
 65
   257
 75
     1
175
     1
 42
1.0
 92
        8
 66
     7
 43
1.0
 76
     1
 77
     6
 78
     2
 67
     7
 79
     5
170
     0
171
     0
290
     0
174
     0
 93
       13
 44
0.0
173
     0
291
     1
 45
0.0
1001
ACAD
1000
AcDbSavedByObjectVersion
1070
     0
  0
VISUALSTYLE
  5
23B
102
{ACAD_XDICTIONARY
360
308
102
}
102
{ACAD_REACTORS
330
239
102
}
330
239
100
AcDbVisualStyle
  2
FlatWithEdges
 70
     1
 71
     2
 72
     1
 73
     1
 90
        2
 40
-0.6
 41
30.0
 62
     5
 63
     7
 74
     1
 91
        0
 64
     7
 65
   257
 75
     1
175
     1
 42
1.0
 92
        0
 66
   257
 43
1.0
 76
     1
 77
     6
 78
     2
 67
     7
 79
     5
170
     0
171
     0
290
     0
174
     0
 93
       13
 44
0.0
173
     0
291
     1
 45
0.0
1001
ACAD
1000
AcDbSavedByObjectVersion
1070
     0
  0
VISUALSTYLE
  5
23C
102
{ACAD_XDICTIONARY
360
30A
102
}
102
{ACAD_REACTORS
330
239
102
}
330
239
100
AcDbVisualStyle
  2
Gouraud
 70
     2
 71
     2
 72
     2
 73
     1
 90
        2
 40
-0.6
 41
30.0
 62
     5
 63
     7
 74
     0
 91
        0
 64
     7
 65
   257
 75
     1
175
     1
 42
1.0
 92
        0
 66
     7
 43
1.0
 76
     1
 77
     6
 78
     2
 67
     7
 79
     5
170
     0
171
     0
290
     0
174
     0
 93
       13
 44
0.0
173
     0
291
     1
 45
0.0
1001
ACAD
1000
AcDbSavedByObjectVersion
1070
     0
  0
VISUALSTYLE
  5
23D
102
{ACAD_XDICTIONARY
360
30C
102
}
102
{ACAD_REACTORS
330
239
102
}
330
239
100
AcDbVisualStyle
  2
GouraudWithEdges
 70
     3
 71
     2
 72
     2
 73
     1
 90
        2
 40
-0.6
 41
30.0
 62
     5
 63
     7
 74
     1
 91
        0
 64
     7
 65
   257
 75
     1
175
     1
 42
1.0
 92
        0
 66
   257
 43
1.0
 76
     1
 77
     6
 78
     2
 67
     7
 79
     5
170
     0
171
     0
290
     0
174
     0
 93
       13
 44
0.0
173
     0
291
     1
 45
0.0
1001
ACAD
1000
AcDbSavedByObjectVersion
1070
     0
  0
VISUALSTYLE
  5
241
102
{ACAD_XDICTIONARY
360
314
102
}
102
{ACAD_REACTORS
330
239
102
}
330
239
100
AcDbVisualStyle
  2
Hidden
 70
     6
 71
     1
 72
     2
 73
     2
 90
        0
 40
-0.6
 41
-30.0
 62
     5
 63
     7
 74
     2
 91
        2
 64
     7
 65
   257
 75
     2
175
     1
 42
40.0
 92
        0
 66
   257
 43
1.0
 76
     1
 77
     6
 78
     2
 67
     7
 79
     3
170
     0
171
     0
290
     0
174
     0
 93
        1
 44
0.0
173
     0
291
     0
 45
0.0
1001
ACAD
1000
AcDbSavedByObjectVersion
1070
     0
  0
VISUALSTYLE
  5
24F
102
{ACAD_XDICTIONARY
360
330
102
}
102
{ACAD_REACTORS
330
239
102
}
330
239
100
AcDbVisualStyle
  2
JitterOff
 70
    20
 71
     2
 72
     2
 73
     0
 90
        0
 40
-0.6
 41
-30.0
 62
     5
 63
     7
 74
     1
 91
        4
 64
     7
 65
   257
 75
     1
175
     1
 42
1.0
 92
       10
 66
     7
 43
1.0
 76
     1
 77
     6
 78
     2
 67
     7
 79
     5
170
     0
171
     0
290
     0
174
     0
 93
        1
 44
0.0
173
     0
291
     1
 45
0.0
1001
ACAD
1000
AcDbSavedByObjectVersion
1070
     0
  0
VISUALSTYLE
  5
247
102
{ACAD_XDICTIONARY
360
320
102
}
102
{ACAD_REACTORS
330
239
102
}
330
239
100
AcDbVisualStyle
  2
Linepattern
 70
    14
 71
     2
 72
     2
 73
     0
 90
        0
 40
-0.6
 41
-30.0
 62
     5
 63
     7
 74
     1
 91
        4
 64
     7
 65
   257
 75
     7
175
     7
 42
1.0
 92
        8
 66
     7
 43
1.0
 76
     1
 77
     6
 78
     2
 67
     7
 79
     5
170
     0
171
     0
290
     0
174
     0
 93
        1
 44
0.0
173
     0
291
     1
 45
0.0
1001
ACAD
1000
AcDbSavedByObjectVersion
1070
     0
  0
VISUALSTYLE
  5
250
102
{ACAD_XDICTIONARY
360
332
102
}
102
{ACAD_REACTORS
330
239
102
}
330
239
100
AcDbVisualStyle
  2
OverhangOff
 70
    21
 71
     2
 72
     2
 73
     0
 90
        0
 40
-0.6
 41
-30.0
 62
     5
 63
     7
 74
     1
 91
        4
 64
     7
 65
   257
 75
     1
175
     1
 42
1.0
 92
        9
 66
     7
 43
1.0
 76
     1
 77
     6
 78
     2
 67
     7
 79
     5
170
     0
171
     0
290
     0
174
     0
 93
        1
 44
0.0
173
     0
291
     1
 45
0.0
1001
ACAD
1000
AcDbSavedByObjectVersion
1070
     0
  0
VISUALSTYLE
  5
243
102
{ACAD_XDICTIONARY
360
318
102
}
102
{ACAD_REACTORS
330
239
102
}
330
239
100
AcDbVisualStyle
  2
Realistic
 70
     8
 71
     2
 72
     3
 73
     0
 90
        2
 40
-0.6
 41
30.0
 62
     5
 63
     7
 74
     0
 91
        0
 64
     7
 65
   257
 75
     1
175
     1
 42
1.0
 92
        8
 66
   257
 43
1.0
 76
     1
 77
     6
 78
     2
 67
     7
 79
     3
170
     0
171
     0
290
     0
174
     0
 93
       13
 44
0.0
173
     0
291
     0
 45
0.0
1001
ACAD
1000
AcDbSavedByObjectVersion
1070
     0
  0
VISUALSTYLE
  5
24E
102
{ACAD_XDICTIONARY
360
32E
102
}
102
{ACAD_REACTORS
330
239
102
}
330
239
100
AcDbVisualStyle
  2
Shaded
 70
    27
 71
     2
 72
     2
 73
     1
 90
        2
 40
-0.6
 41
30.0
 62
     5
 63
     7
 74
     0
 91
        4
 64
     7
 65
   257
 75
     1
175
     1
 42
1.0
 92
        8
 66
   257
 43
1.0
 76
     1
 77
     6
 78
     2
 67
     8
 79
     3
170
     0
171
     0
290
     0
174
     0
 93
        5
 44
0.0
173
     0
291
     0
 45
0.0
1001
ACAD
1000
AcDbSavedByObjectVersion
1070
     0
  0
VISUALSTYLE
  5
24D
102
{ACAD_XDICTIONARY
360
32C
102
}
102
{ACAD_REACTORS
330
239
102
}
330
239
100
AcDbVisualStyle
  2
Shaded with edges
 70
    26
 71
     2
 72
     2
 73
     1
 90
        2
 40
-0.6
 41
30.0
 62
     5
 63
     7
 74
     1
 91
       10
 64
     7
 65
   257
 75
     2
175
     1
 42
1.0
 92
        8
 66
   257
 43
1.0
 76
     1
 77
     6
 78
     2
 67
     7
 79
     3
170
     0
171
     0
290
     0
174
     0
 93
        5
 44
0.0
173
     0
291
     0
 45
0.0
1001
ACAD
1000
AcDbSavedByObjectVersion
1070
     0
  0
VISUALSTYLE
  5
24A
102
{ACAD_XDICTIONARY
360
326
102
}
102
{ACAD_REACTORS
330
239
102
}
330
239
100
AcDbVisualStyle
  2
Shades of Gray
 70
    23
 71
     2
 72
     2
 73
     3
 90
        0
 40
-0.6
 41
-30.0
 62
     5
 63
     7
 74
     2
 91
        2
 64
     7
 65
     7
 75
     1
175
     1
 42
40.0
 92
        8
 66
     7
 43
1.0
 76
     1
 77
     6
 78
     2
 67
     7
 79
     3
170
     0
171
     0
290
     0
174
     0
 93
        1
 44
0.0
173
     0
291
     0
 45
0.0
1001
ACAD
1000
AcDbSavedByObjectVersion
1070
     0
  0
VISUALSTYLE
  5
24B
102
{ACAD_XDICTIONARY
360
328
102
}
102
{ACAD_REACTORS
330
239
102
}
330
239
100
AcDbVisualStyle
  2
Sketchy
 70
    24
 71
     1
 72
     2
 73
     2
 90
        0
 40
-0.6
 41
-30.0
 62
     5
 63
     7
 74
     2
 91
        2
 64
     7
 65
     7
 75
     1
175
     1
 42
40.0
 92
       11
 66
     7
 43
1.0
 76
     1
 77
     6
 78
     2
 67
     7
 79
     6
170
     0
171
     0
290
     0
174
     0
 93
        1
 44
0.0
173
     0
291
     0
 45
0.0
1001
ACAD
1000
AcDbSavedByObjectVersion
1070
     0
  0
VISUALSTYLE
  5
246
102
{ACAD_XDICTIONARY
360
31E
102
}
102
{ACAD_REACTORS
330
239
102
}
330
239
100
AcDbVisualStyle
  2
Thicken
 70
    13
 71
     2
 72
     2
 73
     0
 90
        0
 40
-0.6
 41
-30.0
 62
     5
 63
     7
 74
     1
 91
        4
 64
     7
 65
   257
 75
     1
175
     1
 42
1.0
 92
       12
 66
     7
 43
1.0
 76
     1
 77
     6
 78
     2
 67
     7
 79
     5
170
     0
171
     0
290
     0
174
     0
 93
        1
 44
0.0
173
     0
291
     1
 45
0.0
1001
ACAD
1000
AcDbSavedByObjectVersion
1070
     0
  0
VISUALSTYLE
  5
240
102
{ACAD_XDICTIONARY
360
312
102
}
102
{ACAD_REACTORS
330
239
102
}
330
239
100
AcDbVisualStyle
  2
Wireframe
 70
     5
 71
     0
 72
     2
 73
     0
 90
        0
 40
-0.6
 41
-30.0
 62
     5
 63
     7
 74
     1
 91
        4
 64
     7
 65
   257
 75
     1
175
     1
 42
1.0
 92
        0
 66
   257
 43
1.0
 76
     1
 77
     6
 78
     2
 67
     7
 79
     3
170
     0
171
     0
290
     0
174
     0
 93
        1
 44
0.0
173
     0
291
     0
 45
0.0
1001
ACAD
1000
AcDbSavedByObjectVersion
1070
     0
  0
VISUALSTYLE
  5
24C
102
{ACAD_XDICTIONARY
360
32A
102
}
102
{ACAD_REACTORS
330
239
102
}
330
239
100
AcDbVisualStyle
  2
X-Ray
 70
    25
 71
     2
 72
     2
 73
     1
 90
        1
 40
0.5
 41
-30.0
 62
     5
 63
     7
 74
     1
 91
        0
 64
     7
 65
   257
 75
     1
175
     1
 42
1.0
 92
        8
 66
     7
 43
1.0
 76
     1
 77
     6
 78
     2
 67
     7
 79
     3
170
     0
171
     0
290
     0
174
     0
 93
       13
 44
0.0
173
     0
291
     0
 45
0.0
1001
ACAD
1000
AcDbSavedByObjectVersion
1070
     0
  0
DICTIONARYVAR
  5
2F0
102
{ACAD_REACTORS
330
2ED
102
}
330
2ED
100
DictionaryVariables
280
     0
  1
1:1
  0
DICTIONARYVAR
  5
2EF
102
{ACAD_REACTORS
330
2ED
102
}
330
2ED
100
DictionaryVariables
280
     0
  1
STANDARD
  0
DICTIONARYVAR
  5
2EE
102
{ACAD_REACTORS
330
2ED
102
}
330
2ED
100
DictionaryVariables
280
     0
  1
STANDARD
  0
DICTIONARYVAR
  5
2F5
102
{ACAD_REACTORS
330
2ED
102
}
330
2ED
100
DictionaryVariables
280
     0
  1
2
  0
DICTIONARYVAR
  5
2F3
102
{ACAD_REACTORS
330
2ED
102
}
330
2ED
100
DictionaryVariables
280
     0
  1
1
  0
DICTIONARYVAR
  5
2F2
102
{ACAD_REACTORS
330
2ED
102
}
330
2ED
100
DictionaryVariables
280
     0
  1
0
  0
DICTIONARYVAR
  5
2F1
102
{ACAD_REACTORS
330
2ED
102
}
330
2ED
100
DictionaryVariables
280
     0
  1
127
  0
DICTIONARYVAR
  5
2F4
102
{ACAD_REACTORS
330
2ED
102
}
330
2ED
100
DictionaryVariables
280
     0
  1
0
  0
XRECORD
  5
2EC
102
{ACAD_REACTORS
330
2EA
102
}
330
2EA
100
AcDbXrecord
280
     1
330
39
  0
DICTIONARY
  5
2FD
330
1E
100
AcDbDictionary
280
     1
281
     1
  3
ACAD_XREC_ROUNDTRIP
360
2FE
  0
DICTIONARY
  5
301
330
26
100
AcDbDictionary
280
     1
281
     1
  3
ACAD_XREC_ROUNDTRIP
360
302
  0
DICTIONARY
  5
2FF
330
22
100
AcDbDictionary
280
     1
281
     1
  3
ACAD_XREC_ROUNDTRIP
360
300
  0
DICTIONARY
  5
22A
330
229
100
AcDbDictionary
280
     1
281
     1
  3
ACAD_XREC_ROUNDTRIP
360
304
  3
BUMPTILE
360
22C
  3
DIFFUSETILE
360
22B
  3
OPACITYTILE
360
22F
  3
REFLECTIONTILE
360
22E
  3
REFRACTIONTILE
360
230
  3
SPECULARTILE
360
22D
  0
DICTIONARY
  5
222
330
221
100
AcDbDictionary
280
     1
281
     1
  3
ACAD_XREC_ROUNDTRIP
360
303
  3
BUMPTILE
360
224
  3
DIFFUSETILE
360
223
  3
OPACITYTILE
360
227
  3
REFLECTIONTILE
360
226
  3
REFRACTIONTILE
360
228
  3
SPECULARTILE
360
225
  0
DICTIONARY
  5
232
330
231
100
AcDbDictionary
280
     1
281
     1
  3
ACAD_XREC_ROUNDTRIP
360
305
  3
BUMPTILE
360
234
  3
DIFFUSETILE
360
233
  3
OPACITYTILE
360
237
  3
REFLECTIONTILE
360
236
  3
REFRACTIONTILE
360
238
  3
SPECULARTILE
360
235
  0
DICTIONARY
  5
2F9
330
268
100
AcDbDictionary
280
     1
281
     1
  3
ACAD_XREC_ROUNDTRIP
360
2FA
  0
DICTIONARY
  5
2F7
330
254
100
AcDbDictionary
280
     1
281
     1
  3
ACAD_ROUNDTRIP_2008_TABLESTYLE_CELLSTYLEMAP
360
2F8
  3
ACAD_XREC_ROUNDTRIP
360
336
  0
DICTIONARY
  5
310
330
23F
100
AcDbDictionary
280
     1
281
     1
  3
ACAD_XREC_ROUNDTRIP
360
311
  0
DICTIONARY
  5
30E
330
23E
100
AcDbDictionary
280
     1
281
     1
  3
ACAD_XREC_ROUNDTRIP
360
30F
  0
DICTIONARY
  5
31C
330
245
100
AcDbDictionary
280
     1
281
     1
  3
ACAD_XREC_ROUNDTRIP
360
31D
  0
DICTIONARY
  5
324
330
249
100
AcDbDictionary
280
     1
281
     1
  3
ACAD_XREC_ROUNDTRIP
360
325
  0
DICTIONARY
  5
316
330
242
100
AcDbDictionary
280
     1
281
     1
  3
ACAD_XREC_ROUNDTRIP
360
317
  0
DICTIONARY
  5
31A
330
244
100
AcDbDictionary
280
     1
281
     1
  3
ACAD_XREC_ROUNDTRIP
360
31B
  0
DICTIONARY
  5
334
330
251
100
AcDbDictionary
280
     1
281
     1
  3
ACAD_XREC_ROUNDTRIP
360
335
  0
DICTIONARY
  5
322
330
248
100
AcDbDictionary
280
     1
281
     1
  3
ACAD_XREC_ROUNDTRIP
360
323
  0
DICTIONARY
  5
306
330
23A
100
AcDbDictionary
280
     1
281
     1
  3
ACAD_XREC_ROUNDTRIP
360
307
  0
DICTIONARY
  5
308
330
23B
100
AcDbDictionary
280
     1
281
     1
  3
ACAD_XREC_ROUNDTRIP
360
309
  0
DICTIONARY
  5
30A
330
23C
100
AcDbDictionary
280
     1
281
     1
  3
ACAD_XREC_ROUNDTRIP
360
30B
  0
DICTIONARY
  5
30C
330
23D
100
AcDbDictionary
280
     1
281
     1
  3
ACAD_XREC_ROUNDTRIP
360
30D
  0
DICTIONARY
  5
314
330
241
100
AcDbDictionary
280
     1
281
     1
  3
ACAD_XREC_ROUNDTRIP
360
315
  0
DICTIONARY
  5
330
330
24F
100
AcDbDictionary
280
     1
281
     1
  3
ACAD_XREC_ROUNDTRIP
360
331
  0
DICTIONARY
  5
320
330
247
100
AcDbDictionary
280
     1
281
     1
  3
ACAD_XREC_ROUNDTRIP
360
321
  0
DICTIONARY
  5
332
330
250
100
AcDbDictionary
280
     1
281
     1
  3
ACAD_XREC_ROUNDTRIP
360
333
  0
DICTIONARY
  5
318
330
243
100
AcDbDictionary
280
     1
281
     1
  3
ACAD_XREC_ROUNDTRIP
360
319
  0
DICTIONARY
  5
32E
330
24E
100
AcDbDictionary
280
     1
281
     1
  3
ACAD_XREC_ROUNDTRIP
360
32F
  0
DICTIONARY
  5
32C
330
24D
100
AcDbDictionary
280
     1
281
     1
  3
ACAD_XREC_ROUNDTRIP
360
32D
  0
DICTIONARY
  5
326
330
24A
100
AcDbDictionary
280
     1
281
     1
  3
ACAD_XREC_ROUNDTRIP
360
327
  0
DICTIONARY
  5
328
330
24B
100
AcDbDictionary
280
     1
281
     1
  3
ACAD_XREC_ROUNDTRIP
360
329
  0
DICTIONARY
  5
31E
330
246
100
AcDbDictionary
280
     1
281
     1
  3
ACAD_XREC_ROUNDTRIP
360
31F
  0
DICTIONARY
  5
312
330
240
100
AcDbDictionary
280
     1
281
     1
  3
ACAD_XREC_ROUNDTRIP
360
313
  0
DICTIONARY
  5
32A
330
24C
100
AcDbDictionary
280
     1
281
     1
  3
ACAD_XREC_ROUNDTRIP
360
32B
  0
XRECORD
  5
2FE
102
{ACAD_REACTORS
330
2FD
102
}
330
2FD
100
AcDbXrecord
280
     1
102
SHADEPLOT
 70
     0
102
SHADEPLOTRESLEVEL
 70
     0
102
SHADEPLOTCUSTOMDPI
 70
     0
  0
XRECORD
  5
302
102
{ACAD_REACTORS
330
301
102
}
330
301
100
AcDbXrecord
280
     1
102
SHADEPLOT
 70
     0
102
SHADEPLOTRESLEVEL
 70
     0
102
SHADEPLOTCUSTOMDPI
 70
     0
  0
XRECORD
  5
300
102
{ACAD_REACTORS
330
2FF
102
}
330
2FF
100
AcDbXrecord
280
     1
102
SHADEPLOT
 70
     0
102
SHADEPLOTRESLEVEL
 70
     0
102
SHADEPLOTCUSTOMDPI
 70
     0
  0
XRECORD
  5
304
102
{ACAD_REACTORS
330
22A
102
}
330
22A
100
AcDbXrecord
280
     1
102
MATERIAL
148
0.0
149
0.0
149
0.0
 93
        0
 94
      127
282
     0
 72
     0
 77
     0
171
     0
175
     0
179
     0
273
     0
  0
XRECORD
  5
22C
102
{ACAD_REACTORS
330
22A
102
}
330
22A
100
AcDbXrecord
280
     1
270
     1
271
     1
  0
XRECORD
  5
22B
102
{ACAD_REACTORS
330
22A
102
}
330
22A
100
AcDbXrecord
280
     1
270
     1
271
     1
  0
XRECORD
  5
22F
102
{ACAD_REACTORS
330
22A
102
}
330
22A
100
AcDbXrecord
280
     1
270
     1
271
     1
  0
XRECORD
  5
22E
102
{ACAD_REACTORS
330
22A
102
}
330
22A
100
AcDbXrecord
280
     1
270
     1
271
     1
  0
XRECORD
  5
230
102
{ACAD_REACTORS
330
22A
102
}
330
22A
100
AcDbXrecord
280
     1
270
     1
271
     1
  0
XRECORD
  5
22D
102
{ACAD_REACTORS
330
22A
102
}
330
22A
100
AcDbXrecord
280
     1
270
     1
271
     1
  0
XRECORD
  5
303
102
{ACAD_REACTORS
330
222
102
}
330
222
100
AcDbXrecord
280
     1
102
MATERIAL
148
0.0
149
0.0
149
0.0
 93
        0
 94
      127
282
     0
 72
     0
 77
     0
171
     0
175
     0
179
     0
273
     0
  0
XRECORD
  5
224
102
{ACAD_REACTORS
330
222
102
}
330
222
100
AcDbXrecord
280
     1
270
     1
271
     1
  0
XRECORD
  5
223
102
{ACAD_REACTORS
330
222
102
}
330
222
100
AcDbXrecord
280
     1
270
     1
271
     1
  0
XRECORD
  5
227
102
{ACAD_REACTORS
330
222
102
}
330
222
100
AcDbXrecord
280
     1
270
     1
271
     1
  0
XRECORD
  5
226
102
{ACAD_REACTORS
330
222
102
}
330
222
100
AcDbXrecord
280
     1
270
     1
271
     1
  0
XRECORD
  5
228
102
{ACAD_REACTORS
330
222
102
}
330
222
100
AcDbXrecord
280
     1
270
     1
271
     1
  0
XRECORD
  5
225
102
{ACAD_REACTORS
330
222
102
}
330
222
100
AcDbXrecord
280
     1
270
     1
271
     1
  0
XRECORD
  5
305
102
{ACAD_REACTORS
330
232
102
}
330
232
100
AcDbXrecord
280
     1
102
MATERIAL
148
0.0
149
0.0
149
0.0
 93
        0
 94
      127
282
     0
 72
     0
 77
     0
171
     0
175
     0
179
     0
273
     0
  0
XRECORD
  5
234
102
{ACAD_REACTORS
330
232
102
}
330
232
100
AcDbXrecord
280
     1
270
     1
271
     1
  0
XRECORD
  5
233
102
{ACAD_REACTORS
330
232
102
}
330
232
100
AcDbXrecord
280
     1
270
     1
271
     1
  0
XRECORD
  5
237
102
{ACAD_REACTORS
330
232
102
}
330
232
100
AcDbXrecord
280
     1
270
     1
271
     1
  0
XRECORD
  5
236
102
{ACAD_REACTORS
330
232
102
}
330
232
100
AcDbXrecord
280
     1
270
     1
271
     1
  0
XRECORD
  5
238
102
{ACAD_REACTORS
330
232
102
}
330
232
100
AcDbXrecord
280
     1
270
     1
271
     1
  0
XRECORD
  5
235
102
{ACAD_REACTORS
330
232
102
}
330
232
100
AcDbXrecord
280
     1
270
     1
271
     1
  0
XRECORD
  5
2FA
102
{ACAD_REACTORS
330
2F9
102
}
330
2F9
100
AcDbXrecord
280
     1
102
ACAD_ROUNDTRIP_2012_MLEADER_STYLE
298
     1
  0
CELLSTYLEMAP
  5
2F8
102
{ACAD_REACTORS
330
2F7
102
}
330
2F7
100
AcDbCellStyleMap
 90
        3
300
CELLSTYLE
  1
TABLEFORMAT_BEGIN
 90
        5
170
     1
 91
        0
 92
    32768
 62
   257
 93
        1
300
CONTENTFORMAT
  1
CONTENTFORMAT_BEGIN
 90
        0
 91
        0
 92
      512
 93
        0
300

 40
0.0
140
1.0
 94
        5
 62
     0
340
11
144
0.25
309
CONTENTFORMAT_END
171
     0
 94
        0
309
TABLEFORMAT_END
  1
CELLSTYLE_BEGIN
 90
        1
 91
        1
300
_TITLE
309
CELLSTYLE_END
300
CELLSTYLE
  1
TABLEFORMAT_BEGIN
 90
        5
170
     1
 91
        0
 92
        0
 62
   257
 93
        1
300
CONTENTFORMAT
  1
CONTENTFORMAT_BEGIN
 90
        0
 91
        0
 92
      512
 93
        0
300

 40
0.0
140
1.0
 94
        5
 62
     0
340
11
144
0.18
309
CONTENTFORMAT_END
171
     0
 94
        0
309
TABLEFORMAT_END
  1
CELLSTYLE_BEGIN
 90
        2
 91
        1
300
_HEADER
309
CELLSTYLE_END
300
CELLSTYLE
  1
TABLEFORMAT_BEGIN
 90
        5
170
     1
 91
        0
 92
        0
 62
   257
 93
        1
300
CONTENTFORMAT
  1
CONTENTFORMAT_BEGIN
 90
        0
 91
        0
 92
      512
 93
        0
300

 40
0.0
140
1.0
 94
        2
 62
     0
340
11
144
0.18
309
CONTENTFORMAT_END
171
     0
 94
        0
309
TABLEFORMAT_END
  1
CELLSTYLE_BEGIN
 90
        3
 91
        2
300
_DATA
309
CELLSTYLE_END
  0
XRECORD
  5
336
102
{ACAD_REACTORS
330
2F7
102
}
330
2F7
100
AcDbXrecord
280
     1
102
ACAD_ROUNDTRIP_PRE2007_TABLESTYLE
 90
      512
 91
        0
  1

 92
      512
 93
        0
  2

 94
      512
 95
        0
  3

  0
XRECORD
  5
311
102
{ACAD_REACTORS
330
310
102
}
330
310
100
AcDbXrecord
280
     1
102
RTVSPropertyOp0
 70
     1
102
RTVSPropertyOp1
 70
     1
102
RTVSPropertyOp2
 70
     1
102
RTVSPropertyOp3
 70
     1
102
RTVSPropertyOp4
 70
     1
102
RTVSPropertyOp5
 70
     1
102
RTVSPropertyOp6
 70
     1
102
RTVSPropertyOp7
 70
     1
102
RTVSPropertyOp8
 70
     1
102
RTVSPropertyOp9
 70
     1
102
RTVSPropertyOp10
 70
     1
102
RTVSPropertyOp11
 70
     1
102
RTVSPropertyOp12
 70
     1
102
RTVSPropertyOp13
 70
     1
102
RTVSPropertyOp14
 70
     1
102
RTVSPropertyOp15
 70
     1
102
RTVSPropertyOp16
 70
     1
102
RTVSPropertyOp17
 70
     1
102
RTVSPropertyOp18
 70
     1
102
RTVSPropertyOp19
 70
     1
102
RTVSPropertyOp20
 70
     1
102
RTVSPropertyOp21
 70
     1
102
RTVSPropertyOp22
 70
     1
102
RTVSPropertyOp23
 70
     1
102
RTVSPropertyOp24
 70
     1
102
RTVSPropertyOp25
 70
     1
102
RTVSPropertyOp26
 70
     1
102
RTVSPropertyOp27
 70
     1
102
RTVSPropertyOp28
 70
     1
102
RTVSPropertyOp29
 70
     1
102
RTVSPropertyOp30
 70
     1
102
RTVSPropertyOp31
 70
     1
102
RTVSPropertyOp32
 70
     1
  0
XRECORD
  5
30F
102
{ACAD_REACTORS
330
30E
102
}
330
30E
100
AcDbXrecord
280
     1
102
RTVSPropertyOp0
 70
     1
102
RTVSPropertyOp1
 70
     1
102
RTVSPropertyOp2
 70
     1
102
RTVSPropertyOp3
 70
     1
102
RTVSPropertyOp4
 70
     1
102
RTVSPropertyOp5
 70
     1
102
RTVSPropertyOp6
 70
     1
102
RTVSPropertyOp7
 70
     1
102
RTVSPropertyOp8
 70
     1
102
RTVSPropertyOp9
 70
     1
102
RTVSPropertyOp10
 70
     1
102
RTVSPropertyOp11
 70
     1
102
RTVSPropertyOp12
 70
     1
102
RTVSPropertyOp13
 70
     1
102
RTVSPropertyOp14
 70
     1
102
RTVSPropertyOp15
 70
     1
102
RTVSPropertyOp16
 70
     1
102
RTVSPropertyOp17
 70
     1
102
RTVSPropertyOp18
 70
     1
102
RTVSPropertyOp19
 70
     1
102
RTVSPropertyOp20
 70
     1
102
RTVSPropertyOp21
 70
     1
102
RTVSPropertyOp22
 70
     1
102
RTVSPropertyOp23
 70
     1
102
RTVSPropertyOp24
 70
     1
102
RTVSPropertyOp25
 70
     1
102
RTVSPropertyOp26
 70
     1
102
RTVSPropertyOp27
 70
     1
102
RTVSPropertyOp28
 70
     1
102
RTVSPropertyOp29
 70
     1
102
RTVSPropertyOp30
 70
     1
102
RTVSPropertyOp31
 70
     1
102
RTVSPropertyOp32
 70
     1
  0
XRECORD
  5
31D
102
{ACAD_REACTORS
330
31C
102
}
330
31C
100
AcDbXrecord
280
     1
102
RTVSPropertyOp0
 70
     1
102
RTVSPropertyOp1
 70
     1
102
RTVSPropertyOp2
 70
     1
102
RTVSPropertyOp3
 70
     1
102
RTVSPropertyOp4
 70
     1
102
RTVSPropertyOp5
 70
     1
102
RTVSPropertyOp6
 70
     1
102
RTVSPropertyOp7
 70
     1
102
RTVSPropertyOp8
 70
     1
102
RTVSPropertyOp9
 70
     1
102
RTVSPropertyOp10
 70
     1
102
RTVSPropertyOp11
 70
     1
102
RTVSPropertyOp12
 70
     1
102
RTVSPropertyOp13
 70
     1
102
RTVSPropertyOp14
 70
     1
102
RTVSPropertyOp15
 70
     1
102
RTVSPropertyOp16
 70
     1
102
RTVSPropertyOp17
 70
     1
102
RTVSPropertyOp18
 70
     1
102
RTVSPropertyOp19
 70
     1
102
RTVSPropertyOp20
 70
     1
102
RTVSPropertyOp21
 70
     1
102
RTVSPropertyOp22
 70
     1
102
RTVSPropertyOp23
 70
     1
102
RTVSPropertyOp24
 70
     1
102
RTVSPropertyOp25
 70
     1
102
RTVSPropertyOp26
 70
     1
102
RTVSPropertyOp27
 70
     1
102
RTVSPropertyOp28
 70
     1
102
RTVSPropertyOp29
 70
     1
102
RTVSPropertyOp30
 70
     1
102
RTVSPropertyOp31
 70
     1
102
RTVSPropertyOp32
 70
     1
  0
XRECORD
  5
325
102
{ACAD_REACTORS
330
324
102
}
330
324
100
AcDbXrecord
280
     1
102
RTVSPropertyOp0
 70
     1
102
RTVSPropertyOp1
 70
     1
102
RTVSPropertyOp2
 70
     1
102
RTVSPropertyOp3
 70
     1
102
RTVSPropertyOp4
 70
     1
102
RTVSPropertyOp5
 70
     1
102
RTVSPropertyOp6
 70
     1
102
RTVSPropertyOp7
 70
     1
102
RTVSPropertyOp8
 70
     1
102
RTVSPropertyOp9
 70
     1
102
RTVSPropertyOp10
 70
     1
102
RTVSPropertyOp11
 70
     1
102
RTVSPropertyOp12
 70
     1
102
RTVSPropertyOp13
 70
     1
102
RTVSPropertyOp14
 70
     1
102
RTVSPropertyOp15
 70
     1
102
RTVSPropertyOp16
 70
     1
102
RTVSPropertyOp17
 70
     1
102
RTVSPropertyOp18
 70
     1
102
RTVSPropertyOp19
 70
     1
102
RTVSPropertyOp20
 70
     1
102
RTVSPropertyOp21
 70
     1
102
RTVSPropertyOp22
 70
     1
102
RTVSPropertyOp23
 70
     1
102
RTVSPropertyOp24
 70
     1
102
RTVSPropertyOp25
 70
     1
102
RTVSPropertyOp26
 70
     1
102
RTVSPropertyOp27
 70
     1
102
RTVSPropertyOp28
 70
     1
102
RTVSPropertyOp29
 70
     1
102
RTVSPropertyOp30
 70
     1
102
RTVSPropertyOp31
 70
     1
102
RTVSPropertyOp32
 70
     1
  0
XRECORD
  5
317
102
{ACAD_REACTORS
330
316
102
}
330
316
100
AcDbXrecord
280
     1
102
RTVSPropertyOp0
 70
     1
102
RTVSPropertyOp1
 70
     1
102
RTVSPropertyOp2
 70
     1
102
RTVSPropertyOp3
 70
     1
102
RTVSPropertyOp4
 70
     1
102
RTVSPropertyOp5
 70
     1
102
RTVSPropertyOp6
 70
     1
102
RTVSPropertyOp7
 70
     1
102
RTVSPropertyOp8
 70
     1
102
RTVSPropertyOp9
 70
     1
102
RTVSPropertyOp10
 70
     1
102
RTVSPropertyOp11
 70
     1
102
RTVSPropertyOp12
 70
     1
102
RTVSPropertyOp13
 70
     1
102
RTVSPropertyOp14
 70
     1
102
RTVSPropertyOp15
 70
     1
102
RTVSPropertyOp16
 70
     1
102
RTVSPropertyOp17
 70
     1
102
RTVSPropertyOp18
 70
     1
102
RTVSPropertyOp19
 70
     1
102
RTVSPropertyOp20
 70
     1
102
RTVSPropertyOp21
 70
     1
102
RTVSPropertyOp22
 70
     1
102
RTVSPropertyOp23
 70
     1
102
RTVSPropertyOp24
 70
     1
102
RTVSPropertyOp25
 70
     1
102
RTVSPropertyOp26
 70
     1
102
RTVSPropertyOp27
 70
     1
102
RTVSPropertyOp28
 70
     1
102
RTVSPropertyOp29
 70
     1
102
RTVSPropertyOp30
 70
     1
102
RTVSPropertyOp31
 70
     1
102
RTVSPropertyOp32
 70
     1
  0
XRECORD
  5
31B
102
{ACAD_REACTORS
330
31A
102
}
330
31A
100
AcDbXrecord
280
     1
102
RTVSPropertyOp0
 70
     1
102
RTVSPropertyOp1
 70
     1
102
RTVSPropertyOp2
 70
     1
102
RTVSPropertyOp3
 70
     1
102
RTVSPropertyOp4
 70
     1
102
RTVSPropertyOp5
 70
     1
102
RTVSPropertyOp6
 70
     1
102
RTVSPropertyOp7
 70
     1
102
RTVSPropertyOp8
 70
     1
102
RTVSPropertyOp9
 70
     1
102
RTVSPropertyOp10
 70
     1
102
RTVSPropertyOp11
 70
     1
102
RTVSPropertyOp12
 70
     1
102
RTVSPropertyOp13
 70
     1
102
RTVSPropertyOp14
 70
     1
102
RTVSPropertyOp15
 70
     1
102
RTVSPropertyOp16
 70
     1
102
RTVSPropertyOp17
 70
     1
102
RTVSPropertyOp18
 70
     1
102
RTVSPropertyOp19
 70
     1
102
RTVSPropertyOp20
 70
     1
102
RTVSPropertyOp21
 70
     1
102
RTVSPropertyOp22
 70
     1
102
RTVSPropertyOp23
 70
     1
102
RTVSPropertyOp24
 70
     1
102
RTVSPropertyOp25
 70
     1
102
RTVSPropertyOp26
 70
     1
102
RTVSPropertyOp27
 70
     1
102
RTVSPropertyOp28
 70
     1
102
RTVSPropertyOp29
 70
     1
102
RTVSPropertyOp30
 70
     1
102
RTVSPropertyOp31
 70
     1
102
RTVSPropertyOp32
 70
     1
  0
XRECORD
  5
335
102
{ACAD_REACTORS
330
334
102
}
330
334
100
AcDbXrecord
280
     1
102
RTVSPropertyOp0
 70
     0
102
RTVSPropertyOp1
 70
     0
102
RTVSPropertyOp2
 70
     0
102
RTVSPropertyOp3
 70
     0
102
RTVSPropertyOp4
 70
     0
102
RTVSPropertyOp5
 70
     0
102
RTVSPropertyOp6
 70
     0
102
RTVSPropertyOp7
 70
     0
102
RTVSPropertyOp8
 70
     0
102
RTVSPropertyOp9
 70
     0
102
RTVSPropertyOp10
 70
     0
102
RTVSPropertyOp11
 70
     0
102
RTVSPropertyOp12
 70
     0
102
RTVSPropertyOp13
 70
     0
102
RTVSPropertyOp14
 70
     2
102
RTVSPropertyOp15
 70
     0
102
RTVSPropertyOp16
 70
     0
102
RTVSPropertyOp17
 70
     0
102
RTVSPropertyOp18
 70
     0
102
RTVSPropertyOp19
 70
     0
102
RTVSPropertyOp20
 70
     0
102
RTVSPropertyOp21
 70
     0
102
RTVSPropertyOp22
 70
     0
102
RTVSPropertyOp23
 70
     0
102
RTVSPropertyOp24
 70
     0
102
RTVSPropertyOp25
 70
     0
102
RTVSPropertyOp26
 70
     0
102
RTVSPropertyOp27
 70
     0
102
RTVSPropertyOp28
 70
     0
102
RTVSPropertyOp29
 70
     0
102
RTVSPropertyOp30
 70
     0
102
RTVSPropertyOp31
 70
     0
102
RTVSPropertyOp32
 70
     0
  0
XRECORD
  5
323
102
{ACAD_REACTORS
330
322
102
}
330
322
100
AcDbXrecord
280
     1
102
RTVSPropertyOp0
 70
     1
102
RTVSPropertyOp1
 70
     1
102
RTVSPropertyOp2
 70
     1
102
RTVSPropertyOp3
 70
     1
102
RTVSPropertyOp4
 70
     1
102
RTVSPropertyOp5
 70
     1
102
RTVSPropertyOp6
 70
     1
102
RTVSPropertyOp7
 70
     1
102
RTVSPropertyOp8
 70
     1
102
RTVSPropertyOp9
 70
     1
102
RTVSPropertyOp10
 70
     1
102
RTVSPropertyOp11
 70
     1
102
RTVSPropertyOp12
 70
     1
102
RTVSPropertyOp13
 70
     1
102
RTVSPropertyOp14
 70
     1
102
RTVSPropertyOp15
 70
     1
102
RTVSPropertyOp16
 70
     1
102
RTVSPropertyOp17
 70
     1
102
RTVSPropertyOp18
 70
     1
102
RTVSPropertyOp19
 70
     1
102
RTVSPropertyOp20
 70
     1
102
RTVSPropertyOp21
 70
     1
102
RTVSPropertyOp22
 70
     1
102
RTVSPropertyOp23
 70
     1
102
RTVSPropertyOp24
 70
     1
102
RTVSPropertyOp25
 70
     1
102
RTVSPropertyOp26
 70
     1
102
RTVSPropertyOp27
 70
     1
102
RTVSPropertyOp28
 70
     1
102
RTVSPropertyOp29
 70
     1
102
RTVSPropertyOp30
 70
     1
102
RTVSPropertyOp31
 70
     1
102
RTVSPropertyOp32
 70
     1
  0
XRECORD
  5
307
102
{ACAD_REACTORS
330
306
102
}
330
306
100
AcDbXrecord
280
     1
102
RTVSPropertyOp0
 70
     1
102
RTVSPropertyOp1
 70
     1
102
RTVSPropertyOp2
 70
     1
102
RTVSPropertyOp3
 70
     1
102
RTVSPropertyOp4
 70
     1
102
RTVSPropertyOp5
 70
     1
102
RTVSPropertyOp6
 70
     1
102
RTVSPropertyOp7
 70
     1
102
RTVSPropertyOp8
 70
     1
102
RTVSPropertyOp9
 70
     1
102
RTVSPropertyOp10
 70
     1
102
RTVSPropertyOp11
 70
     1
102
RTVSPropertyOp12
 70
     1
102
RTVSPropertyOp13
 70
     1
102
RTVSPropertyOp14
 70
     1
102
RTVSPropertyOp15
 70
     1
102
RTVSPropertyOp16
 70
     1
102
RTVSPropertyOp17
 70
     1
102
RTVSPropertyOp18
 70
     1
102
RTVSPropertyOp19
 70
     1
102
RTVSPropertyOp20
 70
     1
102
RTVSPropertyOp21
 70
     1
102
RTVSPropertyOp22
 70
     1
102
RTVSPropertyOp23
 70
     1
102
RTVSPropertyOp24
 70
     1
102
RTVSPropertyOp25
 70
     1
102
RTVSPropertyOp26
 70
     1
102
RTVSPropertyOp27
 70
     1
102
RTVSPropertyOp28
 70
     1
102
RTVSPropertyOp29
 70
     1
102
RTVSPropertyOp30
 70
     1
102
RTVSPropertyOp31
 70
     1
102
RTVSPropertyOp32
 70
     1
  0
XRECORD
  5
309
102
{ACAD_REACTORS
330
308
102
}
330
308
100
AcDbXrecord
280
     1
102
RTVSPropertyOp0
 70
     1
102
RTVSPropertyOp1
 70
     1
102
RTVSPropertyOp2
 70
     1
102
RTVSPropertyOp3
 70
     1
102
RTVSPropertyOp4
 70
     1
102
RTVSPropertyOp5
 70
     1
102
RTVSPropertyOp6
 70
     1
102
RTVSPropertyOp7
 70
     1
102
RTVSPropertyOp8
 70
     1
102
RTVSPropertyOp9
 70
     1
102
RTVSPropertyOp10
 70
     1
102
RTVSPropertyOp11
 70
     1
102
RTVSPropertyOp12
 70
     1
102
RTVSPropertyOp13
 70
     1
102
RTVSPropertyOp14
 70
     1
102
RTVSPropertyOp15
 70
     1
102
RTVSPropertyOp16
 70
     1
102
RTVSPropertyOp17
 70
     1
102
RTVSPropertyOp18
 70
     1
102
RTVSPropertyOp19
 70
     1
102
RTVSPropertyOp20
 70
     1
102
RTVSPropertyOp21
 70
     1
102
RTVSPropertyOp22
 70
     1
102
RTVSPropertyOp23
 70
     1
102
RTVSPropertyOp24
 70
     1
102
RTVSPropertyOp25
 70
     1
102
RTVSPropertyOp26
 70
     1
102
RTVSPropertyOp27
 70
     1
102
RTVSPropertyOp28
 70
     1
102
RTVSPropertyOp29
 70
     1
102
RTVSPropertyOp30
 70
     1
102
RTVSPropertyOp31
 70
     1
102
RTVSPropertyOp32
 70
     1
  0
XRECORD
  5
30B
102
{ACAD_REACTORS
330
30A
102
}
330
30A
100
AcDbXrecord
280
     1
102
RTVSPropertyOp0
 70
     1
102
RTVSPropertyOp1
 70
     1
102
RTVSPropertyOp2
 70
     1
102
RTVSPropertyOp3
 70
     1
102
RTVSPropertyOp4
 70
     1
102
RTVSPropertyOp5
 70
     1
102
RTVSPropertyOp6
 70
     1
102
RTVSPropertyOp7
 70
     1
102
RTVSPropertyOp8
 70
     1
102
RTVSPropertyOp9
 70
     1
102
RTVSPropertyOp10
 70
     1
102
RTVSPropertyOp11
 70
     1
102
RTVSPropertyOp12
 70
     1
102
RTVSPropertyOp13
 70
     1
102
RTVSPropertyOp14
 70
     1
102
RTVSPropertyOp15
 70
     1
102
RTVSPropertyOp16
 70
     1
102
RTVSPropertyOp17
 70
     1
102
RTVSPropertyOp18
 70
     1
102
RTVSPropertyOp19
 70
     1
102
RTVSPropertyOp20
 70
     1
102
RTVSPropertyOp21
 70
     1
102
RTVSPropertyOp22
 70
     1
102
RTVSPropertyOp23
 70
     1
102
RTVSPropertyOp24
 70
     1
102
RTVSPropertyOp25
 70
     1
102
RTVSPropertyOp26
 70
     1
102
RTVSPropertyOp27
 70
     1
102
RTVSPropertyOp28
 70
     1
102
RTVSPropertyOp29
 70
     1
102
RTVSPropertyOp30
 70
     1
102
RTVSPropertyOp31
 70
     1
102
RTVSPropertyOp32
 70
     1
  0
XRECORD
  5
30D
102
{ACAD_REACTORS
330
30C
102
}
330
30C
100
AcDbXrecord
280
     1
102
RTVSPropertyOp0
 70
     1
102
RTVSPropertyOp1
 70
     1
102
RTVSPropertyOp2
 70
     1
102
RTVSPropertyOp3
 70
     1
102
RTVSPropertyOp4
 70
     1
102
RTVSPropertyOp5
 70
     1
102
RTVSPropertyOp6
 70
     1
102
RTVSPropertyOp7
 70
     1
102
RTVSPropertyOp8
 70
     1
102
RTVSPropertyOp9
 70
     1
102
RTVSPropertyOp10
 70
     1
102
RTVSPropertyOp11
 70
     1
102
RTVSPropertyOp12
 70
     1
102
RTVSPropertyOp13
 70
     1
102
RTVSPropertyOp14
 70
     1
102
RTVSPropertyOp15
 70
     1
102
RTVSPropertyOp16
 70
     1
102
RTVSPropertyOp17
 70
     1
102
RTVSPropertyOp18
 70
     1
102
RTVSPropertyOp19
 70
     1
102
RTVSPropertyOp20
 70
     1
102
RTVSPropertyOp21
 70
     1
102
RTVSPropertyOp22
 70
     1
102
RTVSPropertyOp23
 70
     1
102
RTVSPropertyOp24
 70
     1
102
RTVSPropertyOp25
 70
     1
102
RTVSPropertyOp26
 70
     1
102
RTVSPropertyOp27
 70
     1
102
RTVSPropertyOp28
 70
     1
102
RTVSPropertyOp29
 70
     1
102
RTVSPropertyOp30
 70
     1
102
RTVSPropertyOp31
 70
     1
102
RTVSPropertyOp32
 70
     1
  0
XRECORD
  5
315
102
{ACAD_REACTORS
330
314
102
}
330
314
100
AcDbXrecord
280
     1
102
RTVSPropertyOp0
 70
     1
102
RTVSPropertyOp1
 70
     1
102
RTVSPropertyOp2
 70
     1
102
RTVSPropertyOp3
 70
     1
102
RTVSPropertyOp4
 70
     1
102
RTVSPropertyOp5
 70
     1
102
RTVSPropertyOp6
 70
     1
102
RTVSPropertyOp7
 70
     1
102
RTVSPropertyOp8
 70
     1
102
RTVSPropertyOp9
 70
     1
102
RTVSPropertyOp10
 70
     1
102
RTVSPropertyOp11
 70
     1
102
RTVSPropertyOp12
 70
     1
102
RTVSPropertyOp13
 70
     1
102
RTVSPropertyOp14
 70
     1
102
RTVSPropertyOp15
 70
     1
102
RTVSPropertyOp16
 70
     1
102
RTVSPropertyOp17
 70
     1
102
RTVSPropertyOp18
 70
     1
102
RTVSPropertyOp19
 70
     1
102
RTVSPropertyOp20
 70
     1
102
RTVSPropertyOp21
 70
     1
102
RTVSPropertyOp22
 70
     1
102
RTVSPropertyOp23
 70
     1
102
RTVSPropertyOp24
 70
     1
102
RTVSPropertyOp25
 70
     1
102
RTVSPropertyOp26
 70
     1
102
RTVSPropertyOp27
 70
     1
102
RTVSPropertyOp28
 70
     1
102
RTVSPropertyOp29
 70
     1
102
RTVSPropertyOp30
 70
     1
102
RTVSPropertyOp31
 70
     1
102
RTVSPropertyOp32
 70
     1
  0
XRECORD
  5
331
102
{ACAD_REACTORS
330
330
102
}
330
330
100
AcDbXrecord
280
     1
102
RTVSPropertyOp0
 70
     0
102
RTVSPropertyOp1
 70
     0
102
RTVSPropertyOp2
 70
     0
102
RTVSPropertyOp3
 70
     0
102
RTVSPropertyOp4
 70
     0
102
RTVSPropertyOp5
 70
     0
102
RTVSPropertyOp6
 70
     0
102
RTVSPropertyOp7
 70
     0
102
RTVSPropertyOp8
 70
     0
102
RTVSPropertyOp9
 70
     0
102
RTVSPropertyOp10
 70
     0
102
RTVSPropertyOp11
 70
     0
102
RTVSPropertyOp12
 70
     0
102
RTVSPropertyOp13
 70
     0
102
RTVSPropertyOp14
 70
     2
102
RTVSPropertyOp15
 70
     0
102
RTVSPropertyOp16
 70
     0
102
RTVSPropertyOp17
 70
     0
102
RTVSPropertyOp18
 70
     0
102
RTVSPropertyOp19
 70
     0
102
RTVSPropertyOp20
 70
     0
102
RTVSPropertyOp21
 70
     0
102
RTVSPropertyOp22
 70
     0
102
RTVSPropertyOp23
 70
     0
102
RTVSPropertyOp24
 70
     0
102
RTVSPropertyOp25
 70
     0
102
RTVSPropertyOp26
 70
     0
102
RTVSPropertyOp27
 70
     0
102
RTVSPropertyOp28
 70
     0
102
RTVSPropertyOp29
 70
     0
102
RTVSPropertyOp30
 70
     0
102
RTVSPropertyOp31
 70
     0
102
RTVSPropertyOp32
 70
     0
  0
XRECORD
  5
321
102
{ACAD_REACTORS
330
320
102
}
330
320
100
AcDbXrecord
280
     1
102
RTVSPropertyOp0
 70
     1
102
RTVSPropertyOp1
 70
     1
102
RTVSPropertyOp2
 70
     1
102
RTVSPropertyOp3
 70
     1
102
RTVSPropertyOp4
 70
     1
102
RTVSPropertyOp5
 70
     1
102
RTVSPropertyOp6
 70
     1
102
RTVSPropertyOp7
 70
     1
102
RTVSPropertyOp8
 70
     1
102
RTVSPropertyOp9
 70
     1
102
RTVSPropertyOp10
 70
     1
102
RTVSPropertyOp11
 70
     1
102
RTVSPropertyOp12
 70
     1
102
RTVSPropertyOp13
 70
     1
102
RTVSPropertyOp14
 70
     1
102
RTVSPropertyOp15
 70
     1
102
RTVSPropertyOp16
 70
     1
102
RTVSPropertyOp17
 70
     1
102
RTVSPropertyOp18
 70
     1
102
RTVSPropertyOp19
 70
     1
102
RTVSPropertyOp20
 70
     1
102
RTVSPropertyOp21
 70
     1
102
RTVSPropertyOp22
 70
     1
102
RTVSPropertyOp23
 70
     1
102
RTVSPropertyOp24
 70
     1
102
RTVSPropertyOp25
 70
     1
102
RTVSPropertyOp26
 70
     1
102
RTVSPropertyOp27
 70
     1
102
RTVSPropertyOp28
 70
     1
102
RTVSPropertyOp29
 70
     1
102
RTVSPropertyOp30
 70
     1
102
RTVSPropertyOp31
 70
     1
102
RTVSPropertyOp32
 70
     1
  0
XRECORD
  5
333
102
{ACAD_REACTORS
330
332
102
}
330
332
100
AcDbXrecord
280
     1
102
RTVSPropertyOp0
 70
     0
102
RTVSPropertyOp1
 70
     0
102
RTVSPropertyOp2
 70
     0
102
RTVSPropertyOp3
 70
     0
102
RTVSPropertyOp4
 70
     0
102
RTVSPropertyOp5
 70
     0
102
RTVSPropertyOp6
 70
     0
102
RTVSPropertyOp7
 70
     0
102
RTVSPropertyOp8
 70
     0
102
RTVSPropertyOp9
 70
     0
102
RTVSPropertyOp10
 70
     0
102
RTVSPropertyOp11
 70
     0
102
RTVSPropertyOp12
 70
     0
102
RTVSPropertyOp13
 70
     0
102
RTVSPropertyOp14
 70
     2
102
RTVSPropertyOp15
 70
     0
102
RTVSPropertyOp16
 70
     0
102
RTVSPropertyOp17
 70
     0
102
RTVSPropertyOp18
 70
     0
102
RTVSPropertyOp19
 70
     0
102
RTVSPropertyOp20
 70
     0
102
RTVSPropertyOp21
 70
     0
102
RTVSPropertyOp22
 70
     0
102
RTVSPropertyOp23
 70
     0
102
RTVSPropertyOp24
 70
     0
102
RTVSPropertyOp25
 70
     0
102
RTVSPropertyOp26
 70
     0
102
RTVSPropertyOp27
 70
     0
102
RTVSPropertyOp28
 70
     0
102
RTVSPropertyOp29
 70
     0
102
RTVSPropertyOp30
 70
     0
102
RTVSPropertyOp31
 70
     0
102
RTVSPropertyOp32
 70
     0
  0
XRECORD
  5
319
102
{ACAD_REACTORS
330
318
102
}
330
318
100
AcDbXrecord
280
     1
102
RTVSPropertyOp0
 70
     1
102
RTVSPropertyOp1
 70
     1
102
RTVSPropertyOp2
 70
     1
102
RTVSPropertyOp3
 70
     1
102
RTVSPropertyOp4
 70
     1
102
RTVSPropertyOp5
 70
     1
102
RTVSPropertyOp6
 70
     1
102
RTVSPropertyOp7
 70
     1
102
RTVSPropertyOp8
 70
     1
102
RTVSPropertyOp9
 70
     1
102
RTVSPropertyOp10
 70
     1
102
RTVSPropertyOp11
 70
     1
102
RTVSPropertyOp12
 70
     1
102
RTVSPropertyOp13
 70
     1
102
RTVSPropertyOp14
 70
     1
102
RTVSPropertyOp15
 70
     1
102
RTVSPropertyOp16
 70
     1
102
RTVSPropertyOp17
 70
     1
102
RTVSPropertyOp18
 70
     1
102
RTVSPropertyOp19
 70
     1
102
RTVSPropertyOp20
 70
     1
102
RTVSPropertyOp21
 70
     1
102
RTVSPropertyOp22
 70
     1
102
RTVSPropertyOp23
 70
     1
102
RTVSPropertyOp24
 70
     1
102
RTVSPropertyOp25
 70
     1
102
RTVSPropertyOp26
 70
     1
102
RTVSPropertyOp27
 70
     1
102
RTVSPropertyOp28
 70
     1
102
RTVSPropertyOp29
 70
     1
102
RTVSPropertyOp30
 70
     1
102
RTVSPropertyOp31
 70
     1
102
RTVSPropertyOp32
 70
     1
  0
XRECORD
  5
32F
102
{ACAD_REACTORS
330
32E
102
}
330
32E
100
AcDbXrecord
280
     1
102
RTVSPropertyOp0
 70
     1
102
RTVSPropertyOp1
 70
     1
102
RTVSPropertyOp2
 70
     1
102
RTVSPropertyOp3
 70
     1
102
RTVSPropertyOp4
 70
     1
102
RTVSPropertyOp5
 70
     1
102
RTVSPropertyOp6
 70
     1
102
RTVSPropertyOp7
 70
     1
102
RTVSPropertyOp8
 70
     1
102
RTVSPropertyOp9
 70
     1
102
RTVSPropertyOp10
 70
     1
102
RTVSPropertyOp11
 70
     1
102
RTVSPropertyOp12
 70
     1
102
RTVSPropertyOp13
 70
     1
102
RTVSPropertyOp14
 70
     1
102
RTVSPropertyOp15
 70
     1
102
RTVSPropertyOp16
 70
     1
102
RTVSPropertyOp17
 70
     1
102
RTVSPropertyOp18
 70
     1
102
RTVSPropertyOp19
 70
     1
102
RTVSPropertyOp20
 70
     1
102
RTVSPropertyOp21
 70
     1
102
RTVSPropertyOp22
 70
     1
102
RTVSPropertyOp23
 70
     1
102
RTVSPropertyOp24
 70
     1
102
RTVSPropertyOp25
 70
     1
102
RTVSPropertyOp26
 70
     1
102
RTVSPropertyOp27
 70
     1
102
RTVSPropertyOp28
 70
     1
102
RTVSPropertyOp29
 70
     1
102
RTVSPropertyOp30
 70
     1
102
RTVSPropertyOp31
 70
     1
102
RTVSPropertyOp32
 70
     1
  0
XRECORD
  5
32D
102
{ACAD_REACTORS
330
32C
102
}
330
32C
100
AcDbXrecord
280
     1
102
RTVSPropertyOp0
 70
     1
102
RTVSPropertyOp1
 70
     1
102
RTVSPropertyOp2
 70
     1
102
RTVSPropertyOp3
 70
     1
102
RTVSPropertyOp4
 70
     1
102
RTVSPropertyOp5
 70
     1
102
RTVSPropertyOp6
 70
     1
102
RTVSPropertyOp7
 70
     1
102
RTVSPropertyOp8
 70
     1
102
RTVSPropertyOp9
 70
     1
102
RTVSPropertyOp10
 70
     1
102
RTVSPropertyOp11
 70
     1
102
RTVSPropertyOp12
 70
     1
102
RTVSPropertyOp13
 70
     1
102
RTVSPropertyOp14
 70
     1
102
RTVSPropertyOp15
 70
     1
102
RTVSPropertyOp16
 70
     1
102
RTVSPropertyOp17
 70
     1
102
RTVSPropertyOp18
 70
     1
102
RTVSPropertyOp19
 70
     1
102
RTVSPropertyOp20
 70
     1
102
RTVSPropertyOp21
 70
     1
102
RTVSPropertyOp22
 70
     1
102
RTVSPropertyOp23
 70
     1
102
RTVSPropertyOp24
 70
     1
102
RTVSPropertyOp25
 70
     1
102
RTVSPropertyOp26
 70
     1
102
RTVSPropertyOp27
 70
     1
102
RTVSPropertyOp28
 70
     1
102
RTVSPropertyOp29
 70
     1
102
RTVSPropertyOp30
 70
     1
102
RTVSPropertyOp31
 70
     1
102
RTVSPropertyOp32
 70
     1
  0
XRECORD
  5
327
102
{ACAD_REACTORS
330
326
102
}
330
326
100
AcDbXrecord
280
     1
102
RTVSPropertyOp0
 70
     1
102
RTVSPropertyOp1
 70
     1
102
RTVSPropertyOp2
 70
     1
102
RTVSPropertyOp3
 70
     1
102
RTVSPropertyOp4
 70
     1
102
RTVSPropertyOp5
 70
     1
102
RTVSPropertyOp6
 70
     1
102
RTVSPropertyOp7
 70
     1
102
RTVSPropertyOp8
 70
     1
102
RTVSPropertyOp9
 70
     1
102
RTVSPropertyOp10
 70
     1
102
RTVSPropertyOp11
 70
     1
102
RTVSPropertyOp12
 70
     1
102
RTVSPropertyOp13
 70
     1
102
RTVSPropertyOp14
 70
     1
102
RTVSPropertyOp15
 70
     1
102
RTVSPropertyOp16
 70
     1
102
RTVSPropertyOp17
 70
     1
102
RTVSPropertyOp18
 70
     1
102
RTVSPropertyOp19
 70
     1
102
RTVSPropertyOp20
 70
     1
102
RTVSPropertyOp21
 70
     1
102
RTVSPropertyOp22
 70
     1
102
RTVSPropertyOp23
 70
     1
102
RTVSPropertyOp24
 70
     1
102
RTVSPropertyOp25
 70
     1
102
RTVSPropertyOp26
 70
     1
102
RTVSPropertyOp27
 70
     1
102
RTVSPropertyOp28
 70
     1
102
RTVSPropertyOp29
 70
     1
102
RTVSPropertyOp30
 70
     1
102
RTVSPropertyOp31
 70
     1
102
RTVSPropertyOp32
 70
     1
  0
XRECORD
  5
329
102
{ACAD_REACTORS
330
328
102
}
330
328
100
AcDbXrecord
280
     1
102
RTVSPropertyOp0
 70
     1
102
RTVSPropertyOp1
 70
     1
102
RTVSPropertyOp2
 70
     1
102
RTVSPropertyOp3
 70
     1
102
RTVSPropertyOp4
 70
     1
102
RTVSPropertyOp5
 70
     1
102
RTVSPropertyOp6
 70
     1
102
RTVSPropertyOp7
 70
     1
102
RTVSPropertyOp8
 70
     1
102
RTVSPropertyOp9
 70
     1
102
RTVSPropertyOp10
 70
     1
102
RTVSPropertyOp11
 70
     1
102
RTVSPropertyOp12
 70
     1
102
RTVSPropertyOp13
 70
     1
102
RTVSPropertyOp14
 70
     1
102
RTVSPropertyOp15
 70
     1
102
RTVSPropertyOp16
 70
     1
102
RTVSPropertyOp17
 70
     1
102
RTVSPropertyOp18
 70
     1
102
RTVSPropertyOp19
 70
     1
102
RTVSPropertyOp20
 70
     1
102
RTVSPropertyOp21
 70
     1
102
RTVSPropertyOp22
 70
     1
102
RTVSPropertyOp23
 70
     1
102
RTVSPropertyOp24
 70
     1
102
RTVSPropertyOp25
 70
     1
102
RTVSPropertyOp26
 70
     1
102
RTVSPropertyOp27
 70
     1
102
RTVSPropertyOp28
 70
     1
102
RTVSPropertyOp29
 70
     1
102
RTVSPropertyOp30
 70
     1
102
RTVSPropertyOp31
 70
     1
102
RTVSPropertyOp32
 70
     1
  0
XRECORD
  5
31F
102
{ACAD_REACTORS
330
31E
102
}
330
31E
100
AcDbXrecord
280
     1
102
RTVSPropertyOp0
 70
     1
102
RTVSPropertyOp1
 70
     1
102
RTVSPropertyOp2
 70
     1
102
RTVSPropertyOp3
 70
     1
102
RTVSPropertyOp4
 70
     1
102
RTVSPropertyOp5
 70
     1
102
RTVSPropertyOp6
 70
     1
102
RTVSPropertyOp7
 70
     1
102
RTVSPropertyOp8
 70
     1
102
RTVSPropertyOp9
 70
     1
102
RTVSPropertyOp10
 70
     1
102
RTVSPropertyOp11
 70
     1
102
RTVSPropertyOp12
 70
     1
102
RTVSPropertyOp13
 70
     1
102
RTVSPropertyOp14
 70
     1
102
RTVSPropertyOp15
 70
     1
102
RTVSPropertyOp16
 70
     1
102
RTVSPropertyOp17
 70
     1
102
RTVSPropertyOp18
 70
     1
102
RTVSPropertyOp19
 70
     1
102
RTVSPropertyOp20
 70
     1
102
RTVSPropertyOp21
 70
     1
102
RTVSPropertyOp22
 70
     1
102
RTVSPropertyOp23
 70
     1
102
RTVSPropertyOp24
 70
     1
102
RTVSPropertyOp25
 70
     1
102
RTVSPropertyOp26
 70
     1
102
RTVSPropertyOp27
 70
     1
102
RTVSPropertyOp28
 70
     1
102
RTVSPropertyOp29
 70
     1
102
RTVSPropertyOp30
 70
     1
102
RTVSPropertyOp31
 70
     1
102
RTVSPropertyOp32
 70
     1
  0
XRECORD
  5
313
102
{ACAD_REACTORS
330
312
102
}
330
312
100
AcDbXrecord
280
     1
102
RTVSPropertyOp0
 70
     1
102
RTVSPropertyOp1
 70
     1
102
RTVSPropertyOp2
 70
     1
102
RTVSPropertyOp3
 70
     1
102
RTVSPropertyOp4
 70
     1
102
RTVSPropertyOp5
 70
     1
102
RTVSPropertyOp6
 70
     1
102
RTVSPropertyOp7
 70
     1
102
RTVSPropertyOp8
 70
     1
102
RTVSPropertyOp9
 70
     1
102
RTVSPropertyOp10
 70
     1
102
RTVSPropertyOp11
 70
     1
102
RTVSPropertyOp12
 70
     1
102
RTVSPropertyOp13
 70
     1
102
RTVSPropertyOp14
 70
     1
102
RTVSPropertyOp15
 70
     1
102
RTVSPropertyOp16
 70
     1
102
RTVSPropertyOp17
 70
     1
102
RTVSPropertyOp18
 70
     1
102
RTVSPropertyOp19
 70
     1
102
RTVSPropertyOp20
 70
     1
102
RTVSPropertyOp21
 70
     1
102
RTVSPropertyOp22
 70
     1
102
RTVSPropertyOp23
 70
     1
102
RTVSPropertyOp24
 70
     1
102
RTVSPropertyOp25
 70
     1
102
RTVSPropertyOp26
 70
     1
102
RTVSPropertyOp27
 70
     1
102
RTVSPropertyOp28
 70
     1
102
RTVSPropertyOp29
 70
     1
102
RTVSPropertyOp30
 70
     1
102
RTVSPropertyOp31
 70
     1
102
RTVSPropertyOp32
 70
     1
  0
XRECORD
  5
32B
102
{ACAD_REACTORS
330
32A
102
}
330
32A
100
AcDbXrecord
280
     1
102
RTVSPropertyOp0
 70
     1
102
RTVSPropertyOp1
 70
     1
102
RTVSPropertyOp2
 70
     1
102
RTVSPropertyOp3
 70
     1
102
RTVSPropertyOp4
 70
     1
102
RTVSPropertyOp5
 70
     1
102
RTVSPropertyOp6
 70
     1
102
RTVSPropertyOp7
 70
     1
102
RTVSPropertyOp8
 70
     1
102
RTVSPropertyOp9
 70
     1
102
RTVSPropertyOp10
 70
     1
102
RTVSPropertyOp11
 70
     1
102
RTVSPropertyOp12
 70
     1
102
RTVSPropertyOp13
 70
     1
102
RTVSPropertyOp14
 70
     1
102
RTVSPropertyOp15
 70
     1
102
RTVSPropertyOp16
 70
     1
102
RTVSPropertyOp17
 70
     1
102
RTVSPropertyOp18
 70
     1
102
RTVSPropertyOp19
 70
     1
102
RTVSPropertyOp20
 70
     1
102
RTVSPropertyOp21
 70
     1
102
RTVSPropertyOp22
 70
     1
102
RTVSPropertyOp23
 70
     1
102
RTVSPropertyOp24
 70
     1
102
RTVSPropertyOp25
 70
     1
102
RTVSPropertyOp26
 70
     1
102
RTVSPropertyOp27
 70
     1
102
RTVSPropertyOp28
 70
     1
102
RTVSPropertyOp29
 70
     1
102
RTVSPropertyOp30
 70
     1
102
RTVSPropertyOp31
 70
     1
102
RTVSPropertyOp32
 70
     1
  0
ENDSEC
  0
EOF
