  0
SECTION
  2
HEADER
  9
$ACADVER
  1
AC1015
  9
$ACADMAINTVER
 70
    20
  9
$DWGCODEPAGE
  3
ANSI_932
  9
$INSBASE
 10
0.0
 20
0.0
 30
0.0
  9
$EXTMIN
 10
-56.84023564341351
 20
165.6252109146766
 30
0.0
  9
$EXTMAX
 10
357.4445249214186
 20
456.9945510545586
 30
0.0
  9
$LIMMIN
 10
-60.06021765304331
 20
162.6907024186789
  9
$LIMMAX
 10
359.9287655012537
 20
459.6590251725851
  9
$ORTHOMODE
 70
     0
  9
$REGENMODE
 70
     1
  9
$FILLMODE
 70
     1
  9
$QTEXTMODE
 70
     0
  9
$MIRRTEXT
 70
     0
  9
$LTSCALE
 40
1.0
  9
$ATTMODE
 70
     1
  9
$TEXTSIZE
 40
3.0
  9
$TRACEWID
 40
1.0
  9
$TEXTSTYLE
  7
ATOM
  9
$CLAYER
  8
0
  9
$CELTYPE
  6
ByLayer
  9
$CECOLOR
 62
   256
  9
$CELTSCALE
 40
1.0
  9
$DISPSILH
 70
     0
  9
$DIMSCALE
 40
0.0
  9
$DIMASZ
 40
2.0
  9
$DIMEXO
 40
2.0
  9
$DIMDLI
 40
7.0
  9
$DIMRND
 40
0.0
  9
$DIMDLE
 40
0.0
  9
$DIMEXE
 40
1.0
  9
$DIMTP
 40
0.1
  9
$DIMTM
 40
0.1
  9
$DIMTXT
 40
3.0
  9
$DIMCEN
 40
-2.5
  9
$DIMTSZ
 40
0.0
  9
$DIMTOL
 70
     0
  9
$DIMLIM
 70
     0
  9
$DIMTIH
 70
     0
  9
$DIMTOH
 70
     0
  9
$DIMSE1
 70
     0
  9
$DIMSE2
 70
     0
  9
$DIMTAD
 70
     1
  9
$DIMZIN
 70
     8
  9
$DIMBLK
  1
Open30
  9
$DIMASO
 70
     1
  9
$DIMSHO
 70
     1
  9
$DIMPOST
  1

  9
$DIMAPOST
  1

  9
$DIMALT
 70
     0
  9
$DIMALTD
 70
     3
  9
$DIMALTF
 40
0.03937007874016
  9
$DIMLFAC
 40
1.0
  9
$DIMTOFL
 70
     1
  9
$DIMTVP
 40
0.0
  9
$DIMTIX
 70
     0
  9
$DIMSOXD
 70
     0
  9
$DIMSAH
 70
     0
  9
$DIMBLK1
  1

  9
$DIMBLK2
  1

  9
$DIMSTYLE
  2
ATOM
  9
$DIMCLRD
 70
     0
  9
$DIMCLRE
 70
     0
  9
$DIMCLRT
 70
     3
  9
$DIMTFAC
 40
0.4999999999999998
  9
$DIMGAP
 40
0.625
  9
$DIMJUST
 70
     0
  9
$DIMSD1
 70
     0
  9
$DIMSD2
 70
     0
  9
$DIMTOLJ
 70
     0
  9
$DIMTZIN
 70
     8
  9
$DIMALTZ
 70
     0
  9
$DIMALTTZ
 70
     0
  9
$DIMUPT
 70
     0
  9
$DIMDEC
 70
     2
  9
$DIMTDEC
 70
     2
  9
$DIMALTU
 70
     2
  9
$DIMALTTD
 70
     3
  9
$DIMTXSTY
  7
ATOM
  9
$DIMAUNIT
 70
     0
  9
$DIMADEC
 70
     0
  9
$DIMALTRND
 40
0.0
  9
$DIMAZIN
 70
     0
  9
$DIMDSEP
 70
    46
  9
$DIMATFIT
 70
     0
  9
$DIMFRAC
 70
     2
  9
$DIMLDRBLK
  1
Open30
  9
$DIMLUNIT
 70
     2
  9
$DIMLWD
 70
    -2
  9
$DIMLWE
 70
    -2
  9
$DIMTMOVE
 70
     1
  9
$LUNITS
 70
     2
  9
$LUPREC
 70
     4
  9
$SKETCHINC
 40
1.0
  9
$FILLETRAD
 40
0.0
  9
$AUNITS
 70
     0
  9
$AUPREC
 70
     0
  9
$MENU
  1
.
  9
$ELEVATION
 40
0.0
  9
$PELEVATION
 40
0.0
  9
$THICKNESS
 40
0.0
  9
$LIMCHECK
 70
     0
  9
$CHAMFERA
 40
0.0
  9
$CHAMFERB
 40
0.0
  9
$CHAMFERC
 40
0.0
  9
$CHAMFERD
 40
0.0
  9
$SKPOLY
 70
     0
  9
$TDCREATE
 40
2457463.691464803
  9
$TDUCREATE
 40
2457463.316464803
  9
$TDUPDATE
 40
2457592.581187651
  9
$TDUUPDATE
 40
2457592.206187650
  9
$TDINDWG
 40
0.0021395949
  9
$TDUSRTIMER
 40
0.0021395949
  9
$USRTIMER
 70
     1
  9
$ANGBASE
 50
0.0
  9
$ANGDIR
 70
     0
  9
$PDMODE
 70
     0
  9
$PDSIZE
 40
0.0
  9
$PLINEWID
 40
0.0
  9
$SPLFRAME
 70
     0
  9
$SPLINETYPE
 70
     6
  9
$SPLINESEGS
 70
     8
  9
$HANDSEED
  5
992
  9
$SURFTAB1
 70
     6
  9
$SURFTAB2
 70
     6
  9
$SURFTYPE
 70
     6
  9
$SURFU
 70
     6
  9
$SURFV
 70
     6
  9
$UCSBASE
  2

  9
$UCSNAME
  2

  9
$UCSORG
 10
0.0
 20
0.0
 30
0.0
  9
$UCSXDIR
 10
1.0
 20
0.0
 30
0.0
  9
$UCSYDIR
 10
0.0
 20
1.0
 30
0.0
  9
$UCSORTHOREF
  2

  9
$UCSORTHOVIEW
 70
     0
  9
$UCSORGTOP
 10
0.0
 20
0.0
 30
0.0
  9
$UCSORGBOTTOM
 10
0.0
 20
0.0
 30
0.0
  9
$UCSORGLEFT
 10
0.0
 20
0.0
 30
0.0
  9
$UCSORGRIGHT
 10
0.0
 20
0.0
 30
0.0
  9
$UCSORGFRONT
 10
0.0
 20
0.0
 30
0.0
  9
$UCSORGBACK
 10
0.0
 20
0.0
 30
0.0
  9
$PUCSBASE
  2

  9
$PUCSNAME
  2

  9
$PUCSORG
 10
0.0
 20
0.0
 30
0.0
  9
$PUCSXDIR
 10
1.0
 20
0.0
 30
0.0
  9
$PUCSYDIR
 10
0.0
 20
1.0
 30
0.0
  9
$PUCSORTHOREF
  2

  9
$PUCSORTHOVIEW
 70
     0
  9
$PUCSORGTOP
 10
0.0
 20
0.0
 30
0.0
  9
$PUCSORGBOTTOM
 10
0.0
 20
0.0
 30
0.0
  9
$PUCSORGLEFT
 10
0.0
 20
0.0
 30
0.0
  9
$PUCSORGRIGHT
 10
0.0
 20
0.0
 30
0.0
  9
$PUCSORGFRONT
 10
0.0
 20
0.0
 30
0.0
  9
$PUCSORGBACK
 10
0.0
 20
0.0
 30
0.0
  9
$USERI1
 70
     0
  9
$USERI2
 70
     0
  9
$USERI3
 70
     0
  9
$USERI4
 70
     0
  9
$USERI5
 70
     0
  9
$USERR1
 40
0.0
  9
$USERR2
 40
0.0
  9
$USERR3
 40
0.0
  9
$USERR4
 40
0.0
  9
$USERR5
 40
0.0
  9
$WORLDVIEW
 70
     1
  9
$SHADEDGE
 70
     3
  9
$SHADEDIF
 70
    70
  9
$TILEMODE
 70
     1
  9
$MAXACTVP
 70
    64
  9
$PINSBASE
 10
0.0
 20
0.0
 30
0.0
  9
$PLIMCHECK
 70
     0
  9
$PEXTMIN
 10
1.000000000000000E+20
 20
1.000000000000000E+20
 30
1.000000000000000E+20
  9
$PEXTMAX
 10
-1.000000000000000E+20
 20
-1.000000000000000E+20
 30
-1.000000000000000E+20
  9
$PLIMMIN
 10
0.0
 20
0.0
  9
$PLIMMAX
 10
12.0
 20
9.0
  9
$UNITMODE
 70
     0
  9
$VISRETAIN
 70
     1
  9
$PLINEGEN
 70
     0
  9
$PSLTSCALE
 70
     1
  9
$TREEDEPTH
 70
  3020
  9
$CMLSTYLE
  2
Standard
  9
$CMLJUST
 70
     0
  9
$CMLSCALE
 40
10.0
  9
$PROXYGRAPHICS
 70
     1
  9
$MEASUREMENT
 70
     1
  9
$CELWEIGHT
370
    -1
  9
$ENDCAPS
280
     0
  9
$JOINSTYLE
280
     0
  9
$LWDISPLAY
290
     0
  9
$INSUNITS
 70
     4
  9
$HYPERLINKBASE
  1

  9
$STYLESHEET
  1

  9
$XEDIT
290
     1
  9
$CEPSNTYPE
380
     0
  9
$PSTYLEMODE
290
     0
  9
$FINGERPRINTGUID
  2
{7823C2AA-AC06-4227-B530-443B39051AA8}
  9
$VERSIONGUID
  2
{1542DC7E-871C-436F-AB25-FB0946F2D864}
  9
$EXTNAMES
290
     1
  9
$PSVPSCALE
 40
0.0
  9
$OLESTARTUP
290
     0
  0
ENDSEC
  0
SECTION
  2
CLASSES
  0
CLASS
  1
ACDBDICTIONARYWDFLT
  2
AcDbDictionaryWithDefault
  3
ObjectDBX Classes
 90
        0
280
     0
281
     0
  0
CLASS
  1
MATERIAL
  2
AcDbMaterial
  3
ObjectDBX Classes
 90
     1153
280
     0
281
     0
  0
CLASS
  1
VISUALSTYLE
  2
AcDbVisualStyle
  3
ObjectDBX Classes
 90
     4095
280
     0
281
     0
  0
CLASS
  1
SCALE
  2
AcDbScale
  3
ObjectDBX Classes
 90
     1153
280
     0
281
     0
  0
CLASS
  1
TABLESTYLE
  2
AcDbTableStyle
  3
ObjectDBX Classes
 90
     4095
280
     0
281
     0
  0
CLASS
  1
MLEADERSTYLE
  2
AcDbMLeaderStyle
  3
ACDB_MLEADERSTYLE_CLASS
 90
     4095
280
     0
281
     0
  0
CLASS
  1
SORTENTSTABLE
  2
AcDbSortentsTable
  3
ObjectDBX Classes
 90
        0
280
     0
281
     0
  0
CLASS
  1
DICTIONARYVAR
  2
AcDbDictionaryVar
  3
ObjectDBX Classes
 90
        0
280
     0
281
     0
  0
CLASS
  1
CELLSTYLEMAP
  2
AcDbCellStyleMap
  3
ObjectDBX Classes
 90
     1152
280
     0
281
     0
  0
CLASS
  1
ACDBPLACEHOLDER
  2
AcDbPlaceHolder
  3
ObjectDBX Classes
 90
        0
280
     0
281
     0
  0
CLASS
  1
LAYOUT
  2
AcDbLayout
  3
ObjectDBX Classes
 90
        0
280
     0
281
     0
  0
ENDSEC
  0
SECTION
  2
TABLES
  0
TABLE
  2
VPORT
  5
8
330
0
100
AcDbSymbolTable
 70
     1
  0
VPORT
  5
57
330
8
100
AcDbSymbolTableRecord
100
AcDbViewportTableRecord
  2
*Active
 70
     0
 10
0.0
 20
0.0
 11
1.0
 21
1.0
 12
319.8526655400688
 22
412.4026077566544
 13
0.0
 23
0.0
 14
10.0
 24
10.0
 15
10.0
 25
10.0
 16
0.0
 26
0.0
 36
1.0
 17
0.0
 27
0.0
 37
0.0
 40
553.0874995666846
 41
2.026347305389221
 42
50.0
 43
0.0
 44
0.0
 50
0.0
 51
0.0
 71
     0
 72
  1000
 73
     1
 74
     1
 75
     0
 76
     0
 77
     0
 78
     0
281
     0
 65
     1
110
0.0
120
0.0
130
0.0
111
1.0
121
0.0
131
0.0
112
0.0
122
1.0
132
0.0
 79
     0
146
0.0
1001
ACAD_NAV_VCDISPLAY
1070
     3
  0
ENDTAB
  0
TABLE
  2
LTYPE
  5
5
330
0
100
AcDbSymbolTable
 70
     4
  0
LTYPE
  5
5B
330
5
100
AcDbSymbolTableRecord
100
AcDbLinetypeTableRecord
  2
ByBlock
 70
     0
  3

 72
    65
 73
     0
 40
0.0
  0
LTYPE
  5
5C
330
5
100
AcDbSymbolTableRecord
100
AcDbLinetypeTableRecord
  2
ByLayer
 70
     0
  3

 72
    65
 73
     0
 40
0.0
  0
LTYPE
  5
5D
330
5
100
AcDbSymbolTableRecord
100
AcDbLinetypeTableRecord
  2
Continuous
 70
     0
  3
Solid line
 72
    65
 73
     0
 40
0.0
  0
LTYPE
  5
7B
330
5
100
AcDbSymbolTableRecord
100
AcDbLinetypeTableRecord
  2
DOT_CENTER
 70
     0
  3
Dot_Center
 72
    65
 73
     4
 40
14.0
 49
12.0
 74
     0
 49
-1.0
 74
     0
 49
0.0
 74
     0
 49
-1.0
 74
     0
  0
LTYPE
  5
7C
330
5
100
AcDbSymbolTableRecord
100
AcDbLinetypeTableRecord
  2
DASH_CENTER
 70
     0
  3
Dash_Center
 72
    65
 73
     4
 40
14.0
 49
11.0
 74
     0
 49
-1.0
 74
     0
 49
1.0
 74
     0
 49
-1.0
 74
     0
  0
ENDTAB
  0
TABLE
  2
LAYER
  5
2
330
0
100
AcDbSymbolTable
 70
     4
  0
LAYER
  5
54
102
{ACAD_XDICTIONARY
360
841
102
}
330
2
100
AcDbSymbolTableRecord
100
AcDbLayerTableRecord
  2
0
 70
     0
 62
     7
  6
Continuous
370
    35
390
AB
1001
AcAecLayerStandard
1000

1000

  0
LAYER
  5
75
330
2
100
AcDbSymbolTableRecord
100
AcDbLayerTableRecord
  2
Defpoints
 70
     0
 62
     7
  6
Continuous
290
     0
370
    -3
390
AB
1001
AcAecLayerStandard
1000

1000

  0
LAYER
  5
BF
102
{ACAD_XDICTIONARY
360
C0
102
}
330
2
100
AcDbSymbolTableRecord
100
AcDbLayerTableRecord
  2
viewports
 70
     0
 62
     5
  6
Continuous
290
     0
370
    18
390
AB
1001
AcAecLayerStandard
1000

1000

  0
LAYER
  5
C4
102
{ACAD_XDICTIONARY
360
C5
102
}
330
2
100
AcDbSymbolTableRecord
100
AcDbLayerTableRecord
  2
1
 70
     0
 62
     7
  6
Continuous
370
    -3
390
AB
  0
ENDTAB
  0
TABLE
  2
STYLE
  5
3
330
0
100
AcDbSymbolTable
 70
     7
  0
STYLE
  5
55
330
3
100
AcDbSymbolTableRecord
100
AcDbTextStyleTableRecord
  2
Standard
 70
     0
 40
0.0
 41
1.0
 50
0.0
 71
     0
 42
2.5
  3
txt
  4

  0
STYLE
  5
5A
330
3
100
AcDbSymbolTableRecord
100
AcDbTextStyleTableRecord
  2
Annotative
 70
     0
 40
0.0
 41
1.0
 50
0.0
 71
     0
 42
0.2
  3
txt
  4

1001
AcadAnnotative
1000
AnnotativeData
1002
{
1070
     1
1070
     1
1002
}
  0
STYLE
  5
76
330
3
100
AcDbSymbolTableRecord
100
AcDbTextStyleTableRecord
  2
ATOM
 70
     0
 40
0.0
 41
0.9
 50
0.0
 71
     0
 42
3.0
  3
txt.shx
  4
extfont.shx
1001
AcadAnnotative
1000
AnnotativeData
1002
{
1070
     1
1070
     1
1002
}
  0
STYLE
  5
77
330
3
100
AcDbSymbolTableRecord
100
AcDbTextStyleTableRecord
  2
CONVERTER_1
 70
     0
 40
0.0
 41
0.63
 50
0.0
 71
     0
 42
0.2
  3
simplex.shx
  4

  0
STYLE
  5
78
330
3
100
AcDbSymbolTableRecord
100
AcDbTextStyleTableRecord
  2
CONVERTER_2
 70
     0
 40
0.0
 41
0.6230000000000002
 50
0.0
 71
     0
 42
0.2
  3
simplex.shx
  4
extfont2.shx
  0
STYLE
  5
79
330
3
100
AcDbSymbolTableRecord
100
AcDbTextStyleTableRecord
  2
CONVERTER_3
 70
     0
 40
0.0
 41
0.89
 50
0.0
 71
     0
 42
0.2
  3
simplex.shx
  4
extfont2.shx
  0
STYLE
  5
7A
330
3
100
AcDbSymbolTableRecord
100
AcDbTextStyleTableRecord
  2
CONVERTER_4
 70
     0
 40
0.0
 41
0.6650000000000001
 50
0.0
 71
     0
 42
0.2
  3
simplex.shx
  4

  0
ENDTAB
  0
TABLE
  2
VIEW
  5
6
330
0
100
AcDbSymbolTable
 70
     0
  0
ENDTAB
  0
TABLE
  2
UCS
  5
7
330
0
100
AcDbSymbolTable
 70
     0
  0
ENDTAB
  0
TABLE
  2
APPID
  5
9
330
0
100
AcDbSymbolTable
 70
    10
  0
APPID
  5
56
330
9
100
AcDbSymbolTableRecord
100
AcDbRegAppTableRecord
  2
ACAD
 70
     0
  0
APPID
  5
5E
330
9
100
AcDbSymbolTableRecord
100
AcDbRegAppTableRecord
  2
AcadAnnotative
 70
     0
  0
APPID
  5
74
330
9
100
AcDbSymbolTableRecord
100
AcDbRegAppTableRecord
  2
ACAD_PSEXT
 70
     0
  0
APPID
  5
86
330
9
100
AcDbSymbolTableRecord
100
AcDbRegAppTableRecord
  2
ACAD_DSTYLE_DIMBREAK
 70
     0
  0
APPID
  5
87
330
9
100
AcDbSymbolTableRecord
100
AcDbRegAppTableRecord
  2
ACAD_DSTYLE_DIMJAG
 70
     0
  0
APPID
  5
88
330
9
100
AcDbSymbolTableRecord
100
AcDbRegAppTableRecord
  2
ACAD_DSTYLE_DIMTALN
 70
     0
  0
APPID
  5
C2
330
9
100
AcDbSymbolTableRecord
100
AcDbRegAppTableRecord
  2
AcAecLayerStandard
 70
     0
  0
APPID
  5
84A
330
9
100
AcDbSymbolTableRecord
100
AcDbRegAppTableRecord
  2
ACAD_NAV_VCDISPLAY
 70
     0
  0
APPID
  5
8C6
330
9
100
AcDbSymbolTableRecord
100
AcDbRegAppTableRecord
  2
ACAD_MLEADERVER
 70
     0
  0
APPID
  5
8DB
330
9
100
AcDbSymbolTableRecord
100
AcDbRegAppTableRecord
  2
DCO15
 70
     0
  0
ENDTAB
  0
TABLE
  2
DIMSTYLE
  5
A
330
0
100
AcDbSymbolTable
 70
    27
100
AcDbDimStyleTable
 71
     1
340
7E
  0
DIMSTYLE
105
58
330
A
100
AcDbSymbolTableRecord
100
AcDbDimStyleTableRecord
  2
Standard
 70
     0
340
55
  0
DIMSTYLE
105
59
330
A
100
AcDbSymbolTableRecord
100
AcDbDimStyleTableRecord
  2
Annotative
 70
     0
340
55
1001
AcadAnnotative
1000
AnnotativeData
1002
{
1070
     1
1070
     1
1002
}
  0
DIMSTYLE
105
7E
330
A
100
AcDbSymbolTableRecord
100
AcDbDimStyleTableRecord
  2
ATOM
 70
     0
 40
0.0
 41
2.0
 42
2.0
 43
7.0
 44
1.0
 47
0.1
 48
0.1
 73
     0
 74
     0
 77
     1
 78
     8
140
3.0
141
-2.5
143
0.03937007874016
146
0.4999999999999998
147
0.625
171
     3
172
     1
178
     3
271
     2
272
     2
274
     3
276
     2
279
     1
283
     0
284
     8
289
     0
340
76
341
80
342
80
1001
ACAD_DSTYLE_DIMBREAK
1070
   391
1040
3.75
1001
AcadAnnotative
1000
AnnotativeData
1002
{
1070
     1
1070
     1
1002
}
1001
ACAD_DSTYLE_DIMJAG
1070
   388
1040
1.5
1001
ACAD_DSTYLE_DIMTALN
1070
   392
1070
     0
  0
DIMSTYLE
105
89
330
A
100
AcDbSymbolTableRecord
100
AcDbDimStyleTableRecord
  2
ME10_DIM_0
 70
     0
 41
2.449999999999999
 42
1.0
 44
1.0
 73
     0
 74
     0
 77
     1
 78
     8
140
3.5
147
1.0
172
     1
173
     1
176
     2
177
     2
178
     3
271
     2
340
7A
343
80
344
80
  0
DIMSTYLE
105
8B
330
A
100
AcDbSymbolTableRecord
100
AcDbDimStyleTableRecord
  2
ME10_DIM_1
 70
     0
 41
2.449999999999999
 42
1.0
 44
1.0
 73
     0
 74
     0
 77
     1
 78
     8
140
3.5
147
1.0
172
     1
173
     1
176
     2
177
     2
178
     3
271
     2
340
7A
343
80
344
80
  0
DIMSTYLE
105
8C
330
A
100
AcDbSymbolTableRecord
100
AcDbDimStyleTableRecord
  2
ME10_DIM_2
 70
     0
 41
1.0
 42
1.0
 44
1.0
 73
     0
 74
     0
 77
     1
 78
     8
140
3.5
147
1.0
172
     1
173
     1
176
     2
177
     2
178
     3
271
     2
340
7A
343
80
344
8D
  0
DIMSTYLE
105
92
330
A
100
AcDbSymbolTableRecord
100
AcDbDimStyleTableRecord
  2
ME10_DIM_3
 70
     0
 41
2.449999999999999
 42
1.0
 44
1.0
 73
     0
 74
     0
 77
     1
 78
     8
140
3.5
147
1.0
172
     1
173
     1
176
     2
177
     2
178
     3
271
     2
340
7A
343
93
344
80
  0
DIMSTYLE
105
96
330
A
100
AcDbSymbolTableRecord
100
AcDbDimStyleTableRecord
  2
ME10_DIM_4
 70
     0
 41
2.449999999999999
 42
1.0
 44
1.0
 73
     0
 74
     0
 77
     1
 78
     8
140
3.5
147
1.0
172
     1
173
     1
176
     2
177
     2
178
     3
271
     2
340
7A
343
80
344
80
  0
DIMSTYLE
105
97
330
A
100
AcDbSymbolTableRecord
100
AcDbDimStyleTableRecord
  2
ME10_DIM_5
 70
     0
 41
2.449999999999999
 42
1.0
 44
1.0
 73
     0
 74
     0
 77
     1
 78
     8
140
3.5
147
1.0
172
     1
173
     1
176
     2
177
     2
178
     3
271
     2
340
7A
343
80
344
80
  0
DIMSTYLE
105
98
330
A
100
AcDbSymbolTableRecord
100
AcDbDimStyleTableRecord
  2
ME10_DIM_6
 70
     0
 41
2.449999999999999
 42
1.0
 44
1.0
 73
     0
 74
     0
 77
     1
 78
     8
140
3.5
147
1.0
172
     1
173
     1
176
     2
177
     2
178
     3
271
     2
340
7A
343
80
344
80
  0
DIMSTYLE
105
99
330
A
100
AcDbSymbolTableRecord
100
AcDbDimStyleTableRecord
  2
ME10_DIM_7
 70
     0
 41
2.449999999999999
 42
1.0
 44
1.0
 73
     0
 74
     0
 77
     1
 78
     8
140
3.5
147
1.0
172
     1
173
     1
176
     2
177
     2
178
     3
271
     2
340
7A
343
80
344
80
  0
DIMSTYLE
105
9A
330
A
100
AcDbSymbolTableRecord
100
AcDbDimStyleTableRecord
  2
ME10_DIM_8
 70
     0
 41
2.449999999999999
 42
1.0
 44
1.0
 73
     0
 74
     0
 77
     1
 78
     8
140
3.5
147
1.0
172
     1
173
     1
176
     2
177
     2
178
     3
271
     2
340
7A
343
80
344
80
  0
DIMSTYLE
105
9B
330
A
100
AcDbSymbolTableRecord
100
AcDbDimStyleTableRecord
  2
ME10_DIM_9
 70
     0
 41
2.449999999999999
 42
1.0
 44
1.0
 73
     0
 74
     0
 77
     1
 78
     8
140
3.5
147
1.0
172
     1
173
     1
176
     2
177
     2
178
     3
271
     2
340
7A
343
80
344
80
  0
DIMSTYLE
105
9C
330
A
100
AcDbSymbolTableRecord
100
AcDbDimStyleTableRecord
  2
ME10_DIM_10
 70
     0
 41
2.449999999999999
 42
1.0
 44
1.0
 73
     0
 74
     0
 77
     1
 78
     8
140
3.5
147
1.0
172
     1
173
     1
176
     2
177
     2
178
     3
271
     2
340
7A
343
80
344
80
  0
DIMSTYLE
105
9D
330
A
100
AcDbSymbolTableRecord
100
AcDbDimStyleTableRecord
  2
ME10_DIM_11
 70
     0
 41
2.449999999999999
 42
1.0
 44
1.0
 73
     0
 74
     0
 77
     1
 78
     8
140
3.5
147
1.0
172
     1
173
     1
176
     2
177
     2
178
     3
271
     2
340
7A
343
80
344
80
  0
DIMSTYLE
105
9E
330
A
100
AcDbSymbolTableRecord
100
AcDbDimStyleTableRecord
  2
ME10_DIM_12
 70
     0
 41
2.449999999999999
 42
1.0
 44
1.0
 73
     0
 74
     0
 77
     1
 78
     8
140
3.5
147
1.0
172
     1
173
     1
176
     2
177
     2
178
     3
271
     2
340
7A
343
80
344
80
  0
DIMSTYLE
105
9F
330
A
100
AcDbSymbolTableRecord
100
AcDbDimStyleTableRecord
  2
ME10_DIM_13
 70
     0
 41
2.449999999999999
 42
1.0
 44
1.0
 73
     0
 74
     0
 77
     1
 78
     8
140
3.5
147
1.0
172
     1
173
     1
176
     2
177
     2
178
     3
271
     2
340
7A
343
80
344
80
  0
DIMSTYLE
105
A0
330
A
100
AcDbSymbolTableRecord
100
AcDbDimStyleTableRecord
  2
ME10_DIM_14
 70
     0
 41
2.449999999999999
 42
1.0
 44
1.0
 73
     0
 74
     0
 77
     1
 78
     8
140
3.5
147
1.0
172
     1
173
     1
176
     2
177
     2
178
     3
271
     2
340
7A
343
80
344
80
  0
DIMSTYLE
105
A1
330
A
100
AcDbSymbolTableRecord
100
AcDbDimStyleTableRecord
  2
ME10_DIM_15
 70
     0
 41
2.449999999999999
 42
1.0
 44
1.0
 73
     0
 74
     0
 77
     1
 78
     8
140
3.5
147
1.0
172
     1
173
     1
176
     2
177
     2
178
     3
271
     2
340
7A
343
80
344
80
  0
DIMSTYLE
105
A2
330
A
100
AcDbSymbolTableRecord
100
AcDbDimStyleTableRecord
  2
ME10_DIM_16
 70
     0
 41
2.449999999999999
 42
1.0
 44
1.0
 73
     0
 74
     0
 77
     1
 78
     8
140
3.5
147
1.0
172
     1
173
     1
176
     2
177
     2
178
     3
271
     2
340
7A
343
80
344
80
  0
DIMSTYLE
105
A3
330
A
100
AcDbSymbolTableRecord
100
AcDbDimStyleTableRecord
  2
ME10_DIM_17
 70
     0
 41
2.449999999999999
 42
1.0
 44
1.0
 73
     0
 74
     0
 77
     1
 78
     8
140
3.5
147
1.0
172
     1
173
     1
176
     2
177
     2
178
     3
271
     2
340
7A
343
80
344
80
  0
DIMSTYLE
105
A4
330
A
100
AcDbSymbolTableRecord
100
AcDbDimStyleTableRecord
  2
ME10_DIM_18
 70
     0
 41
3.5
 42
1.0
 44
1.0
 73
     0
 74
     0
 77
     1
 78
     8
140
3.5
147
0.5
172
     1
173
     1
176
     2
177
     2
178
     3
271
     3
340
77
343
80
344
80
  0
DIMSTYLE
105
A6
330
A
100
AcDbSymbolTableRecord
100
AcDbDimStyleTableRecord
  2
ME10_DIM_19
 70
     0
 41
3.5
 42
1.0
 44
1.0
 73
     0
 74
     0
 77
     1
 78
     8
140
3.5
147
0.5
172
     1
173
     1
176
     2
177
     2
178
     3
271
     3
340
77
343
80
344
80
  0
DIMSTYLE
105
A7
330
A
100
AcDbSymbolTableRecord
100
AcDbDimStyleTableRecord
  2
ME10_DIM_20
 70
     0
 41
2.449999999999999
 42
1.0
 44
1.0
 73
     0
 74
     0
 77
     1
 78
     8
140
3.5
147
1.0
172
     1
173
     1
176
     2
177
     2
178
     3
271
     2
340
7A
343
80
344
80
  0
DIMSTYLE
105
A8
330
A
100
AcDbSymbolTableRecord
100
AcDbDimStyleTableRecord
  2
ME10_DIM_21
 70
     0
 41
2.449999999999999
 42
1.0
 44
1.0
 73
     0
 74
     0
 77
     1
 78
     8
140
3.5
147
1.0
172
     1
173
     1
176
     2
177
     2
178
     3
271
     2
340
7A
343
80
344
80
  0
DIMSTYLE
105
A9
330
A
100
AcDbSymbolTableRecord
100
AcDbDimStyleTableRecord
  2
ME10_DIM_22
 70
     0
 41
2.449999999999999
 42
1.0
 44
1.0
 73
     0
 74
     0
 77
     1
 78
     8
140
3.5
147
1.0
172
     1
173
     1
176
     2
177
     2
178
     3
271
     2
340
7A
343
80
344
80
  0
ENDTAB
  0
TABLE
  2
BLOCK_RECORD
  5
1
330
0
100
AcDbSymbolTable
 70
    32
  0
BLOCK_RECORD
  5
6C
102
{ACAD_XDICTIONARY
360
754
102
}
330
1
100
AcDbSymbolTableRecord
100
AcDbBlockTableRecord
  2
*Model_Space
340
6F
  0
BLOCK_RECORD
  5
68
330
1
100
AcDbSymbolTableRecord
100
AcDbBlockTableRecord
  2
*Paper_Space
340
6B
  0
BLOCK_RECORD
  5
70
330
1
100
AcDbSymbolTableRecord
100
AcDbBlockTableRecord
  2
*Paper_Space0
340
73
  0
BLOCK_RECORD
  5
80
330
1
100
AcDbSymbolTableRecord
100
AcDbBlockTableRecord
  2
_Open30
340
0
310
2800000020000000200000000100080000000000000400000000000000000000000000000000000000000000000080000080000000808000800000008000800080800000C0C0C000C0DCC000F0CAA6000020400000206000002080000020A0000020C0000020E00000400000004020000040400000406000004080000040A0
310
000040C0000040E00000600000006020000060400000606000006080000060A0000060C0000060E00000800000008020000080400000806000008080000080A0000080C0000080E00000A0000000A0200000A0400000A0600000A0800000A0A00000A0C00000A0E00000C0000000C0200000C0400000C0600000C0800000C0
310
A00000C0C00000C0E00000E0000000E0200000E0400000E0600000E0800000E0A00000E0C00000E0E00040000000400020004000400040006000400080004000A0004000C0004000E00040200000402020004020400040206000402080004020A0004020C0004020E000404000004040200040404000404060004040800040
310
40A0004040C0004040E00040600000406020004060400040606000406080004060A0004060C0004060E00040800000408020004080400040806000408080004080A0004080C0004080E00040A0000040A0200040A0400040A0600040A0800040A0A00040A0C00040A0E00040C0000040C0200040C0400040C0600040C08000
310
40C0A00040C0C00040C0E00040E0000040E0200040E0400040E0600040E0800040E0A00040E0C00040E0E00080000000800020008000400080006000800080008000A0008000C0008000E00080200000802020008020400080206000802080008020A0008020C0008020E00080400000804020008040400080406000804080
310
008040A0008040C0008040E00080600000806020008060400080606000806080008060A0008060C0008060E00080800000808020008080400080806000808080008080A0008080C0008080E00080A0000080A0200080A0400080A0600080A0800080A0A00080A0C00080A0E00080C0000080C0200080C0400080C0600080C0
310
800080C0A00080C0C00080C0E00080E0000080E0200080E0400080E0600080E0800080E0A00080E0C00080E0E000C0000000C0002000C0004000C0006000C0008000C000A000C000C000C000E000C0200000C0202000C0204000C0206000C0208000C020A000C020C000C020E000C0400000C0402000C0404000C0406000C0
310
408000C040A000C040C000C040E000C0600000C0602000C0604000C0606000C0608000C060A000C060C000C060E000C0800000C0802000C0804000C0806000C0808000C080A000C080C000C080E000C0A00000C0A02000C0A04000C0A06000C0A08000C0A0A000C0A0C000C0A0E000C0C00000C0C02000C0C04000C0C06000
310
C0C08000C0C0A000F0FBFF00A4A0A000808080000000FF0000FF000000FFFF00FF000000FF00FF00FFFF0000FFFFFF0000000000000000000000000000000000000000000000000000000000000000000000000000000000000000000000000000000000000000000000000000000000000000000000000000000000000000
310
00000000000000000000000000000000000000000000000000000000000000000000000000000000000000000000000000000000000000000000000000000000000000000000000000000000000000000000000000000000000000000000000000000000000000000000000000000000000000000000000000000000000000
310
000000000000000000000000000000000000000000000000000000000000000000000000000000000000000000000000000000FFFF0000000000000000000000000000000000000000000000000000000000000000FFFFFFFF0000000000000000000000000000000000000000000000000000000000000000FFFFFFFF0000
310
000000000000000000000000000000000000000000000000000000000000FFFFFF0000000000000000000000000000000000000000000000000000000000000000FFFFFFFF0000000000000000000000000000000000000000000000000000000000000000FFFFFF0000000000000000000000000000000000000000000000
310
000000000000000000FFFFFFFF0000000000000000000000000000000000000000000000000000000000000000FFFFFFFF00000000FFFFFFFFFFFFFFFFFFFFFFFFFFFFFFFFFFFFFFFFFFFFFFFFFFFFFFFFFFFF00000000000000000000000000000000000000000000000000FFFFFFFF000000000000000000000000000000
310
000000000000000000FFFFFFFF000000000000000000000000000000000000000000000000FFFFFFFF000000000000000000000000000000000000000000000000FFFFFFFF000000000000000000000000000000000000000000000000FFFFFFFF000000000000000000000000000000000000000000000000FFFFFFFF0000
310
0000000000000000000000000000000000000000000000FFFFFF0000000000000000000000000000000000000000000000000000000000000000000000000000000000000000000000000000000000000000000000000000000000000000000000000000000000000000000000000000000000000000000000000000000000
310
00000000000000000000000000000000000000000000000000000000000000000000000000000000000000000000000000000000000000000000000000000000000000000000000000000000000000000000000000000000000000000000000000000000000000000000000000000000000000000000000000000000000000
310
0000000000000000000000000000000000000000000000000000000000000000000000000000000000000000000000000000000000000000
102
{BLKREFS
331
778
331
780
331
781
331
78B
331
78C
331
797
331
7A1
331
7A9
331
7AA
331
7B2
331
7B3
331
7BD
331
7BE
331
7C6
331
7C7
331
7CF
331
7D0
331
7D8
331
7D9
331
7E1
331
7E2
331
7EA
331
7EB
331
75A
331
75B
331
765
331
766
331
76E
331
76F
331
777
331
7F3
331
7F4
331
7FC
331
7FD
331
805
331
806
331
80E
331
80F
331
819
331
81A
331
822
331
823
331
82B
331
82C
102
}
  0
BLOCK_RECORD
  5
8D
330
1
100
AcDbSymbolTableRecord
100
AcDbBlockTableRecord
  2
_Dot
340
0
102
{BLKREFS
331
796
102
}
  0
BLOCK_RECORD
  5
93
330
1
100
AcDbSymbolTableRecord
100
AcDbBlockTableRecord
  2
_None
340
0
  0
BLOCK_RECORD
  5
375
330
1
100
AcDbSymbolTableRecord
100
AcDbBlockTableRecord
  2
*D4
340
0
  0
BLOCK_RECORD
  5
37D
330
1
100
AcDbSymbolTableRecord
100
AcDbBlockTableRecord
  2
_2__1
340
0
102
{BLKREFS
331
37C
102
}
  0
BLOCK_RECORD
  5
388
330
1
100
AcDbSymbolTableRecord
100
AcDbBlockTableRecord
  2
_4
340
0
102
{BLKREFS
331
387
102
}
  0
BLOCK_RECORD
  5
390
330
1
100
AcDbSymbolTableRecord
100
AcDbBlockTableRecord
  2
_6
340
0
102
{BLKREFS
331
38F
102
}
  0
BLOCK_RECORD
  5
3A5
330
1
100
AcDbSymbolTableRecord
100
AcDbBlockTableRecord
  2
*D8
340
0
  0
BLOCK_RECORD
  5
3B1
330
1
100
AcDbSymbolTableRecord
100
AcDbBlockTableRecord
  2
*D9
340
0
  0
BLOCK_RECORD
  5
3BF
330
1
100
AcDbSymbolTableRecord
100
AcDbBlockTableRecord
  2
*D10
340
0
  0
BLOCK_RECORD
  5
3CB
330
1
100
AcDbSymbolTableRecord
100
AcDbBlockTableRecord
  2
*D11
340
0
  0
BLOCK_RECORD
  5
3D7
330
1
100
AcDbSymbolTableRecord
100
AcDbBlockTableRecord
  2
*D12
340
0
  0
BLOCK_RECORD
  5
3E3
330
1
100
AcDbSymbolTableRecord
100
AcDbBlockTableRecord
  2
*D13
340
0
  0
BLOCK_RECORD
  5
3F1
330
1
100
AcDbSymbolTableRecord
100
AcDbBlockTableRecord
  2
*D14
340
0
  0
BLOCK_RECORD
  5
3FF
330
1
100
AcDbSymbolTableRecord
100
AcDbBlockTableRecord
  2
*D15
340
0
  0
BLOCK_RECORD
  5
40C
330
1
100
AcDbSymbolTableRecord
100
AcDbBlockTableRecord
  2
*D16
340
0
  0
BLOCK_RECORD
  5
418
330
1
100
AcDbSymbolTableRecord
100
AcDbBlockTableRecord
  2
*D17
340
0
  0
BLOCK_RECORD
  5
424
330
1
100
AcDbSymbolTableRecord
100
AcDbBlockTableRecord
  2
*D18
340
0
  0
BLOCK_RECORD
  5
432
330
1
100
AcDbSymbolTableRecord
100
AcDbBlockTableRecord
  2
*D19
340
0
  0
BLOCK_RECORD
  5
43E
330
1
100
AcDbSymbolTableRecord
100
AcDbBlockTableRecord
  2
*D20
340
0
  0
BLOCK_RECORD
  5
44A
330
1
100
AcDbSymbolTableRecord
100
AcDbBlockTableRecord
  2
*D21
340
0
  0
BLOCK_RECORD
  5
456
330
1
100
AcDbSymbolTableRecord
100
AcDbBlockTableRecord
  2
*D22
340
0
  0
BLOCK_RECORD
  5
462
330
1
100
AcDbSymbolTableRecord
100
AcDbBlockTableRecord
  2
*D23
340
0
  0
BLOCK_RECORD
  5
46E
330
1
100
AcDbSymbolTableRecord
100
AcDbBlockTableRecord
  2
*D24
340
0
  0
BLOCK_RECORD
  5
47A
330
1
100
AcDbSymbolTableRecord
100
AcDbBlockTableRecord
  2
*D25
340
0
  0
BLOCK_RECORD
  5
486
330
1
100
AcDbSymbolTableRecord
100
AcDbBlockTableRecord
  2
*D26
340
0
  0
BLOCK_RECORD
  5
492
330
1
100
AcDbSymbolTableRecord
100
AcDbBlockTableRecord
  2
*D27
340
0
  0
BLOCK_RECORD
  5
49E
330
1
100
AcDbSymbolTableRecord
100
AcDbBlockTableRecord
  2
*D28
340
0
  0
BLOCK_RECORD
  5
4AC
330
1
100
AcDbSymbolTableRecord
100
AcDbBlockTableRecord
  2
*D29
340
0
  0
BLOCK_RECORD
  5
4B8
330
1
100
AcDbSymbolTableRecord
100
AcDbBlockTableRecord
  2
*D30
340
0
  0
ENDTAB
  0
ENDSEC
  0
SECTION
  2
BLOCKS
  0
BLOCK
  5
6D
330
6C
100
AcDbEntity
  8
0
100
AcDbBlockBegin
  2
*Model_Space
 70
     0
 10
0.0
 20
0.0
 30
0.0
  3
*Model_Space
  1

  0
ENDBLK
  5
6E
330
6C
100
AcDbEntity
  8
0
100
AcDbBlockEnd
  0
BLOCK
  5
69
330
68
100
AcDbEntity
 67
     1
  8
0
100
AcDbBlockBegin
  2
*Paper_Space
 70
     0
 10
0.0
 20
0.0
 30
0.0
  3
*Paper_Space
  1

  0
ENDBLK
  5
6A
330
68
100
AcDbEntity
 67
     1
  8
0
100
AcDbBlockEnd
  0
BLOCK
  5
71
330
70
100
AcDbEntity
 67
     1
  8
0
100
AcDbBlockBegin
  2
*Paper_Space0
 70
     0
 10
0.0
 20
0.0
 30
0.0
  3
*Paper_Space0
  1

  0
ENDBLK
  5
72
330
70
100
AcDbEntity
 67
     1
  8
0
100
AcDbBlockEnd
  0
BLOCK
  5
81
330
80
100
AcDbEntity
  8
0
100
AcDbBlockBegin
  2
_Open30
 70
     0
 10
0.0
 20
0.0
 30
0.0
  3
_Open30
  1

  0
LINE
  5
82
330
80
100
AcDbEntity
  8
0
  6
ByBlock
 62
     0
370
    -2
100
AcDbLine
 10
-1.0
 20
0.26794919
 30
0.0
 11
0.0
 21
0.0
 31
0.0
  0
LINE
  5
83
330
80
100
AcDbEntity
  8
0
  6
ByBlock
 62
     0
370
    -2
100
AcDbLine
 10
0.0
 20
0.0
 30
0.0
 11
-1.0
 21
-0.26794919
 31
0.0
  0
LINE
  5
84
330
80
100
AcDbEntity
  8
0
  6
ByBlock
 62
     0
370
    -2
100
AcDbLine
 10
0.0
 20
0.0
 30
0.0
 11
-1.0
 21
0.0
 31
0.0
  0
ENDBLK
  5
85
330
80
100
AcDbEntity
  8
0
100
AcDbBlockEnd
  0
BLOCK
  5
8E
330
8D
100
AcDbEntity
  8
0
100
AcDbBlockBegin
  2
_Dot
 70
     0
 10
0.0
 20
0.0
 30
0.0
  3
_Dot
  1

  0
LWPOLYLINE
  5
8F
330
8D
100
AcDbEntity
  8
0
  6
ByBlock
 62
     0
100
AcDbPolyline
 90
        2
 70
     1
 43
0.5
 10
-0.25
 20
0.0
 42
1.0
 10
0.25
 20
0.0
 42
1.0
  0
LINE
  5
90
330
8D
100
AcDbEntity
  8
0
  6
ByBlock
 62
     0
370
    -2
100
AcDbLine
 10
-0.5
 20
0.0
 30
0.0
 11
-1.0
 21
0.0
 31
0.0
  0
ENDBLK
  5
91
330
8D
100
AcDbEntity
  8
0
100
AcDbBlockEnd
  0
BLOCK
  5
94
330
93
100
AcDbEntity
  8
0
100
AcDbBlockBegin
  2
_None
 70
     0
 10
0.0
 20
0.0
 30
0.0
  3
_None
  1

  0
ENDBLK
  5
95
330
93
100
AcDbEntity
  8
0
100
AcDbBlockEnd
  0
BLOCK
  5
376
330
375
100
AcDbEntity
  8
0
100
AcDbBlockBegin
  2
*D4
 70
     1
 10
0.0
 20
0.0
 30
0.0
  3
*D4
  1

  0
LINE
  5
377
330
375
100
AcDbEntity
  8
1
  6
Continuous
 62
     2
100
AcDbLine
 10
458.0466480845625
 20
314.7821047246675
 30
0.0
 11
481.3393693587826
 21
296.1798439239747
 31
0.0
  0
LINE
  5
378
330
375
100
AcDbEntity
  8
1
 62
     2
100
AcDbLine
 10
458.0466480845625
 20
314.7821047246675
 30
0.0
 11
460.3707238731933
 21
313.7661658293737
 31
0.0
  0
LINE
  5
379
330
375
100
AcDbEntity
  8
1
 62
     2
100
AcDbLine
 10
458.0466480845625
 20
314.7821047246675
 30
0.0
 11
459.5513873101904
 21
312.7402379383349
 31
0.0
  0
MTEXT
  5
37A
330
375
100
AcDbEntity
  8
1
 62
     3
100
AcDbMText
 10
477.4235306748606
 20
300.5869186228539
 30
0.0
 40
3.5
 41
0.0
 71
     7
 72
     1
  1
\C3;R\C3;10
  7
CONVERTER_4
 11
0.7813908192364841
 21
-0.6240419758421197
 31
0.0
 73
     1
 44
0.6002400960384156
1001
ACAD
1000
MTEXTBEGIN
1070
    73
1070
     1
1070
    44
1040
0.6002400960384156
1070
    74
1070
     0
1000
MTEXTEND
  0
ENDBLK
  5
37B
330
375
100
AcDbEntity
  8
0
100
AcDbBlockEnd
  0
BLOCK
  5
37E
330
37D
100
AcDbEntity
  8
0
100
AcDbBlockBegin
  2
_2__1
 70
     0
 10
2340.536256094429
 20
2537.464024618701
 30
0.0
  3
_2__1
  1

  0
LINE
  5
37F
330
37D
100
AcDbEntity
  8
1
  6
Continuous
 62
     7
100
AcDbLine
 10
435.2161892286475
 20
405.7479703019811
 30
0.0
 11
435.2161892286475
 21
403.7479703019811
 31
0.0
  0
LINE
  5
380
330
37D
100
AcDbEntity
  8
1
  6
Continuous
 62
     7
100
AcDbLine
 10
455.2161892286475
 20
405.7479703019811
 30
0.0
 11
455.2161892286475
 21
408.7479703019812
 31
0.0
  0
LINE
  5
381
330
37D
100
AcDbEntity
  8
1
  6
Continuous
 62
     7
100
AcDbLine
 10
435.2161892286475
 20
405.7479703019811
 30
0.0
 11
455.2161892286475
 21
405.7479703019811
 31
0.0
  0
LINE
  5
382
330
37D
100
AcDbEntity
  8
1
  6
Continuous
 62
     7
100
AcDbLine
 10
435.2161892286475
 20
408.7479703019812
 30
0.0
 11
435.2161892286475
 21
405.7479703019811
 31
0.0
  0
LINE
  5
383
330
37D
100
AcDbEntity
  8
1
  6
Continuous
 62
     7
100
AcDbLine
 10
455.2161892286475
 20
408.7479703019812
 30
0.0
 11
435.2161892286475
 21
408.7479703019812
 31
0.0
  0
LINE
  5
384
330
37D
100
AcDbEntity
  8
1
  6
Continuous
 62
     7
100
AcDbLine
 10
455.2161892286475
 20
403.7479703019811
 30
0.0
 11
455.2161892286475
 21
405.7479703019811
 31
0.0
  0
LINE
  5
385
330
37D
100
AcDbEntity
  8
1
  6
Continuous
 62
     7
100
AcDbLine
 10
435.2161892286475
 20
403.7479703019811
 30
0.0
 11
455.2161892286475
 21
403.7479703019811
 31
0.0
  0
ENDBLK
  5
386
330
37D
100
AcDbEntity
  8
0
100
AcDbBlockEnd
  0
BLOCK
  5
389
330
388
100
AcDbEntity
  8
0
100
AcDbBlockBegin
  2
_4
 70
     0
 10
2340.636256094429
 20
2565.092482044702
 30
0.0
  3
_4
  1

  0
LINE
  5
38A
330
388
100
AcDbEntity
  8
1
  6
Continuous
 62
     7
100
AcDbLine
 10
603.9661892286476
 20
408.7479703019812
 30
0.0
 11
603.9661892286476
 21
413.7479703019812
 31
0.0
  0
LINE
  5
38B
330
388
100
AcDbEntity
  8
1
  6
Continuous
 62
     7
100
AcDbLine
 10
442.2161892286474
 20
408.7479703019812
 30
0.0
 11
442.2161892286474
 21
413.7479703019812
 31
0.0
  0
LINE
  5
38C
330
388
100
AcDbEntity
  8
1
  6
Continuous
 62
     7
100
AcDbLine
 10
609.9661892286476
 20
413.7479703019812
 30
0.0
 11
609.9661892286476
 21
408.7479703019812
 31
0.0
  0
LINE
  5
38D
330
388
100
AcDbEntity
  8
1
  6
Continuous
 62
     7
100
AcDbLine
 10
448.2161892286476
 20
413.7479703019812
 30
0.0
 11
448.2161892286476
 21
408.7479703019812
 31
0.0
  0
ENDBLK
  5
38E
330
388
100
AcDbEntity
  8
0
100
AcDbBlockEnd
  0
BLOCK
  5
391
330
390
100
AcDbEntity
  8
0
100
AcDbBlockBegin
  2
_6
 70
     0
 10
2547.211074403826
 20
2458.557013028926
 30
0.0
  3
_6
  1

  0
LINE
  5
392
330
390
100
AcDbEntity
  8
1
  6
DOT_CENTER
 62
     2
100
AcDbLine
 10
606.9661892286476
 20
397.6479703019805
 30
0.0
 11
606.9661892286476
 21
461.7479703019811
 31
0.0
  0
LINE
  5
393
330
390
100
AcDbEntity
  8
1
  6
DOT_CENTER
 62
     2
100
AcDbLine
 10
445.2161892286476
 20
397.6479703019805
 30
0.0
 11
445.2161892286476
 21
461.7479703019811
 31
0.0
  0
ENDBLK
  5
394
330
390
100
AcDbEntity
  8
0
100
AcDbBlockEnd
  0
BLOCK
  5
3A6
330
3A5
100
AcDbEntity
  8
0
100
AcDbBlockBegin
  2
*D8
 70
     1
 10
0.0
 20
0.0
 30
0.0
  3
*D8
  1

  0
LINE
  5
757
330
3A5
100
AcDbEntity
  8
1
 62
     2
370
    -2
100
AcDbLine
 10
256.2416540294838
 20
314.6981390452741
 30
0.0
 11
279.1997707503055
 21
314.6981390452741
 31
0.0
  0
LINE
  5
758
330
3A5
100
AcDbEntity
  8
1
 62
     2
370
    -2
100
AcDbLine
 10
232.2416540603388
 20
324.6981390324176
 30
0.0
 11
279.1997707503055
 21
324.6981390324176
 31
0.0
  0
LINE
  5
759
330
3A5
100
AcDbEntity
  8
1
 62
     2
370
    -2
100
AcDbLine
 10
278.1997707515911
 20
318.1981390407743
 30
0.0
 11
278.1997707515911
 21
321.1981390369174
 31
0.0
  0
INSERT
  5
75A
330
3A5
100
AcDbEntity
  8
1
 62
     2
370
    -2
100
AcDbBlockReference
  2
_Open30
 10
278.1997707515911
 20
314.6981390452741
 30
0.0
 41
3.499999995500298
 42
3.499999995500298
 43
3.499999995500298
 50
270.0
  0
INSERT
  5
75B
330
3A5
100
AcDbEntity
  8
1
 62
     2
370
    -2
100
AcDbBlockReference
  2
_Open30
 10
278.1997707515911
 20
324.6981390324176
 30
0.0
 41
3.499999995500298
 42
3.499999995500298
 43
3.499999995500298
 50
90.0
  0
MTEXT
  5
75C
330
3A5
100
AcDbEntity
  8
1
 62
     3
100
AcDbMText
 10
275.9497707544837
 20
319.698139038846
 30
0.0
 40
3.499999995500298
 41
0.0
 71
     5
 72
     1
  1
\A1;10
  7
CONVERTER_1
 11
0.0000000000000001
 21
1.0
 31
0.0
 73
     1
 44
1.0
1001
ACAD
1000
MTEXTBEGIN
1070
    73
1070
     1
1070
    44
1040
1.0
1070
    74
1070
     0
1000
MTEXTEND
  0
POINT
  5
75D
330
3A5
100
AcDbEntity
  8
Defpoints
 62
     0
100
AcDbPoint
 10
255.2416540307694
 20
314.6981390452741
 30
0.0
  0
POINT
  5
75E
330
3A5
100
AcDbEntity
  8
Defpoints
 62
     0
100
AcDbPoint
 10
231.2416540616244
 20
324.6981390324176
 30
0.0
  0
POINT
  5
75F
330
3A5
100
AcDbEntity
  8
Defpoints
 62
     0
100
AcDbPoint
 10
278.1997707515911
 20
324.6981390324176
 30
0.0
  0
ENDBLK
  5
3A7
330
3A5
100
AcDbEntity
  8
0
100
AcDbBlockEnd
  0
BLOCK
  5
3B2
330
3B1
100
AcDbEntity
  8
0
100
AcDbBlockBegin
  2
*D9
 70
     1
 10
0.0
 20
0.0
 30
0.0
  3
*D9
  1

  0
LINE
  5
760
330
3B1
100
AcDbEntity
  8
1
 62
     2
370
    -2
100
AcDbLine
 10
189.2416541156209
 20
315.6981390439884
 30
0.0
 11
189.2416541156209
 21
294.1025461913871
 31
0.0
  0
LINE
  5
761
330
3B1
100
AcDbEntity
  8
1
 62
     2
370
    -2
100
AcDbLine
 10
187.7416541175493
 20
313.6981390465597
 30
0.0
 11
187.7416541175493
 21
294.1025461913871
 31
0.0
  0
LINE
  5
762
330
3B1
100
AcDbEntity
  8
1
 62
     2
370
    -2
100
AcDbLine
 10
192.7416541111211
 20
295.1025461901015
 30
0.0
 11
196.2416541066215
 21
295.1025461901015
 31
0.0
  0
LINE
  5
763
330
3B1
100
AcDbEntity
  8
1
 62
     2
370
    -2
100
AcDbLine
 10
184.2416541220489
 20
295.1025461901015
 30
0.0
 11
175.5416541332339
 21
295.1025461901015
 31
0.0
  0
LINE
  5
764
330
3B1
100
AcDbEntity
  8
1
 62
     2
370
    -2
100
AcDbLine
 10
189.2416541156209
 20
295.1025461901015
 30
0.0
 11
187.7416541175493
 21
295.1025461901015
 31
0.0
  0
INSERT
  5
765
330
3B1
100
AcDbEntity
  8
1
 62
     2
370
    -2
100
AcDbBlockReference
  2
_Open30
 10
189.2416541156209
 20
295.1025461901015
 30
0.0
 41
3.499999995500298
 42
3.499999995500298
 43
3.499999995500298
 50
180.0
  0
INSERT
  5
766
330
3B1
100
AcDbEntity
  8
1
 62
     2
370
    -2
100
AcDbBlockReference
  2
_Open30
 10
187.7416541175493
 20
295.1025461901015
 30
0.0
 41
3.499999995500298
 42
3.499999995500298
 43
3.499999995500298
  0
MTEXT
  5
767
330
3B1
100
AcDbEntity
  8
1
 62
     3
100
AcDbMText
 10
178.1416541298913
 20
297.3525461872089
 30
0.0
 40
3.499999995500298
 41
0.0
 71
     5
 72
     1
  1
\A1;1.5
  7
CONVERTER_1
 73
     1
 44
1.0
1001
ACAD
1000
MTEXTBEGIN
1070
    73
1070
     1
1070
    44
1040
1.0
1070
    74
1070
     0
1000
MTEXTEND
  0
POINT
  5
768
330
3B1
100
AcDbEntity
  8
Defpoints
 62
     0
100
AcDbPoint
 10
189.2416541156209
 20
316.6981390427029
 30
0.0
  0
POINT
  5
769
330
3B1
100
AcDbEntity
  8
Defpoints
 62
     0
100
AcDbPoint
 10
187.7416541175493
 20
314.6981390452741
 30
0.0
  0
POINT
  5
76A
330
3B1
100
AcDbEntity
  8
Defpoints
 62
     0
100
AcDbPoint
 10
187.7416541175493
 20
295.1025461901015
 30
0.0
  0
ENDBLK
  5
3B3
330
3B1
100
AcDbEntity
  8
0
100
AcDbBlockEnd
  0
BLOCK
  5
3C0
330
3BF
100
AcDbEntity
  8
0
100
AcDbBlockBegin
  2
*D10
 70
     1
 10
0.0
 20
0.0
 30
0.0
  3
*D10
  1

  0
LINE
  5
76B
330
3BF
100
AcDbEntity
  8
1
 62
     2
370
    -2
100
AcDbLine
 10
194.7416541085499
 20
370.1981389739217
 30
0.0
 11
194.7416541085499
 21
398.6981389372812
 31
0.0
  0
LINE
  5
76C
330
3BF
100
AcDbEntity
  8
1
 62
     2
370
    -2
100
AcDbLine
 10
231.2416540616244
 20
369.6981389745644
 30
0.0
 11
231.2416540616244
 21
398.6981389372812
 31
0.0
  0
LINE
  5
76D
330
3BF
100
AcDbEntity
  8
1
 62
     2
370
    -2
100
AcDbLine
 10
197.1916541054001
 20
397.6981389385668
 30
0.0
 11
228.7916540647742
 21
397.6981389385668
 31
0.0
  0
INSERT
  5
76E
330
3BF
100
AcDbEntity
  8
1
 62
     2
370
    -2
100
AcDbBlockReference
  2
_Open30
 10
194.7416541085499
 20
397.6981389385668
 30
0.0
 41
2.449999996850208
 42
2.449999996850208
 43
2.449999996850208
 50
180.0
  0
INSERT
  5
76F
330
3BF
100
AcDbEntity
  8
1
 62
     2
370
    -2
100
AcDbBlockReference
  2
_Open30
 10
231.2416540616244
 20
397.6981389385668
 30
0.0
 41
2.449999996850208
 42
2.449999996850208
 43
2.449999996850208
  0
MTEXT
  5
770
330
3BF
100
AcDbEntity
  8
1
 62
     3
100
AcDbMText
 10
212.9916540850872
 20
400.4481389350313
 30
0.0
 40
3.499999995500298
 41
0.0
 71
     5
 72
     1
  1
\A1;36.5
  7
CONVERTER_4
 73
     1
 44
1.0
1001
ACAD
1000
MTEXTBEGIN
1070
    73
1070
     1
1070
    44
1040
1.0
1070
    74
1070
     0
1000
MTEXTEND
  0
POINT
  5
771
330
3BF
100
AcDbEntity
  8
Defpoints
 62
     0
100
AcDbPoint
 10
194.7416541085499
 20
369.1981389752072
 30
0.0
  0
POINT
  5
772
330
3BF
100
AcDbEntity
  8
Defpoints
 62
     0
100
AcDbPoint
 10
231.2416540616244
 20
368.69813897585
 30
0.0
  0
POINT
  5
773
330
3BF
100
AcDbEntity
  8
Defpoints
 62
     0
100
AcDbPoint
 10
231.2416540616244
 20
397.6981389385668
 30
0.0
  0
ENDBLK
  5
3C1
330
3BF
100
AcDbEntity
  8
0
100
AcDbBlockEnd
  0
BLOCK
  5
3CC
330
3CB
100
AcDbEntity
  8
0
100
AcDbBlockBegin
  2
*D11
 70
     1
 10
0.0
 20
0.0
 30
0.0
  3
*D11
  1

  0
LINE
  5
774
330
3CB
100
AcDbEntity
  8
1
 62
     2
370
    -2
100
AcDbLine
 10
69.39165426970351
 20
324.6981390324176
 30
0.0
 11
90.39165424270526
 21
324.6981390324176
 31
0.0
  0
LINE
  5
775
330
3CB
100
AcDbEntity
  8
1
 62
     2
370
    -2
100
AcDbLine
 10
61.49165427985991
 20
369.6981389745644
 30
0.0
 11
90.39165424270526
 21
369.6981389745644
 31
0.0
  0
LINE
  5
776
330
3CB
100
AcDbEntity
  8
1
 62
     2
370
    -2
100
AcDbLine
 10
89.39165424399091
 20
327.1481390292679
 30
0.0
 11
89.39165424399091
 21
367.2481389777142
 31
0.0
  0
INSERT
  5
777
330
3CB
100
AcDbEntity
  8
1
 62
     2
370
    -2
100
AcDbBlockReference
  2
_Open30
 10
89.39165424399091
 20
324.6981390324176
 30
0.0
 41
2.449999996850208
 42
2.449999996850208
 43
2.449999996850208
 50
270.0
  0
INSERT
  5
778
330
3CB
100
AcDbEntity
  8
1
 62
     2
370
    -2
100
AcDbBlockReference
  2
_Open30
 10
89.39165424399091
 20
369.6981389745644
 30
0.0
 41
2.449999996850208
 42
2.449999996850208
 43
2.449999996850208
 50
90.0
  0
MTEXT
  5
779
330
3CB
100
AcDbEntity
  8
1
 62
     3
100
AcDbMText
 10
86.6416542475263
 20
347.1981390034911
 30
0.0
 40
3.499999995500298
 41
0.0
 71
     5
 72
     1
  1
\A1;45
  7
CONVERTER_4
 11
0.0000000000000001
 21
1.0
 31
0.0
 73
     1
 44
1.0
1001
ACAD
1000
MTEXTBEGIN
1070
    73
1070
     1
1070
    44
1040
1.0
1070
    74
1070
     0
1000
MTEXTEND
  0
POINT
  5
77A
330
3CB
100
AcDbEntity
  8
Defpoints
 62
     0
100
AcDbPoint
 10
68.39165427098913
 20
324.6981390324176
 30
0.0
  0
POINT
  5
77B
330
3CB
100
AcDbEntity
  8
Defpoints
 62
     0
100
AcDbPoint
 10
60.49165428114553
 20
369.6981389745644
 30
0.0
  0
POINT
  5
77C
330
3CB
100
AcDbEntity
  8
Defpoints
 62
     0
100
AcDbPoint
 10
89.39165424399091
 20
369.6981389745644
 30
0.0
  0
ENDBLK
  5
3CD
330
3CB
100
AcDbEntity
  8
0
100
AcDbBlockEnd
  0
BLOCK
  5
3D8
330
3D7
100
AcDbEntity
  8
0
100
AcDbBlockBegin
  2
*D12
 70
     1
 10
0.0
 20
0.0
 30
0.0
  3
*D12
  1

  0
LINE
  5
77D
330
3D7
100
AcDbEntity
  8
1
 62
     2
370
    -2
100
AcDbLine
 10
52.59165429130201
 20
362.7981389834354
 30
0.0
 11
52.59165429130201
 21
391.6981389462806
 31
0.0
  0
LINE
  5
77E
330
3D7
100
AcDbEntity
  8
1
 62
     2
370
    -2
100
AcDbLine
 10
68.39165427098913
 20
362.7981389834354
 30
0.0
 11
68.39165427098913
 21
391.6981389462806
 31
0.0
  0
LINE
  5
77F
330
3D7
100
AcDbEntity
  8
1
 62
     2
370
    -2
100
AcDbLine
 10
55.04165428815221
 20
390.6981389475662
 30
0.0
 11
65.94165427413891
 21
390.6981389475662
 31
0.0
  0
INSERT
  5
780
330
3D7
100
AcDbEntity
  8
1
 62
     2
370
    -2
100
AcDbBlockReference
  2
_Open30
 10
52.59165429130201
 20
390.6981389475662
 30
0.0
 41
2.449999996850208
 42
2.449999996850208
 43
2.449999996850208
 50
180.0
  0
INSERT
  5
781
330
3D7
100
AcDbEntity
  8
1
 62
     2
370
    -2
100
AcDbBlockReference
  2
_Open30
 10
68.39165427098913
 20
390.6981389475662
 30
0.0
 41
2.449999996850208
 42
2.449999996850208
 43
2.449999996850208
  0
MTEXT
  5
782
330
3D7
100
AcDbEntity
  8
1
 62
     3
100
AcDbMText
 10
60.49165428114557
 20
393.4481389440307
 30
0.0
 40
3.499999995500298
 41
0.0
 71
     5
 72
     1
  1
\A1;15.8
  7
CONVERTER_4
 73
     1
 44
1.0
1001
ACAD
1000
MTEXTBEGIN
1070
    73
1070
     1
1070
    44
1040
1.0
1070
    74
1070
     0
1000
MTEXTEND
  0
POINT
  5
783
330
3D7
100
AcDbEntity
  8
Defpoints
 62
     0
100
AcDbPoint
 10
52.59165429130201
 20
361.798138984721
 30
0.0
  0
POINT
  5
784
330
3D7
100
AcDbEntity
  8
Defpoints
 62
     0
100
AcDbPoint
 10
68.39165427098913
 20
361.798138984721
 30
0.0
  0
POINT
  5
785
330
3D7
100
AcDbEntity
  8
Defpoints
 62
     0
100
AcDbPoint
 10
68.39165427098913
 20
390.6981389475662
 30
0.0
  0
ENDBLK
  5
3D9
330
3D7
100
AcDbEntity
  8
0
100
AcDbBlockEnd
  0
BLOCK
  5
3E4
330
3E3
100
AcDbEntity
  8
0
100
AcDbBlockBegin
  2
*D13
 70
     1
 10
0.0
 20
0.0
 30
0.0
  3
*D13
  1

  0
LINE
  5
786
330
3E3
100
AcDbEntity
  8
1
 62
     2
370
    -2
100
AcDbLine
 10
36.80820497514378
 20
191.9726933841617
 30
0.0
 11
-12.19645930366437
 21
191.9726933841617
 31
0.0
  0
LINE
  5
787
330
3E3
100
AcDbEntity
  8
1
 62
     2
370
    -2
100
AcDbLine
 10
8.508205011526912
 20
186.9726933905899
 30
0.0
 11
-12.19645930366437
 21
186.9726933905899
 31
0.0
  0
LINE
  5
788
330
3E3
100
AcDbEntity
  8
1
 62
     2
370
    -2
100
AcDbLine
 10
-11.19645930494999
 20
194.4226933810119
 30
0.0
 11
-11.19645930494999
 21
196.8726933778621
 31
0.0
  0
LINE
  5
789
330
3E3
100
AcDbEntity
  8
1
 62
     2
370
    -2
100
AcDbLine
 10
-11.19645930494999
 20
184.5226933937397
 30
0.0
 11
-11.19645930494999
 21
182.0726933968894
 31
0.0
  0
LINE
  5
78A
330
3E3
100
AcDbEntity
  8
1
 62
     2
370
    -2
100
AcDbLine
 10
-11.19645930494999
 20
191.9726933841617
 30
0.0
 11
-11.19645930494999
 21
186.9726933905899
 31
0.0
  0
INSERT
  5
78B
330
3E3
100
AcDbEntity
  8
1
 62
     2
370
    -2
100
AcDbBlockReference
  2
_Open30
 10
-11.19645930494999
 20
191.9726933841617
 30
0.0
 41
2.449999996850208
 42
2.449999996850208
 43
2.449999996850208
 50
270.0
  0
INSERT
  5
78C
330
3E3
100
AcDbEntity
  8
1
 62
     2
370
    -2
100
AcDbBlockReference
  2
_Open30
 10
-11.19645930494999
 20
186.9726933905899
 30
0.0
 41
2.449999996850208
 42
2.449999996850208
 43
2.449999996850208
 50
90.0
  0
MTEXT
  5
78D
330
3E3
100
AcDbEntity
  8
1
 62
     3
100
AcDbMText
 10
-13.94645930141454
 20
189.4726933873758
 30
0.0
 40
3.499999995500298
 41
0.0
 71
     5
 72
     1
  1
\A1;5
  7
CONVERTER_4
 11
0.0000000000000001
 21
1.0
 31
0.0
 73
     1
 44
1.0
1001
ACAD
1000
MTEXTBEGIN
1070
    73
1070
     1
1070
    44
1040
1.0
1070
    74
1070
     0
1000
MTEXTEND
  0
POINT
  5
78E
330
3E3
100
AcDbEntity
  8
Defpoints
 62
     0
100
AcDbPoint
 10
37.80820497385815
 20
191.9726933841617
 30
0.0
  0
POINT
  5
78F
330
3E3
100
AcDbEntity
  8
Defpoints
 62
     0
100
AcDbPoint
 10
9.508205010241283
 20
186.9726933905899
 30
0.0
  0
POINT
  5
790
330
3E3
100
AcDbEntity
  8
Defpoints
 62
     0
100
AcDbPoint
 10
-11.19645930494999
 20
186.9726933905899
 30
0.0
  0
ENDBLK
  5
3E5
330
3E3
100
AcDbEntity
  8
0
100
AcDbBlockEnd
  0
BLOCK
  5
3F2
330
3F1
100
AcDbEntity
  8
0
100
AcDbBlockBegin
  2
*D14
 70
     1
 10
0.0
 20
0.0
 30
0.0
  3
*D14
  1

  0
LINE
  5
791
330
3F1
100
AcDbEntity
  8
1
 62
     2
370
    -2
100
AcDbLine
 10
36.80820497514378
 20
191.9726933841617
 30
0.0
 11
-4.29998881165639
 21
191.9726933841617
 31
0.0
  0
LINE
  5
792
330
3F1
100
AcDbEntity
  8
1
 62
     2
370
    -2
100
AcDbLine
 10
8.508205011526912
 20
188.9726933880186
 30
0.0
 11
-4.299988811656388
 21
188.9726933880186
 31
0.0
  0
LINE
  5
793
330
3F1
100
AcDbEntity
  8
1
 62
     2
370
    -2
100
AcDbLine
 10
-3.299988812942017
 20
187.9726933893042
 30
0.0
 11
-3.299988812942017
 21
186.9726933905899
 31
0.0
  0
LINE
  5
794
330
3F1
100
AcDbEntity
  8
1
 62
     2
370
    -2
100
AcDbLine
 10
-3.299988812942016
 20
192.972693382876
 30
0.0
 11
-3.299988812942013
 21
197.5243600436911
 31
0.0
  0
LINE
  5
795
330
3F1
100
AcDbEntity
  8
1
 62
     2
370
    -2
100
AcDbLine
 10
-3.299988812942017
 20
188.9726933880186
 30
0.0
 11
-3.299988812942016
 21
191.9726933841617
 31
0.0
  0
INSERT
  5
796
330
3F1
100
AcDbEntity
  8
1
 62
     2
370
    -2
100
AcDbBlockReference
  2
_Dot
 10
-3.299988812942017
 20
188.9726933880186
 30
0.0
 41
0.9999999987143707
 42
0.9999999987143707
 43
0.9999999987143707
 50
90.0
  0
INSERT
  5
797
330
3F1
100
AcDbEntity
  8
1
 62
     2
370
    -2
100
AcDbBlockReference
  2
_Open30
 10
-3.299988812942016
 20
191.9726933841617
 30
0.0
 41
0.9999999987143707
 42
0.9999999987143707
 43
0.9999999987143707
 50
270.0
  0
MTEXT
  5
798
330
3F1
100
AcDbEntity
  8
1
 62
     3
100
AcDbMText
 10
-6.049988809406567
 20
195.7485267126408
 30
0.0
 40
3.499999995500298
 41
0.0
 71
     5
 72
     1
  1
\A1;3
  7
CONVERTER_4
 11
0.0000000000000001
 21
1.0
 31
0.0
 73
     1
 44
1.0
1001
ACAD
1000
MTEXTBEGIN
1070
    73
1070
     1
1070
    44
1040
1.0
1070
    74
1070
     0
1000
MTEXTEND
  0
POINT
  5
799
330
3F1
100
AcDbEntity
  8
Defpoints
 62
     0
100
AcDbPoint
 10
37.80820497385815
 20
191.9726933841617
 30
0.0
  0
POINT
  5
79A
330
3F1
100
AcDbEntity
  8
Defpoints
 62
     0
100
AcDbPoint
 10
9.508205010241283
 20
188.9726933880186
 30
0.0
  0
POINT
  5
79B
330
3F1
100
AcDbEntity
  8
Defpoints
 62
     0
100
AcDbPoint
 10
-3.299988812942017
 20
188.9726933880186
 30
0.0
  0
ENDBLK
  5
3F3
330
3F1
100
AcDbEntity
  8
0
100
AcDbBlockEnd
  0
BLOCK
  5
400
330
3FF
100
AcDbEntity
  8
0
100
AcDbBlockBegin
  2
*D15
 70
     1
 10
0.0
 20
0.0
 30
0.0
  3
*D15
  1

  0
LINE
  5
79C
330
3FF
100
AcDbEntity
  8
1
 62
     2
370
    -2
100
AcDbLine
 10
8.508205011526912
 20
188.9726933880186
 30
0.0
 11
-4.299988811656415
 21
188.9726933880186
 31
0.0
  0
LINE
  5
79D
330
3FF
100
AcDbEntity
  8
1
 62
     2
370
    -2
100
AcDbLine
 10
8.508205011526912
 20
186.9726933905899
 30
0.0
 11
-4.299988811656415
 21
186.9726933905899
 31
0.0
  0
LINE
  5
79E
330
3FF
100
AcDbEntity
  8
1
 62
     2
370
    -2
100
AcDbLine
 10
-3.299988812942046
 20
188.9726933880186
 30
0.0
 11
-3.299988812942044
 21
191.4226933848688
 31
0.0
  0
LINE
  5
79F
330
3FF
100
AcDbEntity
  8
1
 62
     2
370
    -2
100
AcDbLine
 10
-3.299988812942046
 20
184.5226933937397
 30
0.0
 11
-3.299988812942048
 21
178.5210267347889
 31
0.0
  0
LINE
  5
7A0
330
3FF
100
AcDbEntity
  8
1
 62
     2
370
    -2
100
AcDbLine
 10
-3.299988812942046
 20
188.9726933880186
 30
0.0
 11
-3.299988812942046
 21
186.9726933905899
 31
0.0
  0
INSERT
  5
7A1
330
3FF
100
AcDbEntity
  8
1
 62
     2
370
    -2
100
AcDbBlockReference
  2
_Open30
 10
-3.299988812942046
 20
186.9726933905899
 30
0.0
 41
2.449999996850208
 42
2.449999996850208
 43
2.449999996850208
 50
90.0
  0
MTEXT
  5
7A2
330
3FF
100
AcDbEntity
  8
1
 62
     3
100
AcDbMText
 10
-6.049988809406597
 20
180.2968600658392
 30
0.0
 40
3.499999995500298
 41
0.0
 71
     5
 72
     1
  1
\A1;2
  7
CONVERTER_4
 11
0.0000000000000001
 21
1.0
 31
0.0
 73
     1
 44
1.0
1001
ACAD
1000
MTEXTBEGIN
1070
    73
1070
     1
1070
    44
1040
1.0
1070
    74
1070
     0
1000
MTEXTEND
  0
POINT
  5
7A3
330
3FF
100
AcDbEntity
  8
Defpoints
 62
     0
100
AcDbPoint
 10
9.508205010241283
 20
188.9726933880186
 30
0.0
  0
POINT
  5
7A4
330
3FF
100
AcDbEntity
  8
Defpoints
 62
     0
100
AcDbPoint
 10
9.508205010241283
 20
186.9726933905899
 30
0.0
  0
POINT
  5
7A5
330
3FF
100
AcDbEntity
  8
Defpoints
 62
     0
100
AcDbPoint
 10
-3.299988812942046
 20
186.9726933905899
 30
0.0
  0
ENDBLK
  5
401
330
3FF
100
AcDbEntity
  8
0
100
AcDbBlockEnd
  0
BLOCK
  5
40D
330
40C
100
AcDbEntity
  8
0
100
AcDbBlockBegin
  2
*D16
 70
     1
 10
0.0
 20
0.0
 30
0.0
  3
*D16
  1

  0
LINE
  5
7A6
330
40C
100
AcDbEntity
  8
1
 62
     2
370
    -2
100
AcDbLine
 10
8.508205011526912
 20
241.9726933198803
 30
0.0
 11
-4.299988811656414
 21
241.9726933198803
 31
0.0
  0
LINE
  5
7A7
330
40C
100
AcDbEntity
  8
1
 62
     2
370
    -2
100
AcDbLine
 10
8.508205011526912
 20
221.9726933455929
 30
0.0
 11
-4.299988811656417
 21
221.9726933455929
 31
0.0
  0
LINE
  5
7A8
330
40C
100
AcDbEntity
  8
1
 62
     2
370
    -2
100
AcDbLine
 10
-3.299988812942041
 20
239.5226933230301
 30
0.0
 11
-3.299988812942046
 21
224.4226933424431
 31
0.0
  0
INSERT
  5
7A9
330
40C
100
AcDbEntity
  8
1
 62
     2
370
    -2
100
AcDbBlockReference
  2
_Open30
 10
-3.299988812942041
 20
241.9726933198803
 30
0.0
 41
2.449999996850208
 42
2.449999996850208
 43
2.449999996850208
 50
90.0
  0
INSERT
  5
7AA
330
40C
100
AcDbEntity
  8
1
 62
     2
370
    -2
100
AcDbBlockReference
  2
_Open30
 10
-3.299988812942046
 20
221.9726933455929
 30
0.0
 41
2.449999996850208
 42
2.449999996850208
 43
2.449999996850208
 50
270.0
  0
MTEXT
  5
7AB
330
40C
100
AcDbEntity
  8
1
 62
     3
100
AcDbMText
 10
-6.049988809406602
 20
231.9726933327366
 30
0.0
 40
3.499999995500298
 41
0.0
 71
     5
 72
     1
  1
\A1;20
  7
CONVERTER_4
 11
0.0000000000000001
 21
1.0
 31
0.0
 73
     1
 44
1.0
1001
ACAD
1000
MTEXTBEGIN
1070
    73
1070
     1
1070
    44
1040
1.0
1070
    74
1070
     0
1000
MTEXTEND
  0
POINT
  5
7AC
330
40C
100
AcDbEntity
  8
Defpoints
 62
     0
100
AcDbPoint
 10
9.508205010241283
 20
241.9726933198803
 30
0.0
  0
POINT
  5
7AD
330
40C
100
AcDbEntity
  8
Defpoints
 62
     0
100
AcDbPoint
 10
9.508205010241283
 20
221.9726933455929
 30
0.0
  0
POINT
  5
7AE
330
40C
100
AcDbEntity
  8
Defpoints
 62
     0
100
AcDbPoint
 10
-3.299988812942046
 20
221.9726933455929
 30
0.0
  0
ENDBLK
  5
40E
330
40C
100
AcDbEntity
  8
0
100
AcDbBlockEnd
  0
BLOCK
  5
419
330
418
100
AcDbEntity
  8
0
100
AcDbBlockBegin
  2
*D17
 70
     1
 10
0.0
 20
0.0
 30
0.0
  3
*D17
  1

  0
LINE
  5
7AF
330
418
100
AcDbEntity
  8
1
 62
     2
370
    -2
100
AcDbLine
 10
9.508205010241283
 20
242.9726933185947
 30
0.0
 11
9.508205010241283
 21
263.7056027973895
 31
0.0
  0
LINE
  5
7B0
330
418
100
AcDbEntity
  8
1
 62
     2
370
    -2
100
AcDbLine
 10
75.50820492538973
 20
232.972693331451
 30
0.0
 11
75.50820492538973
 21
263.7056027973895
 31
0.0
  0
LINE
  5
7B1
330
418
100
AcDbEntity
  8
1
 62
     2
370
    -2
100
AcDbLine
 10
11.95820500709149
 20
262.7056027986752
 30
0.0
 11
73.05820492853953
 21
262.7056027986752
 31
0.0
  0
INSERT
  5
7B2
330
418
100
AcDbEntity
  8
1
 62
     2
370
    -2
100
AcDbBlockReference
  2
_Open30
 10
9.508205010241283
 20
262.7056027986752
 30
0.0
 41
2.449999996850208
 42
2.449999996850208
 43
2.449999996850208
 50
180.0
  0
INSERT
  5
7B3
330
418
100
AcDbEntity
  8
1
 62
     2
370
    -2
100
AcDbBlockReference
  2
_Open30
 10
75.50820492538973
 20
262.7056027986752
 30
0.0
 41
2.449999996850208
 42
2.449999996850208
 43
2.449999996850208
  0
MTEXT
  5
7B4
330
418
100
AcDbEntity
  8
1
 62
     3
100
AcDbMText
 10
42.50820496781551
 20
265.4556027951397
 30
0.0
 40
3.499999995500298
 41
0.0
 71
     5
 72
     1
  1
\A1;66
  7
CONVERTER_4
 73
     1
 44
1.0
1001
ACAD
1000
MTEXTBEGIN
1070
    73
1070
     1
1070
    44
1040
1.0
1070
    74
1070
     0
1000
MTEXTEND
  0
POINT
  5
7B5
330
418
100
AcDbEntity
  8
Defpoints
 62
     0
100
AcDbPoint
 10
9.508205010241283
 20
241.9726933198803
 30
0.0
  0
POINT
  5
7B6
330
418
100
AcDbEntity
  8
Defpoints
 62
     0
100
AcDbPoint
 10
75.50820492538973
 20
231.9726933327366
 30
0.0
  0
POINT
  5
7B7
330
418
100
AcDbEntity
  8
Defpoints
 62
     0
100
AcDbPoint
 10
75.50820492538973
 20
262.7056027986752
 30
0.0
  0
ENDBLK
  5
41A
330
418
100
AcDbEntity
  8
0
100
AcDbBlockEnd
  0
BLOCK
  5
425
330
424
100
AcDbEntity
  8
0
100
AcDbBlockBegin
  2
*D18
 70
     1
 10
0.0
 20
0.0
 30
0.0
  3
*D18
  1

  0
LINE
  5
7B8
330
424
100
AcDbEntity
  8
1
 62
     2
370
    -2
100
AcDbLine
 10
62.50820494210295
 20
228.9726933365935
 30
0.0
 11
62.50820494210295
 21
208.8739504539527
 31
0.0
  0
LINE
  5
7B9
330
424
100
AcDbEntity
  8
1
 62
     2
370
    -2
100
AcDbLine
 10
58.50820494724548
 20
228.9726933365935
 30
0.0
 11
58.50820494724548
 21
208.8739504539527
 31
0.0
  0
LINE
  5
7BA
330
424
100
AcDbEntity
  8
1
 62
     2
370
    -2
100
AcDbLine
 10
64.95820493895317
 20
209.8739504526671
 30
0.0
 11
67.40820493580338
 21
209.8739504526671
 31
0.0
  0
LINE
  5
7BB
330
424
100
AcDbEntity
  8
1
 62
     2
370
    -2
100
AcDbLine
 10
56.05820495039527
 20
209.8739504526671
 30
0.0
 11
53.60820495354506
 21
209.8739504526671
 31
0.0
  0
LINE
  5
7BC
330
424
100
AcDbEntity
  8
1
 62
     2
370
    -2
100
AcDbLine
 10
62.50820494210295
 20
209.8739504526671
 30
0.0
 11
58.50820494724548
 21
209.8739504526671
 31
0.0
  0
INSERT
  5
7BD
330
424
100
AcDbEntity
  8
1
 62
     2
370
    -2
100
AcDbBlockReference
  2
_Open30
 10
62.50820494210295
 20
209.8739504526671
 30
0.0
 41
2.449999996850208
 42
2.449999996850208
 43
2.449999996850208
 50
180.0
  0
INSERT
  5
7BE
330
424
100
AcDbEntity
  8
1
 62
     2
370
    -2
100
AcDbBlockReference
  2
_Open30
 10
58.50820494724548
 20
209.8739504526671
 30
0.0
 41
2.449999996850208
 42
2.449999996850208
 43
2.449999996850208
  0
MTEXT
  5
7BF
330
424
100
AcDbEntity
  8
1
 62
     3
100
AcDbMText
 10
60.50820494467421
 20
212.6239504491316
 30
0.0
 40
3.499999995500298
 41
0.0
 71
     5
 72
     1
  1
\A1;4
  7
CONVERTER_4
 73
     1
 44
1.0
1001
ACAD
1000
MTEXTBEGIN
1070
    73
1070
     1
1070
    44
1040
1.0
1070
    74
1070
     0
1000
MTEXTEND
  0
POINT
  5
7C0
330
424
100
AcDbEntity
  8
Defpoints
 62
     0
100
AcDbPoint
 10
62.50820494210295
 20
229.9726933353078
 30
0.0
  0
POINT
  5
7C1
330
424
100
AcDbEntity
  8
Defpoints
 62
     0
100
AcDbPoint
 10
58.50820494724548
 20
229.9726933353078
 30
0.0
  0
POINT
  5
7C2
330
424
100
AcDbEntity
  8
Defpoints
 62
     0
100
AcDbPoint
 10
58.50820494724548
 20
209.8739504526671
 30
0.0
  0
ENDBLK
  5
426
330
424
100
AcDbEntity
  8
0
100
AcDbBlockEnd
  0
BLOCK
  5
433
330
432
100
AcDbEntity
  8
0
100
AcDbBlockBegin
  2
*D19
 70
     1
 10
0.0
 20
0.0
 30
0.0
  3
*D19
  1

  0
LINE
  5
7C3
330
432
100
AcDbEntity
  8
1
 62
     2
370
    -2
100
AcDbLine
 10
60.50820494467421
 20
238.9726933237372
 30
0.0
 11
60.50820494467421
 21
251.0552937936332
 31
0.0
  0
LINE
  5
7C4
330
432
100
AcDbEntity
  8
1
 62
     2
370
    -2
100
AcDbLine
 10
75.50820492538973
 20
232.972693331451
 30
0.0
 11
75.50820492538973
 21
251.0552937936332
 31
0.0
  0
LINE
  5
7C5
330
432
100
AcDbEntity
  8
1
 62
     2
370
    -2
100
AcDbLine
 10
62.95820494152443
 20
250.0552937949188
 30
0.0
 11
73.05820492853953
 21
250.0552937949188
 31
0.0
  0
INSERT
  5
7C6
330
432
100
AcDbEntity
  8
1
 62
     2
370
    -2
100
AcDbBlockReference
  2
_Open30
 10
60.50820494467421
 20
250.0552937949188
 30
0.0
 41
2.449999996850208
 42
2.449999996850208
 43
2.449999996850208
 50
180.0
  0
INSERT
  5
7C7
330
432
100
AcDbEntity
  8
1
 62
     2
370
    -2
100
AcDbBlockReference
  2
_Open30
 10
75.50820492538973
 20
250.0552937949188
 30
0.0
 41
2.449999996850208
 42
2.449999996850208
 43
2.449999996850208
  0
MTEXT
  5
7C8
330
432
100
AcDbEntity
  8
1
 62
     3
100
AcDbMText
 10
68.00820493503199
 20
252.8052937913833
 30
0.0
 40
3.499999995500298
 41
0.0
 71
     5
 72
     1
  1
\A1;15
  7
CONVERTER_4
 73
     1
 44
1.0
1001
ACAD
1000
MTEXTBEGIN
1070
    73
1070
     1
1070
    44
1040
1.0
1070
    74
1070
     0
1000
MTEXTEND
  0
POINT
  5
7C9
330
432
100
AcDbEntity
  8
Defpoints
 62
     0
100
AcDbPoint
 10
60.50820494467421
 20
237.9726933250228
 30
0.0
  0
POINT
  5
7CA
330
432
100
AcDbEntity
  8
Defpoints
 62
     0
100
AcDbPoint
 10
75.50820492538973
 20
231.9726933327366
 30
0.0
  0
POINT
  5
7CB
330
432
100
AcDbEntity
  8
Defpoints
 62
     0
100
AcDbPoint
 10
75.50820492538973
 20
250.0552937949188
 30
0.0
  0
ENDBLK
  5
434
330
432
100
AcDbEntity
  8
0
100
AcDbBlockEnd
  0
BLOCK
  5
43F
330
43E
100
AcDbEntity
  8
0
100
AcDbBlockBegin
  2
*D20
 70
     1
 10
0.0
 20
0.0
 30
0.0
  3
*D20
  1

  0
LINE
  5
7CC
330
43E
100
AcDbEntity
  8
1
 62
     2
370
    -2
100
AcDbLine
 10
75.50820492538973
 20
232.972693331451
 30
0.0
 11
75.50820492538973
 21
257.3997164266168
 31
0.0
  0
LINE
  5
7CD
330
43E
100
AcDbEntity
  8
1
 62
     2
370
    -2
100
AcDbLine
 10
42.50820496781551
 20
244.9726933160225
 30
0.0
 11
42.50820496781551
 21
257.3997164266168
 31
0.0
  0
LINE
  5
7CE
330
43E
100
AcDbEntity
  8
1
 62
     2
370
    -2
100
AcDbLine
 10
73.05820492853953
 20
256.3997164279024
 30
0.0
 11
44.95820496466572
 21
256.3997164279024
 31
0.0
  0
INSERT
  5
7CF
330
43E
100
AcDbEntity
  8
1
 62
     2
370
    -2
100
AcDbBlockReference
  2
_Open30
 10
75.50820492538973
 20
256.3997164279024
 30
0.0
 41
2.449999996850208
 42
2.449999996850208
 43
2.449999996850208
  0
INSERT
  5
7D0
330
43E
100
AcDbEntity
  8
1
 62
     2
370
    -2
100
AcDbBlockReference
  2
_Open30
 10
42.50820496781551
 20
256.3997164279024
 30
0.0
 41
2.449999996850208
 42
2.449999996850208
 43
2.449999996850208
 50
180.0
  0
MTEXT
  5
7D1
330
43E
100
AcDbEntity
  8
1
 62
     3
100
AcDbMText
 10
59.00820494660263
 20
259.1497164243669
 30
0.0
 40
3.499999995500298
 41
0.0
 71
     5
 72
     1
  1
\A1;33
  7
CONVERTER_4
 73
     1
 44
1.0
1001
ACAD
1000
MTEXTBEGIN
1070
    73
1070
     1
1070
    44
1040
1.0
1070
    74
1070
     0
1000
MTEXTEND
  0
POINT
  5
7D2
330
43E
100
AcDbEntity
  8
Defpoints
 62
     0
100
AcDbPoint
 10
75.50820492538973
 20
231.9726933327366
 30
0.0
  0
POINT
  5
7D3
330
43E
100
AcDbEntity
  8
Defpoints
 62
     0
100
AcDbPoint
 10
42.50820496781551
 20
243.9726933173081
 30
0.0
  0
POINT
  5
7D4
330
43E
100
AcDbEntity
  8
Defpoints
 62
     0
100
AcDbPoint
 10
42.50820496781551
 20
256.3997164279024
 30
0.0
  0
ENDBLK
  5
440
330
43E
100
AcDbEntity
  8
0
100
AcDbBlockEnd
  0
BLOCK
  5
44B
330
44A
100
AcDbEntity
  8
0
100
AcDbBlockBegin
  2
*D21
 70
     1
 10
0.0
 20
0.0
 30
0.0
  3
*D21
  1

  0
LINE
  5
7D5
330
44A
100
AcDbEntity
  8
1
 62
     2
370
    -2
100
AcDbLine
 10
9.508205010241283
 20
242.9726933185947
 30
0.0
 11
9.508205010241283
 21
257.3997164266168
 31
0.0
  0
LINE
  5
7D6
330
44A
100
AcDbEntity
  8
1
 62
     2
370
    -2
100
AcDbLine
 10
42.50820496781551
 20
244.9726933160225
 30
0.0
 11
42.50820496781551
 21
257.3997164266168
 31
0.0
  0
LINE
  5
7D7
330
44A
100
AcDbEntity
  8
1
 62
     2
370
    -2
100
AcDbLine
 10
11.95820500709149
 20
256.3997164279024
 30
0.0
 11
40.05820497096529
 21
256.3997164279024
 31
0.0
  0
INSERT
  5
7D8
330
44A
100
AcDbEntity
  8
1
 62
     2
370
    -2
100
AcDbBlockReference
  2
_Open30
 10
9.508205010241283
 20
256.3997164279024
 30
0.0
 41
2.449999996850208
 42
2.449999996850208
 43
2.449999996850208
 50
180.0
  0
INSERT
  5
7D9
330
44A
100
AcDbEntity
  8
1
 62
     2
370
    -2
100
AcDbBlockReference
  2
_Open30
 10
42.50820496781551
 20
256.3997164279024
 30
0.0
 41
2.449999996850208
 42
2.449999996850208
 43
2.449999996850208
  0
MTEXT
  5
7DA
330
44A
100
AcDbEntity
  8
1
 62
     3
100
AcDbMText
 10
26.0082049890284
 20
259.1497164243669
 30
0.0
 40
3.499999995500298
 41
0.0
 71
     5
 72
     1
  1
\A1;33
  7
CONVERTER_4
 73
     1
 44
1.0
1001
ACAD
1000
MTEXTBEGIN
1070
    73
1070
     1
1070
    44
1040
1.0
1070
    74
1070
     0
1000
MTEXTEND
  0
POINT
  5
7DB
330
44A
100
AcDbEntity
  8
Defpoints
 62
     0
100
AcDbPoint
 10
9.508205010241283
 20
241.9726933198803
 30
0.0
  0
POINT
  5
7DC
330
44A
100
AcDbEntity
  8
Defpoints
 62
     0
100
AcDbPoint
 10
42.50820496781551
 20
243.9726933173081
 30
0.0
  0
POINT
  5
7DD
330
44A
100
AcDbEntity
  8
Defpoints
 62
     0
100
AcDbPoint
 10
42.50820496781551
 20
256.3997164279024
 30
0.0
  0
ENDBLK
  5
44C
330
44A
100
AcDbEntity
  8
0
100
AcDbBlockEnd
  0
BLOCK
  5
457
330
456
100
AcDbEntity
  8
0
100
AcDbBlockBegin
  2
*D22
 70
     1
 10
0.0
 20
0.0
 30
0.0
  3
*D22
  1

  0
LINE
  5
7DE
330
456
100
AcDbEntity
  8
1
 62
     2
370
    -2
100
AcDbLine
 10
24.50820499095687
 20
238.9726933237372
 30
0.0
 11
24.50820499095687
 21
251.0552937936332
 31
0.0
  0
LINE
  5
7DF
330
456
100
AcDbEntity
  8
1
 62
     2
370
    -2
100
AcDbLine
 10
9.508205010241283
 20
242.9726933185947
 30
0.0
 11
9.508205010241283
 21
251.0552937936332
 31
0.0
  0
LINE
  5
7E0
330
456
100
AcDbEntity
  8
1
 62
     2
370
    -2
100
AcDbLine
 10
22.05820499410666
 20
250.0552937949188
 30
0.0
 11
11.95820500709149
 21
250.0552937949188
 31
0.0
  0
INSERT
  5
7E1
330
456
100
AcDbEntity
  8
1
 62
     2
370
    -2
100
AcDbBlockReference
  2
_Open30
 10
24.50820499095687
 20
250.0552937949188
 30
0.0
 41
2.449999996850208
 42
2.449999996850208
 43
2.449999996850208
  0
INSERT
  5
7E2
330
456
100
AcDbEntity
  8
1
 62
     2
370
    -2
100
AcDbBlockReference
  2
_Open30
 10
9.508205010241283
 20
250.0552937949188
 30
0.0
 41
2.449999996850208
 42
2.449999996850208
 43
2.449999996850208
 50
180.0
  0
MTEXT
  5
7E3
330
456
100
AcDbEntity
  8
1
 62
     3
100
AcDbMText
 10
17.00820500059907
 20
252.8052937913833
 30
0.0
 40
3.499999995500298
 41
0.0
 71
     5
 72
     1
  1
\A1;15
  7
CONVERTER_4
 73
     1
 44
1.0
1001
ACAD
1000
MTEXTBEGIN
1070
    73
1070
     1
1070
    44
1040
1.0
1070
    74
1070
     0
1000
MTEXTEND
  0
POINT
  5
7E4
330
456
100
AcDbEntity
  8
Defpoints
 62
     0
100
AcDbPoint
 10
24.50820499095687
 20
237.9726933250228
 30
0.0
  0
POINT
  5
7E5
330
456
100
AcDbEntity
  8
Defpoints
 62
     0
100
AcDbPoint
 10
9.508205010241283
 20
241.9726933198803
 30
0.0
  0
POINT
  5
7E6
330
456
100
AcDbEntity
  8
Defpoints
 62
     0
100
AcDbPoint
 10
9.508205010241283
 20
250.0552937949188
 30
0.0
  0
ENDBLK
  5
458
330
456
100
AcDbEntity
  8
0
100
AcDbBlockEnd
  0
BLOCK
  5
463
330
462
100
AcDbEntity
  8
0
100
AcDbBlockBegin
  2
*D23
 70
     1
 10
0.0
 20
0.0
 30
0.0
  3
*D23
  1

  0
LINE
  5
7E7
330
462
100
AcDbEntity
  8
1
 62
     2
370
    -2
100
AcDbLine
 10
255.2416540307694
 20
313.6981390465597
 30
0.0
 11
255.2416540307694
 21
274.4890308544664
 31
0.0
  0
LINE
  5
7E8
330
462
100
AcDbEntity
  8
1
 62
     2
370
    -2
100
AcDbLine
 10
189.2416541156209
 20
313.6981390465597
 30
0.0
 11
189.2416541156209
 21
274.4890308544664
 31
0.0
  0
LINE
  5
7E9
330
462
100
AcDbEntity
  8
1
 62
     2
370
    -2
100
AcDbLine
 10
252.7916540339192
 20
275.4890308531807
 30
0.0
 11
191.691654112471
 21
275.4890308531807
 31
0.0
  0
INSERT
  5
7EA
330
462
100
AcDbEntity
  8
1
 62
     2
370
    -2
100
AcDbBlockReference
  2
_Open30
 10
255.2416540307694
 20
275.4890308531807
 30
0.0
 41
2.449999996850208
 42
2.449999996850208
 43
2.449999996850208
  0
INSERT
  5
7EB
330
462
100
AcDbEntity
  8
1
 62
     2
370
    -2
100
AcDbBlockReference
  2
_Open30
 10
189.2416541156209
 20
275.4890308531807
 30
0.0
 41
2.449999996850208
 42
2.449999996850208
 43
2.449999996850208
 50
180.0
  0
MTEXT
  5
7EC
330
462
100
AcDbEntity
  8
1
 62
     3
100
AcDbMText
 10
222.2416540731952
 20
278.2390308496452
 30
0.0
 40
3.499999995500298
 41
0.0
 71
     5
 72
     1
  1
\A1;66
  7
CONVERTER_4
 73
     1
 44
1.0
1001
ACAD
1000
MTEXTBEGIN
1070
    73
1070
     1
1070
    44
1040
1.0
1070
    74
1070
     0
1000
MTEXTEND
  0
POINT
  5
7ED
330
462
100
AcDbEntity
  8
Defpoints
 62
     0
100
AcDbPoint
 10
255.2416540307694
 20
314.6981390452741
 30
0.0
  0
POINT
  5
7EE
330
462
100
AcDbEntity
  8
Defpoints
 62
     0
100
AcDbPoint
 10
189.2416541156209
 20
314.6981390452741
 30
0.0
  0
POINT
  5
7EF
330
462
100
AcDbEntity
  8
Defpoints
 62
     0
100
AcDbPoint
 10
189.2416541156209
 20
275.4890308531807
 30
0.0
  0
ENDBLK
  5
464
330
462
100
AcDbEntity
  8
0
100
AcDbBlockEnd
  0
BLOCK
  5
46F
330
46E
100
AcDbEntity
  8
0
100
AcDbBlockBegin
  2
*D24
 70
     1
 10
0.0
 20
0.0
 30
0.0
  3
*D24
  1

  0
LINE
  5
7F0
330
46E
100
AcDbEntity
  8
1
 62
     2
370
    -2
100
AcDbLine
 10
255.2416540307694
 20
313.6981390465597
 30
0.0
 11
255.2416540307694
 21
285.6450032721239
 31
0.0
  0
LINE
  5
7F1
330
46E
100
AcDbEntity
  8
1
 62
     2
370
    -2
100
AcDbLine
 10
222.2416540731952
 20
307.5981390544013
 30
0.0
 11
222.2416540731952
 21
285.6450032721239
 31
0.0
  0
LINE
  5
7F2
330
46E
100
AcDbEntity
  8
1
 62
     2
370
    -2
100
AcDbLine
 10
252.7916540339192
 20
286.6450032708383
 30
0.0
 11
224.6916540700453
 21
286.6450032708383
 31
0.0
  0
INSERT
  5
7F3
330
46E
100
AcDbEntity
  8
1
 62
     2
370
    -2
100
AcDbBlockReference
  2
_Open30
 10
255.2416540307694
 20
286.6450032708383
 30
0.0
 41
2.449999996850208
 42
2.449999996850208
 43
2.449999996850208
  0
INSERT
  5
7F4
330
46E
100
AcDbEntity
  8
1
 62
     2
370
    -2
100
AcDbBlockReference
  2
_Open30
 10
222.2416540731952
 20
286.6450032708383
 30
0.0
 41
2.449999996850208
 42
2.449999996850208
 43
2.449999996850208
 50
180.0
  0
MTEXT
  5
7F5
330
46E
100
AcDbEntity
  8
1
 62
     3
100
AcDbMText
 10
238.7416540519823
 20
289.3950032673028
 30
0.0
 40
3.499999995500298
 41
0.0
 71
     5
 72
     1
  1
\A1;33
  7
CONVERTER_4
 73
     1
 44
1.0
1001
ACAD
1000
MTEXTBEGIN
1070
    73
1070
     1
1070
    44
1040
1.0
1070
    74
1070
     0
1000
MTEXTEND
  0
POINT
  5
7F6
330
46E
100
AcDbEntity
  8
Defpoints
 62
     0
100
AcDbPoint
 10
255.2416540307694
 20
314.6981390452741
 30
0.0
  0
POINT
  5
7F7
330
46E
100
AcDbEntity
  8
Defpoints
 62
     0
100
AcDbPoint
 10
222.2416540731952
 20
308.5981390531156
 30
0.0
  0
POINT
  5
7F8
330
46E
100
AcDbEntity
  8
Defpoints
 62
     0
100
AcDbPoint
 10
222.2416540731952
 20
286.6450032708383
 30
0.0
  0
ENDBLK
  5
470
330
46E
100
AcDbEntity
  8
0
100
AcDbBlockEnd
  0
BLOCK
  5
47B
330
47A
100
AcDbEntity
  8
0
100
AcDbBlockBegin
  2
*D25
 70
     1
 10
0.0
 20
0.0
 30
0.0
  3
*D25
  1

  0
LINE
  5
7F9
330
47A
100
AcDbEntity
  8
1
 62
     2
370
    -2
100
AcDbLine
 10
222.2416540731952
 20
307.5981390544013
 30
0.0
 11
222.2416540731952
 21
285.6450032721239
 31
0.0
  0
LINE
  5
7FA
330
47A
100
AcDbEntity
  8
1
 62
     2
370
    -2
100
AcDbLine
 10
189.2416541156209
 20
313.6981390465597
 30
0.0
 11
189.2416541156209
 21
285.6450032721239
 31
0.0
  0
LINE
  5
7FB
330
47A
100
AcDbEntity
  8
1
 62
     2
370
    -2
100
AcDbLine
 10
219.7916540763449
 20
286.6450032708383
 30
0.0
 11
191.691654112471
 21
286.6450032708383
 31
0.0
  0
INSERT
  5
7FC
330
47A
100
AcDbEntity
  8
1
 62
     2
370
    -2
100
AcDbBlockReference
  2
_Open30
 10
222.2416540731952
 20
286.6450032708383
 30
0.0
 41
2.449999996850208
 42
2.449999996850208
 43
2.449999996850208
  0
INSERT
  5
7FD
330
47A
100
AcDbEntity
  8
1
 62
     2
370
    -2
100
AcDbBlockReference
  2
_Open30
 10
189.2416541156209
 20
286.6450032708383
 30
0.0
 41
2.449999996850208
 42
2.449999996850208
 43
2.449999996850208
 50
180.0
  0
MTEXT
  5
7FE
330
47A
100
AcDbEntity
  8
1
 62
     3
100
AcDbMText
 10
205.741654094408
 20
289.3950032673028
 30
0.0
 40
3.499999995500298
 41
0.0
 71
     5
 72
     1
  1
\A1;33
  7
CONVERTER_4
 73
     1
 44
1.0
1001
ACAD
1000
MTEXTBEGIN
1070
    73
1070
     1
1070
    44
1040
1.0
1070
    74
1070
     0
1000
MTEXTEND
  0
POINT
  5
7FF
330
47A
100
AcDbEntity
  8
Defpoints
 62
     0
100
AcDbPoint
 10
222.2416540731952
 20
308.5981390531156
 30
0.0
  0
POINT
  5
800
330
47A
100
AcDbEntity
  8
Defpoints
 62
     0
100
AcDbPoint
 10
189.2416541156209
 20
314.6981390452741
 30
0.0
  0
POINT
  5
801
330
47A
100
AcDbEntity
  8
Defpoints
 62
     0
100
AcDbPoint
 10
189.2416541156209
 20
286.6450032708383
 30
0.0
  0
ENDBLK
  5
47C
330
47A
100
AcDbEntity
  8
0
100
AcDbBlockEnd
  0
BLOCK
  5
487
330
486
100
AcDbEntity
  8
0
100
AcDbBlockBegin
  2
*D26
 70
     1
 10
0.0
 20
0.0
 30
0.0
  3
*D26
  1

  0
LINE
  5
802
330
486
100
AcDbEntity
  8
1
 62
     2
370
    -2
100
AcDbLine
 10
240.2416540500539
 20
310.6981390504166
 30
0.0
 11
240.2416540500539
 21
293.6934642021263
 31
0.0
  0
LINE
  5
803
330
486
100
AcDbEntity
  8
1
 62
     2
370
    -2
100
AcDbLine
 10
255.2416540307694
 20
313.6981390465597
 30
0.0
 11
255.2416540307694
 21
293.6934642021263
 31
0.0
  0
LINE
  5
804
330
486
100
AcDbEntity
  8
1
 62
     2
370
    -2
100
AcDbLine
 10
242.691654046904
 20
294.6934642008407
 30
0.0
 11
252.7916540339192
 21
294.6934642008407
 31
0.0
  0
INSERT
  5
805
330
486
100
AcDbEntity
  8
1
 62
     2
370
    -2
100
AcDbBlockReference
  2
_Open30
 10
240.2416540500539
 20
294.6934642008407
 30
0.0
 41
2.449999996850208
 42
2.449999996850208
 43
2.449999996850208
 50
180.0
  0
INSERT
  5
806
330
486
100
AcDbEntity
  8
1
 62
     2
370
    -2
100
AcDbBlockReference
  2
_Open30
 10
255.2416540307694
 20
294.6934642008407
 30
0.0
 41
2.449999996850208
 42
2.449999996850208
 43
2.449999996850208
  0
MTEXT
  5
807
330
486
100
AcDbEntity
  8
1
 62
     3
100
AcDbMText
 10
247.7416540404116
 20
297.4434641973052
 30
0.0
 40
3.499999995500298
 41
0.0
 71
     5
 72
     1
  1
\A1;15
  7
CONVERTER_4
 73
     1
 44
1.0
1001
ACAD
1000
MTEXTBEGIN
1070
    73
1070
     1
1070
    44
1040
1.0
1070
    74
1070
     0
1000
MTEXTEND
  0
POINT
  5
808
330
486
100
AcDbEntity
  8
Defpoints
 62
     0
100
AcDbPoint
 10
240.2416540500539
 20
311.6981390491309
 30
0.0
  0
POINT
  5
809
330
486
100
AcDbEntity
  8
Defpoints
 62
     0
100
AcDbPoint
 10
255.2416540307694
 20
314.6981390452741
 30
0.0
  0
POINT
  5
80A
330
486
100
AcDbEntity
  8
Defpoints
 62
     0
100
AcDbPoint
 10
255.2416540307694
 20
294.6934642008407
 30
0.0
  0
ENDBLK
  5
488
330
486
100
AcDbEntity
  8
0
100
AcDbBlockEnd
  0
BLOCK
  5
493
330
492
100
AcDbEntity
  8
0
100
AcDbBlockBegin
  2
*D27
 70
     1
 10
0.0
 20
0.0
 30
0.0
  3
*D27
  1

  0
LINE
  5
80B
330
492
100
AcDbEntity
  8
1
 62
     2
370
    -2
100
AcDbLine
 10
204.2416540963365
 20
310.6981390504166
 30
0.0
 11
204.2416540963365
 21
293.6934642021263
 31
0.0
  0
LINE
  5
80C
330
492
100
AcDbEntity
  8
1
 62
     2
370
    -2
100
AcDbLine
 10
189.2416541156209
 20
313.6981390465597
 30
0.0
 11
189.2416541156209
 21
293.6934642021263
 31
0.0
  0
LINE
  5
80D
330
492
100
AcDbEntity
  8
1
 62
     2
370
    -2
100
AcDbLine
 10
201.7916540994862
 20
294.6934642008407
 30
0.0
 11
191.691654112471
 21
294.6934642008407
 31
0.0
  0
INSERT
  5
80E
330
492
100
AcDbEntity
  8
1
 62
     2
370
    -2
100
AcDbBlockReference
  2
_Open30
 10
204.2416540963365
 20
294.6934642008407
 30
0.0
 41
2.449999996850208
 42
2.449999996850208
 43
2.449999996850208
  0
INSERT
  5
80F
330
492
100
AcDbEntity
  8
1
 62
     2
370
    -2
100
AcDbBlockReference
  2
_Open30
 10
189.2416541156209
 20
294.6934642008407
 30
0.0
 41
2.449999996850208
 42
2.449999996850208
 43
2.449999996850208
 50
180.0
  0
MTEXT
  5
810
330
492
100
AcDbEntity
  8
1
 62
     3
100
AcDbMText
 10
196.7416541059787
 20
297.4434641973052
 30
0.0
 40
3.499999995500298
 41
0.0
 71
     5
 72
     1
  1
\A1;15
  7
CONVERTER_4
 73
     1
 44
1.0
1001
ACAD
1000
MTEXTBEGIN
1070
    73
1070
     1
1070
    44
1040
1.0
1070
    74
1070
     0
1000
MTEXTEND
  0
POINT
  5
811
330
492
100
AcDbEntity
  8
Defpoints
 62
     0
100
AcDbPoint
 10
204.2416540963365
 20
311.6981390491309
 30
0.0
  0
POINT
  5
812
330
492
100
AcDbEntity
  8
Defpoints
 62
     0
100
AcDbPoint
 10
189.2416541156209
 20
314.6981390452741
 30
0.0
  0
POINT
  5
813
330
492
100
AcDbEntity
  8
Defpoints
 62
     0
100
AcDbPoint
 10
189.2416541156209
 20
294.6934642008407
 30
0.0
  0
ENDBLK
  5
494
330
492
100
AcDbEntity
  8
0
100
AcDbBlockEnd
  0
BLOCK
  5
49F
330
49E
100
AcDbEntity
  8
0
100
AcDbBlockBegin
  2
*D28
 70
     1
 10
0.0
 20
0.0
 30
0.0
  3
*D28
  1

  0
LINE
  5
814
330
49E
100
AcDbEntity
  8
1
 62
     2
370
    -2
100
AcDbLine
 10
71.49165426700363
 20
316.6981390427029
 30
0.0
 11
83.12006081183353
 21
316.6981390427029
 31
0.0
  0
LINE
  5
815
330
49E
100
AcDbEntity
  8
1
 62
     2
370
    -2
100
AcDbLine
 10
71.49165426700363
 20
314.6981390452741
 30
0.0
 11
83.12006081183353
 21
314.6981390452741
 31
0.0
  0
LINE
  5
816
330
49E
100
AcDbEntity
  8
1
 62
     2
370
    -2
100
AcDbLine
 10
82.12006081311916
 20
319.148139039553
 30
0.0
 11
82.12006081311916
 21
321.5981390364032
 31
0.0
  0
LINE
  5
817
330
49E
100
AcDbEntity
  8
1
 62
     2
370
    -2
100
AcDbLine
 10
82.12006081311916
 20
312.2481390484239
 30
0.0
 11
82.12006081311916
 21
306.2464723894731
 31
0.0
  0
LINE
  5
818
330
49E
100
AcDbEntity
  8
1
 62
     2
370
    -2
100
AcDbLine
 10
82.12006081311916
 20
316.6981390427029
 30
0.0
 11
82.12006081311916
 21
314.6981390452741
 31
0.0
  0
INSERT
  5
819
330
49E
100
AcDbEntity
  8
1
 62
     2
370
    -2
100
AcDbBlockReference
  2
_Open30
 10
82.12006081311916
 20
316.6981390427029
 30
0.0
 41
2.449999996850208
 42
2.449999996850208
 43
2.449999996850208
 50
270.0
  0
INSERT
  5
81A
330
49E
100
AcDbEntity
  8
1
 62
     2
370
    -2
100
AcDbBlockReference
  2
_Open30
 10
82.12006081311916
 20
314.6981390452741
 30
0.0
 41
2.449999996850208
 42
2.449999996850208
 43
2.449999996850208
 50
90.0
  0
MTEXT
  5
81B
330
49E
100
AcDbEntity
  8
1
 62
     3
100
AcDbMText
 10
79.37006081665455
 20
308.0223057205234
 30
0.0
 40
3.499999995500298
 41
0.0
 71
     5
 72
     1
  1
\A1;2
  7
CONVERTER_4
 11
0.0000000000000001
 21
1.0
 31
0.0
 73
     1
 44
1.0
1001
ACAD
1000
MTEXTBEGIN
1070
    73
1070
     1
1070
    44
1040
1.0
1070
    74
1070
     0
1000
MTEXTEND
  0
POINT
  5
81C
330
49E
100
AcDbEntity
  8
Defpoints
 62
     0
100
AcDbPoint
 10
70.49165426828927
 20
316.6981390427029
 30
0.0
  0
POINT
  5
81D
330
49E
100
AcDbEntity
  8
Defpoints
 62
     0
100
AcDbPoint
 10
70.49165426828927
 20
314.6981390452741
 30
0.0
  0
POINT
  5
81E
330
49E
100
AcDbEntity
  8
Defpoints
 62
     0
100
AcDbPoint
 10
82.12006081311916
 20
314.6981390452741
 30
0.0
  0
ENDBLK
  5
4A0
330
49E
100
AcDbEntity
  8
0
100
AcDbBlockEnd
  0
BLOCK
  5
4AD
330
4AC
100
AcDbEntity
  8
0
100
AcDbBlockBegin
  2
*D29
 70
     1
 10
0.0
 20
0.0
 30
0.0
  3
*D29
  1

  0
LINE
  5
81F
330
4AC
100
AcDbEntity
  8
1
 62
     2
370
    -2
100
AcDbLine
 10
70.49165426828927
 20
313.6981390465597
 30
0.0
 11
70.49165426828927
 21
293.6934642021263
 31
0.0
  0
LINE
  5
820
330
4AC
100
AcDbEntity
  8
1
 62
     2
370
    -2
100
AcDbLine
 10
50.49165429400182
 20
313.6981390465597
 30
0.0
 11
50.49165429400182
 21
293.6934642021263
 31
0.0
  0
LINE
  5
821
330
4AC
100
AcDbEntity
  8
1
 62
     2
370
    -2
100
AcDbLine
 10
68.04165427143907
 20
294.6934642008407
 30
0.0
 11
52.94165429085203
 21
294.6934642008407
 31
0.0
  0
INSERT
  5
822
330
4AC
100
AcDbEntity
  8
1
 62
     2
370
    -2
100
AcDbBlockReference
  2
_Open30
 10
70.49165426828927
 20
294.6934642008407
 30
0.0
 41
2.449999996850208
 42
2.449999996850208
 43
2.449999996850208
  0
INSERT
  5
823
330
4AC
100
AcDbEntity
  8
1
 62
     2
370
    -2
100
AcDbBlockReference
  2
_Open30
 10
50.49165429400182
 20
294.6934642008407
 30
0.0
 41
2.449999996850208
 42
2.449999996850208
 43
2.449999996850208
 50
180.0
  0
MTEXT
  5
824
330
4AC
100
AcDbEntity
  8
1
 62
     3
100
AcDbMText
 10
60.49165428114553
 20
297.4434641973052
 30
0.0
 40
3.499999995500298
 41
0.0
 71
     5
 72
     1
  1
\A1;20
  7
CONVERTER_4
 73
     1
 44
1.0
1001
ACAD
1000
MTEXTBEGIN
1070
    73
1070
     1
1070
    44
1040
1.0
1070
    74
1070
     0
1000
MTEXTEND
  0
POINT
  5
825
330
4AC
100
AcDbEntity
  8
Defpoints
 62
     0
100
AcDbPoint
 10
70.49165426828927
 20
314.6981390452741
 30
0.0
  0
POINT
  5
826
330
4AC
100
AcDbEntity
  8
Defpoints
 62
     0
100
AcDbPoint
 10
50.49165429400182
 20
314.6981390452741
 30
0.0
  0
POINT
  5
827
330
4AC
100
AcDbEntity
  8
Defpoints
 62
     0
100
AcDbPoint
 10
50.49165429400182
 20
294.6934642008407
 30
0.0
  0
ENDBLK
  5
4AE
330
4AC
100
AcDbEntity
  8
0
100
AcDbBlockEnd
  0
BLOCK
  5
4B9
330
4B8
100
AcDbEntity
  8
0
100
AcDbBlockBegin
  2
*D30
 70
     1
 10
0.0
 20
0.0
 30
0.0
  3
*D30
  1

  0
LINE
  5
828
330
4B8
100
AcDbEntity
  8
1
 62
     2
370
    -2
100
AcDbLine
 10
61.5082049433886
 20
227.9726933378791
 30
0.0
 11
90.83334599717728
 21
227.9726933378791
 31
0.0
  0
LINE
  5
829
330
4B8
100
AcDbEntity
  8
1
 62
     2
370
    -2
100
AcDbLine
 10
61.5082049433886
 20
235.9726933275941
 30
0.0
 11
90.83334599717728
 21
235.972693327594
 31
0.0
  0
LINE
  5
82A
330
4B8
100
AcDbEntity
  8
1
 62
     2
370
    -2
100
AcDbLine
 10
89.83334599846291
 20
230.4226933347293
 30
0.0
 11
89.83334599846291
 21
233.5226933307438
 31
0.0
  0
INSERT
  5
82B
330
4B8
100
AcDbEntity
  8
1
 62
     2
370
    -2
100
AcDbBlockReference
  2
_Open30
 10
89.83334599846291
 20
227.9726933378791
 30
0.0
 41
2.449999996850208
 42
2.449999996850208
 43
2.449999996850208
 50
270.0
  0
INSERT
  5
82C
330
4B8
100
AcDbEntity
  8
1
 62
     2
370
    -2
100
AcDbBlockReference
  2
_Open30
 10
89.83334599846291
 20
235.972693327594
 30
0.0
 41
2.449999996850208
 42
2.449999996850208
 43
2.449999996850208
 50
90.0
  0
MTEXT
  5
82D
330
4B8
100
AcDbEntity
  8
1
 62
     3
100
AcDbMText
 10
87.08334600199831
 20
231.9726933327366
 30
0.0
 40
3.499999995500298
 41
0.0
 71
     5
 72
     1
  1
\A1;8
  7
CONVERTER_4
 11
0.0000000000000001
 21
1.0
 31
0.0
 73
     1
 44
1.0
1001
ACAD
1000
MTEXTBEGIN
1070
    73
1070
     1
1070
    44
1040
1.0
1070
    74
1070
     0
1000
MTEXTEND
  0
POINT
  5
82E
330
4B8
100
AcDbEntity
  8
Defpoints
 62
     0
100
AcDbPoint
 10
60.50820494467421
 20
227.9726933378791
 30
0.0
  0
POINT
  5
82F
330
4B8
100
AcDbEntity
  8
Defpoints
 62
     0
100
AcDbPoint
 10
60.50820494467421
 20
235.9726933275941
 30
0.0
  0
POINT
  5
830
330
4B8
100
AcDbEntity
  8
Defpoints
 62
     0
100
AcDbPoint
 10
89.83334599846291
 20
235.972693327594
 30
0.0
  0
ENDBLK
  5
4BA
330
4B8
100
AcDbEntity
  8
0
100
AcDbBlockEnd
  0
ENDSEC
  0
SECTION
  2
ENTITIES
  0
LINE
  5
10B
330
6C
100
AcDbEntity
  8
1
  6
Continuous
 62
     7
100
AcDbLine
 10
52.59165429130201
 20
324.6981390324176
 30
0.0
 11
68.39165427098913
 21
324.6981390324176
 31
0.0
  0
LINE
  5
10C
330
6C
100
AcDbEntity
  8
1
  6
Continuous
 62
     7
100
AcDbLine
 10
52.59165429130201
 20
324.6981390324176
 30
0.0
 11
68.39165427098913
 21
324.6981390324176
 31
0.0
  0
LINE
  5
10D
330
6C
100
AcDbEntity
  8
1
  6
DOT_CENTER
 62
     2
100
AcDbLine
 10
54.2416542891807
 20
360.7981389860067
 30
0.0
 11
66.74165427311038
 21
360.7981389860067
 31
0.0
  0
LINE
  5
10E
330
6C
100
AcDbEntity
  8
1
  6
DOT_CENTER
 62
     2
100
AcDbLine
 10
54.99165428821652
 20
336.6981390169901
 30
0.0
 11
65.99165427407456
 21
336.6981390169901
 31
0.0
  0
LINE
  5
10F
330
6C
100
AcDbEntity
  8
1
  6
Continuous
 62
     7
100
AcDbLine
 10
60.89165428063131
 20
358.6481389887707
 30
0.0
 11
60.89165428063131
 21
359.8981389871636
 31
0.0
  0
LINE
  5
110
330
6C
100
AcDbEntity
  8
1
  6
Continuous
 62
     7
100
AcDbLine
 10
61.39165427998853
 20
360.3981389865209
 30
0.0
 11
62.64165427838145
 21
360.3981389865209
 31
0.0
  0
LINE
  5
111
330
6C
100
AcDbEntity
  8
1
  6
Continuous
 62
     7
100
AcDbLine
 10
62.64165427838145
 20
360.3981389865209
 30
0.0
 11
62.64165427838145
 21
361.1981389854922
 31
0.0
  0
LINE
  5
112
330
6C
100
AcDbEntity
  8
1
  6
Continuous
 62
     7
100
AcDbLine
 10
62.64165427838145
 20
361.1981389854922
 30
0.0
 11
61.39165427998853
 21
361.1981389854922
 31
0.0
  0
LINE
  5
113
330
6C
100
AcDbEntity
  8
1
  6
Continuous
 62
     7
100
AcDbLine
 10
60.89165428063131
 20
361.6981389848494
 30
0.0
 11
60.89165428063131
 21
362.9481389832424
 31
0.0
  0
LINE
  5
114
330
6C
100
AcDbEntity
  8
1
  6
Continuous
 62
     7
100
AcDbLine
 10
60.89165428063131
 20
362.9481389832424
 30
0.0
 11
60.09165428165993
 21
362.9481389832424
 31
0.0
  0
LINE
  5
115
330
6C
100
AcDbEntity
  8
1
  6
Continuous
 62
     7
100
AcDbLine
 10
60.09165428165993
 20
362.9481389832424
 30
0.0
 11
60.09165428165993
 21
361.6981389848494
 31
0.0
  0
LINE
  5
116
330
6C
100
AcDbEntity
  8
1
  6
Continuous
 62
     7
100
AcDbLine
 10
59.59165428230272
 20
361.1981389854922
 30
0.0
 11
58.3416542839098
 21
361.1981389854922
 31
0.0
  0
LINE
  5
117
330
6C
100
AcDbEntity
  8
1
  6
Continuous
 62
     7
100
AcDbLine
 10
58.3416542839098
 20
361.1981389854922
 30
0.0
 11
58.3416542839098
 21
360.3981389865209
 31
0.0
  0
LINE
  5
118
330
6C
100
AcDbEntity
  8
1
  6
Continuous
 62
     7
100
AcDbLine
 10
58.3416542839098
 20
360.3981389865209
 30
0.0
 11
59.59165428230272
 21
360.3981389865209
 31
0.0
  0
LINE
  5
119
330
6C
100
AcDbEntity
  8
1
  6
Continuous
 62
     7
100
AcDbLine
 10
60.09165428165993
 20
359.8981389871636
 30
0.0
 11
60.09165428165993
 21
358.6481389887707
 31
0.0
  0
LINE
  5
11A
330
6C
100
AcDbEntity
  8
1
  6
Continuous
 62
     7
100
AcDbLine
 10
60.09165428165993
 20
358.6481389887707
 30
0.0
 11
60.89165428063131
 21
358.6481389887707
 31
0.0
  0
LINE
  5
11B
330
6C
100
AcDbEntity
  8
1
  6
Continuous
 62
     7
100
AcDbLine
 10
68.39165427098913
 20
324.6981390324176
 30
0.0
 11
68.39165427098913
 21
361.2981389853638
 31
0.0
  0
LINE
  5
11C
330
6C
100
AcDbEntity
  8
1
  6
Continuous
 62
     7
100
AcDbLine
 10
52.59165429130201
 20
361.2981389853638
 30
0.0
 11
52.59165429130201
 21
324.6981390324176
 31
0.0
  0
LINE
  5
11D
330
6C
100
AcDbEntity
  8
1
  6
Continuous
 62
     7
100
AcDbLine
 10
198.2416541040502
 20
324.6981390324176
 30
0.0
 11
198.7416541034074
 21
324.6981390324176
 31
0.0
  0
LINE
  5
11E
330
6C
100
AcDbEntity
  8
1
  6
Continuous
 62
     7
100
AcDbLine
 10
194.7416541085499
 20
369.1981389752072
 30
0.0
 11
194.7416541085499
 21
324.6981390324176
 31
0.0
  0
LINE
  5
11F
330
6C
100
AcDbEntity
  8
1
  6
Continuous
 62
     7
100
AcDbLine
 10
198.2416541040502
 20
369.1981389752072
 30
0.0
 11
194.7416541085499
 21
369.1981389752072
 31
0.0
  0
LINE
  5
120
330
6C
100
AcDbEntity
  8
1
  6
Continuous
 62
     7
100
AcDbLine
 10
198.7416541034074
 20
324.6981390324176
 30
0.0
 11
198.7416541034074
 21
368.69813897585
 31
0.0
  0
LINE
  5
121
330
6C
100
AcDbEntity
  8
1
  6
Continuous
 62
     7
100
AcDbLine
 10
198.2416541040502
 20
369.1981389752072
 30
0.0
 11
198.7416541034074
 21
368.69813897585
 31
0.0
  0
LINE
  5
122
330
6C
100
AcDbEntity
  8
1
  6
Continuous
 62
     7
100
AcDbLine
 10
198.2416541040502
 20
324.6981390324176
 30
0.0
 11
198.2416541040502
 21
369.1981389752072
 31
0.0
  0
LINE
  5
123
330
6C
100
AcDbEntity
  8
1
  6
Continuous
 62
     7
100
AcDbLine
 10
194.7416541085499
 20
324.6981390324176
 30
0.0
 11
198.2416541040502
 21
324.6981390324176
 31
0.0
  0
LWPOLYLINE
  5
124
330
6C
100
AcDbEntity
  8
1
  6
Continuous
 62
     7
100
AcDbPolyline
 90
        2
 70
     1
 43
0.0
 10
60.87665428065061
 20
356.967437358071
 42
1.0
 10
60.10665428164049
 20
364.6288406139423
 42
1.0
  0
LWPOLYLINE
  5
125
330
6C
100
AcDbEntity
  8
1
  6
Continuous
 62
     7
100
AcDbPolyline
 90
        2
 70
     1
 43
0.0
 10
60.49165428114553
 20
356.5481389914706
 42
0.9999999999999998
 10
60.49165428114553
 20
365.0481389805428
 42
0.9999999999999998
  0
LWPOLYLINE
  5
126
330
6C
100
AcDbEntity
  8
1
  6
Continuous
 62
     7
100
AcDbPolyline
 90
        2
 70
     1
 43
0.0
 10
60.49165428114553
 20
335.0481390191117
 42
0.9999999999999998
 10
60.49165428114553
 20
338.3481390148686
 42
0.9999999999999998
  0
LWPOLYLINE
  5
127
330
6C
100
AcDbEntity
  8
1
  6
Continuous
 62
     7
100
AcDbPolyline
 90
        2
 70
     1
 43
0.0
 10
60.49165428114553
 20
334.1981390202042
 42
0.9999999999999998
 10
60.49165428114553
 20
339.1981390137762
 42
0.9999999999999998
  0
ARC
  5
128
330
6C
100
AcDbEntity
  8
1
  6
Continuous
 62
     7
100
AcDbCircle
 10
60.49165428114553
 20
361.2981389853638
 30
0.0
 40
7.899999989843565
100
AcDbArc
 50
0.0
 51
180.0
  0
ARC
  5
129
330
6C
100
AcDbEntity
  8
1
  6
Continuous
 62
     7
100
AcDbCircle
 10
61.39165427998853
 20
359.8981389871636
 30
0.0
 40
0.4999999993571855
100
AcDbArc
 50
90.0
 51
180.0
  0
ARC
  5
12A
330
6C
100
AcDbEntity
  8
1
  6
Continuous
 62
     7
100
AcDbCircle
 10
59.59165428230272
 20
359.8981389871636
 30
0.0
 40
0.4999999993571855
100
AcDbArc
 50
0.0
 51
90.0
  0
ARC
  5
12B
330
6C
100
AcDbEntity
  8
1
  6
Continuous
 62
     7
100
AcDbCircle
 10
59.59165428230272
 20
361.6981389848494
 30
0.0
 40
0.4999999993571855
100
AcDbArc
 50
270.0
 51
0.0
  0
ARC
  5
12C
330
6C
100
AcDbEntity
  8
1
  6
Continuous
 62
     7
100
AcDbCircle
 10
61.39165427998853
 20
361.6981389848494
 30
0.0
 40
0.4999999993571855
100
AcDbArc
 50
180.0
 51
270.0
  0
LINE
  5
315
330
6C
100
AcDbEntity
  8
1
  6
Continuous
 62
     7
100
AcDbLine
 10
225.2416540693382
 20
317.19813904206
 30
0.0
 11
226.2416540680526
 21
317.19813904206
 31
0.0
  0
LINE
  5
316
330
6C
100
AcDbEntity
  8
1
  6
Continuous
 62
     7
100
AcDbLine
 10
225.2416540693382
 20
316.1981390433457
 30
0.0
 11
225.2416540693382
 21
317.19813904206
 31
0.0
  0
LINE
  5
317
330
6C
100
AcDbEntity
  8
1
  6
Continuous
 62
     7
100
AcDbLine
 10
219.7416540764092
 20
315.6981390439884
 30
0.0
 11
224.741654069981
 21
315.6981390439884
 31
0.0
  0
LINE
  5
318
330
6C
100
AcDbEntity
  8
1
  6
Continuous
 62
     7
100
AcDbLine
 10
219.241654077052
 20
317.19813904206
 30
0.0
 11
225.2416540693382
 21
317.19813904206
 31
0.0
  0
LINE
  5
319
330
6C
100
AcDbEntity
  8
1
  6
Continuous
 62
     7
100
AcDbLine
 10
219.241654077052
 20
317.19813904206
 30
0.0
 11
219.241654077052
 21
316.1981390433457
 31
0.0
  0
LINE
  5
31A
330
6C
100
AcDbEntity
  8
1
  6
Continuous
 62
     7
100
AcDbLine
 10
226.2416540680526
 20
317.6981390414172
 30
0.0
 11
226.9416540671525
 21
317.6981390414172
 31
0.0
  0
LINE
  5
31B
330
6C
100
AcDbEntity
  8
1
  6
Continuous
 62
     7
100
AcDbLine
 10
226.2416540680526
 20
317.19813904206
 30
0.0
 11
226.2416540680526
 21
317.6981390414172
 31
0.0
  0
LINE
  5
31C
330
6C
100
AcDbEntity
  8
1
  6
Continuous
 62
     7
100
AcDbLine
 10
218.2416540783377
 20
317.19813904206
 30
0.0
 11
219.241654077052
 21
317.19813904206
 31
0.0
  0
LINE
  5
31D
330
6C
100
AcDbEntity
  8
1
  6
Continuous
 62
     7
100
AcDbLine
 10
218.2416540783377
 20
317.6981390414172
 30
0.0
 11
226.2416540680526
 21
317.6981390414172
 31
0.0
  0
LINE
  5
31E
330
6C
100
AcDbEntity
  8
1
  6
Continuous
 62
     7
100
AcDbLine
 10
218.2416540783377
 20
317.6981390414172
 30
0.0
 11
218.2416540783377
 21
317.19813904206
 31
0.0
  0
LINE
  5
320
330
6C
100
AcDbEntity
  8
1
  6
Continuous
 62
     7
100
AcDbLine
 10
189.2416541156209
 20
314.6981390452741
 30
0.0
 11
214.9416540825801
 21
314.6981390452741
 31
0.0
  0
LINE
  5
321
330
6C
100
AcDbEntity
  8
1
  6
Continuous
 62
     7
100
AcDbLine
 10
217.2416540796232
 20
316.9981390423174
 30
0.0
 11
217.2416540796232
 21
317.3981390418032
 31
0.0
  0
LINE
  5
322
330
6C
100
AcDbEntity
  8
1
  6
Continuous
 62
     7
100
AcDbLine
 10
227.2416540667669
 20
316.9981390423174
 30
0.0
 11
227.2416540667669
 21
317.3981390418032
 31
0.0
  0
LINE
  5
323
330
6C
100
AcDbEntity
  8
1
  6
Continuous
 62
     7
100
AcDbLine
 10
255.2416540307694
 20
316.6981390427029
 30
0.0
 11
229.5416540638098
 21
316.6981390427029
 31
0.0
  0
LINE
  5
324
330
6C
100
AcDbEntity
  8
1
  6
Continuous
 62
     7
100
AcDbLine
 10
215.2416540821945
 20
316.9981390423174
 30
0.0
 11
215.2416540821945
 21
317.3981390418032
 31
0.0
  0
LINE
  5
325
330
6C
100
AcDbEntity
  8
1
  6
Continuous
 62
     7
100
AcDbLine
 10
229.5416540638098
 20
314.6981390452741
 30
0.0
 11
255.2416540307694
 21
314.6981390452741
 31
0.0
  0
LINE
  5
326
330
6C
100
AcDbEntity
  8
1
  6
Continuous
 62
     7
100
AcDbLine
 10
229.2416540641957
 20
316.9981390423174
 30
0.0
 11
229.2416540641957
 21
317.3981390418032
 31
0.0
  0
LINE
  5
327
330
6C
100
AcDbEntity
  8
1
  6
Continuous
 62
     7
100
AcDbLine
 10
217.5416540792373
 20
317.6981390414172
 30
0.0
 11
218.2416540783377
 21
317.6981390414172
 31
0.0
  0
LINE
  5
328
330
6C
100
AcDbEntity
  8
1
  6
Continuous
 62
     7
100
AcDbLine
 10
217.5416540792373
 20
319.6981390388458
 30
0.0
 11
226.9416540671525
 21
319.6981390388458
 31
0.0
  0
LINE
  5
329
330
6C
100
AcDbEntity
  8
1
  6
Continuous
 62
     7
100
AcDbLine
 10
255.2416540307694
 20
314.6981390452741
 30
0.0
 11
255.2416540307694
 21
316.6981390427029
 31
0.0
  0
LINE
  5
32A
330
6C
100
AcDbEntity
  8
1
  6
Continuous
 62
     7
100
AcDbLine
 10
214.9416540825801
 20
316.6981390427029
 30
0.0
 11
189.2416541156209
 21
316.6981390427029
 31
0.0
  0
LINE
  5
32B
330
6C
100
AcDbEntity
  8
1
  6
Continuous
 62
     7
100
AcDbLine
 10
189.2416541156209
 20
316.6981390427029
 30
0.0
 11
189.2416541156209
 21
314.6981390452741
 31
0.0
  0
ARC
  5
353
330
6C
100
AcDbEntity
  8
1
  6
Continuous
 62
     7
100
AcDbCircle
 10
224.741654069981
 20
316.1981390433457
 30
0.0
 40
0.4999999993571855
100
AcDbArc
 50
270.0
 51
0.0
  0
ARC
  5
354
330
6C
100
AcDbEntity
  8
1
  6
Continuous
 62
     7
100
AcDbCircle
 10
219.7416540764092
 20
316.1981390433457
 30
0.0
 40
0.4999999993571855
100
AcDbArc
 50
180.0
 51
270.0
  0
ARC
  5
355
330
6C
100
AcDbEntity
  8
1
  6
Continuous
 62
     7
100
AcDbCircle
 10
214.9416540825801
 20
316.9981390423174
 30
0.0
 40
2.299999997043292
100
AcDbArc
 50
270.0
 51
0.0
  0
ARC
  5
356
330
6C
100
AcDbEntity
  8
1
  6
Continuous
 62
     7
100
AcDbCircle
 10
214.9416540825801
 20
316.9981390423174
 30
0.0
 40
0.29999999961455
100
AcDbArc
 50
270.0
 51
0.0
  0
ARC
  5
357
330
6C
100
AcDbEntity
  8
1
  6
Continuous
 62
     7
100
AcDbCircle
 10
217.5416540792373
 20
317.3981390418032
 30
0.0
 40
2.299999997042723
100
AcDbArc
 50
90.0
 51
180.0
  0
ARC
  5
358
330
6C
100
AcDbEntity
  8
1
  6
Continuous
 62
     7
100
AcDbCircle
 10
229.5416540638098
 20
316.9981390423174
 30
0.0
 40
2.29999999704278
100
AcDbArc
 50
180.0
 51
270.0
  0
ARC
  5
359
330
6C
100
AcDbEntity
  8
1
  6
Continuous
 62
     7
100
AcDbCircle
 10
226.9416540671525
 20
317.3981390418032
 30
0.0
 40
2.299999997043235
100
AcDbArc
 50
0.0
 51
90.0
  0
ARC
  5
35A
330
6C
100
AcDbEntity
  8
1
  6
Continuous
 62
     7
100
AcDbCircle
 10
217.5416540792373
 20
317.3981390418032
 30
0.0
 40
0.2999999996139816
100
AcDbArc
 50
90.0
 51
180.0
  0
ARC
  5
35B
330
6C
100
AcDbEntity
  8
1
  6
Continuous
 62
     7
100
AcDbCircle
 10
226.9416540671525
 20
317.3981390418032
 30
0.0
 40
0.2999999996144932
100
AcDbArc
 50
0.0
 51
90.0
  0
ARC
  5
35C
330
6C
100
AcDbEntity
  8
1
  6
Continuous
 62
     7
100
AcDbCircle
 10
229.5416540638098
 20
316.9981390423174
 30
0.0
 40
0.2999999996140384
100
AcDbArc
 50
180.0
 51
270.0
  0
INSERT
  5
37C
330
6C
100
AcDbEntity
  8
1
100
AcDbBlockReference
  2
_2__1
 10
1955.811718710249
 20
2448.414190618827
 30
0.0
  0
INSERT
  5
387
330
6C
100
AcDbEntity
  8
1
100
AcDbBlockReference
  2
_4
 10
1955.91171871012
 20
2476.042648009308
 30
0.0
  0
INSERT
  5
38F
330
6C
100
AcDbEntity
  8
1
100
AcDbBlockReference
  2
_6
 10
2162.486536753938
 20
2369.507179130497
 30
0.0
  0
LINE
  5
395
330
6C
100
AcDbEntity
  8
1
  6
Continuous
 62
     7
100
AcDbLine
 10
68.39165427098913
 20
324.6981390324176
 30
0.0
 11
68.39165427098913
 21
361.798138984721
 31
0.0
  0
LINE
  5
396
330
6C
100
AcDbEntity
  8
1
  6
Continuous
 62
     7
100
AcDbLine
 10
198.7416541034074
 20
324.6981390324176
 30
0.0
 11
218.8166540775984
 21
324.6981390324176
 31
0.0
  0
LINE
  5
397
330
6C
100
AcDbEntity
  8
1
  6
Continuous
 62
     7
100
AcDbLine
 10
218.8166540775984
 20
324.6981390324176
 30
0.0
 11
225.6666540687918
 21
324.6981390324176
 31
0.0
  0
LINE
  5
398
330
6C
100
AcDbEntity
  8
1
  6
Continuous
 62
     7
100
AcDbLine
 10
52.59165429130201
 20
361.798138984721
 30
0.0
 11
52.59165429130201
 21
324.6981390324176
 31
0.0
  0
LINE
  5
399
330
6C
100
AcDbEntity
  8
1
  6
Continuous
 62
     7
100
AcDbLine
 10
230.2416540629101
 20
324.6981390324176
 30
0.0
 11
231.2416540616244
 21
324.6981390324176
 31
0.0
  0
LINE
  5
39A
330
6C
100
AcDbEntity
  8
1
  6
Continuous
 62
     7
100
AcDbLine
 10
198.7416541034074
 20
369.6981389745644
 30
0.0
 11
198.7416541034074
 21
324.6981390324176
 31
0.0
  0
LINE
  5
39B
330
6C
100
AcDbEntity
  8
1
  6
Continuous
 62
     7
100
AcDbLine
 10
230.2416540629101
 20
369.6981389745644
 30
0.0
 11
198.7416541034074
 21
369.6981389745644
 31
0.0
  0
LINE
  5
39C
330
6C
100
AcDbEntity
  8
1
  6
Continuous
 62
     7
100
AcDbLine
 10
231.2416540616244
 20
324.6981390324176
 30
0.0
 11
231.2416540616244
 21
368.69813897585
 31
0.0
  0
LINE
  5
39D
330
6C
100
AcDbEntity
  8
1
  6
Continuous
 62
     7
100
AcDbLine
 10
230.2416540629101
 20
369.6981389745644
 30
0.0
 11
231.2416540616244
 21
368.69813897585
 31
0.0
  0
LINE
  5
39E
330
6C
100
AcDbEntity
  8
1
  6
Continuous
 62
     7
100
AcDbLine
 10
230.2416540629101
 20
324.6981390324176
 30
0.0
 11
230.2416540629101
 21
369.6981389745644
 31
0.0
  0
LINE
  5
39F
330
6C
100
AcDbEntity
  8
1
  6
Continuous
 62
     7
100
AcDbLine
 10
225.6666540687918
 20
324.6981390324176
 30
0.0
 11
230.2416540629101
 21
324.6981390324176
 31
0.0
  0
ARC
  5
3A3
330
6C
100
AcDbEntity
  8
1
  6
Continuous
 62
     7
100
AcDbCircle
 10
60.49165428114553
 20
361.798138984721
 30
0.0
 40
7.899999989843337
100
AcDbArc
 50
90.0
 51
180.0
  0
ARC
  5
3A4
330
6C
100
AcDbEntity
  8
1
  6
Continuous
 62
     7
100
AcDbCircle
 10
60.49165428114553
 20
361.798138984721
 30
0.0
 40
7.899999989843565
100
AcDbArc
 50
0.0
 51
90.0
  0
MTEXT
  5
756
330
6C
100
AcDbEntity
  8
0
100
AcDbMText
 10
-19.79617902536961
 20
222.4562888556574
 30
0.0
 40
2.5
 41
0.0
 71
     1
 72
     1
  1

 73
     1
 44
1.0
1001
ACAD
1000
MTEXTBEGIN
1070
    73
1070
     1
1070
    44
1040
1.0
1070
    74
1070
     0
1000
MTEXTEND
  0
ENDSEC
  0
SECTION
  2
OBJECTS
  0
DICTIONARY
  5
C
330
0
100
AcDbDictionary
281
     1
  3
ACAD_CIP_PREVIOUS_PRODUCT_INFO
350
840
  3
ACAD_COLOR
350
63
  3
ACAD_GROUP
350
D
  3
ACAD_LAYOUT
350
62
  3
ACAD_MATERIAL
350
10
  3
ACAD_MLEADERSTYLE
350
66
  3
ACAD_MLINESTYLE
350
5F
  3
ACAD_PLOTSETTINGS
350
61
  3
ACAD_PLOTSTYLENAME
350
E
  3
ACAD_SCALELIST
350
42
  3
ACAD_TABLESTYLE
350
64
  3
ACAD_VISUALSTYLE
350
29
  3
ACDB_RECOMPOSE_DATA
350
959
  3
AcDbVariableDictionary
350
833
  3
ASE_INDEX_DICTIONARY
350
8DA
  3
DWGPROPS
350
95A
  0
DICTIONARY
  5
841
330
54
100
AcDbDictionary
280
     1
281
     1
  3
ADSK_XREC_LAYER_RECONCILED
360
842
  0
DICTIONARY
  5
C0
330
BF
100
AcDbDictionary
280
     1
281
     1
  3
ADSK_XREC_LAYER_RECONCILED
360
C1
  0
DICTIONARY
  5
C5
330
C4
100
AcDbDictionary
280
     1
281
     1
  3
ADSK_XREC_LAYER_RECONCILED
360
C6
  0
DICTIONARY
  5
754
330
6C
100
AcDbDictionary
280
     1
281
     1
  3
ACAD_SORTENTS
360
755
  0
XRECORD
  5
840
102
{ACAD_REACTORS
330
C
102
}
330
C
100
AcDbXrecord
280
     1
300
ACD
300
2012
300
ACD_F_S
  0
DICTIONARY
  5
63
102
{ACAD_REACTORS
330
C
102
}
330
C
100
AcDbDictionary
281
     1
  0
DICTIONARY
  5
D
102
{ACAD_REACTORS
330
C
102
}
330
C
100
AcDbDictionary
281
     1
  0
DICTIONARY
  5
62
102
{ACAD_REACTORS
330
C
102
}
330
C
100
AcDbDictionary
281
     1
  3
Model
350
6F
  3
レイアウト1
350
6B
  3
レイアウト2
350
73
  0
DICTIONARY
  5
10
102
{ACAD_REACTORS
330
C
102
}
330
C
100
AcDbDictionary
281
     1
  3
ByBlock
350
19
  3
ByLayer
350
11
  3
Global
350
21
  0
DICTIONARY
  5
66
102
{ACAD_REACTORS
330
C
102
}
330
C
100
AcDbDictionary
281
     1
  3
Standard
350
67
  0
DICTIONARY
  5
5F
102
{ACAD_REACTORS
330
C
102
}
330
C
100
AcDbDictionary
281
     1
  3
Standard
350
60
  0
DICTIONARY
  5
61
102
{ACAD_REACTORS
330
C
102
}
330
C
100
AcDbDictionary
281
     1
  0
ACDBDICTIONARYWDFLT
  5
E
102
{ACAD_REACTORS
330
C
102
}
330
C
100
AcDbDictionary
281
     1
  3
invisible
350
AA
  3
Normal
350
F
  3
Style 1
350
AB
100
AcDbDictionaryWithDefault
340
F
  0
DICTIONARY
  5
42
102
{ACAD_REACTORS
330
C
102
}
330
C
100
AcDbDictionary
281
     1
  3
*A1
350
AC
  3
*A10
350
B4
  3
*A11
350
B5
  3
*A12
350
B6
  3
*A13
350
B7
  3
*A14
350
B8
  3
*A15
350
B9
  3
*A16
350
BA
  3
*A17
350
BB
  3
*A18
350
BC
  3
*A2
350
BD
  3
*A3
350
AD
  3
*A4
350
AE
  3
*A5
350
AF
  3
*A6
350
B0
  3
*A7
350
B1
  3
*A8
350
B2
  3
*A9
350
B3
  3
A0
350
43
  3
A1
350
44
  3
A2
350
45
  3
A3
350
46
  3
A4
350
47
  3
A5
350
48
  3
A6
350
49
  3
A7
350
4A
  3
A8
350
4B
  3
A9
350
4C
  3
B0
350
4D
  3
B1
350
4E
  3
B2
350
4F
  3
B3
350
50
  3
B4
350
51
  3
B5
350
52
  3
B6
350
53
  0
DICTIONARY
  5
64
102
{ACAD_REACTORS
330
C
102
}
330
C
100
AcDbDictionary
281
     1
  3
Standard
350
65
  0
DICTIONARY
  5
29
102
{ACAD_REACTORS
330
C
102
}
330
C
100
AcDbDictionary
281
     1
  3
2dWireframe
350
2F
  3
Basic
350
2E
  3
Brighten
350
35
  3
ColorChange
350
39
  3
Conceptual
350
32
  3
Dim
350
34
  3
EdgeColorOff
350
41
  3
Facepattern
350
38
  3
Flat
350
2A
  3
FlatWithEdges
350
2B
  3
Gouraud
350
2C
  3
GouraudWithEdges
350
2D
  3
Hidden
350
31
  3
JitterOff
350
3F
  3
Linepattern
350
37
  3
OverhangOff
350
40
  3
Realistic
350
33
  3
Shaded
350
3E
  3
Shaded with edges
350
3D
  3
Shades of Gray
350
3A
  3
Sketchy
350
3B
  3
Thicken
350
36
  3
Wireframe
350
30
  3
X-Ray
350
3C
  0
XRECORD
  5
959
102
{ACAD_REACTORS
330
C
102
}
330
C
100
AcDbXrecord
280
     1
 90
        1
330
65
  0
DICTIONARY
  5
833
102
{ACAD_REACTORS
330
C
102
}
330
C
100
AcDbDictionary
281
     1
  3
ANNOALLVISIBLE
350
836
  3
CANNOSCALE
350
837
  3
CMLEADERSTYLE
350
835
  3
CTABLESTYLE
350
834
  3
DIMASSOC
350
849
  3
HIDETEXT
350
847
  3
INDEXCTL
350
846
  3
LAYEREVAL
350
838
  3
LAYERNOTIFY
350
839
  3
LIGHTINGUNITS
350
844
  3
MSLTSCALE
350
843
  3
SORTENTS
350
845
  3
XCLIPFRAME
350
8DD
  0
DICTIONARY
  5
8DA
102
{ACAD_REACTORS
330
C
102
}
330
C
100
AcDbDictionary
281
     1
  3
ASEBlockHierarchyIndexRecord
350
8DC
1001
DCO15
1040
1882601510.613
  0
XRECORD
  5
95A
102
{ACAD_REACTORS
330
C
102
}
330
C
100
AcDbXrecord
280
     1
  1
DWGPROPS COOKIE
  2

  3

  4

  6

  7

  8
0035sekine
  9

300
=
301
=
302
=
303
=
304
=
305
=
306
=
307
=
308
=
309
=
 40
0.0021390509259259
 41
2457463.691464803
 42
2457592.581187651
  1

 90
        0
  0
XRECORD
  5
842
102
{ACAD_REACTORS
330
841
102
}
330
841
100
AcDbXrecord
280
     1
290
     1
  0
XRECORD
  5
C1
102
{ACAD_REACTORS
330
C0
102
}
330
C0
100
AcDbXrecord
280
     1
290
     1
  0
XRECORD
  5
C6
102
{ACAD_REACTORS
330
C5
102
}
330
C5
100
AcDbXrecord
280
     1
290
     1
  0
SORTENTSTABLE
  5
755
102
{ACAD_REACTORS
330
754
102
}
330
754
100
AcDbSortentsTable
330
6C
331
359
  5
31F
331
399
  5
347
331
10B
  5
353
331
326
  5
2EC
331
113
  5
35B
331
11B
  5
363
331
123
  5
38F
331
12B
  5
39C
331
317
  5
2DD
331
356
  5
31C
331
35A
  5
320
331
39A
  5
348
331
10C
  5
354
331
327
  5
2ED
331
114
  5
35C
331
11C
  5
364
331
124
  5
395
331
12C
  5
39D
331
357
  5
31D
331
318
  5
2DE
331
35B
  5
321
331
39B
  5
349
331
320
  5
2E6
331
10D
  5
355
331
328
  5
2EE
331
115
  5
35D
331
11D
  5
365
331
125
  5
396
331
3A3
  5
351
331
319
  5
2DF
331
37C
  5
C3
331
35C
  5
322
331
39C
  5
34A
331
321
  5
2E7
331
10E
  5
356
331
116
  5
35E
331
329
  5
2EF
331
11E
  5
366
331
126
  5
397
331
3A4
  5
352
331
31A
  5
2E0
331
39D
  5
34B
331
322
  5
2E8
331
10F
  5
357
331
32A
  5
2F0
331
117
  5
35F
331
11F
  5
367
331
127
  5
398
331
395
  5
343
331
31B
  5
2E1
331
39E
  5
34C
331
323
  5
2E9
331
110
  5
358
331
118
  5
360
331
32B
  5
2F1
331
120
  5
374
331
396
  5
344
331
128
  5
399
331
353
  5
319
331
31C
  5
2E2
331
387
  5
C7
331
39F
  5
34D
331
324
  5
2EA
331
111
  5
359
331
119
  5
361
331
121
  5
37C
331
38F
  5
C8
331
397
  5
345
331
129
  5
39A
331
315
  5
2DB
331
354
  5
31A
331
31D
  5
2E3
331
358
  5
31E
331
398
  5
346
331
325
  5
2EB
331
112
  5
35A
331
11A
  5
362
331
122
  5
387
331
12A
  5
39B
331
355
  5
31B
331
316
  5
2DC
331
31E
  5
2E4
  0
LAYOUT
  5
6F
102
{ACAD_XDICTIONARY
360
98E
102
}
102
{ACAD_REACTORS
330
62
102
}
330
62
100
AcDbPlotSettings
  1

  2
Adobe PDF
  4
A4
  6

 40
3.174999952316283
 41
3.174999952316283
 42
3.175003051757812
 43
3.17498779296875
 44
209.9733276367186
 45
297.0318298339844
 46
-4.894741058349608
 47
-4.905582427978514
 48
0.0
 49
0.0
140
0.0
141
0.0
142
1.0
143
1.430923206072449
 70
 11954
 72
     1
 73
     1
 74
     0
  7
monochrome.stb
 75
     0
147
0.6988495229906622
148
-327.8842991532432
149
-254.6750419797313
100
AcDbLayout
  1
Model
 70
     1
 71
     0
 10
0.0
 20
0.0
 11
12.0
 21
9.0
 12
0.0
 22
0.0
 32
0.0
 14
0.0
 24
0.0
 34
0.0
 15
0.0
 25
0.0
 35
0.0
146
0.0
 13
0.0
 23
0.0
 33
0.0
 16
1.0
 26
0.0
 36
0.0
 17
0.0
 27
1.0
 37
0.0
 76
     0
330
6C
331
57
1001
ACAD_PSEXT
1000
Adobe PDF
1000
Adobe PDF Converter
1000
Documents\*.pdf
1000

1070
     0
  0
LAYOUT
  5
6B
102
{ACAD_XDICTIONARY
360
98C
102
}
102
{ACAD_REACTORS
330
62
102
}
330
62
100
AcDbPlotSettings
  1

  2
Adobe PDF
  4

  6

 40
0.0
 41
0.0
 42
0.0
 43
0.0
 44
0.0
 45
0.0
 46
0.0
 47
0.0
 48
0.0
 49
0.0
140
0.0
141
0.0
142
1.0
143
1.0
 70
   688
 72
     0
 73
     0
 74
     5
  7

 75
    16
147
1.0
148
0.0
149
0.0
100
AcDbLayout
  1
レイアウト1
 70
     1
 71
     1
 10
0.0
 20
0.0
 11
12.0
 21
9.0
 12
0.0
 22
0.0
 32
0.0
 14
1.000000000000000E+20
 24
1.000000000000000E+20
 34
1.000000000000000E+20
 15
-1.000000000000000E+20
 25
-1.000000000000000E+20
 35
-1.000000000000000E+20
146
0.0
 13
0.0
 23
0.0
 33
0.0
 16
1.0
 26
0.0
 36
0.0
 17
0.0
 27
1.0
 37
0.0
 76
     0
330
68
  0
LAYOUT
  5
73
102
{ACAD_XDICTIONARY
360
990
102
}
102
{ACAD_REACTORS
330
62
102
}
330
62
100
AcDbPlotSettings
  1

  2
Adobe PDF
  4

  6

 40
0.0
 41
0.0
 42
0.0
 43
0.0
 44
0.0
 45
0.0
 46
0.0
 47
0.0
 48
0.0
 49
0.0
140
0.0
141
0.0
142
1.0
143
1.0
 70
   688
 72
     0
 73
     0
 74
     5
  7

 75
    16
147
1.0
148
0.0
149
0.0
100
AcDbLayout
  1
レイアウト2
 70
     1
 71
     2
 10
0.0
 20
0.0
 11
12.0
 21
9.0
 12
0.0
 22
0.0
 32
0.0
 14
0.0
 24
0.0
 34
0.0
 15
0.0
 25
0.0
 35
0.0
146
0.0
 13
0.0
 23
0.0
 33
0.0
 16
1.0
 26
0.0
 36
0.0
 17
0.0
 27
1.0
 37
0.0
 76
     0
330
70
  0
MATERIAL
  5
19
102
{ACAD_XDICTIONARY
360
1A
102
}
102
{ACAD_REACTORS
330
10
102
}
330
10
100
AcDbMaterial
  1
ByBlock
 72
     0
 43
0.0208333333333333
 43
0.0
 43
0.0
 43
0.0
 43
0.0
 43
0.0208333333333333
 43
0.0
 43
0.0
 43
0.0
 43
0.0
 43
1.0
 43
0.0
 43
0.0
 43
0.0
 43
0.0
 43
1.0
 77
     0
 47
0.0208333333333333
 47
0.0
 47
0.0
 47
0.0
 47
0.0
 47
0.0208333333333333
 47
0.0
 47
0.0
 47
0.0
 47
0.0
 47
1.0
 47
0.0
 47
0.0
 47
0.0
 47
0.0
 47
1.0
171
     0
 49
0.0208333333333333
 49
0.0
 49
0.0
 49
0.0
 49
0.0
 49
0.0208333333333333
 49
0.0
 49
0.0
 49
0.0
 49
0.0
 49
1.0
 49
0.0
 49
0.0
 49
0.0
 49
0.0
 49
1.0
175
     0
142
0.0208333333333333
142
0.0
142
0.0
142
0.0
142
0.0
142
0.0208333333333333
142
0.0
142
0.0
142
0.0
142
0.0
142
1.0
142
0.0
142
0.0
142
0.0
142
0.0
142
1.0
179
     0
144
0.0208333333333333
144
0.0
144
0.0
144
0.0
144
0.0
144
0.0208333333333333
144
0.0
144
0.0
144
0.0
144
0.0
144
1.0
144
0.0
144
0.0
144
0.0
144
0.0
144
1.0
147
0.0208333333333333
147
0.0
147
0.0
147
0.0
147
0.0
147
0.0208333333333333
147
0.0
147
0.0
147
0.0
147
0.0
147
1.0
147
0.0
147
0.0
147
0.0
147
0.0
147
1.0
  0
MATERIAL
  5
11
102
{ACAD_XDICTIONARY
360
12
102
}
102
{ACAD_REACTORS
330
10
102
}
330
10
100
AcDbMaterial
  1
ByLayer
 72
     0
 43
0.0208333333333333
 43
0.0
 43
0.0
 43
0.0
 43
0.0
 43
0.0208333333333333
 43
0.0
 43
0.0
 43
0.0
 43
0.0
 43
1.0
 43
0.0
 43
0.0
 43
0.0
 43
0.0
 43
1.0
 77
     0
 47
0.0208333333333333
 47
0.0
 47
0.0
 47
0.0
 47
0.0
 47
0.0208333333333333
 47
0.0
 47
0.0
 47
0.0
 47
0.0
 47
1.0
 47
0.0
 47
0.0
 47
0.0
 47
0.0
 47
1.0
171
     0
 49
0.0208333333333333
 49
0.0
 49
0.0
 49
0.0
 49
0.0
 49
0.0208333333333333
 49
0.0
 49
0.0
 49
0.0
 49
0.0
 49
1.0
 49
0.0
 49
0.0
 49
0.0
 49
0.0
 49
1.0
175
     0
142
0.0208333333333333
142
0.0
142
0.0
142
0.0
142
0.0
142
0.0208333333333333
142
0.0
142
0.0
142
0.0
142
0.0
142
1.0
142
0.0
142
0.0
142
0.0
142
0.0
142
1.0
179
     0
144
0.0208333333333333
144
0.0
144
0.0
144
0.0
144
0.0
144
0.0208333333333333
144
0.0
144
0.0
144
0.0
144
0.0
144
1.0
144
0.0
144
0.0
144
0.0
144
0.0
144
1.0
147
0.0208333333333333
147
0.0
147
0.0
147
0.0
147
0.0
147
0.0208333333333333
147
0.0
147
0.0
147
0.0
147
0.0
147
1.0
147
0.0
147
0.0
147
0.0
147
0.0
147
1.0
  0
MATERIAL
  5
21
102
{ACAD_XDICTIONARY
360
22
102
}
102
{ACAD_REACTORS
330
10
102
}
330
10
100
AcDbMaterial
  1
Global
 72
     0
 43
0.0208333333333333
 43
0.0
 43
0.0
 43
0.0
 43
0.0
 43
0.0208333333333333
 43
0.0
 43
0.0
 43
0.0
 43
0.0
 43
1.0
 43
0.0
 43
0.0
 43
0.0
 43
0.0
 43
1.0
 77
     0
 47
0.0208333333333333
 47
0.0
 47
0.0
 47
0.0
 47
0.0
 47
0.0208333333333333
 47
0.0
 47
0.0
 47
0.0
 47
0.0
 47
1.0
 47
0.0
 47
0.0
 47
0.0
 47
0.0
 47
1.0
171
     0
 49
0.0208333333333333
 49
0.0
 49
0.0
 49
0.0
 49
0.0
 49
0.0208333333333333
 49
0.0
 49
0.0
 49
0.0
 49
0.0
 49
1.0
 49
0.0
 49
0.0
 49
0.0
 49
0.0
 49
1.0
175
     0
142
0.0208333333333333
142
0.0
142
0.0
142
0.0
142
0.0
142
0.0208333333333333
142
0.0
142
0.0
142
0.0
142
0.0
142
1.0
142
0.0
142
0.0
142
0.0
142
0.0
142
1.0
179
     0
144
0.0208333333333333
144
0.0
144
0.0
144
0.0
144
0.0
144
0.0208333333333333
144
0.0
144
0.0
144
0.0
144
0.0
144
1.0
144
0.0
144
0.0
144
0.0
144
0.0
144
1.0
147
0.0208333333333333
147
0.0
147
0.0
147
0.0
147
0.0
147
0.0208333333333333
147
0.0
147
0.0
147
0.0
147
0.0
147
1.0
147
0.0
147
0.0
147
0.0
147
0.0
147
1.0
  0
MLEADERSTYLE
  5
67
102
{ACAD_XDICTIONARY
360
957
102
}
102
{ACAD_REACTORS
330
66
102
}
330
66
100
AcDbMLeaderStyle
170
     2
171
     1
172
     0
 90
        2
 40
0.0
 41
0.0
173
     1
 91
-1056964608
340
5B
 92
       -2
290
     1
 42
0.09
291
     1
 43
0.36
  3
Standard
 44
0.18
300

342
55
174
     1
178
     6
175
     1
176
     0
 93
-1056964608
 45
0.18
292
     0
297
     0
 46
0.18
 94
-1056964608
 47
1.0
 49
1.0
140
1.0
293
     1
141
0.0
294
     1
177
     0
142
1.0
295
     0
296
     0
143
0.125
1001
ACAD_MLEADERVER
1070
     2
  0
MLINESTYLE
  5
60
102
{ACAD_REACTORS
330
5F
102
}
330
5F
100
AcDbMlineStyle
  2
STANDARD
 70
     0
  3

 62
   256
 51
90.0
 52
90.0
 71
     2
 49
0.5
 62
   256
  6
BYLAYER
 49
-0.5
 62
   256
  6
BYLAYER
  0
ACDBPLACEHOLDER
  5
AA
102
{ACAD_REACTORS
330
E
102
}
330
E
  0
ACDBPLACEHOLDER
  5
F
102
{ACAD_REACTORS
330
E
102
}
330
E
  0
ACDBPLACEHOLDER
  5
AB
102
{ACAD_REACTORS
330
E
102
}
330
E
  0
SCALE
  5
AC
102
{ACAD_REACTORS
330
42
102
}
330
42
100
AcDbScale
 70
     0
300
3:1
140
3.0
141
1.0
290
     0
  0
SCALE
  5
B4
102
{ACAD_REACTORS
330
42
102
}
330
42
100
AcDbScale
 70
     0
300
3/16" = 1'-0"
140
0.1875
141
12.0
290
     0
  0
SCALE
  5
B5
102
{ACAD_REACTORS
330
42
102
}
330
42
100
AcDbScale
 70
     0
300
1/4" = 1'-0"
140
0.25
141
12.0
290
     0
  0
SCALE
  5
B6
102
{ACAD_REACTORS
330
42
102
}
330
42
100
AcDbScale
 70
     0
300
3/8" = 1'-0"
140
0.375
141
12.0
290
     0
  0
SCALE
  5
B7
102
{ACAD_REACTORS
330
42
102
}
330
42
100
AcDbScale
 70
     0
300
1/2" = 1'-0"
140
0.5
141
12.0
290
     0
  0
SCALE
  5
B8
102
{ACAD_REACTORS
330
42
102
}
330
42
100
AcDbScale
 70
     0
300
3/4" = 1'-0"
140
0.75
141
12.0
290
     0
  0
SCALE
  5
B9
102
{ACAD_REACTORS
330
42
102
}
330
42
100
AcDbScale
 70
     0
300
1" = 1'-0"
140
1.0
141
12.0
290
     0
  0
SCALE
  5
BA
102
{ACAD_REACTORS
330
42
102
}
330
42
100
AcDbScale
 70
     0
300
1-1/2" = 1'-0"
140
1.5
141
12.0
290
     0
  0
SCALE
  5
BB
102
{ACAD_REACTORS
330
42
102
}
330
42
100
AcDbScale
 70
     0
300
3" = 1'-0"
140
3.0
141
12.0
290
     0
  0
SCALE
  5
BC
102
{ACAD_REACTORS
330
42
102
}
330
42
100
AcDbScale
 70
     0
300
6" = 1'-0"
140
6.0
141
12.0
290
     0
  0
SCALE
  5
BD
102
{ACAD_REACTORS
330
42
102
}
330
42
100
AcDbScale
 70
     0
300
1'-0" = 1'-0"
140
12.0
141
12.0
290
     0
  0
SCALE
  5
AD
102
{ACAD_REACTORS
330
42
102
}
330
42
100
AcDbScale
 70
     0
300
5:1
140
5.0
141
1.0
290
     0
  0
SCALE
  5
AE
102
{ACAD_REACTORS
330
42
102
}
330
42
100
AcDbScale
 70
     0
300
1/128" = 1'-0"
140
0.0078125
141
12.0
290
     0
  0
SCALE
  5
AF
102
{ACAD_REACTORS
330
42
102
}
330
42
100
AcDbScale
 70
     0
300
1/64" = 1'-0"
140
0.015625
141
12.0
290
     0
  0
SCALE
  5
B0
102
{ACAD_REACTORS
330
42
102
}
330
42
100
AcDbScale
 70
     0
300
1/32" = 1'-0"
140
0.03125
141
12.0
290
     0
  0
SCALE
  5
B1
102
{ACAD_REACTORS
330
42
102
}
330
42
100
AcDbScale
 70
     0
300
1/16" = 1'-0"
140
0.0625
141
12.0
290
     0
  0
SCALE
  5
B2
102
{ACAD_REACTORS
330
42
102
}
330
42
100
AcDbScale
 70
     0
300
3/32" = 1'-0"
140
0.09375
141
12.0
290
     0
  0
SCALE
  5
B3
102
{ACAD_REACTORS
330
42
102
}
330
42
100
AcDbScale
 70
     0
300
1/8" = 1'-0"
140
0.125
141
12.0
290
     0
  0
SCALE
  5
43
102
{ACAD_REACTORS
330
42
102
}
330
42
100
AcDbScale
 70
     0
300
1:1
140
1.0
141
1.0
290
     1
  0
SCALE
  5
44
102
{ACAD_REACTORS
330
42
102
}
330
42
100
AcDbScale
 70
     0
300
1:2
140
1.0
141
2.0
290
     0
  0
SCALE
  5
45
102
{ACAD_REACTORS
330
42
102
}
330
42
100
AcDbScale
 70
     0
300
1:4
140
1.0
141
4.0
290
     0
  0
SCALE
  5
46
102
{ACAD_REACTORS
330
42
102
}
330
42
100
AcDbScale
 70
     0
300
1:5
140
1.0
141
5.0
290
     0
  0
SCALE
  5
47
102
{ACAD_REACTORS
330
42
102
}
330
42
100
AcDbScale
 70
     0
300
1:8
140
1.0
141
8.0
290
     0
  0
SCALE
  5
48
102
{ACAD_REACTORS
330
42
102
}
330
42
100
AcDbScale
 70
     0
300
1:10
140
1.0
141
10.0
290
     0
  0
SCALE
  5
49
102
{ACAD_REACTORS
330
42
102
}
330
42
100
AcDbScale
 70
     0
300
1:16
140
1.0
141
16.0
290
     0
  0
SCALE
  5
4A
102
{ACAD_REACTORS
330
42
102
}
330
42
100
AcDbScale
 70
     0
300
1:20
140
1.0
141
20.0
290
     0
  0
SCALE
  5
4B
102
{ACAD_REACTORS
330
42
102
}
330
42
100
AcDbScale
 70
     0
300
1:30
140
1.0
141
30.0
290
     0
  0
SCALE
  5
4C
102
{ACAD_REACTORS
330
42
102
}
330
42
100
AcDbScale
 70
     0
300
1:40
140
1.0
141
40.0
290
     0
  0
SCALE
  5
4D
102
{ACAD_REACTORS
330
42
102
}
330
42
100
AcDbScale
 70
     0
300
1:50
140
1.0
141
50.0
290
     0
  0
SCALE
  5
4E
102
{ACAD_REACTORS
330
42
102
}
330
42
100
AcDbScale
 70
     0
300
1:100
140
1.0
141
100.0
290
     0
  0
SCALE
  5
4F
102
{ACAD_REACTORS
330
42
102
}
330
42
100
AcDbScale
 70
     0
300
2:1
140
2.0
141
1.0
290
     0
  0
SCALE
  5
50
102
{ACAD_REACTORS
330
42
102
}
330
42
100
AcDbScale
 70
     0
300
4:1
140
4.0
141
1.0
290
     0
  0
SCALE
  5
51
102
{ACAD_REACTORS
330
42
102
}
330
42
100
AcDbScale
 70
     0
300
8:1
140
8.0
141
1.0
290
     0
  0
SCALE
  5
52
102
{ACAD_REACTORS
330
42
102
}
330
42
100
AcDbScale
 70
     0
300
10:1
140
10.0
141
1.0
290
     0
  0
SCALE
  5
53
102
{ACAD_REACTORS
330
42
102
}
330
42
100
AcDbScale
 70
     0
300
100:1
140
100.0
141
1.0
290
     0
  0
TABLESTYLE
  5
65
102
{ACAD_XDICTIONARY
360
88C
102
}
102
{ACAD_REACTORS
330
64
102
}
330
64
100
AcDbTableStyle
  3
Standard
 70
     0
 71
     3
 40
1.5
 41
1.5
280
     0
281
     0
  7
Standard
140
4.5
170
     2
 62
     0
 63
     7
283
     0
274
    -2
284
     1
 64
     0
275
    -2
285
     1
 65
     0
276
    -2
286
     1
 66
     0
277
    -2
287
     1
 67
     0
278
    -2
288
     1
 68
     0
279
    -2
289
     1
 69
     0
  7
Standard
140
6.0
170
     5
 62
     0
 63
     7
283
     0
274
    -2
284
     1
 64
     0
275
    -2
285
     1
 65
     0
276
    -2
286
     1
 66
     0
277
    -2
287
     1
 67
     0
278
    -2
288
     1
 68
     0
279
    -2
289
     1
 69
     0
  7
Standard
140
4.5
170
     5
 62
     0
 63
     7
283
     0
274
    -2
284
     1
 64
     0
275
    -2
285
     1
 65
     0
276
    -2
286
     1
 66
     0
277
    -2
287
     1
 67
     0
278
    -2
288
     1
 68
     0
279
    -2
289
     1
 69
     0
  0
VISUALSTYLE
  5
2F
102
{ACAD_XDICTIONARY
360
965
102
}
102
{ACAD_REACTORS
330
29
102
}
330
29
100
AcDbVisualStyle
  2

 70
     4
 71
     0
 72
     2
 73
     0
 90
        0
 40
-0.6
 41
-30.0
 62
     5
 63
     7
 74
     1
 91
        4
 64
     7
 65
   257
 75
     1
175
     1
 42
1.0
 92
        0
 66
   257
 43
1.0
 76
     1
 77
     6
 78
     2
 67
     7
 79
     5
170
     0
171
     0
290
     0
174
     0
 93
        1
 44
0.0
173
     0
291
     0
 45
0.0
1001
ACAD
1000
AcDbSavedByObjectVersion
1070
     0
  0
VISUALSTYLE
  5
2E
102
{ACAD_XDICTIONARY
360
963
102
}
102
{ACAD_REACTORS
330
29
102
}
330
29
100
AcDbVisualStyle
  2

 70
     7
 71
     1
 72
     0
 73
     1
 90
        0
 40
-0.6
 41
-30.0
 62
     5
 63
     7
 74
     0
 91
        4
 64
     7
 65
   257
 75
     1
175
     1
 42
1.0
 92
        8
 66
     7
 43
1.0
 76
     1
 77
     6
 78
     2
 67
     7
 79
     5
170
     0
171
     0
290
     0
174
     0
 93
        1
 44
0.0
173
     0
291
     1
 45
0.0
1001
ACAD
1000
AcDbSavedByObjectVersion
1070
     0
  0
VISUALSTYLE
  5
35
102
{ACAD_XDICTIONARY
360
971
102
}
102
{ACAD_REACTORS
330
29
102
}
330
29
100
AcDbVisualStyle
  2

 70
    12
 71
     2
 72
     2
 73
     0
 90
        0
 40
-0.6
 41
-30.0
 62
     5
 63
     7
 74
     1
 91
        4
 64
     7
 65
   257
 75
     1
175
     1
 42
1.0
 92
        8
 66
     7
 43
1.0
 76
     1
 77
     6
 78
     2
 67
     7
 79
     5
170
     0
171
     0
290
     0
174
     0
 93
        1
 44
50.0
173
     0
291
     1
 45
0.0
1001
ACAD
1000
AcDbSavedByObjectVersion
1070
     0
  0
VISUALSTYLE
  5
39
102
{ACAD_XDICTIONARY
360
979
102
}
102
{ACAD_REACTORS
330
29
102
}
330
29
100
AcDbVisualStyle
  2

 70
    16
 71
     2
 72
     2
 73
     3
 90
        0
 40
-0.6
 41
-30.0
 62
     5
 63
     8
 74
     1
 91
        4
 64
     7
 65
   257
 75
     1
175
     1
 42
1.0
 92
        8
 66
     8
 43
1.0
 76
     1
 77
     6
 78
     2
 67
     7
 79
     5
170
     0
171
     0
290
     0
174
     0
 93
        1
 44
0.0
173
     0
291
     1
 45
0.0
1001
ACAD
1000
AcDbSavedByObjectVersion
1070
     0
  0
VISUALSTYLE
  5
32
102
{ACAD_XDICTIONARY
360
96B
102
}
102
{ACAD_REACTORS
330
29
102
}
330
29
100
AcDbVisualStyle
  2

 70
     9
 71
     3
 72
     2
 73
     0
 90
        0
 40
-0.6
 41
-30.0
 62
     5
 63
     7
 74
     2
 91
        2
 64
     7
 65
   257
 75
     1
175
     1
 42
179.0
 92
        8
 66
     7
 43
1.0
 76
     1
 77
     6
 78
     2
 67
     7
 79
     3
170
     0
171
     0
290
     0
174
     0
 93
        1
 44
0.0
173
     0
291
     0
 45
0.0
1001
ACAD
1000
AcDbSavedByObjectVersion
1070
     0
  0
VISUALSTYLE
  5
34
102
{ACAD_XDICTIONARY
360
96F
102
}
102
{ACAD_REACTORS
330
29
102
}
330
29
100
AcDbVisualStyle
  2

 70
    11
 71
     2
 72
     2
 73
     0
 90
        0
 40
-0.6
 41
-30.0
 62
     5
 63
     7
 74
     1
 91
        4
 64
     7
 65
   257
 75
     1
175
     1
 42
1.0
 92
        8
 66
     7
 43
1.0
 76
     1
 77
     6
 78
     2
 67
     7
 79
     5
170
     0
171
     0
290
     0
174
     0
 93
        1
 44
-50.0
173
     0
291
     1
 45
0.0
1001
ACAD
1000
AcDbSavedByObjectVersion
1070
     0
  0
VISUALSTYLE
  5
41
102
{ACAD_XDICTIONARY
360
989
102
}
102
{ACAD_REACTORS
330
29
102
}
330
29
100
AcDbVisualStyle
  2

 70
    22
 71
     2
 72
     2
 73
     0
 90
        0
 40
-0.6
 41
-30.0
 62
     5
 63
     7
 74
     1
 91
        4
 64
     7
 65
   257
 75
     1
175
     1
 42
1.0
 92
        8
 66
     7
 43
1.0
 76
     1
 77
     6
 78
     2
 67
     7
 79
     5
170
     0
171
     0
290
     0
174
     0
 93
        1
 44
0.0
173
     0
291
     1
 45
0.0
1001
ACAD
1000
AcDbSavedByObjectVersion
1070
     0
  0
VISUALSTYLE
  5
38
102
{ACAD_XDICTIONARY
360
977
102
}
102
{ACAD_REACTORS
330
29
102
}
330
29
100
AcDbVisualStyle
  2

 70
    15
 71
     2
 72
     2
 73
     0
 90
        0
 40
-0.6
 41
-30.0
 62
     5
 63
     7
 74
     1
 91
        4
 64
     7
 65
   257
 75
     1
175
     1
 42
1.0
 92
        8
 66
     7
 43
1.0
 76
     1
 77
     6
 78
     2
 67
     7
 79
     5
170
     0
171
     0
290
     0
174
     0
 93
        1
 44
0.0
173
     0
291
     1
 45
0.0
1001
ACAD
1000
AcDbSavedByObjectVersion
1070
     0
  0
VISUALSTYLE
  5
2A
102
{ACAD_XDICTIONARY
360
95B
102
}
102
{ACAD_REACTORS
330
29
102
}
330
29
100
AcDbVisualStyle
  2

 70
     0
 71
     2
 72
     1
 73
     1
 90
        2
 40
-0.6
 41
30.0
 62
     5
 63
     7
 74
     0
 91
        0
 64
     7
 65
   257
 75
     1
175
     1
 42
1.0
 92
        8
 66
     7
 43
1.0
 76
     1
 77
     6
 78
     2
 67
     7
 79
     5
170
     0
171
     0
290
     0
174
     0
 93
       13
 44
0.0
173
     0
291
     1
 45
0.0
1001
ACAD
1000
AcDbSavedByObjectVersion
1070
     0
  0
VISUALSTYLE
  5
2B
102
{ACAD_XDICTIONARY
360
95D
102
}
102
{ACAD_REACTORS
330
29
102
}
330
29
100
AcDbVisualStyle
  2

 70
     1
 71
     2
 72
     1
 73
     1
 90
        2
 40
-0.6
 41
30.0
 62
     5
 63
     7
 74
     1
 91
        0
 64
     7
 65
   257
 75
     1
175
     1
 42
1.0
 92
        0
 66
   257
 43
1.0
 76
     1
 77
     6
 78
     2
 67
     7
 79
     5
170
     0
171
     0
290
     0
174
     0
 93
       13
 44
0.0
173
     0
291
     1
 45
0.0
1001
ACAD
1000
AcDbSavedByObjectVersion
1070
     0
  0
VISUALSTYLE
  5
2C
102
{ACAD_XDICTIONARY
360
95F
102
}
102
{ACAD_REACTORS
330
29
102
}
330
29
100
AcDbVisualStyle
  2

 70
     2
 71
     2
 72
     2
 73
     1
 90
        2
 40
-0.6
 41
30.0
 62
     5
 63
     7
 74
     0
 91
        0
 64
     7
 65
   257
 75
     1
175
     1
 42
1.0
 92
        0
 66
     7
 43
1.0
 76
     1
 77
     6
 78
     2
 67
     7
 79
     5
170
     0
171
     0
290
     0
174
     0
 93
       13
 44
0.0
173
     0
291
     1
 45
0.0
1001
ACAD
1000
AcDbSavedByObjectVersion
1070
     0
  0
VISUALSTYLE
  5
2D
102
{ACAD_XDICTIONARY
360
961
102
}
102
{ACAD_REACTORS
330
29
102
}
330
29
100
AcDbVisualStyle
  2

 70
     3
 71
     2
 72
     2
 73
     1
 90
        2
 40
-0.6
 41
30.0
 62
     5
 63
     7
 74
     1
 91
        0
 64
     7
 65
   257
 75
     1
175
     1
 42
1.0
 92
        0
 66
   257
 43
1.0
 76
     1
 77
     6
 78
     2
 67
     7
 79
     5
170
     0
171
     0
290
     0
174
     0
 93
       13
 44
0.0
173
     0
291
     1
 45
0.0
1001
ACAD
1000
AcDbSavedByObjectVersion
1070
     0
  0
VISUALSTYLE
  5
31
102
{ACAD_XDICTIONARY
360
969
102
}
102
{ACAD_REACTORS
330
29
102
}
330
29
100
AcDbVisualStyle
  2

 70
     6
 71
     1
 72
     2
 73
     2
 90
        0
 40
-0.6
 41
-30.0
 62
     5
 63
     7
 74
     2
 91
        2
 64
     7
 65
   257
 75
     2
175
     1
 42
40.0
 92
        0
 66
   257
 43
1.0
 76
     1
 77
     6
 78
     2
 67
     7
 79
     3
170
     0
171
     0
290
     0
174
     0
 93
        1
 44
0.0
173
     0
291
     0
 45
0.0
1001
ACAD
1000
AcDbSavedByObjectVersion
1070
     0
  0
VISUALSTYLE
  5
3F
102
{ACAD_XDICTIONARY
360
985
102
}
102
{ACAD_REACTORS
330
29
102
}
330
29
100
AcDbVisualStyle
  2

 70
    20
 71
     2
 72
     2
 73
     0
 90
        0
 40
-0.6
 41
-30.0
 62
     5
 63
     7
 74
     1
 91
        4
 64
     7
 65
   257
 75
     1
175
     1
 42
1.0
 92
       10
 66
     7
 43
1.0
 76
     1
 77
     6
 78
     2
 67
     7
 79
     5
170
     0
171
     0
290
     0
174
     0
 93
        1
 44
0.0
173
     0
291
     1
 45
0.0
1001
ACAD
1000
AcDbSavedByObjectVersion
1070
     0
  0
VISUALSTYLE
  5
37
102
{ACAD_XDICTIONARY
360
975
102
}
102
{ACAD_REACTORS
330
29
102
}
330
29
100
AcDbVisualStyle
  2

 70
    14
 71
     2
 72
     2
 73
     0
 90
        0
 40
-0.6
 41
-30.0
 62
     5
 63
     7
 74
     1
 91
        4
 64
     7
 65
   257
 75
     7
175
     7
 42
1.0
 92
        8
 66
     7
 43
1.0
 76
     1
 77
     6
 78
     2
 67
     7
 79
     5
170
     0
171
     0
290
     0
174
     0
 93
        1
 44
0.0
173
     0
291
     1
 45
0.0
1001
ACAD
1000
AcDbSavedByObjectVersion
1070
     0
  0
VISUALSTYLE
  5
40
102
{ACAD_XDICTIONARY
360
987
102
}
102
{ACAD_REACTORS
330
29
102
}
330
29
100
AcDbVisualStyle
  2

 70
    21
 71
     2
 72
     2
 73
     0
 90
        0
 40
-0.6
 41
-30.0
 62
     5
 63
     7
 74
     1
 91
        4
 64
     7
 65
   257
 75
     1
175
     1
 42
1.0
 92
        9
 66
     7
 43
1.0
 76
     1
 77
     6
 78
     2
 67
     7
 79
     5
170
     0
171
     0
290
     0
174
     0
 93
        1
 44
0.0
173
     0
291
     1
 45
0.0
1001
ACAD
1000
AcDbSavedByObjectVersion
1070
     0
  0
VISUALSTYLE
  5
33
102
{ACAD_XDICTIONARY
360
96D
102
}
102
{ACAD_REACTORS
330
29
102
}
330
29
100
AcDbVisualStyle
  2

 70
     8
 71
     2
 72
     3
 73
     0
 90
        2
 40
-0.6
 41
30.0
 62
     5
 63
     7
 74
     0
 91
        0
 64
     7
 65
   257
 75
     1
175
     1
 42
1.0
 92
        8
 66
   257
 43
1.0
 76
     1
 77
     6
 78
     2
 67
     7
 79
     3
170
     0
171
     0
290
     0
174
     0
 93
       13
 44
0.0
173
     0
291
     0
 45
0.0
1001
ACAD
1000
AcDbSavedByObjectVersion
1070
     0
  0
VISUALSTYLE
  5
3E
102
{ACAD_XDICTIONARY
360
983
102
}
102
{ACAD_REACTORS
330
29
102
}
330
29
100
AcDbVisualStyle
  2

 70
    27
 71
     2
 72
     2
 73
     1
 90
        2
 40
-0.6
 41
30.0
 62
     5
 63
     7
 74
     0
 91
        4
 64
     7
 65
   257
 75
     1
175
     1
 42
1.0
 92
        8
 66
   257
 43
1.0
 76
     1
 77
     6
 78
     2
 67
     8
 79
     3
170
     0
171
     0
290
     0
174
     0
 93
        5
 44
0.0
173
     0
291
     0
 45
0.0
1001
ACAD
1000
AcDbSavedByObjectVersion
1070
     0
  0
VISUALSTYLE
  5
3D
102
{ACAD_XDICTIONARY
360
981
102
}
102
{ACAD_REACTORS
330
29
102
}
330
29
100
AcDbVisualStyle
  2

 70
    26
 71
     2
 72
     2
 73
     1
 90
        2
 40
-0.6
 41
30.0
 62
     5
 63
     7
 74
     1
 91
       10
 64
     7
 65
   257
 75
     2
175
     1
 42
1.0
 92
        8
 66
   257
 43
1.0
 76
     1
 77
     6
 78
     2
 67
     7
 79
     3
170
     0
171
     0
290
     0
174
     0
 93
        5
 44
0.0
173
     0
291
     0
 45
0.0
1001
ACAD
1000
AcDbSavedByObjectVersion
1070
     0
  0
VISUALSTYLE
  5
3A
102
{ACAD_XDICTIONARY
360
97B
102
}
102
{ACAD_REACTORS
330
29
102
}
330
29
100
AcDbVisualStyle
  2

 70
    23
 71
     2
 72
     2
 73
     3
 90
        0
 40
-0.6
 41
-30.0
 62
     5
 63
     7
 74
     2
 91
        2
 64
     7
 65
     7
 75
     1
175
     1
 42
40.0
 92
        8
 66
     7
 43
1.0
 76
     1
 77
     6
 78
     2
 67
     7
 79
     3
170
     0
171
     0
290
     0
174
     0
 93
        1
 44
0.0
173
     0
291
     0
 45
0.0
1001
ACAD
1000
AcDbSavedByObjectVersion
1070
     0
  0
VISUALSTYLE
  5
3B
102
{ACAD_XDICTIONARY
360
97D
102
}
102
{ACAD_REACTORS
330
29
102
}
330
29
100
AcDbVisualStyle
  2

 70
    24
 71
     1
 72
     2
 73
     2
 90
        0
 40
-0.6
 41
-30.0
 62
     5
 63
     7
 74
     2
 91
        2
 64
     7
 65
     7
 75
     1
175
     1
 42
40.0
 92
       11
 66
     7
 43
1.0
 76
     1
 77
     6
 78
     2
 67
     7
 79
     6
170
     0
171
     0
290
     0
174
     0
 93
        1
 44
0.0
173
     0
291
     0
 45
0.0
1001
ACAD
1000
AcDbSavedByObjectVersion
1070
     0
  0
VISUALSTYLE
  5
36
102
{ACAD_XDICTIONARY
360
973
102
}
102
{ACAD_REACTORS
330
29
102
}
330
29
100
AcDbVisualStyle
  2

 70
    13
 71
     2
 72
     2
 73
     0
 90
        0
 40
-0.6
 41
-30.0
 62
     5
 63
     7
 74
     1
 91
        4
 64
     7
 65
   257
 75
     1
175
     1
 42
1.0
 92
       12
 66
     7
 43
1.0
 76
     1
 77
     6
 78
     2
 67
     7
 79
     5
170
     0
171
     0
290
     0
174
     0
 93
        1
 44
0.0
173
     0
291
     1
 45
0.0
1001
ACAD
1000
AcDbSavedByObjectVersion
1070
     0
  0
VISUALSTYLE
  5
30
102
{ACAD_XDICTIONARY
360
967
102
}
102
{ACAD_REACTORS
330
29
102
}
330
29
100
AcDbVisualStyle
  2

 70
     5
 71
     0
 72
     2
 73
     0
 90
        0
 40
-0.6
 41
-30.0
 62
     5
 63
     7
 74
     1
 91
        4
 64
     7
 65
   257
 75
     1
175
     1
 42
1.0
 92
        0
 66
   257
 43
1.0
 76
     1
 77
     6
 78
     2
 67
     7
 79
     3
170
     0
171
     0
290
     0
174
     0
 93
        1
 44
0.0
173
     0
291
     0
 45
0.0
1001
ACAD
1000
AcDbSavedByObjectVersion
1070
     0
  0
VISUALSTYLE
  5
3C
102
{ACAD_XDICTIONARY
360
97F
102
}
102
{ACAD_REACTORS
330
29
102
}
330
29
100
AcDbVisualStyle
  2

 70
    25
 71
     2
 72
     2
 73
     1
 90
        1
 40
0.5
 41
-30.0
 62
     5
 63
     7
 74
     1
 91
        0
 64
     7
 65
   257
 75
     1
175
     1
 42
1.0
 92
        8
 66
     7
 43
1.0
 76
     1
 77
     6
 78
     2
 67
     7
 79
     3
170
     0
171
     0
290
     0
174
     0
 93
       13
 44
0.0
173
     0
291
     0
 45
0.0
1001
ACAD
1000
AcDbSavedByObjectVersion
1070
     0
  0
DICTIONARYVAR
  5
836
102
{ACAD_REACTORS
330
833
102
}
330
833
100
DictionaryVariables
280
     0
  1
0
  0
DICTIONARYVAR
  5
837
102
{ACAD_REACTORS
330
833
102
}
330
833
100
DictionaryVariables
280
     0
  1
1:1
  0
DICTIONARYVAR
  5
835
102
{ACAD_REACTORS
330
833
102
}
330
833
100
DictionaryVariables
280
     0
  1
STANDARD
  0
DICTIONARYVAR
  5
834
102
{ACAD_REACTORS
330
833
102
}
330
833
100
DictionaryVariables
280
     0
  1
STANDARD
  0
DICTIONARYVAR
  5
849
102
{ACAD_REACTORS
330
833
102
}
330
833
100
DictionaryVariables
280
     0
  1
2
  0
DICTIONARYVAR
  5
847
102
{ACAD_REACTORS
330
833
102
}
330
833
100
DictionaryVariables
280
     0
  1
1
  0
DICTIONARYVAR
  5
846
102
{ACAD_REACTORS
330
833
102
}
330
833
100
DictionaryVariables
280
     0
  1
0
  0
DICTIONARYVAR
  5
838
102
{ACAD_REACTORS
330
833
102
}
330
833
100
DictionaryVariables
280
     0
  1
1
  0
DICTIONARYVAR
  5
839
102
{ACAD_REACTORS
330
833
102
}
330
833
100
DictionaryVariables
280
     0
  1
15
  0
DICTIONARYVAR
  5
844
102
{ACAD_REACTORS
330
833
102
}
330
833
100
DictionaryVariables
280
     0
  1
2
  0
DICTIONARYVAR
  5
843
102
{ACAD_REACTORS
330
833
102
}
330
833
100
DictionaryVariables
280
     0
  1
1
  0
DICTIONARYVAR
  5
845
102
{ACAD_REACTORS
330
833
102
}
330
833
100
DictionaryVariables
280
     0
  1
127
  0
DICTIONARYVAR
  5
8DD
102
{ACAD_REACTORS
330
833
102
}
330
833
100
DictionaryVariables
280
     0
  1
2
  0
XRECORD
  5
8DC
102
{ACAD_REACTORS
330
8DA
102
}
330
8DA
100
AcDbXrecord
280
     1
330
37C
330
387
330
38F
330
75A
330
75B
330
765
330
766
330
76E
330
76F
330
778
330
777
330
780
330
781
330
78B
330
78C
330
796
330
797
330
7A1
330
7A9
330
7AA
330
7B2
330
7B3
330
7BD
330
7BE
330
7C6
330
7C7
330
7CF
330
7D0
330
7D8
330
7D9
330
7E1
330
7E2
330
7EA
330
7EB
330
7F3
330
7F4
330
7FC
330
7FD
330
805
330
806
330
80E
330
80F
330
819
330
81A
330
822
330
823
330
82B
330
82C
  0
DICTIONARY
  5
98E
330
6F
100
AcDbDictionary
280
     1
281
     1
  3
ACAD_XREC_ROUNDTRIP
360
98F
  0
DICTIONARY
  5
98C
330
6B
100
AcDbDictionary
280
     1
281
     1
  3
ACAD_XREC_ROUNDTRIP
360
98D
  0
DICTIONARY
  5
990
330
73
100
AcDbDictionary
280
     1
281
     1
  3
ACAD_XREC_ROUNDTRIP
360
991
  0
DICTIONARY
  5
1A
330
19
100
AcDbDictionary
280
     1
281
     1
  3
ACAD_XREC_ROUNDTRIP
360
893
  3
BUMPTILE
360
1C
  3
DIFFUSETILE
360
1B
  3
OPACITYTILE
360
1F
  3
REFLECTIONTILE
360
1E
  3
REFRACTIONTILE
360
20
  3
SPECULARTILE
360
1D
  0
DICTIONARY
  5
12
330
11
100
AcDbDictionary
280
     1
281
     1
  3
ACAD_XREC_ROUNDTRIP
360
892
  3
BUMPTILE
360
14
  3
DIFFUSETILE
360
13
  3
OPACITYTILE
360
17
  3
REFLECTIONTILE
360
16
  3
REFRACTIONTILE
360
18
  3
SPECULARTILE
360
15
  0
DICTIONARY
  5
22
330
21
100
AcDbDictionary
280
     1
281
     1
  3
ACAD_XREC_ROUNDTRIP
360
894
  3
BUMPTILE
360
24
  3
DIFFUSETILE
360
23
  3
OPACITYTILE
360
27
  3
REFLECTIONTILE
360
26
  3
REFRACTIONTILE
360
28
  3
SPECULARTILE
360
25
  0
DICTIONARY
  5
957
330
67
100
AcDbDictionary
280
     1
281
     1
  3
ACAD_XREC_ROUNDTRIP
360
958
  0
DICTIONARY
  5
88C
330
65
100
AcDbDictionary
280
     1
281
     1
  3
ACAD_ROUNDTRIP_2008_TABLESTYLE_CELLSTYLEMAP
360
956
  3
ACAD_XREC_ROUNDTRIP
360
98B
  0
DICTIONARY
  5
965
330
2F
100
AcDbDictionary
280
     1
281
     1
  3
ACAD_XREC_ROUNDTRIP
360
966
  0
DICTIONARY
  5
963
330
2E
100
AcDbDictionary
280
     1
281
     1
  3
ACAD_XREC_ROUNDTRIP
360
964
  0
DICTIONARY
  5
971
330
35
100
AcDbDictionary
280
     1
281
     1
  3
ACAD_XREC_ROUNDTRIP
360
972
  0
DICTIONARY
  5
979
330
39
100
AcDbDictionary
280
     1
281
     1
  3
ACAD_XREC_ROUNDTRIP
360
97A
  0
DICTIONARY
  5
96B
330
32
100
AcDbDictionary
280
     1
281
     1
  3
ACAD_XREC_ROUNDTRIP
360
96C
  0
DICTIONARY
  5
96F
330
34
100
AcDbDictionary
280
     1
281
     1
  3
ACAD_XREC_ROUNDTRIP
360
970
  0
DICTIONARY
  5
989
330
41
100
AcDbDictionary
280
     1
281
     1
  3
ACAD_XREC_ROUNDTRIP
360
98A
  0
DICTIONARY
  5
977
330
38
100
AcDbDictionary
280
     1
281
     1
  3
ACAD_XREC_ROUNDTRIP
360
978
  0
DICTIONARY
  5
95B
330
2A
100
AcDbDictionary
280
     1
281
     1
  3
ACAD_XREC_ROUNDTRIP
360
95C
  0
DICTIONARY
  5
95D
330
2B
100
AcDbDictionary
280
     1
281
     1
  3
ACAD_XREC_ROUNDTRIP
360
95E
  0
DICTIONARY
  5
95F
330
2C
100
AcDbDictionary
280
     1
281
     1
  3
ACAD_XREC_ROUNDTRIP
360
960
  0
DICTIONARY
  5
961
330
2D
100
AcDbDictionary
280
     1
281
     1
  3
ACAD_XREC_ROUNDTRIP
360
962
  0
DICTIONARY
  5
969
330
31
100
AcDbDictionary
280
     1
281
     1
  3
ACAD_XREC_ROUNDTRIP
360
96A
  0
DICTIONARY
  5
985
330
3F
100
AcDbDictionary
280
     1
281
     1
  3
ACAD_XREC_ROUNDTRIP
360
986
  0
DICTIONARY
  5
975
330
37
100
AcDbDictionary
280
     1
281
     1
  3
ACAD_XREC_ROUNDTRIP
360
976
  0
DICTIONARY
  5
987
330
40
100
AcDbDictionary
280
     1
281
     1
  3
ACAD_XREC_ROUNDTRIP
360
988
  0
DICTIONARY
  5
96D
330
33
100
AcDbDictionary
280
     1
281
     1
  3
ACAD_XREC_ROUNDTRIP
360
96E
  0
DICTIONARY
  5
983
330
3E
100
AcDbDictionary
280
     1
281
     1
  3
ACAD_XREC_ROUNDTRIP
360
984
  0
DICTIONARY
  5
981
330
3D
100
AcDbDictionary
280
     1
281
     1
  3
ACAD_XREC_ROUNDTRIP
360
982
  0
DICTIONARY
  5
97B
330
3A
100
AcDbDictionary
280
     1
281
     1
  3
ACAD_XREC_ROUNDTRIP
360
97C
  0
DICTIONARY
  5
97D
330
3B
100
AcDbDictionary
280
     1
281
     1
  3
ACAD_XREC_ROUNDTRIP
360
97E
  0
DICTIONARY
  5
973
330
36
100
AcDbDictionary
280
     1
281
     1
  3
ACAD_XREC_ROUNDTRIP
360
974
  0
DICTIONARY
  5
967
330
30
100
AcDbDictionary
280
     1
281
     1
  3
ACAD_XREC_ROUNDTRIP
360
968
  0
DICTIONARY
  5
97F
330
3C
100
AcDbDictionary
280
     1
281
     1
  3
ACAD_XREC_ROUNDTRIP
360
980
  0
XRECORD
  5
98F
102
{ACAD_REACTORS
330
98E
102
}
330
98E
100
AcDbXrecord
280
     1
102
SHADEPLOT
 70
     0
102
SHADEPLOTRESLEVEL
 70
     2
102
SHADEPLOTCUSTOMDPI
 70
   300
  0
XRECORD
  5
98D
102
{ACAD_REACTORS
330
98C
102
}
330
98C
100
AcDbXrecord
280
     1
102
SHADEPLOT
 70
     0
102
SHADEPLOTRESLEVEL
 70
     2
102
SHADEPLOTCUSTOMDPI
 70
   300
  0
XRECORD
  5
991
102
{ACAD_REACTORS
330
990
102
}
330
990
100
AcDbXrecord
280
     1
102
SHADEPLOT
 70
     0
102
SHADEPLOTRESLEVEL
 70
     2
102
SHADEPLOTCUSTOMDPI
 70
   300
  0
XRECORD
  5
893
102
{ACAD_REACTORS
330
1A
102
}
330
1A
100
AcDbXrecord
280
     1
102
MATERIAL
148
0.0
149
0.0
149
0.0
 93
        0
 94
      127
282
     0
 72
     0
 77
     0
171
     0
175
     0
179
     0
273
     0
  0
XRECORD
  5
1C
102
{ACAD_REACTORS
330
1A
102
}
330
1A
100
AcDbXrecord
280
     1
270
     1
271
     1
  0
XRECORD
  5
1B
102
{ACAD_REACTORS
330
1A
102
}
330
1A
100
AcDbXrecord
280
     1
270
     1
271
     1
  0
XRECORD
  5
1F
102
{ACAD_REACTORS
330
1A
102
}
330
1A
100
AcDbXrecord
280
     1
270
     1
271
     1
  0
XRECORD
  5
1E
102
{ACAD_REACTORS
330
1A
102
}
330
1A
100
AcDbXrecord
280
     1
270
     1
271
     1
  0
XRECORD
  5
20
102
{ACAD_REACTORS
330
1A
102
}
330
1A
100
AcDbXrecord
280
     1
270
     1
271
     1
  0
XRECORD
  5
1D
102
{ACAD_REACTORS
330
1A
102
}
330
1A
100
AcDbXrecord
280
     1
270
     1
271
     1
  0
XRECORD
  5
892
102
{ACAD_REACTORS
330
12
102
}
330
12
100
AcDbXrecord
280
     1
102
MATERIAL
148
0.0
149
0.0
149
0.0
 93
        0
 94
      127
282
     0
 72
     0
 77
     0
171
     0
175
     0
179
     0
273
     0
  0
XRECORD
  5
14
102
{ACAD_REACTORS
330
12
102
}
330
12
100
AcDbXrecord
280
     1
270
     1
271
     1
  0
XRECORD
  5
13
102
{ACAD_REACTORS
330
12
102
}
330
12
100
AcDbXrecord
280
     1
270
     1
271
     1
  0
XRECORD
  5
17
102
{ACAD_REACTORS
330
12
102
}
330
12
100
AcDbXrecord
280
     1
270
     1
271
     1
  0
XRECORD
  5
16
102
{ACAD_REACTORS
330
12
102
}
330
12
100
AcDbXrecord
280
     1
270
     1
271
     1
  0
XRECORD
  5
18
102
{ACAD_REACTORS
330
12
102
}
330
12
100
AcDbXrecord
280
     1
270
     1
271
     1
  0
XRECORD
  5
15
102
{ACAD_REACTORS
330
12
102
}
330
12
100
AcDbXrecord
280
     1
270
     1
271
     1
  0
XRECORD
  5
894
102
{ACAD_REACTORS
330
22
102
}
330
22
100
AcDbXrecord
280
     1
102
MATERIAL
148
0.0
149
0.0
149
0.0
 93
        0
 94
      127
282
     0
 72
     0
 77
     0
171
     0
175
     0
179
     0
273
     0
  0
XRECORD
  5
24
102
{ACAD_REACTORS
330
22
102
}
330
22
100
AcDbXrecord
280
     1
270
     1
271
     1
  0
XRECORD
  5
23
102
{ACAD_REACTORS
330
22
102
}
330
22
100
AcDbXrecord
280
     1
270
     1
271
     1
  0
XRECORD
  5
27
102
{ACAD_REACTORS
330
22
102
}
330
22
100
AcDbXrecord
280
     1
270
     1
271
     1
  0
XRECORD
  5
26
102
{ACAD_REACTORS
330
22
102
}
330
22
100
AcDbXrecord
280
     1
270
     1
271
     1
  0
XRECORD
  5
28
102
{ACAD_REACTORS
330
22
102
}
330
22
100
AcDbXrecord
280
     1
270
     1
271
     1
  0
XRECORD
  5
25
102
{ACAD_REACTORS
330
22
102
}
330
22
100
AcDbXrecord
280
     1
270
     1
271
     1
  0
XRECORD
  5
958
102
{ACAD_REACTORS
330
957
102
}
330
957
100
AcDbXrecord
280
     1
102
ACAD_ROUNDTRIP_2012_MLEADER_STYLE
298
     1
  0
CELLSTYLEMAP
  5
956
102
{ACAD_REACTORS
330
88C
102
}
330
88C
100
AcDbCellStyleMap
 90
        3
300
CELLSTYLE
  1
TABLEFORMAT_BEGIN
 90
        5
170
     1
 91
        0
 92
    32768
 62
   257
 93
        1
300
CONTENTFORMAT
  1
CONTENTFORMAT_BEGIN
 90
        0
 91
        0
 92
      512
 93
        0
300

 40
0.0
140
1.0
 94
        5
 62
     0
340
55
144
6.0
309
CONTENTFORMAT_END
171
     1
301
MARGIN
  1
CELLMARGIN_BEGIN
 40
1.5
 40
1.5
 40
1.5
 40
1.5
 40
0.18
 40
0.18
309
CELLMARGIN_END
 94
        6
 95
        1
302
GRIDFORMAT
  1
GRIDFORMAT_BEGIN
 90
        0
 91
        1
 62
     0
 92
       -2
340
0
 93
        0
 40
1.125
309
GRIDFORMAT_END
 95
        2
302
GRIDFORMAT
  1
GRIDFORMAT_BEGIN
 90
        0
 91
        1
 62
     0
 92
       -2
340
0
 93
        0
 40
1.125
309
GRIDFORMAT_END
 95
        4
302
GRIDFORMAT
  1
GRIDFORMAT_BEGIN
 90
        0
 91
        1
 62
     0
 92
       -2
340
0
 93
        0
 40
1.125
309
GRIDFORMAT_END
 95
        8
302
GRIDFORMAT
  1
GRIDFORMAT_BEGIN
 90
        0
 91
        1
 62
     0
 92
       -2
340
0
 93
        0
 40
1.125
309
GRIDFORMAT_END
 95
       16
302
GRIDFORMAT
  1
GRIDFORMAT_BEGIN
 90
        0
 91
        1
 62
     0
 92
       -2
340
0
 93
        0
 40
1.125
309
GRIDFORMAT_END
 95
       32
302
GRIDFORMAT
  1
GRIDFORMAT_BEGIN
 90
        0
 91
        1
 62
     0
 92
       -2
340
0
 93
        0
 40
1.125
309
GRIDFORMAT_END
309
TABLEFORMAT_END
  1
CELLSTYLE_BEGIN
 90
        1
 91
        1
300
_TITLE
309
CELLSTYLE_END
300
CELLSTYLE
  1
TABLEFORMAT_BEGIN
 90
        5
170
     1
 91
        0
 92
        0
 62
   257
 93
        1
300
CONTENTFORMAT
  1
CONTENTFORMAT_BEGIN
 90
        0
 91
        0
 92
      512
 93
        0
300

 40
0.0
140
1.0
 94
        5
 62
     0
340
55
144
4.5
309
CONTENTFORMAT_END
171
     1
301
MARGIN
  1
CELLMARGIN_BEGIN
 40
1.5
 40
1.5
 40
1.5
 40
1.5
 40
0.18
 40
0.18
309
CELLMARGIN_END
 94
        6
 95
        1
302
GRIDFORMAT
  1
GRIDFORMAT_BEGIN
 90
        0
 91
        1
 62
     0
 92
       -2
340
0
 93
        0
 40
1.125
309
GRIDFORMAT_END
 95
        2
302
GRIDFORMAT
  1
GRIDFORMAT_BEGIN
 90
        0
 91
        1
 62
     0
 92
       -2
340
0
 93
        0
 40
1.125
309
GRIDFORMAT_END
 95
        4
302
GRIDFORMAT
  1
GRIDFORMAT_BEGIN
 90
        0
 91
        1
 62
     0
 92
       -2
340
0
 93
        0
 40
1.125
309
GRIDFORMAT_END
 95
        8
302
GRIDFORMAT
  1
GRIDFORMAT_BEGIN
 90
        0
 91
        1
 62
     0
 92
       -2
340
0
 93
        0
 40
1.125
309
GRIDFORMAT_END
 95
       16
302
GRIDFORMAT
  1
GRIDFORMAT_BEGIN
 90
        0
 91
        1
 62
     0
 92
       -2
340
0
 93
        0
 40
1.125
309
GRIDFORMAT_END
 95
       32
302
GRIDFORMAT
  1
GRIDFORMAT_BEGIN
 90
        0
 91
        1
 62
     0
 92
       -2
340
0
 93
        0
 40
1.125
309
GRIDFORMAT_END
309
TABLEFORMAT_END
  1
CELLSTYLE_BEGIN
 90
        2
 91
        1
300
_HEADER
309
CELLSTYLE_END
300
CELLSTYLE
  1
TABLEFORMAT_BEGIN
 90
        5
170
     1
 91
        0
 92
        0
 62
   257
 93
        1
300
CONTENTFORMAT
  1
CONTENTFORMAT_BEGIN
 90
        0
 91
        0
 92
      512
 93
        0
300

 40
0.0
140
1.0
 94
        2
 62
     0
340
55
144
4.5
309
CONTENTFORMAT_END
171
     1
301
MARGIN
  1
CELLMARGIN_BEGIN
 40
1.5
 40
1.5
 40
1.5
 40
1.5
 40
0.18
 40
0.18
309
CELLMARGIN_END
 94
        6
 95
        1
302
GRIDFORMAT
  1
GRIDFORMAT_BEGIN
 90
        0
 91
        1
 62
     0
 92
       -2
340
0
 93
        0
 40
1.125
309
GRIDFORMAT_END
 95
        2
302
GRIDFORMAT
  1
GRIDFORMAT_BEGIN
 90
        0
 91
        1
 62
     0
 92
       -2
340
0
 93
        0
 40
1.125
309
GRIDFORMAT_END
 95
        4
302
GRIDFORMAT
  1
GRIDFORMAT_BEGIN
 90
        0
 91
        1
 62
     0
 92
       -2
340
0
 93
        0
 40
1.125
309
GRIDFORMAT_END
 95
        8
302
GRIDFORMAT
  1
GRIDFORMAT_BEGIN
 90
        0
 91
        1
 62
     0
 92
       -2
340
0
 93
        0
 40
1.125
309
GRIDFORMAT_END
 95
       16
302
GRIDFORMAT
  1
GRIDFORMAT_BEGIN
 90
        0
 91
        1
 62
     0
 92
       -2
340
0
 93
        0
 40
1.125
309
GRIDFORMAT_END
 95
       32
302
GRIDFORMAT
  1
GRIDFORMAT_BEGIN
 90
        0
 91
        1
 62
     0
 92
       -2
340
0
 93
        0
 40
1.125
309
GRIDFORMAT_END
309
TABLEFORMAT_END
  1
CELLSTYLE_BEGIN
 90
        3
 91
        2
300
_DATA
309
CELLSTYLE_END
  0
XRECORD
  5
98B
102
{ACAD_REACTORS
330
88C
102
}
330
88C
100
AcDbXrecord
280
     1
102
ACAD_ROUNDTRIP_PRE2007_TABLESTYLE
 90
      512
 91
        0
  1

 92
      512
 93
        0
  2

 94
      512
 95
        0
  3

  0
XRECORD
  5
966
102
{ACAD_REACTORS
330
965
102
}
330
965
100
AcDbXrecord
280
     1
102
RTVSPropertyOp0
 70
     1
102
RTVSPropertyOp1
 70
     1
102
RTVSPropertyOp2
 70
     1
102
RTVSPropertyOp3
 70
     1
102
RTVSPropertyOp4
 70
     1
102
RTVSPropertyOp5
 70
     1
102
RTVSPropertyOp6
 70
     1
102
RTVSPropertyOp7
 70
     1
102
RTVSPropertyOp8
 70
     1
102
RTVSPropertyOp9
 70
     1
102
RTVSPropertyOp10
 70
     1
102
RTVSPropertyOp11
 70
     1
102
RTVSPropertyOp12
 70
     1
102
RTVSPropertyOp13
 70
     1
102
RTVSPropertyOp14
 70
     1
102
RTVSPropertyOp15
 70
     1
102
RTVSPropertyOp16
 70
     1
102
RTVSPropertyOp17
 70
     1
102
RTVSPropertyOp18
 70
     1
102
RTVSPropertyOp19
 70
     1
102
RTVSPropertyOp20
 70
     1
102
RTVSPropertyOp21
 70
     1
102
RTVSPropertyOp22
 70
     1
102
RTVSPropertyOp23
 70
     1
102
RTVSPropertyOp24
 70
     1
102
RTVSPropertyOp25
 70
     1
102
RTVSPropertyOp26
 70
     1
102
RTVSPropertyOp27
 70
     1
102
RTVSPropertyOp28
 70
     1
102
RTVSPropertyOp29
 70
     1
102
RTVSPropertyOp30
 70
     1
102
RTVSPropertyOp31
 70
     1
102
RTVSPropertyOp32
 70
     1
  0
XRECORD
  5
964
102
{ACAD_REACTORS
330
963
102
}
330
963
100
AcDbXrecord
280
     1
102
RTVSPropertyOp0
 70
     1
102
RTVSPropertyOp1
 70
     1
102
RTVSPropertyOp2
 70
     1
102
RTVSPropertyOp3
 70
     1
102
RTVSPropertyOp4
 70
     1
102
RTVSPropertyOp5
 70
     1
102
RTVSPropertyOp6
 70
     1
102
RTVSPropertyOp7
 70
     1
102
RTVSPropertyOp8
 70
     1
102
RTVSPropertyOp9
 70
     1
102
RTVSPropertyOp10
 70
     1
102
RTVSPropertyOp11
 70
     1
102
RTVSPropertyOp12
 70
     1
102
RTVSPropertyOp13
 70
     1
102
RTVSPropertyOp14
 70
     1
102
RTVSPropertyOp15
 70
     1
102
RTVSPropertyOp16
 70
     1
102
RTVSPropertyOp17
 70
     1
102
RTVSPropertyOp18
 70
     1
102
RTVSPropertyOp19
 70
     1
102
RTVSPropertyOp20
 70
     1
102
RTVSPropertyOp21
 70
     1
102
RTVSPropertyOp22
 70
     1
102
RTVSPropertyOp23
 70
     1
102
RTVSPropertyOp24
 70
     1
102
RTVSPropertyOp25
 70
     1
102
RTVSPropertyOp26
 70
     1
102
RTVSPropertyOp27
 70
     1
102
RTVSPropertyOp28
 70
     1
102
RTVSPropertyOp29
 70
     1
102
RTVSPropertyOp30
 70
     1
102
RTVSPropertyOp31
 70
     1
102
RTVSPropertyOp32
 70
     1
  0
XRECORD
  5
972
102
{ACAD_REACTORS
330
971
102
}
330
971
100
AcDbXrecord
280
     1
102
RTVSPropertyOp0
 70
     1
102
RTVSPropertyOp1
 70
     1
102
RTVSPropertyOp2
 70
     1
102
RTVSPropertyOp3
 70
     1
102
RTVSPropertyOp4
 70
     1
102
RTVSPropertyOp5
 70
     1
102
RTVSPropertyOp6
 70
     1
102
RTVSPropertyOp7
 70
     1
102
RTVSPropertyOp8
 70
     1
102
RTVSPropertyOp9
 70
     1
102
RTVSPropertyOp10
 70
     1
102
RTVSPropertyOp11
 70
     1
102
RTVSPropertyOp12
 70
     1
102
RTVSPropertyOp13
 70
     1
102
RTVSPropertyOp14
 70
     1
102
RTVSPropertyOp15
 70
     1
102
RTVSPropertyOp16
 70
     1
102
RTVSPropertyOp17
 70
     1
102
RTVSPropertyOp18
 70
     1
102
RTVSPropertyOp19
 70
     1
102
RTVSPropertyOp20
 70
     1
102
RTVSPropertyOp21
 70
     1
102
RTVSPropertyOp22
 70
     1
102
RTVSPropertyOp23
 70
     1
102
RTVSPropertyOp24
 70
     1
102
RTVSPropertyOp25
 70
     1
102
RTVSPropertyOp26
 70
     1
102
RTVSPropertyOp27
 70
     1
102
RTVSPropertyOp28
 70
     1
102
RTVSPropertyOp29
 70
     1
102
RTVSPropertyOp30
 70
     1
102
RTVSPropertyOp31
 70
     1
102
RTVSPropertyOp32
 70
     1
  0
XRECORD
  5
97A
102
{ACAD_REACTORS
330
979
102
}
330
979
100
AcDbXrecord
280
     1
102
RTVSPropertyOp0
 70
     1
102
RTVSPropertyOp1
 70
     1
102
RTVSPropertyOp2
 70
     1
102
RTVSPropertyOp3
 70
     1
102
RTVSPropertyOp4
 70
     1
102
RTVSPropertyOp5
 70
     1
102
RTVSPropertyOp6
 70
     1
102
RTVSPropertyOp7
 70
     1
102
RTVSPropertyOp8
 70
     1
102
RTVSPropertyOp9
 70
     1
102
RTVSPropertyOp10
 70
     1
102
RTVSPropertyOp11
 70
     1
102
RTVSPropertyOp12
 70
     1
102
RTVSPropertyOp13
 70
     1
102
RTVSPropertyOp14
 70
     1
102
RTVSPropertyOp15
 70
     1
102
RTVSPropertyOp16
 70
     1
102
RTVSPropertyOp17
 70
     1
102
RTVSPropertyOp18
 70
     1
102
RTVSPropertyOp19
 70
     1
102
RTVSPropertyOp20
 70
     1
102
RTVSPropertyOp21
 70
     1
102
RTVSPropertyOp22
 70
     1
102
RTVSPropertyOp23
 70
     1
102
RTVSPropertyOp24
 70
     1
102
RTVSPropertyOp25
 70
     1
102
RTVSPropertyOp26
 70
     1
102
RTVSPropertyOp27
 70
     1
102
RTVSPropertyOp28
 70
     1
102
RTVSPropertyOp29
 70
     1
102
RTVSPropertyOp30
 70
     1
102
RTVSPropertyOp31
 70
     1
102
RTVSPropertyOp32
 70
     1
  0
XRECORD
  5
96C
102
{ACAD_REACTORS
330
96B
102
}
330
96B
100
AcDbXrecord
280
     1
102
RTVSPropertyOp0
 70
     1
102
RTVSPropertyOp1
 70
     1
102
RTVSPropertyOp2
 70
     1
102
RTVSPropertyOp3
 70
     1
102
RTVSPropertyOp4
 70
     1
102
RTVSPropertyOp5
 70
     1
102
RTVSPropertyOp6
 70
     1
102
RTVSPropertyOp7
 70
     1
102
RTVSPropertyOp8
 70
     1
102
RTVSPropertyOp9
 70
     1
102
RTVSPropertyOp10
 70
     1
102
RTVSPropertyOp11
 70
     1
102
RTVSPropertyOp12
 70
     1
102
RTVSPropertyOp13
 70
     1
102
RTVSPropertyOp14
 70
     1
102
RTVSPropertyOp15
 70
     1
102
RTVSPropertyOp16
 70
     1
102
RTVSPropertyOp17
 70
     1
102
RTVSPropertyOp18
 70
     1
102
RTVSPropertyOp19
 70
     1
102
RTVSPropertyOp20
 70
     1
102
RTVSPropertyOp21
 70
     1
102
RTVSPropertyOp22
 70
     1
102
RTVSPropertyOp23
 70
     1
102
RTVSPropertyOp24
 70
     1
102
RTVSPropertyOp25
 70
     1
102
RTVSPropertyOp26
 70
     1
102
RTVSPropertyOp27
 70
     1
102
RTVSPropertyOp28
 70
     1
102
RTVSPropertyOp29
 70
     1
102
RTVSPropertyOp30
 70
     1
102
RTVSPropertyOp31
 70
     1
102
RTVSPropertyOp32
 70
     1
  0
XRECORD
  5
970
102
{ACAD_REACTORS
330
96F
102
}
330
96F
100
AcDbXrecord
280
     1
102
RTVSPropertyOp0
 70
     1
102
RTVSPropertyOp1
 70
     1
102
RTVSPropertyOp2
 70
     1
102
RTVSPropertyOp3
 70
     1
102
RTVSPropertyOp4
 70
     1
102
RTVSPropertyOp5
 70
     1
102
RTVSPropertyOp6
 70
     1
102
RTVSPropertyOp7
 70
     1
102
RTVSPropertyOp8
 70
     1
102
RTVSPropertyOp9
 70
     1
102
RTVSPropertyOp10
 70
     1
102
RTVSPropertyOp11
 70
     1
102
RTVSPropertyOp12
 70
     1
102
RTVSPropertyOp13
 70
     1
102
RTVSPropertyOp14
 70
     1
102
RTVSPropertyOp15
 70
     1
102
RTVSPropertyOp16
 70
     1
102
RTVSPropertyOp17
 70
     1
102
RTVSPropertyOp18
 70
     1
102
RTVSPropertyOp19
 70
     1
102
RTVSPropertyOp20
 70
     1
102
RTVSPropertyOp21
 70
     1
102
RTVSPropertyOp22
 70
     1
102
RTVSPropertyOp23
 70
     1
102
RTVSPropertyOp24
 70
     1
102
RTVSPropertyOp25
 70
     1
102
RTVSPropertyOp26
 70
     1
102
RTVSPropertyOp27
 70
     1
102
RTVSPropertyOp28
 70
     1
102
RTVSPropertyOp29
 70
     1
102
RTVSPropertyOp30
 70
     1
102
RTVSPropertyOp31
 70
     1
102
RTVSPropertyOp32
 70
     1
  0
XRECORD
  5
98A
102
{ACAD_REACTORS
330
989
102
}
330
989
100
AcDbXrecord
280
     1
102
RTVSPropertyOp0
 70
     0
102
RTVSPropertyOp1
 70
     0
102
RTVSPropertyOp2
 70
     0
102
RTVSPropertyOp3
 70
     0
102
RTVSPropertyOp4
 70
     0
102
RTVSPropertyOp5
 70
     0
102
RTVSPropertyOp6
 70
     0
102
RTVSPropertyOp7
 70
     0
102
RTVSPropertyOp8
 70
     0
102
RTVSPropertyOp9
 70
     0
102
RTVSPropertyOp10
 70
     0
102
RTVSPropertyOp11
 70
     0
102
RTVSPropertyOp12
 70
     0
102
RTVSPropertyOp13
 70
     0
102
RTVSPropertyOp14
 70
     2
102
RTVSPropertyOp15
 70
     0
102
RTVSPropertyOp16
 70
     0
102
RTVSPropertyOp17
 70
     0
102
RTVSPropertyOp18
 70
     0
102
RTVSPropertyOp19
 70
     0
102
RTVSPropertyOp20
 70
     0
102
RTVSPropertyOp21
 70
     0
102
RTVSPropertyOp22
 70
     0
102
RTVSPropertyOp23
 70
     0
102
RTVSPropertyOp24
 70
     0
102
RTVSPropertyOp25
 70
     0
102
RTVSPropertyOp26
 70
     0
102
RTVSPropertyOp27
 70
     0
102
RTVSPropertyOp28
 70
     1
102
RTVSPropertyOp29
 70
     1
102
RTVSPropertyOp30
 70
     1
102
RTVSPropertyOp31
 70
     1
102
RTVSPropertyOp32
 70
     1
  0
XRECORD
  5
978
102
{ACAD_REACTORS
330
977
102
}
330
977
100
AcDbXrecord
280
     1
102
RTVSPropertyOp0
 70
     1
102
RTVSPropertyOp1
 70
     1
102
RTVSPropertyOp2
 70
     1
102
RTVSPropertyOp3
 70
     1
102
RTVSPropertyOp4
 70
     1
102
RTVSPropertyOp5
 70
     1
102
RTVSPropertyOp6
 70
     1
102
RTVSPropertyOp7
 70
     1
102
RTVSPropertyOp8
 70
     1
102
RTVSPropertyOp9
 70
     1
102
RTVSPropertyOp10
 70
     1
102
RTVSPropertyOp11
 70
     1
102
RTVSPropertyOp12
 70
     1
102
RTVSPropertyOp13
 70
     1
102
RTVSPropertyOp14
 70
     1
102
RTVSPropertyOp15
 70
     1
102
RTVSPropertyOp16
 70
     1
102
RTVSPropertyOp17
 70
     1
102
RTVSPropertyOp18
 70
     1
102
RTVSPropertyOp19
 70
     1
102
RTVSPropertyOp20
 70
     1
102
RTVSPropertyOp21
 70
     1
102
RTVSPropertyOp22
 70
     1
102
RTVSPropertyOp23
 70
     1
102
RTVSPropertyOp24
 70
     1
102
RTVSPropertyOp25
 70
     1
102
RTVSPropertyOp26
 70
     1
102
RTVSPropertyOp27
 70
     1
102
RTVSPropertyOp28
 70
     1
102
RTVSPropertyOp29
 70
     1
102
RTVSPropertyOp30
 70
     1
102
RTVSPropertyOp31
 70
     1
102
RTVSPropertyOp32
 70
     1
  0
XRECORD
  5
95C
102
{ACAD_REACTORS
330
95B
102
}
330
95B
100
AcDbXrecord
280
     1
102
RTVSPropertyOp0
 70
     1
102
RTVSPropertyOp1
 70
     1
102
RTVSPropertyOp2
 70
     1
102
RTVSPropertyOp3
 70
     1
102
RTVSPropertyOp4
 70
     1
102
RTVSPropertyOp5
 70
     1
102
RTVSPropertyOp6
 70
     1
102
RTVSPropertyOp7
 70
     1
102
RTVSPropertyOp8
 70
     1
102
RTVSPropertyOp9
 70
     1
102
RTVSPropertyOp10
 70
     1
102
RTVSPropertyOp11
 70
     1
102
RTVSPropertyOp12
 70
     1
102
RTVSPropertyOp13
 70
     1
102
RTVSPropertyOp14
 70
     1
102
RTVSPropertyOp15
 70
     1
102
RTVSPropertyOp16
 70
     1
102
RTVSPropertyOp17
 70
     1
102
RTVSPropertyOp18
 70
     1
102
RTVSPropertyOp19
 70
     1
102
RTVSPropertyOp20
 70
     1
102
RTVSPropertyOp21
 70
     1
102
RTVSPropertyOp22
 70
     1
102
RTVSPropertyOp23
 70
     1
102
RTVSPropertyOp24
 70
     1
102
RTVSPropertyOp25
 70
     1
102
RTVSPropertyOp26
 70
     1
102
RTVSPropertyOp27
 70
     1
102
RTVSPropertyOp28
 70
     1
102
RTVSPropertyOp29
 70
     1
102
RTVSPropertyOp30
 70
     1
102
RTVSPropertyOp31
 70
     1
102
RTVSPropertyOp32
 70
     1
  0
XRECORD
  5
95E
102
{ACAD_REACTORS
330
95D
102
}
330
95D
100
AcDbXrecord
280
     1
102
RTVSPropertyOp0
 70
     1
102
RTVSPropertyOp1
 70
     1
102
RTVSPropertyOp2
 70
     1
102
RTVSPropertyOp3
 70
     1
102
RTVSPropertyOp4
 70
     1
102
RTVSPropertyOp5
 70
     1
102
RTVSPropertyOp6
 70
     1
102
RTVSPropertyOp7
 70
     1
102
RTVSPropertyOp8
 70
     1
102
RTVSPropertyOp9
 70
     1
102
RTVSPropertyOp10
 70
     1
102
RTVSPropertyOp11
 70
     1
102
RTVSPropertyOp12
 70
     1
102
RTVSPropertyOp13
 70
     1
102
RTVSPropertyOp14
 70
     1
102
RTVSPropertyOp15
 70
     1
102
RTVSPropertyOp16
 70
     1
102
RTVSPropertyOp17
 70
     1
102
RTVSPropertyOp18
 70
     1
102
RTVSPropertyOp19
 70
     1
102
RTVSPropertyOp20
 70
     1
102
RTVSPropertyOp21
 70
     1
102
RTVSPropertyOp22
 70
     1
102
RTVSPropertyOp23
 70
     1
102
RTVSPropertyOp24
 70
     1
102
RTVSPropertyOp25
 70
     1
102
RTVSPropertyOp26
 70
     1
102
RTVSPropertyOp27
 70
     1
102
RTVSPropertyOp28
 70
     1
102
RTVSPropertyOp29
 70
     1
102
RTVSPropertyOp30
 70
     1
102
RTVSPropertyOp31
 70
     1
102
RTVSPropertyOp32
 70
     1
  0
XRECORD
  5
960
102
{ACAD_REACTORS
330
95F
102
}
330
95F
100
AcDbXrecord
280
     1
102
RTVSPropertyOp0
 70
     1
102
RTVSPropertyOp1
 70
     1
102
RTVSPropertyOp2
 70
     1
102
RTVSPropertyOp3
 70
     1
102
RTVSPropertyOp4
 70
     1
102
RTVSPropertyOp5
 70
     1
102
RTVSPropertyOp6
 70
     1
102
RTVSPropertyOp7
 70
     1
102
RTVSPropertyOp8
 70
     1
102
RTVSPropertyOp9
 70
     1
102
RTVSPropertyOp10
 70
     1
102
RTVSPropertyOp11
 70
     1
102
RTVSPropertyOp12
 70
     1
102
RTVSPropertyOp13
 70
     1
102
RTVSPropertyOp14
 70
     1
102
RTVSPropertyOp15
 70
     1
102
RTVSPropertyOp16
 70
     1
102
RTVSPropertyOp17
 70
     1
102
RTVSPropertyOp18
 70
     1
102
RTVSPropertyOp19
 70
     1
102
RTVSPropertyOp20
 70
     1
102
RTVSPropertyOp21
 70
     1
102
RTVSPropertyOp22
 70
     1
102
RTVSPropertyOp23
 70
     1
102
RTVSPropertyOp24
 70
     1
102
RTVSPropertyOp25
 70
     1
102
RTVSPropertyOp26
 70
     1
102
RTVSPropertyOp27
 70
     1
102
RTVSPropertyOp28
 70
     1
102
RTVSPropertyOp29
 70
     1
102
RTVSPropertyOp30
 70
     1
102
RTVSPropertyOp31
 70
     1
102
RTVSPropertyOp32
 70
     1
  0
XRECORD
  5
962
102
{ACAD_REACTORS
330
961
102
}
330
961
100
AcDbXrecord
280
     1
102
RTVSPropertyOp0
 70
     1
102
RTVSPropertyOp1
 70
     1
102
RTVSPropertyOp2
 70
     1
102
RTVSPropertyOp3
 70
     1
102
RTVSPropertyOp4
 70
     1
102
RTVSPropertyOp5
 70
     1
102
RTVSPropertyOp6
 70
     1
102
RTVSPropertyOp7
 70
     1
102
RTVSPropertyOp8
 70
     1
102
RTVSPropertyOp9
 70
     1
102
RTVSPropertyOp10
 70
     1
102
RTVSPropertyOp11
 70
     1
102
RTVSPropertyOp12
 70
     1
102
RTVSPropertyOp13
 70
     1
102
RTVSPropertyOp14
 70
     1
102
RTVSPropertyOp15
 70
     1
102
RTVSPropertyOp16
 70
     1
102
RTVSPropertyOp17
 70
     1
102
RTVSPropertyOp18
 70
     1
102
RTVSPropertyOp19
 70
     1
102
RTVSPropertyOp20
 70
     1
102
RTVSPropertyOp21
 70
     1
102
RTVSPropertyOp22
 70
     1
102
RTVSPropertyOp23
 70
     1
102
RTVSPropertyOp24
 70
     1
102
RTVSPropertyOp25
 70
     1
102
RTVSPropertyOp26
 70
     1
102
RTVSPropertyOp27
 70
     1
102
RTVSPropertyOp28
 70
     1
102
RTVSPropertyOp29
 70
     1
102
RTVSPropertyOp30
 70
     1
102
RTVSPropertyOp31
 70
     1
102
RTVSPropertyOp32
 70
     1
  0
XRECORD
  5
96A
102
{ACAD_REACTORS
330
969
102
}
330
969
100
AcDbXrecord
280
     1
102
RTVSPropertyOp0
 70
     1
102
RTVSPropertyOp1
 70
     1
102
RTVSPropertyOp2
 70
     1
102
RTVSPropertyOp3
 70
     1
102
RTVSPropertyOp4
 70
     1
102
RTVSPropertyOp5
 70
     1
102
RTVSPropertyOp6
 70
     1
102
RTVSPropertyOp7
 70
     1
102
RTVSPropertyOp8
 70
     1
102
RTVSPropertyOp9
 70
     1
102
RTVSPropertyOp10
 70
     1
102
RTVSPropertyOp11
 70
     1
102
RTVSPropertyOp12
 70
     1
102
RTVSPropertyOp13
 70
     1
102
RTVSPropertyOp14
 70
     1
102
RTVSPropertyOp15
 70
     1
102
RTVSPropertyOp16
 70
     1
102
RTVSPropertyOp17
 70
     1
102
RTVSPropertyOp18
 70
     1
102
RTVSPropertyOp19
 70
     1
102
RTVSPropertyOp20
 70
     1
102
RTVSPropertyOp21
 70
     1
102
RTVSPropertyOp22
 70
     1
102
RTVSPropertyOp23
 70
     1
102
RTVSPropertyOp24
 70
     1
102
RTVSPropertyOp25
 70
     1
102
RTVSPropertyOp26
 70
     1
102
RTVSPropertyOp27
 70
     1
102
RTVSPropertyOp28
 70
     1
102
RTVSPropertyOp29
 70
     1
102
RTVSPropertyOp30
 70
     1
102
RTVSPropertyOp31
 70
     1
102
RTVSPropertyOp32
 70
     1
  0
XRECORD
  5
986
102
{ACAD_REACTORS
330
985
102
}
330
985
100
AcDbXrecord
280
     1
102
RTVSPropertyOp0
 70
     0
102
RTVSPropertyOp1
 70
     0
102
RTVSPropertyOp2
 70
     0
102
RTVSPropertyOp3
 70
     0
102
RTVSPropertyOp4
 70
     0
102
RTVSPropertyOp5
 70
     0
102
RTVSPropertyOp6
 70
     0
102
RTVSPropertyOp7
 70
     0
102
RTVSPropertyOp8
 70
     0
102
RTVSPropertyOp9
 70
     0
102
RTVSPropertyOp10
 70
     0
102
RTVSPropertyOp11
 70
     0
102
RTVSPropertyOp12
 70
     0
102
RTVSPropertyOp13
 70
     0
102
RTVSPropertyOp14
 70
     2
102
RTVSPropertyOp15
 70
     0
102
RTVSPropertyOp16
 70
     0
102
RTVSPropertyOp17
 70
     0
102
RTVSPropertyOp18
 70
     0
102
RTVSPropertyOp19
 70
     0
102
RTVSPropertyOp20
 70
     0
102
RTVSPropertyOp21
 70
     0
102
RTVSPropertyOp22
 70
     0
102
RTVSPropertyOp23
 70
     0
102
RTVSPropertyOp24
 70
     0
102
RTVSPropertyOp25
 70
     0
102
RTVSPropertyOp26
 70
     0
102
RTVSPropertyOp27
 70
     0
102
RTVSPropertyOp28
 70
     1
102
RTVSPropertyOp29
 70
     1
102
RTVSPropertyOp30
 70
     1
102
RTVSPropertyOp31
 70
     1
102
RTVSPropertyOp32
 70
     1
  0
XRECORD
  5
976
102
{ACAD_REACTORS
330
975
102
}
330
975
100
AcDbXrecord
280
     1
102
RTVSPropertyOp0
 70
     1
102
RTVSPropertyOp1
 70
     1
102
RTVSPropertyOp2
 70
     1
102
RTVSPropertyOp3
 70
     1
102
RTVSPropertyOp4
 70
     1
102
RTVSPropertyOp5
 70
     1
102
RTVSPropertyOp6
 70
     1
102
RTVSPropertyOp7
 70
     1
102
RTVSPropertyOp8
 70
     1
102
RTVSPropertyOp9
 70
     1
102
RTVSPropertyOp10
 70
     1
102
RTVSPropertyOp11
 70
     1
102
RTVSPropertyOp12
 70
     1
102
RTVSPropertyOp13
 70
     1
102
RTVSPropertyOp14
 70
     1
102
RTVSPropertyOp15
 70
     1
102
RTVSPropertyOp16
 70
     1
102
RTVSPropertyOp17
 70
     1
102
RTVSPropertyOp18
 70
     1
102
RTVSPropertyOp19
 70
     1
102
RTVSPropertyOp20
 70
     1
102
RTVSPropertyOp21
 70
     1
102
RTVSPropertyOp22
 70
     1
102
RTVSPropertyOp23
 70
     1
102
RTVSPropertyOp24
 70
     1
102
RTVSPropertyOp25
 70
     1
102
RTVSPropertyOp26
 70
     1
102
RTVSPropertyOp27
 70
     1
102
RTVSPropertyOp28
 70
     1
102
RTVSPropertyOp29
 70
     1
102
RTVSPropertyOp30
 70
     1
102
RTVSPropertyOp31
 70
     1
102
RTVSPropertyOp32
 70
     1
  0
XRECORD
  5
988
102
{ACAD_REACTORS
330
987
102
}
330
987
100
AcDbXrecord
280
     1
102
RTVSPropertyOp0
 70
     0
102
RTVSPropertyOp1
 70
     0
102
RTVSPropertyOp2
 70
     0
102
RTVSPropertyOp3
 70
     0
102
RTVSPropertyOp4
 70
     0
102
RTVSPropertyOp5
 70
     0
102
RTVSPropertyOp6
 70
     0
102
RTVSPropertyOp7
 70
     0
102
RTVSPropertyOp8
 70
     0
102
RTVSPropertyOp9
 70
     0
102
RTVSPropertyOp10
 70
     0
102
RTVSPropertyOp11
 70
     0
102
RTVSPropertyOp12
 70
     0
102
RTVSPropertyOp13
 70
     0
102
RTVSPropertyOp14
 70
     2
102
RTVSPropertyOp15
 70
     0
102
RTVSPropertyOp16
 70
     0
102
RTVSPropertyOp17
 70
     0
102
RTVSPropertyOp18
 70
     0
102
RTVSPropertyOp19
 70
     0
102
RTVSPropertyOp20
 70
     0
102
RTVSPropertyOp21
 70
     0
102
RTVSPropertyOp22
 70
     0
102
RTVSPropertyOp23
 70
     0
102
RTVSPropertyOp24
 70
     0
102
RTVSPropertyOp25
 70
     0
102
RTVSPropertyOp26
 70
     0
102
RTVSPropertyOp27
 70
     0
102
RTVSPropertyOp28
 70
     1
102
RTVSPropertyOp29
 70
     1
102
RTVSPropertyOp30
 70
     1
102
RTVSPropertyOp31
 70
     1
102
RTVSPropertyOp32
 70
     1
  0
XRECORD
  5
96E
102
{ACAD_REACTORS
330
96D
102
}
330
96D
100
AcDbXrecord
280
     1
102
RTVSPropertyOp0
 70
     1
102
RTVSPropertyOp1
 70
     1
102
RTVSPropertyOp2
 70
     1
102
RTVSPropertyOp3
 70
     1
102
RTVSPropertyOp4
 70
     1
102
RTVSPropertyOp5
 70
     1
102
RTVSPropertyOp6
 70
     1
102
RTVSPropertyOp7
 70
     1
102
RTVSPropertyOp8
 70
     1
102
RTVSPropertyOp9
 70
     1
102
RTVSPropertyOp10
 70
     1
102
RTVSPropertyOp11
 70
     1
102
RTVSPropertyOp12
 70
     1
102
RTVSPropertyOp13
 70
     1
102
RTVSPropertyOp14
 70
     1
102
RTVSPropertyOp15
 70
     1
102
RTVSPropertyOp16
 70
     1
102
RTVSPropertyOp17
 70
     1
102
RTVSPropertyOp18
 70
     1
102
RTVSPropertyOp19
 70
     1
102
RTVSPropertyOp20
 70
     1
102
RTVSPropertyOp21
 70
     1
102
RTVSPropertyOp22
 70
     1
102
RTVSPropertyOp23
 70
     1
102
RTVSPropertyOp24
 70
     1
102
RTVSPropertyOp25
 70
     1
102
RTVSPropertyOp26
 70
     1
102
RTVSPropertyOp27
 70
     1
102
RTVSPropertyOp28
 70
     1
102
RTVSPropertyOp29
 70
     1
102
RTVSPropertyOp30
 70
     1
102
RTVSPropertyOp31
 70
     1
102
RTVSPropertyOp32
 70
     1
  0
XRECORD
  5
984
102
{ACAD_REACTORS
330
983
102
}
330
983
100
AcDbXrecord
280
     1
102
RTVSPropertyOp0
 70
     1
102
RTVSPropertyOp1
 70
     1
102
RTVSPropertyOp2
 70
     1
102
RTVSPropertyOp3
 70
     1
102
RTVSPropertyOp4
 70
     1
102
RTVSPropertyOp5
 70
     1
102
RTVSPropertyOp6
 70
     1
102
RTVSPropertyOp7
 70
     1
102
RTVSPropertyOp8
 70
     1
102
RTVSPropertyOp9
 70
     1
102
RTVSPropertyOp10
 70
     1
102
RTVSPropertyOp11
 70
     1
102
RTVSPropertyOp12
 70
     1
102
RTVSPropertyOp13
 70
     1
102
RTVSPropertyOp14
 70
     1
102
RTVSPropertyOp15
 70
     1
102
RTVSPropertyOp16
 70
     1
102
RTVSPropertyOp17
 70
     1
102
RTVSPropertyOp18
 70
     1
102
RTVSPropertyOp19
 70
     1
102
RTVSPropertyOp20
 70
     1
102
RTVSPropertyOp21
 70
     1
102
RTVSPropertyOp22
 70
     1
102
RTVSPropertyOp23
 70
     1
102
RTVSPropertyOp24
 70
     1
102
RTVSPropertyOp25
 70
     1
102
RTVSPropertyOp26
 70
     1
102
RTVSPropertyOp27
 70
     1
102
RTVSPropertyOp28
 70
     1
102
RTVSPropertyOp29
 70
     1
102
RTVSPropertyOp30
 70
     1
102
RTVSPropertyOp31
 70
     1
102
RTVSPropertyOp32
 70
     1
  0
XRECORD
  5
982
102
{ACAD_REACTORS
330
981
102
}
330
981
100
AcDbXrecord
280
     1
102
RTVSPropertyOp0
 70
     1
102
RTVSPropertyOp1
 70
     1
102
RTVSPropertyOp2
 70
     1
102
RTVSPropertyOp3
 70
     1
102
RTVSPropertyOp4
 70
     1
102
RTVSPropertyOp5
 70
     1
102
RTVSPropertyOp6
 70
     1
102
RTVSPropertyOp7
 70
     1
102
RTVSPropertyOp8
 70
     1
102
RTVSPropertyOp9
 70
     1
102
RTVSPropertyOp10
 70
     1
102
RTVSPropertyOp11
 70
     1
102
RTVSPropertyOp12
 70
     1
102
RTVSPropertyOp13
 70
     1
102
RTVSPropertyOp14
 70
     1
102
RTVSPropertyOp15
 70
     1
102
RTVSPropertyOp16
 70
     1
102
RTVSPropertyOp17
 70
     1
102
RTVSPropertyOp18
 70
     1
102
RTVSPropertyOp19
 70
     1
102
RTVSPropertyOp20
 70
     1
102
RTVSPropertyOp21
 70
     1
102
RTVSPropertyOp22
 70
     1
102
RTVSPropertyOp23
 70
     1
102
RTVSPropertyOp24
 70
     1
102
RTVSPropertyOp25
 70
     1
102
RTVSPropertyOp26
 70
     1
102
RTVSPropertyOp27
 70
     1
102
RTVSPropertyOp28
 70
     1
102
RTVSPropertyOp29
 70
     1
102
RTVSPropertyOp30
 70
     1
102
RTVSPropertyOp31
 70
     1
102
RTVSPropertyOp32
 70
     1
  0
XRECORD
  5
97C
102
{ACAD_REACTORS
330
97B
102
}
330
97B
100
AcDbXrecord
280
     1
102
RTVSPropertyOp0
 70
     1
102
RTVSPropertyOp1
 70
     1
102
RTVSPropertyOp2
 70
     1
102
RTVSPropertyOp3
 70
     1
102
RTVSPropertyOp4
 70
     1
102
RTVSPropertyOp5
 70
     1
102
RTVSPropertyOp6
 70
     1
102
RTVSPropertyOp7
 70
     1
102
RTVSPropertyOp8
 70
     1
102
RTVSPropertyOp9
 70
     1
102
RTVSPropertyOp10
 70
     1
102
RTVSPropertyOp11
 70
     1
102
RTVSPropertyOp12
 70
     1
102
RTVSPropertyOp13
 70
     1
102
RTVSPropertyOp14
 70
     1
102
RTVSPropertyOp15
 70
     1
102
RTVSPropertyOp16
 70
     1
102
RTVSPropertyOp17
 70
     1
102
RTVSPropertyOp18
 70
     1
102
RTVSPropertyOp19
 70
     1
102
RTVSPropertyOp20
 70
     1
102
RTVSPropertyOp21
 70
     1
102
RTVSPropertyOp22
 70
     1
102
RTVSPropertyOp23
 70
     1
102
RTVSPropertyOp24
 70
     1
102
RTVSPropertyOp25
 70
     1
102
RTVSPropertyOp26
 70
     1
102
RTVSPropertyOp27
 70
     1
102
RTVSPropertyOp28
 70
     1
102
RTVSPropertyOp29
 70
     1
102
RTVSPropertyOp30
 70
     1
102
RTVSPropertyOp31
 70
     1
102
RTVSPropertyOp32
 70
     1
  0
XRECORD
  5
97E
102
{ACAD_REACTORS
330
97D
102
}
330
97D
100
AcDbXrecord
280
     1
102
RTVSPropertyOp0
 70
     1
102
RTVSPropertyOp1
 70
     1
102
RTVSPropertyOp2
 70
     1
102
RTVSPropertyOp3
 70
     1
102
RTVSPropertyOp4
 70
     1
102
RTVSPropertyOp5
 70
     1
102
RTVSPropertyOp6
 70
     1
102
RTVSPropertyOp7
 70
     1
102
RTVSPropertyOp8
 70
     1
102
RTVSPropertyOp9
 70
     1
102
RTVSPropertyOp10
 70
     1
102
RTVSPropertyOp11
 70
     1
102
RTVSPropertyOp12
 70
     1
102
RTVSPropertyOp13
 70
     1
102
RTVSPropertyOp14
 70
     1
102
RTVSPropertyOp15
 70
     1
102
RTVSPropertyOp16
 70
     1
102
RTVSPropertyOp17
 70
     1
102
RTVSPropertyOp18
 70
     1
102
RTVSPropertyOp19
 70
     1
102
RTVSPropertyOp20
 70
     1
102
RTVSPropertyOp21
 70
     1
102
RTVSPropertyOp22
 70
     1
102
RTVSPropertyOp23
 70
     1
102
RTVSPropertyOp24
 70
     1
102
RTVSPropertyOp25
 70
     1
102
RTVSPropertyOp26
 70
     1
102
RTVSPropertyOp27
 70
     1
102
RTVSPropertyOp28
 70
     1
102
RTVSPropertyOp29
 70
     1
102
RTVSPropertyOp30
 70
     1
102
RTVSPropertyOp31
 70
     1
102
RTVSPropertyOp32
 70
     1
  0
XRECORD
  5
974
102
{ACAD_REACTORS
330
973
102
}
330
973
100
AcDbXrecord
280
     1
102
RTVSPropertyOp0
 70
     1
102
RTVSPropertyOp1
 70
     1
102
RTVSPropertyOp2
 70
     1
102
RTVSPropertyOp3
 70
     1
102
RTVSPropertyOp4
 70
     1
102
RTVSPropertyOp5
 70
     1
102
RTVSPropertyOp6
 70
     1
102
RTVSPropertyOp7
 70
     1
102
RTVSPropertyOp8
 70
     1
102
RTVSPropertyOp9
 70
     1
102
RTVSPropertyOp10
 70
     1
102
RTVSPropertyOp11
 70
     1
102
RTVSPropertyOp12
 70
     1
102
RTVSPropertyOp13
 70
     1
102
RTVSPropertyOp14
 70
     1
102
RTVSPropertyOp15
 70
     1
102
RTVSPropertyOp16
 70
     1
102
RTVSPropertyOp17
 70
     1
102
RTVSPropertyOp18
 70
     1
102
RTVSPropertyOp19
 70
     1
102
RTVSPropertyOp20
 70
     1
102
RTVSPropertyOp21
 70
     1
102
RTVSPropertyOp22
 70
     1
102
RTVSPropertyOp23
 70
     1
102
RTVSPropertyOp24
 70
     1
102
RTVSPropertyOp25
 70
     1
102
RTVSPropertyOp26
 70
     1
102
RTVSPropertyOp27
 70
     1
102
RTVSPropertyOp28
 70
     1
102
RTVSPropertyOp29
 70
     1
102
RTVSPropertyOp30
 70
     1
102
RTVSPropertyOp31
 70
     1
102
RTVSPropertyOp32
 70
     1
  0
XRECORD
  5
968
102
{ACAD_REACTORS
330
967
102
}
330
967
100
AcDbXrecord
280
     1
102
RTVSPropertyOp0
 70
     1
102
RTVSPropertyOp1
 70
     1
102
RTVSPropertyOp2
 70
     1
102
RTVSPropertyOp3
 70
     1
102
RTVSPropertyOp4
 70
     1
102
RTVSPropertyOp5
 70
     1
102
RTVSPropertyOp6
 70
     1
102
RTVSPropertyOp7
 70
     1
102
RTVSPropertyOp8
 70
     1
102
RTVSPropertyOp9
 70
     1
102
RTVSPropertyOp10
 70
     1
102
RTVSPropertyOp11
 70
     1
102
RTVSPropertyOp12
 70
     1
102
RTVSPropertyOp13
 70
     1
102
RTVSPropertyOp14
 70
     1
102
RTVSPropertyOp15
 70
     1
102
RTVSPropertyOp16
 70
     1
102
RTVSPropertyOp17
 70
     1
102
RTVSPropertyOp18
 70
     1
102
RTVSPropertyOp19
 70
     1
102
RTVSPropertyOp20
 70
     1
102
RTVSPropertyOp21
 70
     1
102
RTVSPropertyOp22
 70
     1
102
RTVSPropertyOp23
 70
     1
102
RTVSPropertyOp24
 70
     1
102
RTVSPropertyOp25
 70
     1
102
RTVSPropertyOp26
 70
     1
102
RTVSPropertyOp27
 70
     1
102
RTVSPropertyOp28
 70
     1
102
RTVSPropertyOp29
 70
     1
102
RTVSPropertyOp30
 70
     1
102
RTVSPropertyOp31
 70
     1
102
RTVSPropertyOp32
 70
     1
  0
XRECORD
  5
980
102
{ACAD_REACTORS
330
97F
102
}
330
97F
100
AcDbXrecord
280
     1
102
RTVSPropertyOp0
 70
     1
102
RTVSPropertyOp1
 70
     1
102
RTVSPropertyOp2
 70
     1
102
RTVSPropertyOp3
 70
     1
102
RTVSPropertyOp4
 70
     1
102
RTVSPropertyOp5
 70
     1
102
RTVSPropertyOp6
 70
     1
102
RTVSPropertyOp7
 70
     1
102
RTVSPropertyOp8
 70
     1
102
RTVSPropertyOp9
 70
     1
102
RTVSPropertyOp10
 70
     1
102
RTVSPropertyOp11
 70
     1
102
RTVSPropertyOp12
 70
     1
102
RTVSPropertyOp13
 70
     1
102
RTVSPropertyOp14
 70
     1
102
RTVSPropertyOp15
 70
     1
102
RTVSPropertyOp16
 70
     1
102
RTVSPropertyOp17
 70
     1
102
RTVSPropertyOp18
 70
     1
102
RTVSPropertyOp19
 70
     1
102
RTVSPropertyOp20
 70
     1
102
RTVSPropertyOp21
 70
     1
102
RTVSPropertyOp22
 70
     1
102
RTVSPropertyOp23
 70
     1
102
RTVSPropertyOp24
 70
     1
102
RTVSPropertyOp25
 70
     1
102
RTVSPropertyOp26
 70
     1
102
RTVSPropertyOp27
 70
     1
102
RTVSPropertyOp28
 70
     1
102
RTVSPropertyOp29
 70
     1
102
RTVSPropertyOp30
 70
     1
102
RTVSPropertyOp31
 70
     1
102
RTVSPropertyOp32
 70
     1
  0
ENDSEC
  0
EOF
