  0
SECTION
  2
HEADER
  9
$ACADVER
  1
AC1015
  9
$ACADMAINTVER
 70
    20
  9
$DWGCODEPAGE
  3
ANSI_932
  9
$INSBASE
 10
0.0
 20
0.0
 30
0.0
  9
$EXTMIN
 10
1411.863331902209
 20
1164.289453345961
 30
-0.0015258207003583
  9
$EXTMAX
 10
1786.88622008583
 20
1434.305932838167
 30
0.0000000349246037
  9
$LIMMIN
 10
1411.874775120904
 20
1164.297692463422
  9
$LIMMAX
 10
1786.874775120905
 20
1434.297692463421
  9
$ORTHOMODE
 70
     0
  9
$REGENMODE
 70
     1
  9
$FILLMODE
 70
     1
  9
$QTEXTMODE
 70
     0
  9
$MIRRTEXT
 70
     0
  9
$LTSCALE
 40
1.0
  9
$ATTMODE
 70
     1
  9
$TEXTSIZE
 40
3.5
  9
$TRACEWID
 40
0.5
  9
$TEXTSTYLE
  7
STANDARD
  9
$CLAYER
  8
0
  9
$CELTYPE
  6
ByLayer
  9
$CECOLOR
 62
   256
  9
$CELTSCALE
 40
1.0
  9
$DISPSILH
 70
     0
  9
$DIMSCALE
 40
1.0
  9
$DIMASZ
 40
0.18
  9
$DIMEXO
 40
0.0625
  9
$DIMDLI
 40
0.38
  9
$DIMRND
 40
0.0
  9
$DIMDLE
 40
0.0
  9
$DIMEXE
 40
0.18
  9
$DIMTP
 40
0.0
  9
$DIMTM
 40
0.0
  9
$DIMTXT
 40
0.18
  9
$DIMCEN
 40
0.09
  9
$DIMTSZ
 40
0.0
  9
$DIMTOL
 70
     0
  9
$DIMLIM
 70
     0
  9
$DIMTIH
 70
     1
  9
$DIMTOH
 70
     1
  9
$DIMSE1
 70
     0
  9
$DIMSE2
 70
     0
  9
$DIMTAD
 70
     0
  9
$DIMZIN
 70
     0
  9
$DIMBLK
  1

  9
$DIMASO
 70
     1
  9
$DIMSHO
 70
     1
  9
$DIMPOST
  1

  9
$DIMAPOST
  1

  9
$DIMALT
 70
     0
  9
$DIMALTD
 70
     2
  9
$DIMALTF
 40
25.4
  9
$DIMLFAC
 40
1.0
  9
$DIMTOFL
 70
     0
  9
$DIMTVP
 40
0.0
  9
$DIMTIX
 70
     0
  9
$DIMSOXD
 70
     0
  9
$DIMSAH
 70
     0
  9
$DIMBLK1
  1

  9
$DIMBLK2
  1

  9
$DIMSTYLE
  2
Standard
  9
$DIMCLRD
 70
     0
  9
$DIMCLRE
 70
     0
  9
$DIMCLRT
 70
     0
  9
$DIMTFAC
 40
1.0
  9
$DIMGAP
 40
0.09
  9
$DIMJUST
 70
     0
  9
$DIMSD1
 70
     0
  9
$DIMSD2
 70
     0
  9
$DIMTOLJ
 70
     1
  9
$DIMTZIN
 70
     0
  9
$DIMALTZ
 70
     0
  9
$DIMALTTZ
 70
     0
  9
$DIMUPT
 70
     0
  9
$DIMDEC
 70
     4
  9
$DIMTDEC
 70
     4
  9
$DIMALTU
 70
     2
  9
$DIMALTTD
 70
     2
  9
$DIMTXSTY
  7
STANDARD
  9
$DIMAUNIT
 70
     0
  9
$DIMADEC
 70
     0
  9
$DIMALTRND
 40
0.0
  9
$DIMAZIN
 70
     0
  9
$DIMDSEP
 70
    46
  9
$DIMATFIT
 70
     3
  9
$DIMFRAC
 70
     0
  9
$DIMLDRBLK
  1

  9
$DIMLUNIT
 70
     2
  9
$DIMLWD
 70
    -2
  9
$DIMLWE
 70
    -2
  9
$DIMTMOVE
 70
     0
  9
$LUNITS
 70
     2
  9
$LUPREC
 70
     4
  9
$SKETCHINC
 40
0.1
  9
$FILLETRAD
 40
2.0
  9
$AUNITS
 70
     0
  9
$AUPREC
 70
     0
  9
$MENU
  1
ACAD
  9
$ELEVATION
 40
0.0
  9
$PELEVATION
 40
0.0
  9
$THICKNESS
 40
0.0
  9
$LIMCHECK
 70
     0
  9
$CHAMFERA
 40
0.0
  9
$CHAMFERB
 40
0.0
  9
$CHAMFERC
 40
0.0
  9
$CHAMFERD
 40
0.0
  9
$SKPOLY
 70
     0
  9
$TDCREATE
 40
2457585.378566817
  9
$TDUCREATE
 40
2457585.003566817
  9
$TDUPDATE
 40
2457585.379484861
  9
$TDUUPDATE
 40
2457585.004484861
  9
$TDINDWG
 40
0.0009185764
  9
$TDUSRTIMER
 40
0.0009185764
  9
$USRTIMER
 70
     1
  9
$ANGBASE
 50
0.0
  9
$ANGDIR
 70
     0
  9
$PDMODE
 70
     0
  9
$PDSIZE
 40
0.0
  9
$PLINEWID
 40
0.0
  9
$SPLFRAME
 70
     0
  9
$SPLINETYPE
 70
     6
  9
$SPLINESEGS
 70
     8
  9
$HANDSEED
  5
56E
  9
$SURFTAB1
 70
     6
  9
$SURFTAB2
 70
     6
  9
$SURFTYPE
 70
     6
  9
$SURFU
 70
     6
  9
$SURFV
 70
     6
  9
$UCSBASE
  2

  9
$UCSNAME
  2

  9
$UCSORG
 10
0.0
 20
0.0
 30
0.0
  9
$UCSXDIR
 10
1.0
 20
0.0
 30
0.0
  9
$UCSYDIR
 10
0.0
 20
1.0
 30
0.0
  9
$UCSORTHOREF
  2

  9
$UCSORTHOVIEW
 70
     0
  9
$UCSORGTOP
 10
0.0
 20
0.0
 30
0.0
  9
$UCSORGBOTTOM
 10
0.0
 20
0.0
 30
0.0
  9
$UCSORGLEFT
 10
0.0
 20
0.0
 30
0.0
  9
$UCSORGRIGHT
 10
0.0
 20
0.0
 30
0.0
  9
$UCSORGFRONT
 10
0.0
 20
0.0
 30
0.0
  9
$UCSORGBACK
 10
0.0
 20
0.0
 30
0.0
  9
$PUCSBASE
  2

  9
$PUCSNAME
  2

  9
$PUCSORG
 10
0.0
 20
0.0
 30
0.0
  9
$PUCSXDIR
 10
1.0
 20
0.0
 30
0.0
  9
$PUCSYDIR
 10
0.0
 20
1.0
 30
0.0
  9
$PUCSORTHOREF
  2

  9
$PUCSORTHOVIEW
 70
     0
  9
$PUCSORGTOP
 10
0.0
 20
0.0
 30
0.0
  9
$PUCSORGBOTTOM
 10
0.0
 20
0.0
 30
0.0
  9
$PUCSORGLEFT
 10
0.0
 20
0.0
 30
0.0
  9
$PUCSORGRIGHT
 10
0.0
 20
0.0
 30
0.0
  9
$PUCSORGFRONT
 10
0.0
 20
0.0
 30
0.0
  9
$PUCSORGBACK
 10
0.0
 20
0.0
 30
0.0
  9
$USERI1
 70
     0
  9
$USERI2
 70
     0
  9
$USERI3
 70
     0
  9
$USERI4
 70
     0
  9
$USERI5
 70
     0
  9
$USERR1
 40
0.0
  9
$USERR2
 40
0.0
  9
$USERR3
 40
0.0
  9
$USERR4
 40
0.0
  9
$USERR5
 40
0.0
  9
$WORLDVIEW
 70
     1
  9
$SHADEDGE
 70
     3
  9
$SHADEDIF
 70
    70
  9
$TILEMODE
 70
     1
  9
$MAXACTVP
 70
    64
  9
$PINSBASE
 10
0.0
 20
0.0
 30
0.0
  9
$PLIMCHECK
 70
     0
  9
$PEXTMIN
 10
1.000000000000000E+20
 20
1.000000000000000E+20
 30
1.000000000000000E+20
  9
$PEXTMAX
 10
-1.000000000000000E+20
 20
-1.000000000000000E+20
 30
-1.000000000000000E+20
  9
$PLIMMIN
 10
0.0
 20
0.0
  9
$PLIMMAX
 10
12.0
 20
9.0
  9
$UNITMODE
 70
     0
  9
$VISRETAIN
 70
     1
  9
$PLINEGEN
 70
     0
  9
$PSLTSCALE
 70
     1
  9
$TREEDEPTH
 70
  3020
  9
$CMLSTYLE
  2
Standard
  9
$CMLJUST
 70
     0
  9
$CMLSCALE
 40
1.0
  9
$PROXYGRAPHICS
 70
     1
  9
$MEASUREMENT
 70
     0
  9
$CELWEIGHT
370
    -1
  9
$ENDCAPS
280
     0
  9
$JOINSTYLE
280
     0
  9
$LWDISPLAY
290
     0
  9
$INSUNITS
 70
     0
  9
$HYPERLINKBASE
  1

  9
$STYLESHEET
  1

  9
$XEDIT
290
     1
  9
$CEPSNTYPE
380
     0
  9
$PSTYLEMODE
290
     1
  9
$FINGERPRINTGUID
  2
{567302C0-B18D-4C0E-8DDE-78BF0A27D5B8}
  9
$VERSIONGUID
  2
{CF73A7C2-FE5E-42D0-AAAB-BEE807BA7C51}
  9
$EXTNAMES
290
     1
  9
$PSVPSCALE
 40
0.0
  9
$OLESTARTUP
290
     0
  0
ENDSEC
  0
SECTION
  2
CLASSES
  0
CLASS
  1
ACDBDICTIONARYWDFLT
  2
AcDbDictionaryWithDefault
  3
ObjectDBX Classes
 90
        0
280
     0
281
     0
  0
CLASS
  1
MATERIAL
  2
AcDbMaterial
  3
ObjectDBX Classes
 90
     1153
280
     0
281
     0
  0
CLASS
  1
VISUALSTYLE
  2
AcDbVisualStyle
  3
ObjectDBX Classes
 90
     4095
280
     0
281
     0
  0
CLASS
  1
SCALE
  2
AcDbScale
  3
ObjectDBX Classes
 90
     1153
280
     0
281
     0
  0
CLASS
  1
TABLESTYLE
  2
AcDbTableStyle
  3
ObjectDBX Classes
 90
     4095
280
     0
281
     0
  0
CLASS
  1
MLEADERSTYLE
  2
AcDbMLeaderStyle
  3
ACDB_MLEADERSTYLE_CLASS
 90
     4095
280
     0
281
     0
  0
CLASS
  1
SORTENTSTABLE
  2
AcDbSortentsTable
  3
ObjectDBX Classes
 90
        0
280
     0
281
     0
  0
CLASS
  1
DICTIONARYVAR
  2
AcDbDictionaryVar
  3
ObjectDBX Classes
 90
        0
280
     0
281
     0
  0
CLASS
  1
CELLSTYLEMAP
  2
AcDbCellStyleMap
  3
ObjectDBX Classes
 90
     1152
280
     0
281
     0
  0
CLASS
  1
ACDBPLACEHOLDER
  2
AcDbPlaceHolder
  3
ObjectDBX Classes
 90
        0
280
     0
281
     0
  0
CLASS
  1
LAYOUT
  2
AcDbLayout
  3
ObjectDBX Classes
 90
        0
280
     0
281
     0
  0
ENDSEC
  0
SECTION
  2
TABLES
  0
TABLE
  2
VPORT
  5
8
330
0
100
AcDbSymbolTable
 70
     1
  0
VPORT
  5
80
330
8
100
AcDbSymbolTableRecord
100
AcDbViewportTableRecord
  2
*Active
 70
     0
 10
0.0
 20
0.0
 11
1.0
 21
1.0
 12
1555.419777380116
 22
1350.184128797211
 13
0.0
 23
0.0
 14
1.0
 24
1.0
 15
0.0
 25
0.0
 16
0.0
 26
0.0
 36
1.0
 17
0.0
 27
0.0
 37
0.0
 40
195.7202856513881
 41
2.023923444976076
 42
50.0
 43
0.0
 44
0.0
 50
0.0
 51
0.0
 71
     0
 72
   100
 73
     1
 74
     1
 75
     0
 76
     0
 77
     0
 78
     0
281
     0
 65
     1
110
0.0
120
0.0
130
0.0
111
1.0
121
0.0
131
0.0
112
0.0
122
1.0
132
0.0
 79
     0
146
0.0
1001
ACAD_NAV_VCDISPLAY
1070
     3
  0
ENDTAB
  0
TABLE
  2
LTYPE
  5
5
330
0
100
AcDbSymbolTable
 70
     9
  0
LTYPE
  5
5A
330
5
100
AcDbSymbolTableRecord
100
AcDbLinetypeTableRecord
  2
ByBlock
 70
     0
  3

 72
    65
 73
     0
 40
0.0
  0
LTYPE
  5
5B
330
5
100
AcDbSymbolTableRecord
100
AcDbLinetypeTableRecord
  2
ByLayer
 70
     0
  3

 72
    65
 73
     0
 40
0.0
  0
LTYPE
  5
5C
330
5
100
AcDbSymbolTableRecord
100
AcDbLinetypeTableRecord
  2
CONTINUOUS
 70
     0
  3
Solid line
 72
    65
 73
     0
 40
0.0
  0
LTYPE
  5
70
330
5
100
AcDbSymbolTableRecord
100
AcDbLinetypeTableRecord
  2
BORDER
 70
     0
  3
__ __ . __ __ .
 72
    65
 73
     6
 40
17.26973684210532
 49
4.934210526315804
 74
     0
 49
-2.467105263157901
 74
     0
 49
4.934210526315804
 74
     0
 49
-2.467105263157901
 74
     0
 49
0.0
 74
     0
 49
-2.467105263157901
 74
     0
  0
LTYPE
  5
71
330
5
100
AcDbSymbolTableRecord
100
AcDbLinetypeTableRecord
  2
CENTER
 70
     0
  3
____ _ ____ _
 72
    65
 73
     4
 40
19.73684210526322
 49
12.33552631578951
 74
     0
 49
-2.467105263157901
 74
     0
 49
2.467105263157901
 74
     0
 49
-2.467105263157901
 74
     0
  0
LTYPE
  5
72
330
5
100
AcDbSymbolTableRecord
100
AcDbLinetypeTableRecord
  2
DASHDOT
 70
     0
  3
__ . __ . __ .
 72
    65
 73
     4
 40
9.868421052631607
 49
4.934210526315804
 74
     0
 49
-2.467105263157901
 74
     0
 49
0.0
 74
     0
 49
-2.467105263157901
 74
     0
  0
LTYPE
  5
73
330
5
100
AcDbSymbolTableRecord
100
AcDbLinetypeTableRecord
  2
DASHED
 70
     0
  3
__ __ __ __ __
 72
    65
 73
     2
 40
7.401315789473706
 49
4.934210526315804
 74
     0
 49
-2.467105263157901
 74
     0
  0
LTYPE
  5
74
330
5
100
AcDbSymbolTableRecord
100
AcDbLinetypeTableRecord
  2
DIVIDE
 70
     0
  3
__ . . __ . . 
 72
    65
 73
     6
 40
12.33552631578951
 49
4.934210526315804
 74
     0
 49
-2.467105263157901
 74
     0
 49
0.0
 74
     0
 49
-2.467105263157901
 74
     0
 49
0.0
 74
     0
 49
-2.467105263157901
 74
     0
  0
LTYPE
  5
75
330
5
100
AcDbSymbolTableRecord
100
AcDbLinetypeTableRecord
  2
DOT
 70
     0
  3
..............
 72
    65
 73
     4
 40
4.934210526315804
 49
0.0
 74
     0
 49
-2.467105263157901
 74
     0
 49
0.0
 74
     0
 49
-2.467105263157901
 74
     0
  0
LTYPE
  5
76
330
5
100
AcDbSymbolTableRecord
100
AcDbLinetypeTableRecord
  2
HIDDEN
 70
     0
  3
_ _ _ _ _ _ _
 72
    65
 73
     2
 40
3.700657894736853
 49
2.467105263157901
 74
     0
 49
-1.23355263157895
 74
     0
  0
LTYPE
  5
77
330
5
100
AcDbSymbolTableRecord
100
AcDbLinetypeTableRecord
  2
PHANTOM
 70
     0
  3
_____ _ _ _____ _ _ 
 72
    65
 73
     6
 40
24.67105263157902
 49
12.33552631578951
 74
     0
 49
-2.467105263157901
 74
     0
 49
2.467105263157901
 74
     0
 49
-2.467105263157901
 74
     0
 49
2.467105263157901
 74
     0
 49
-2.467105263157901
 74
     0
  0
ENDTAB
  0
TABLE
  2
LAYER
  5
2
330
0
100
AcDbSymbolTable
 70
     2
  0
LAYER
  5
54
102
{ACAD_XDICTIONARY
360
524
102
}
330
2
100
AcDbSymbolTableRecord
100
AcDbLayerTableRecord
  2
0
 70
     0
 62
     7
  6
CONTINUOUS
370
    -3
390
F
  0
LAYER
  5
78
102
{ACAD_XDICTIONARY
360
526
102
}
330
2
100
AcDbSymbolTableRecord
100
AcDbLayerTableRecord
  2
1
 70
     0
 62
     7
  6
CONTINUOUS
370
    -3
390
F
  0
ENDTAB
  0
TABLE
  2
STYLE
  5
3
330
0
100
AcDbSymbolTable
 70
     5
  0
STYLE
  5
55
330
3
100
AcDbSymbolTableRecord
100
AcDbTextStyleTableRecord
  2
STANDARD
 70
     0
 40
0.0
 41
1.0
 50
0.0
 71
     0
 42
3.5
  3
txt
  4

  0
STYLE
  5
59
330
3
100
AcDbSymbolTableRecord
100
AcDbTextStyleTableRecord
  2
Annotative
 70
     0
 40
0.0
 41
1.0
 50
0.0
 71
     0
 42
0.2
  3
txt
  4

1001
AcadAnnotative
1000
AnnotativeData
1002
{
1070
     1
1070
     1
1002
}
  0
STYLE
  5
79
330
3
100
AcDbSymbolTableRecord
100
AcDbTextStyleTableRecord
  2
SIMPLEX
 70
     0
 40
0.0
 41
1.0
 50
0.0
 71
     0
 42
3.5
  3
simplex
  4

  0
STYLE
  5
7A
330
3
100
AcDbSymbolTableRecord
100
AcDbTextStyleTableRecord
  2
COMPLEX
 70
     0
 40
0.0
 41
1.0
 50
0.0
 71
     0
 42
3.5
  3
complex
  4

  0
STYLE
  5
7B
330
3
100
AcDbSymbolTableRecord
100
AcDbTextStyleTableRecord
  2
ITALIC
 70
     0
 40
0.0
 41
1.0
 50
0.0
 71
     0
 42
3.5
  3
italic
  4

  0
ENDTAB
  0
TABLE
  2
VIEW
  5
6
330
0
100
AcDbSymbolTable
 70
     0
  0
ENDTAB
  0
TABLE
  2
UCS
  5
7
330
0
100
AcDbSymbolTable
 70
     0
  0
ENDTAB
  0
TABLE
  2
APPID
  5
9
330
0
100
AcDbSymbolTable
 70
     4
  0
APPID
  5
56
330
9
100
AcDbSymbolTableRecord
100
AcDbRegAppTableRecord
  2
ACAD
 70
     0
  0
APPID
  5
5D
330
9
100
AcDbSymbolTableRecord
100
AcDbRegAppTableRecord
  2
AcadAnnotative
 70
     0
  0
APPID
  5
530
330
9
100
AcDbSymbolTableRecord
100
AcDbRegAppTableRecord
  2
ACAD_NAV_VCDISPLAY
 70
     0
  0
APPID
  5
569
330
9
100
AcDbSymbolTableRecord
100
AcDbRegAppTableRecord
  2
ACAD_MLEADERVER
 70
     0
  0
ENDTAB
  0
TABLE
  2
DIMSTYLE
  5
A
330
0
100
AcDbSymbolTable
 70
     3
100
AcDbDimStyleTable
 71
     0
  0
DIMSTYLE
105
57
330
A
100
AcDbSymbolTableRecord
100
AcDbDimStyleTableRecord
  2
Standard
 70
     0
340
55
  0
DIMSTYLE
105
58
330
A
100
AcDbSymbolTableRecord
100
AcDbDimStyleTableRecord
  2
Annotative
 70
     0
340
55
1001
AcadAnnotative
1000
AnnotativeData
1002
{
1070
     1
1070
     1
1002
}
  0
DIMSTYLE
105
6F
330
A
100
AcDbSymbolTableRecord
100
AcDbDimStyleTableRecord
  2
DMST_1
 70
     0
 41
2.45
 42
1.0
 43
7.0
 44
1.0
 73
     0
 74
     0
 77
     1
 78
     9
140
3.5
141
0.0
176
     2
177
     2
178
     3
279
     2
340
55
  0
ENDTAB
  0
TABLE
  2
BLOCK_RECORD
  5
1
330
0
100
AcDbSymbolTable
 70
    22
  0
BLOCK_RECORD
  5
6B
102
{ACAD_XDICTIONARY
360
3FD
102
}
330
1
100
AcDbSymbolTableRecord
100
AcDbBlockTableRecord
  2
*Model_Space
340
6E
  0
BLOCK_RECORD
  5
67
330
1
100
AcDbSymbolTableRecord
100
AcDbBlockTableRecord
  2
*Paper_Space
340
6A
  0
BLOCK_RECORD
  5
81
330
1
100
AcDbSymbolTableRecord
100
AcDbBlockTableRecord
  2
_6
340
0
  0
BLOCK_RECORD
  5
150
330
1
100
AcDbSymbolTableRecord
100
AcDbBlockTableRecord
  2
_5
340
0
  0
BLOCK_RECORD
  5
1AC
330
1
100
AcDbSymbolTableRecord
100
AcDbBlockTableRecord
  2
_4
340
0
  0
BLOCK_RECORD
  5
1BF
330
1
100
AcDbSymbolTableRecord
100
AcDbBlockTableRecord
  2
______
340
0
102
{BLKREFS
331
30B
102
}
  0
BLOCK_RECORD
  5
305
330
1
100
AcDbSymbolTableRecord
100
AcDbBlockTableRecord
  2
FORMAT_A3
340
0
102
{BLKREFS
331
30F
102
}
  0
BLOCK_RECORD
  5
30D
330
1
100
AcDbSymbolTableRecord
100
AcDbBlockTableRecord
  2
_3
340
0
102
{BLKREFS
331
313
102
}
  0
BLOCK_RECORD
  5
311
330
1
100
AcDbSymbolTableRecord
100
AcDbBlockTableRecord
  2
TOP__1
340
0
  0
BLOCK_RECORD
  5
315
330
1
100
AcDbSymbolTableRecord
100
AcDbBlockTableRecord
  2
_1
340
0
  0
BLOCK_RECORD
  5
32C
330
1
100
AcDbSymbolTableRecord
100
AcDbBlockTableRecord
  2
_2
340
0
  0
BLOCK_RECORD
  5
337
330
1
100
AcDbSymbolTableRecord
100
AcDbBlockTableRecord
  2
*D9
340
0
  0
BLOCK_RECORD
  5
344
330
1
100
AcDbSymbolTableRecord
100
AcDbBlockTableRecord
  2
*D10
340
0
  0
BLOCK_RECORD
  5
34F
330
1
100
AcDbSymbolTableRecord
100
AcDbBlockTableRecord
  2
*D11
340
0
  0
BLOCK_RECORD
  5
35C
330
1
100
AcDbSymbolTableRecord
100
AcDbBlockTableRecord
  2
*D12
340
0
  0
BLOCK_RECORD
  5
368
330
1
100
AcDbSymbolTableRecord
100
AcDbBlockTableRecord
  2
*D13
340
0
  0
BLOCK_RECORD
  5
373
330
1
100
AcDbSymbolTableRecord
100
AcDbBlockTableRecord
  2
*D14
340
0
  0
BLOCK_RECORD
  5
37E
330
1
100
AcDbSymbolTableRecord
100
AcDbBlockTableRecord
  2
*D15
340
0
  0
BLOCK_RECORD
  5
389
330
1
100
AcDbSymbolTableRecord
100
AcDbBlockTableRecord
  2
*D16
340
0
  0
BLOCK_RECORD
  5
394
330
1
100
AcDbSymbolTableRecord
100
AcDbBlockTableRecord
  2
*D17
340
0
  0
BLOCK_RECORD
  5
39F
330
1
100
AcDbSymbolTableRecord
100
AcDbBlockTableRecord
  2
*D18
340
0
  0
BLOCK_RECORD
  5
3AA
330
1
100
AcDbSymbolTableRecord
100
AcDbBlockTableRecord
  2
*D19
340
0
  0
BLOCK_RECORD
  5
3B5
330
1
100
AcDbSymbolTableRecord
100
AcDbBlockTableRecord
  2
*D20
340
0
  0
BLOCK_RECORD
  5
3C0
330
1
100
AcDbSymbolTableRecord
100
AcDbBlockTableRecord
  2
*D21
340
0
  0
ENDTAB
  0
ENDSEC
  0
SECTION
  2
BLOCKS
  0
BLOCK
  5
6C
330
6B
100
AcDbEntity
  8
0
100
AcDbBlockBegin
  2
*Model_Space
 70
     0
 10
0.0
 20
0.0
 30
0.0
  3
*Model_Space
  1

  0
ENDBLK
  5
6D
330
6B
100
AcDbEntity
  8
0
100
AcDbBlockEnd
  0
BLOCK
  5
68
330
67
100
AcDbEntity
 67
     1
  8
0
100
AcDbBlockBegin
  2
*Paper_Space
 70
     0
 10
0.0
 20
0.0
 30
0.0
  3
*Paper_Space
  1

  0
ENDBLK
  5
69
330
67
100
AcDbEntity
 67
     1
  8
0
100
AcDbBlockEnd
  0
BLOCK
  5
82
330
81
100
AcDbEntity
  8
0
100
AcDbBlockBegin
  2
_6
 70
     0
 10
1695.210189394928
 20
1556.859113551005
 30
0.0
  3
_6
  1

  0
LINE
  5
83
330
81
100
AcDbEntity
  8
1
 62
     7
100
AcDbLine
 10
1697.374775120904
 20
1326.593058803334
 30
0.0
 11
1664.374775120904
 21
1326.593058803334
 31
0.0
  0
LINE
  5
84
330
81
100
AcDbEntity
  8
1
  6
DASHDOT
 62
     2
100
AcDbLine
 10
1687.374775120904
 20
1310.493058803334
 30
0.0
 11
1687.374775120904
 21
1374.593058803334
 31
0.0
  0
LINE
  5
85
330
81
100
AcDbEntity
  8
1
 62
     7
100
AcDbLine
 10
1683.874775120903
 20
1367.809430276683
 30
0.0
 11
1683.874775120903
 21
1369.593058803334
 31
0.0
  0
LINE
  5
86
330
81
100
AcDbEntity
  8
1
 62
     7
100
AcDbLine
 10
1690.874775120904
 20
1367.809430276683
 30
0.0
 11
1690.874775120904
 21
1369.593058803334
 31
0.0
  0
LINE
  5
87
330
81
100
AcDbEntity
  8
1
 62
     7
100
AcDbLine
 10
1683.874775120903
 20
1369.593058803334
 30
0.0
 11
1685.374775120904
 21
1369.593058803334
 31
0.0
  0
LINE
  5
88
330
81
100
AcDbEntity
  8
1
 62
     7
100
AcDbLine
 10
1690.874775120904
 20
1369.593058803334
 30
0.0
 11
1689.374775120904
 21
1369.593058803334
 31
0.0
  0
LINE
  5
89
330
81
100
AcDbEntity
  8
1
 62
     7
100
AcDbLine
 10
1672.374775120904
 20
1367.809430276683
 30
0.0
 11
1685.374775120904
 21
1367.809430276683
 31
0.0
  0
LINE
  5
8A
330
81
100
AcDbEntity
  8
1
 62
     7
100
AcDbLine
 10
1689.374775120904
 20
1367.809430276683
 30
0.0
 11
1694.874775120904
 21
1367.809430276683
 31
0.0
  0
LINE
  5
8B
330
81
100
AcDbEntity
  8
1
 62
     7
100
AcDbLine
 10
1671.374775120904
 20
1369.593058803334
 30
0.0
 11
1671.374775120904
 21
1368.505547335434
 31
0.0
  0
LINE
  5
8C
330
81
100
AcDbEntity
  8
1
 62
     7
100
AcDbLine
 10
1695.874775120904
 20
1369.593058803334
 30
0.0
 11
1695.874775120904
 21
1368.505547335434
 31
0.0
  0
LINE
  5
8D
330
81
100
AcDbEntity
  8
1
 62
     7
100
AcDbLine
 10
1671.374775120904
 20
1369.593058803334
 30
0.0
 11
1669.874775120904
 21
1369.593058803334
 31
0.0
  0
LINE
  5
8E
330
81
100
AcDbEntity
  8
1
 62
     7
100
AcDbLine
 10
1696.374775120904
 20
1369.593058803334
 30
0.0
 11
1696.374775120904
 21
1326.593058803334
 31
0.0
  0
LINE
  5
8F
330
81
100
AcDbEntity
  8
1
 62
     7
100
AcDbLine
 10
1696.374775120904
 20
1369.593058803334
 30
0.0
 11
1697.374775120904
 21
1368.593058803334
 31
0.0
  0
LINE
  5
90
330
81
100
AcDbEntity
  8
1
 62
     7
100
AcDbLine
 10
1697.374775120904
 20
1368.593058803334
 30
0.0
 11
1697.374775120904
 21
1326.593058803334
 31
0.0
  0
LINE
  5
91
330
81
100
AcDbEntity
  8
1
 62
     7
100
AcDbLine
 10
1696.374775120904
 20
1369.593058803334
 30
0.0
 11
1695.874775120904
 21
1369.593058803334
 31
0.0
  0
LINE
  5
92
330
81
100
AcDbEntity
  8
1
 62
     7
100
AcDbLine
 10
1669.874775120904
 20
1369.593058803334
 30
0.0
 11
1669.874775120904
 21
1367.809430276683
 31
0.0
  0
LINE
  5
93
330
81
100
AcDbEntity
  8
1
 62
     7
100
AcDbLine
 10
1666.574775120904
 20
1369.593058803334
 30
0.0
 11
1666.574775120904
 21
1367.809430276683
 31
0.0
  0
LINE
  5
94
330
81
100
AcDbEntity
  8
1
 62
     7
100
AcDbLine
 10
1669.874775120904
 20
1367.809430276683
 30
0.0
 11
1666.574775120904
 21
1367.809430276683
 31
0.0
  0
LINE
  5
95
330
81
100
AcDbEntity
  8
1
 62
     7
100
AcDbLine
 10
1666.574775120904
 20
1369.593058803334
 30
0.0
 11
1664.374775120904
 21
1369.593058803334
 31
0.0
  0
LINE
  5
96
330
81
100
AcDbEntity
  8
1
 62
     7
100
AcDbLine
 10
1664.874775120904
 20
1350.193058803334
 30
0.0
 11
1670.774775120904
 21
1350.193058803334
 31
0.0
  0
LINE
  5
97
330
81
100
AcDbEntity
  8
1
 62
     7
100
AcDbLine
 10
1670.774775120904
 20
1345.993058803334
 30
0.0
 11
1664.874775120904
 21
1345.993058803334
 31
0.0
  0
LINE
  5
98
330
81
100
AcDbEntity
  8
1
 62
     7
100
AcDbLine
 10
1664.874775120904
 20
1350.193058803334
 30
0.0
 11
1664.374775120904
 21
1350.693058803334
 31
0.0
  0
LINE
  5
99
330
81
100
AcDbEntity
  8
1
 62
     7
100
AcDbLine
 10
1664.874775120904
 20
1345.993058803334
 30
0.0
 11
1664.374775120904
 21
1345.493058803334
 31
0.0
  0
LINE
  5
9A
330
81
100
AcDbEntity
  8
1
 62
     7
100
AcDbLine
 10
1664.374775120904
 20
1369.593058803334
 30
0.0
 11
1664.374775120904
 21
1350.693058803334
 31
0.0
  0
LINE
  5
9B
330
81
100
AcDbEntity
  8
1
 62
     7
100
AcDbLine
 10
1664.374775120904
 20
1345.493058803334
 30
0.0
 11
1664.374775120904
 21
1326.593058803334
 31
0.0
  0
LINE
  5
9C
330
81
100
AcDbEntity
  8
1
 62
     7
100
AcDbLine
 10
1518.224775120904
 20
1364.093058803334
 30
0.0
 11
1518.224775120904
 21
1363.958922140522
 31
0.0
  0
LINE
  5
9D
330
81
100
AcDbEntity
  8
1
 62
     7
100
AcDbLine
 10
1533.524775120904
 20
1361.693058803334
 30
0.0
 11
1533.524775120904
 21
1326.593058803334
 31
0.0
  0
LINE
  5
9E
330
81
100
AcDbEntity
  8
1
  6
DASHDOT
 62
     2
100
AcDbLine
 10
1538.524775120904
 20
1348.093058803334
 30
0.0
 11
1512.724775120904
 21
1348.093058803334
 31
0.0
  0
LINE
  5
9F
330
81
100
AcDbEntity
  8
1
 62
     7
100
AcDbLine
 10
1518.224775120904
 20
1364.093058803334
 30
0.0
 11
1518.261801426467
 21
1364.056032497771
 31
0.0
  0
LINE
  5
A0
330
81
100
AcDbEntity
  8
1
 62
     7
100
AcDbLine
 10
1518.224775120904
 20
1364.093058803334
 30
0.0
 11
1518.276305892555
 21
1364.093058803334
 31
0.0
  0
LINE
  5
A1
330
81
100
AcDbEntity
  8
1
 62
     7
100
AcDbLine
 10
1520.924775120904
 20
1328.093058803334
 30
0.0
 11
1521.424775120904
 21
1328.593058803334
 31
0.0
  0
LINE
  5
A2
330
81
100
AcDbEntity
  8
1
 62
     7
100
AcDbLine
 10
1529.824775120904
 20
1328.593058803334
 30
0.0
 11
1530.324775120904
 21
1328.093058803334
 31
0.0
  0
LINE
  5
A3
330
81
100
AcDbEntity
  8
1
 62
     7
100
AcDbLine
 10
1521.424775120904
 20
1328.593058803334
 30
0.0
 11
1521.424775120904
 21
1328.093058803334
 31
0.0
  0
LINE
  5
A4
330
81
100
AcDbEntity
  8
1
  6
DASHDOT
 62
     2
100
AcDbLine
 10
1525.624775120904
 20
1310.493058803334
 30
0.0
 11
1525.624775120904
 21
1374.593058803334
 31
0.0
  0
LINE
  5
A5
330
81
100
AcDbEntity
  8
1
 62
     7
100
AcDbLine
 10
1517.724775120904
 20
1326.593058803334
 30
0.0
 11
1517.724775120904
 21
1361.693058803334
 31
0.0
  0
LINE
  5
A6
330
81
100
AcDbEntity
  8
1
 62
     7
100
AcDbLine
 10
1533.524775120904
 20
1326.593058803334
 30
0.0
 11
1517.724775120904
 21
1326.593058803334
 31
0.0
  0
LINE
  5
A7
330
81
100
AcDbEntity
  8
1
 62
     7
100
AcDbLine
 10
1532.98774881534
 20
1364.056032497771
 30
0.0
 11
1533.024775120904
 21
1364.093058803334
 31
0.0
  0
LINE
  5
A8
330
81
100
AcDbEntity
  8
1
 62
     7
100
AcDbLine
 10
1532.973244349253
 20
1364.093058803334
 30
0.0
 11
1533.024775120904
 21
1364.093058803334
 31
0.0
  0
LINE
  5
A9
330
81
100
AcDbEntity
  8
1
 62
     7
100
AcDbLine
 10
1533.024775120904
 20
1363.958922140521
 30
0.0
 11
1533.024775120904
 21
1364.093058803334
 31
0.0
  0
LINE
  5
AA
330
81
100
AcDbEntity
  8
1
 62
     7
100
AcDbLine
 10
1519.691816331228
 20
1363.593058803334
 30
0.0
 11
1531.55773391058
 21
1363.593058803334
 31
0.0
  0
LINE
  5
AB
330
81
100
AcDbEntity
  8
1
 62
     7
100
AcDbLine
 10
1519.919514390666
 20
1364.093058803334
 30
0.0
 11
1531.330035851142
 21
1364.093058803334
 31
0.0
  0
LINE
  5
AC
330
81
100
AcDbEntity
  8
1
 62
     7
100
AcDbLine
 10
1519.224775120904
 20
1328.593058803334
 30
0.0
 11
1532.024775120904
 21
1328.593058803334
 31
0.0
  0
LINE
  5
AD
330
81
100
AcDbEntity
  8
1
 62
     7
100
AcDbLine
 10
1529.824775120904
 20
1328.093058803334
 30
0.0
 11
1529.824775120904
 21
1328.593058803334
 31
0.0
  0
LINE
  5
AE
330
81
100
AcDbEntity
  8
1
  6
DASHDOT
 62
     2
100
AcDbLine
 10
1699.374775120904
 20
1349.593058803334
 30
0.0
 11
1694.374775120904
 21
1349.593058803334
 31
0.0
  0
LINE
  5
AF
330
81
100
AcDbEntity
  8
1
  6
DASHDOT
 62
     2
100
AcDbLine
 10
1699.374775120904
 20
1337.593058803334
 30
0.0
 11
1694.374775120904
 21
1337.593058803334
 31
0.0
  0
ARC
  5
B0
330
81
100
AcDbEntity
  8
1
 62
     7
100
AcDbCircle
 10
1670.774775120904
 20
1348.093058803334
 30
0.0
 40
2.100000000000135
100
AcDbArc
 50
270.0
 51
90.0
  0
ARC
  5
B1
330
81
100
AcDbEntity
  8
1
 62
     7
100
AcDbCircle
 10
1525.624775120904
 20
1361.693058803334
 30
0.0
 40
7.90000000000009
100
AcDbArc
 50
90.0
 51
180.0
  0
ARC
  5
B2
330
81
100
AcDbEntity
  8
1
 62
     7
100
AcDbCircle
 10
1525.624775120904
 20
1361.693058803334
 30
0.0
 40
7.90000000000009
100
AcDbArc
 50
0.0
 51
90.0
  0
LWPOLYLINE
  5
B3
330
81
100
AcDbEntity
  8
1
 62
     7
100
AcDbPolyline
 90
        5
 70
     0
 43
0.0
 10
1685.942308674822
 20
1368.8477954549
 42
0.0107085241819331
 10
1685.911307293403
 20
1368.853974480777
 42
0.0195920331325436
 10
1685.849559223717
 20
1368.862436089317
 42
0.014639935531262
 10
1685.794909466353
 20
1368.865868361697
 10
1685.771345160989
 20
1368.866209217617
  0
LWPOLYLINE
  5
BA
330
81
100
AcDbEntity
  8
1
 62
     7
100
AcDbPolyline
 90
        5
 70
     0
 43
0.0
 10
1686.142987063594
 20
1368.768000170846
 42
0.0211002058496761
 10
1686.102548154407
 20
1368.791019633958
 42
0.0241151692663219
 10
1686.054846524189
 20
1368.812899977172
 42
0.0223917506891735
 10
1685.999913375869
 20
1368.83255826708
 42
0.0201901202307659
 10
1685.942308674822
 20
1368.8477954549
  0
LWPOLYLINE
  5
C1
330
81
100
AcDbEntity
  8
1
 62
     7
100
AcDbPolyline
 90
       11
 70
     0
 43
0.0
 10
1685.374775120904
 20
1367.809430276683
 42
0.016128834765168
 10
1685.456427906889
 20
1367.812066149138
 42
0.0326974901210196
 10
1685.617266634546
 20
1367.833066857664
 42
0.0340467440674765
 10
1685.770779538909
 20
1367.874438980456
 42
0.0363497883250741
 10
1685.912328622922
 20
1367.934944916106
 42
0.0396526183862666
 10
1686.037633539704
 20
1368.012779301995
 42
0.0439236157714996
 10
1686.142892313479
 20
1368.105625078634
 42
0.0489104756078205
 10
1686.224882645887
 20
1368.210716779013
 42
0.0539439982835272
 10
1686.281050026051
 20
1368.324901114466
 42
0.0578559044593155
 10
1686.309600280219
 20
1368.444698583047
 42
0.0295836000663659
 10
1686.313222307982
 20
1368.505547333112
  0
LWPOLYLINE
  5
CE
330
81
100
AcDbEntity
  8
1
 62
     7
100
AcDbPolyline
 90
        8
 70
     0
 43
0.0
 10
1686.311117309108
 20
1368.537121101689
 42
0.0424553626535735
 10
1686.301868488993
 20
1368.579027115201
 42
0.0410652773124124
 10
1686.285275566544
 20
1368.619832713919
 42
0.0383512199424255
 10
1686.262112722041
 20
1368.658447109914
 42
0.0331738090105647
 10
1686.231730481684
 20
1368.695795813917
 42
0.0319046349287829
 10
1686.195389595023
 20
1368.730070820467
 42
0.0286858675608254
 10
1686.153954798177
 20
1368.760947930866
 42
0.0058750872021065
 10
1686.142987063594
 20
1368.768000170846
  0
LWPOLYLINE
  5
D8
330
81
100
AcDbEntity
  8
1
 62
     7
100
AcDbPolyline
 90
        5
 70
     0
 43
0.0
 10
1688.606563178213
 20
1368.768000170846
 42
-0.0211002058393114
 10
1688.647002087401
 20
1368.791019633958
 42
-0.0241151692633819
 10
1688.694703717618
 20
1368.812899977172
 42
-0.0223917506850732
 10
1688.749636865938
 20
1368.83255826708
 42
-0.0201901202335444
 10
1688.807241566986
 20
1368.8477954549
  0
LWPOLYLINE
  5
DF
330
81
100
AcDbEntity
  8
1
 62
     7
100
AcDbPolyline
 90
        9
 70
     0
 43
0.0
 10
1688.978205087183
 20
1368.866209217699
 42
0.0099164452281958
 10
1689.375274978603
 20
1368.922103795637
 42
0.016357694304349
 10
1689.841229033829
 20
1369.012870469114
 42
0.022046661670735
 10
1690.232634723043
 20
1369.120852632974
 42
0.0335070466400053
 10
1690.53775921387
 20
1369.242804385802
 42
0.0549867340972236
 10
1690.749657199443
 20
1369.374864723272
 42
0.0855679786988167
 10
1690.830329502172
 20
1369.464243978082
 42
0.065975863518635
 10
1690.870854138188
 20
1369.556190451095
 10
1690.874775120904
 20
1369.593058803157
  0
LWPOLYLINE
  5
EA
330
81
100
AcDbEntity
  8
1
 62
     7
100
AcDbPolyline
 90
        5
 70
     0
 43
0.0
 10
1688.807241566986
 20
1368.8477954549
 42
-0.0107085241791216
 10
1688.838242948405
 20
1368.853974480777
 42
-0.0195920331331793
 10
1688.899991018091
 20
1368.862436089317
 42
-0.0146399355309587
 10
1688.954640775455
 20
1368.865868361697
 10
1688.978205080818
 20
1368.866209217617
  0
LWPOLYLINE
  5
F1
330
81
100
AcDbEntity
  8
1
 62
     7
100
AcDbPolyline
 90
        8
 70
     0
 43
0.0
 10
1688.4384329327
 20
1368.537121101689
 42
-0.0424553626432539
 10
1688.447681752815
 20
1368.579027115201
 42
-0.0410652773024871
 10
1688.464274675264
 20
1368.619832713919
 42
-0.0383512199335876
 10
1688.487437519766
 20
1368.658447109914
 42
-0.0331738090144014
 10
1688.517819760124
 20
1368.695795813917
 42
-0.0319046349359068
 10
1688.554160646784
 20
1368.730070820467
 42
-0.0286858675685021
 10
1688.595595443632
 20
1368.760947930866
 42
-0.0058750872214595
 10
1688.606563178213
 20
1368.768000170846
  0
LWPOLYLINE
  5
FB
330
81
100
AcDbEntity
  8
1
 62
     7
100
AcDbPolyline
 90
        9
 70
     0
 43
0.0
 10
1685.771345155311
 20
1368.866209217617
 42
-0.0099164452956174
 10
1685.374275263207
 20
1368.922103795637
 42
-0.0163576943046204
 10
1684.908321207979
 20
1369.012870469114
 42
-0.0220466616713976
 10
1684.516915518766
 20
1369.120852632974
 42
-0.0335070466417736
 10
1684.211791027938
 20
1369.242804385802
 42
-0.054986734094842
 10
1683.999893042366
 20
1369.374864723272
 42
-0.0855679786949091
 10
1683.919220739637
 20
1369.464243978082
 10
1683.890459051694
 20
1369.519322099034
 42
-0.0987794689972709
 10
1683.874775120903
 20
1369.593058803334
  0
LWPOLYLINE
  5
106
330
81
100
AcDbEntity
  8
1
 62
     7
100
AcDbPolyline
 90
       19
 70
     0
 43
0.0
 10
1685.384578711324
 20
1369.569500712588
 42
0.1234380660519698
 10
1685.448424488714
 20
1369.522049276603
 42
0.0264546811588636
 10
1685.568492448301
 20
1369.482854822917
 42
0.0220209551195001
 10
1685.742367507562
 20
1369.444197111067
 42
0.0122908433704233
 10
1685.965765824944
 20
1369.410407722616
 42
0.0092946427514783
 10
1686.231876942364
 20
1369.38184054789
 42
0.0073037373219051
 10
1686.532689232268
 20
1369.359616988954
 42
0.0062707882013335
 10
1686.859071251731
 20
1369.344397993137
 42
0.0057307397139714
 10
1687.201115711815
 20
1369.336668910843
 42
0.0055658420527142
 10
1687.548434529992
 20
1369.336668910844
 42
0.0057307631954874
 10
1687.890478990075
 20
1369.344397993137
 42
0.0062708454495935
 10
1688.21686100954
 20
1369.359616988955
 42
0.007303911218718
 10
1688.517673299443
 20
1369.381840547891
 42
0.0092950053344855
 10
1688.783784416864
 20
1369.410407722616
 42
0.0122925043766724
 10
1689.007182734246
 20
1369.444197111067
 42
0.0220371893443752
 10
1689.181057793507
 20
1369.482854822917
 42
0.0264051971354515
 10
1689.301125753094
 20
1369.522049276604
 42
0.1318984577382092
 10
1689.364971530484
 20
1369.569500712588
 42
0.1615400285263172
 10
1689.374775120904
 20
1369.593058808364
  0
LWPOLYLINE
  5
11B
330
81
100
AcDbEntity
  8
1
 62
     7
100
AcDbPolyline
 90
       11
 70
     0
 43
0.0
 10
1672.374775087339
 20
1367.809430276683
 42
-0.0151260024210684
 10
1672.287788444213
 20
1367.812063506896
 42
-0.0307251130164727
 10
1672.116442787179
 20
1367.833053327475
 42
-0.0321850971192674
 10
1671.952899993312
 20
1367.874403419421
 42
-0.0347184682799409
 10
1671.802097902315
 20
1367.93487655214
 42
-0.038446059258097
 10
1671.668590494116
 20
1368.012670575694
 42
-0.0434412691888693
 10
1671.556420238501
 20
1368.105478332546
 42
-0.0495442164456249
 10
1671.469016232218
 20
1368.21055413356
 42
-0.0560291684726127
 10
1671.409111820409
 20
1368.324768235888
 42
-0.0613148065563796
 10
1671.378648768487
 20
1368.444646684597
 42
-0.031584879312965
 10
1671.374775120904
 20
1368.505547330547
  0
LWPOLYLINE
  5
128
330
81
100
AcDbEntity
  8
1
 62
     7
100
AcDbPolyline
 90
       11
 70
     0
 43
0.0
 10
1685.374775120904
 20
1367.809430276683
 42
0.016128834765168
 10
1685.456427906889
 20
1367.812066149138
 42
0.0326974901210196
 10
1685.617266634546
 20
1367.833066857664
 42
0.0340467440674765
 10
1685.770779538909
 20
1367.874438980456
 42
0.0363497883250741
 10
1685.912328622922
 20
1367.934944916106
 42
0.0396526183862666
 10
1686.037633539704
 20
1368.012779301995
 42
0.0439236157714996
 10
1686.142892313479
 20
1368.105625078634
 42
0.0489104756078205
 10
1686.224882645887
 20
1368.210716779013
 42
0.0539439982835272
 10
1686.281050026051
 20
1368.324901114466
 42
0.0578559044593155
 10
1686.309600280219
 20
1368.444698583047
 42
0.0295836000663659
 10
1686.313222307982
 20
1368.505547333112
  0
LWPOLYLINE
  5
135
330
81
100
AcDbEntity
  8
1
 62
     7
100
AcDbPolyline
 90
       11
 70
     0
 43
0.0
 10
1694.874775154413
 20
1367.809430276683
 42
0.0151260024218009
 10
1694.961761797595
 20
1367.812063506896
 42
0.0307251130190997
 10
1695.133107454629
 20
1367.833053327475
 42
0.0321850971190222
 10
1695.296650248496
 20
1367.874403419421
 42
0.0347184682788099
 10
1695.447452339494
 20
1367.93487655214
 42
0.0384460592609543
 10
1695.580959747693
 20
1368.012670575694
 42
0.0434412691880916
 10
1695.693130003307
 20
1368.105478332546
 42
0.049544216450501
 10
1695.78053400959
 20
1368.21055413356
 42
0.0560291684742667
 10
1695.840438421398
 20
1368.324768235888
 42
0.0613148065510647
 10
1695.870901473321
 20
1368.444646684597
 42
0.031584879312965
 10
1695.874775120904
 20
1368.505547330547
  0
LWPOLYLINE
  5
142
330
81
100
AcDbEntity
  8
1
 62
     7
100
AcDbPolyline
 90
       11
 70
     0
 43
0.0
 10
1689.374775120904
 20
1367.809430276683
 42
-0.0161288347650781
 10
1689.293122334919
 20
1367.812066149138
 42
-0.0326974901212909
 10
1689.132283607262
 20
1367.833066857664
 42
-0.034046744067105
 10
1688.978770702899
 20
1367.874438980456
 42
-0.0363497883262329
 10
1688.837221618886
 20
1367.934944916106
 42
-0.0396526183861607
 10
1688.711916702104
 20
1368.012779301995
 42
-0.0439236157726782
 10
1688.606657928328
 20
1368.105625078634
 42
-0.0489104756064804
 10
1688.524667595921
 20
1368.210716779013
 42
-0.0539439982881298
 10
1688.468500215757
 20
1368.324901114466
 42
-0.0578559044575286
 10
1688.439949961589
 20
1368.444698583047
 42
-0.0295836000626799
 10
1688.436327933826
 20
1368.505547333112
  0
ENDBLK
  5
14F
330
81
100
AcDbEntity
  8
0
100
AcDbBlockEnd
  0
BLOCK
  5
151
330
150
100
AcDbEntity
  8
0
100
AcDbBlockBegin
  2
_5
 70
     0
 10
1485.69351791817
 20
1480.876315754877
 30
0.0
  3
_5
  1

  0
LINE
  5
152
330
150
100
AcDbEntity
  8
1
 62
   133
100
AcDbLine
 10
1520.724775120904
 20
1346.093058803334
 30
0.0
 11
1520.724775120904
 21
1347.693058803334
 31
0.0
  0
LINE
  5
153
330
150
100
AcDbEntity
  8
1
 62
   133
100
AcDbLine
 10
1520.724775120904
 20
1347.693058803334
 30
0.0
 11
1519.224775120904
 21
1347.693058803334
 31
0.0
  0
LINE
  5
154
330
150
100
AcDbEntity
  8
1
 62
   133
100
AcDbLine
 10
1519.224775120904
 20
1348.493058803334
 30
0.0
 11
1520.724775120904
 21
1348.493058803334
 31
0.0
  0
LINE
  5
155
330
150
100
AcDbEntity
  8
1
 62
   133
100
AcDbLine
 10
1520.724775120904
 20
1348.493058803334
 30
0.0
 11
1520.724775120904
 21
1350.093058803334
 31
0.0
  0
LINE
  5
156
330
150
100
AcDbEntity
  8
1
 62
   133
100
AcDbLine
 10
1532.024775120904
 20
1347.693058803334
 30
0.0
 11
1530.524775120904
 21
1347.693058803334
 31
0.0
  0
LINE
  5
157
330
150
100
AcDbEntity
  8
1
 62
   133
100
AcDbLine
 10
1530.524775120904
 20
1347.693058803334
 30
0.0
 11
1530.524775120904
 21
1346.093058803334
 31
0.0
  0
LINE
  5
158
330
150
100
AcDbEntity
  8
1
 62
   133
100
AcDbLine
 10
1530.524775120904
 20
1348.493058803334
 30
0.0
 11
1532.024775120904
 21
1348.493058803334
 31
0.0
  0
LINE
  5
159
330
150
100
AcDbEntity
  8
1
 62
   133
100
AcDbLine
 10
1530.524775120904
 20
1350.093058803334
 30
0.0
 11
1530.524775120904
 21
1348.493058803334
 31
0.0
  0
LINE
  5
15A
330
150
100
AcDbEntity
  8
1
 62
     7
100
AcDbLine
 10
1524.874775120904
 20
1350.093058803334
 30
0.0
 11
1524.874775120904
 21
1346.093058803334
 31
0.0
  0
LINE
  5
15B
330
150
100
AcDbEntity
  8
1
 62
     7
100
AcDbLine
 10
1520.224775120904
 20
1351.093058803334
 30
0.0
 11
1523.874775120904
 21
1351.093058803334
 31
0.0
  0
LINE
  5
15C
330
150
100
AcDbEntity
  8
1
 62
     7
100
AcDbLine
 10
1519.224775120904
 20
1346.093058803334
 30
0.0
 11
1519.224775120904
 21
1350.093058803334
 31
0.0
  0
LINE
  5
15D
330
150
100
AcDbEntity
  8
1
 62
     7
100
AcDbLine
 10
1523.874775120904
 20
1345.093058803334
 30
0.0
 11
1520.224775120904
 21
1345.093058803334
 31
0.0
  0
LINE
  5
15E
330
150
100
AcDbEntity
  8
1
 62
     7
100
AcDbLine
 10
1526.374775120904
 20
1350.093058803334
 30
0.0
 11
1526.374775120904
 21
1346.093058803334
 31
0.0
  0
LINE
  5
15F
330
150
100
AcDbEntity
  8
1
 62
     7
100
AcDbLine
 10
1531.024775120904
 20
1351.093058803334
 30
0.0
 11
1527.374775120904
 21
1351.093058803334
 31
0.0
  0
LINE
  5
160
330
150
100
AcDbEntity
  8
1
 62
     7
100
AcDbLine
 10
1532.024775120904
 20
1346.093058803334
 30
0.0
 11
1532.024775120904
 21
1350.093058803334
 31
0.0
  0
LINE
  5
161
330
150
100
AcDbEntity
  8
1
 62
     7
100
AcDbLine
 10
1527.374775120904
 20
1345.093058803334
 30
0.0
 11
1531.024775120904
 21
1345.093058803334
 31
0.0
  0
LINE
  5
162
330
150
100
AcDbEntity
  8
1
 62
   133
100
AcDbLine
 10
1520.024775120904
 20
1343.093058803334
 30
0.0
 11
1520.024775120904
 21
1340.593058803334
 31
0.0
  0
LINE
  5
163
330
150
100
AcDbEntity
  8
1
 62
   133
100
AcDbLine
 10
1531.224775120904
 20
1353.093058803334
 30
0.0
 11
1531.224775120904
 21
1355.593058803334
 31
0.0
  0
LINE
  5
164
330
150
100
AcDbEntity
  8
1
 62
   133
100
AcDbLine
 10
1526.374775120904
 20
1352.593058803334
 30
0.0
 11
1526.374775120904
 21
1355.593058803334
 31
0.0
  0
LINE
  5
165
330
150
100
AcDbEntity
  8
1
 62
   133
100
AcDbLine
 10
1526.374775120904
 20
1343.593058803334
 30
0.0
 11
1526.374775120904
 21
1340.593058803334
 31
0.0
  0
LINE
  5
166
330
150
100
AcDbEntity
  8
1
 62
     3
100
AcDbLine
 10
1524.324775120904
 20
1332.093058803334
 30
0.0
 11
1523.024775120904
 21
1334.693058803334
 31
0.0
  0
LINE
  5
167
330
150
100
AcDbEntity
  8
1
 62
     3
100
AcDbLine
 10
1521.724775120904
 20
1332.093058803334
 30
0.0
 11
1524.324775120904
 21
1332.093058803334
 31
0.0
  0
LINE
  5
168
330
150
100
AcDbEntity
  8
1
 62
     3
100
AcDbLine
 10
1523.024775120904
 20
1334.693058803334
 30
0.0
 11
1521.724775120904
 21
1332.093058803334
 31
0.0
  0
LINE
  5
169
330
150
100
AcDbEntity
  8
1
 62
     3
100
AcDbLine
 10
1523.024775120904
 20
1359.793058803334
 30
0.0
 11
1524.324775120904
 21
1362.393058803334
 31
0.0
  0
LINE
  5
16A
330
150
100
AcDbEntity
  8
1
 62
     3
100
AcDbLine
 10
1524.324775120904
 20
1362.393058803334
 30
0.0
 11
1521.724775120904
 21
1362.393058803334
 31
0.0
  0
LINE
  5
16B
330
150
100
AcDbEntity
  8
1
 62
     3
100
AcDbLine
 10
1521.724775120904
 20
1362.393058803334
 30
0.0
 11
1523.024775120904
 21
1359.793058803334
 31
0.0
  0
LINE
  5
16C
330
150
100
AcDbEntity
  8
1
 62
     7
100
AcDbLine
 10
1663.874775120904
 20
1369.093058803334
 30
0.0
 11
1663.874775120904
 21
1349.493058803334
 31
0.0
  0
LINE
  5
16D
330
150
100
AcDbEntity
  8
1
 62
     7
100
AcDbLine
 10
1664.374775120904
 20
1327.093058803334
 30
0.0
 11
1664.374775120904
 21
1346.193058803334
 31
0.0
  0
LINE
  5
16E
330
150
100
AcDbEntity
  8
1
 62
     7
100
AcDbLine
 10
1663.874775120904
 20
1349.493058803334
 30
0.0
 11
1670.274775120904
 21
1349.493058803334
 31
0.0
  0
LINE
  5
16F
330
150
100
AcDbEntity
  8
1
 62
     7
100
AcDbLine
 10
1670.274775120904
 20
1346.693058803334
 30
0.0
 11
1663.874775120904
 21
1346.693058803334
 31
0.0
  0
LINE
  5
170
330
150
100
AcDbEntity
  8
1
 62
     7
100
AcDbLine
 10
1664.374775120904
 20
1349.993058803334
 30
0.0
 11
1670.274775120904
 21
1349.993058803334
 31
0.0
  0
LINE
  5
171
330
150
100
AcDbEntity
  8
1
 62
     7
100
AcDbLine
 10
1670.274775120904
 20
1346.193058803334
 30
0.0
 11
1664.374775120904
 21
1346.193058803334
 31
0.0
  0
LINE
  5
172
330
150
100
AcDbEntity
  8
1
 62
     7
100
AcDbLine
 10
1520.724775120904
 20
1355.593058803334
 30
0.0
 11
1520.724775120904
 21
1359.593058803334
 31
0.0
  0
LINE
  5
173
330
150
100
AcDbEntity
  8
1
 62
     7
100
AcDbLine
 10
1530.524775120904
 20
1355.593058803334
 30
0.0
 11
1530.524775120904
 21
1359.593058803334
 31
0.0
  0
LINE
  5
174
330
150
100
AcDbEntity
  8
1
 62
     7
100
AcDbLine
 10
1520.724775120904
 20
1359.593058803334
 30
0.0
 11
1530.524775120904
 21
1359.593058803334
 31
0.0
  0
LINE
  5
175
330
150
100
AcDbEntity
  8
1
 62
     7
100
AcDbLine
 10
1530.524775120904
 20
1357.593058803334
 30
0.0
 11
1520.724775120904
 21
1357.593058803334
 31
0.0
  0
LINE
  5
176
330
150
100
AcDbEntity
  8
1
 62
     7
100
AcDbLine
 10
1519.224775120904
 20
1355.593058803334
 30
0.0
 11
1532.024775120904
 21
1355.593058803334
 31
0.0
  0
LINE
  5
177
330
150
100
AcDbEntity
  8
1
 62
     7
100
AcDbLine
 10
1520.724775120904
 20
1338.593058803334
 30
0.0
 11
1530.524775120904
 21
1338.593058803334
 31
0.0
  0
LINE
  5
178
330
150
100
AcDbEntity
  8
1
 62
     7
100
AcDbLine
 10
1520.724775120904
 20
1336.593058803334
 30
0.0
 11
1520.724775120904
 21
1340.593058803334
 31
0.0
  0
LINE
  5
179
330
150
100
AcDbEntity
  8
1
 62
     7
100
AcDbLine
 10
1530.524775120904
 20
1340.593058803334
 30
0.0
 11
1530.524775120904
 21
1336.593058803334
 31
0.0
  0
LINE
  5
17A
330
150
100
AcDbEntity
  8
1
 62
     7
100
AcDbLine
 10
1532.024775120904
 20
1340.593058803334
 30
0.0
 11
1519.224775120904
 21
1340.593058803334
 31
0.0
  0
LINE
  5
17B
330
150
100
AcDbEntity
  8
1
 62
     7
100
AcDbLine
 10
1520.724775120904
 20
1336.593058803334
 30
0.0
 11
1530.524775120904
 21
1336.593058803334
 31
0.0
  0
LINE
  5
17C
330
150
100
AcDbEntity
  8
1
 62
     7
100
AcDbLine
 10
1532.024775120904
 20
1361.193058803334
 30
0.0
 11
1532.024775120904
 21
1352.593058803334
 31
0.0
  0
LINE
  5
17D
330
150
100
AcDbEntity
  8
1
 62
     7
100
AcDbLine
 10
1532.024775120904
 20
1352.593058803334
 30
0.0
 11
1519.224775120904
 21
1352.593058803334
 31
0.0
  0
LINE
  5
17E
330
150
100
AcDbEntity
  8
1
 62
     7
100
AcDbLine
 10
1519.224775120904
 20
1328.093058803334
 30
0.0
 11
1519.224775120904
 21
1343.593058803334
 31
0.0
  0
LINE
  5
17F
330
150
100
AcDbEntity
  8
1
 62
     7
100
AcDbLine
 10
1519.224775120904
 20
1343.593058803334
 30
0.0
 11
1532.024775120904
 21
1343.593058803334
 31
0.0
  0
LINE
  5
180
330
150
100
AcDbEntity
  8
1
 62
     7
100
AcDbLine
 10
1519.224775120904
 20
1352.593058803334
 30
0.0
 11
1519.224775120904
 21
1361.193058803334
 31
0.0
  0
LINE
  5
181
330
150
100
AcDbEntity
  8
1
 62
     7
100
AcDbLine
 10
1532.024775120904
 20
1343.593058803334
 30
0.0
 11
1532.024775120904
 21
1328.093058803334
 31
0.0
  0
LINE
  5
182
330
150
100
AcDbEntity
  8
1
 62
     7
100
AcDbLine
 10
1519.224775120904
 20
1328.093058803334
 30
0.0
 11
1532.024775120904
 21
1328.093058803334
 31
0.0
  0
LINE
  5
183
330
150
100
AcDbEntity
  8
1
 62
     7
100
AcDbLine
 10
1663.874775120904
 20
1346.693058803334
 30
0.0
 11
1663.874775120904
 21
1326.593058803334
 31
0.0
  0
LINE
  5
184
330
150
100
AcDbEntity
  8
1
 62
     7
100
AcDbLine
 10
1663.874775120904
 20
1369.093058803334
 30
0.0
 11
1664.374775120904
 21
1368.593058803334
 31
0.0
  0
LINE
  5
185
330
150
100
AcDbEntity
  8
1
 62
     7
100
AcDbLine
 10
1663.874775120904
 20
1326.593058803334
 30
0.0
 11
1664.374775120904
 21
1327.093058803334
 31
0.0
  0
LINE
  5
186
330
150
100
AcDbEntity
  8
1
 62
     7
100
AcDbLine
 10
1664.374775120904
 20
1349.993058803334
 30
0.0
 11
1664.374775120904
 21
1368.593058803334
 31
0.0
  0
LINE
  5
187
330
150
100
AcDbEntity
  8
1
 62
     7
100
AcDbLine
 10
1657.374775120904
 20
1369.093058803334
 30
0.0
 11
1657.374775120904
 21
1326.593058803334
 31
0.0
  0
LINE
  5
188
330
150
100
AcDbEntity
  8
1
 62
     7
100
AcDbLine
 10
1663.874775120904
 20
1369.093058803334
 30
0.0
 11
1657.374775120904
 21
1369.093058803334
 31
0.0
  0
LINE
  5
189
330
150
100
AcDbEntity
  8
1
 62
     7
100
AcDbLine
 10
1657.374775120904
 20
1326.593058803334
 30
0.0
 11
1663.874775120904
 21
1326.593058803334
 31
0.0
  0
LINE
  5
18A
330
150
100
AcDbEntity
  8
1
 62
     7
100
AcDbLine
 10
1533.524775120904
 20
1361.193058803334
 30
0.0
 11
1533.524775120904
 21
1326.593058803334
 31
0.0
  0
LINE
  5
18B
330
150
100
AcDbEntity
  8
1
 62
     7
100
AcDbLine
 10
1517.724775120904
 20
1326.593058803334
 30
0.0
 11
1517.724775120904
 21
1361.193058803334
 31
0.0
  0
LINE
  5
18C
330
150
100
AcDbEntity
  8
1
 62
     7
100
AcDbLine
 10
1533.524775120904
 20
1326.593058803334
 30
0.0
 11
1517.724775120904
 21
1326.593058803334
 31
0.0
  0
LINE
  5
18D
330
150
100
AcDbEntity
  8
1
 62
   133
100
AcDbLine
 10
1531.224775120904
 20
1340.593058803334
 30
0.0
 11
1531.224775120904
 21
1343.093058803334
 31
0.0
  0
LINE
  5
18E
330
150
100
AcDbEntity
  8
1
 62
   133
100
AcDbLine
 10
1524.874775120904
 20
1340.593058803334
 30
0.0
 11
1524.874775120904
 21
1343.593058803334
 31
0.0
  0
LINE
  5
18F
330
150
100
AcDbEntity
  8
1
 62
   133
100
AcDbLine
 10
1524.874775120904
 20
1355.593058803334
 30
0.0
 11
1524.874775120904
 21
1352.593058803334
 31
0.0
  0
LINE
  5
190
330
150
100
AcDbEntity
  8
1
 62
   133
100
AcDbLine
 10
1520.024775120904
 20
1355.593058803334
 30
0.0
 11
1520.024775120904
 21
1353.093058803334
 31
0.0
  0
LINE
  5
191
330
150
100
AcDbEntity
  8
1
 62
     7
100
AcDbLine
 10
1663.874775120904
 20
1349.493058803334
 30
0.0
 11
1664.374775120904
 21
1349.993058803334
 31
0.0
  0
LINE
  5
192
330
150
100
AcDbEntity
  8
1
 62
     7
100
AcDbLine
 10
1664.374775120904
 20
1346.193058803334
 30
0.0
 11
1663.874775120904
 21
1346.693058803334
 31
0.0
  0
ARC
  5
193
330
150
100
AcDbEntity
  8
1
 62
   133
100
AcDbCircle
 10
1521.724775120904
 20
1346.093058803334
 30
0.0
 40
1.0
100
AcDbArc
 50
180.0
 51
270.0
  0
ARC
  5
194
330
150
100
AcDbEntity
  8
1
 62
   133
100
AcDbCircle
 10
1521.724775120904
 20
1350.093058803334
 30
0.0
 40
1.0
100
AcDbArc
 50
90.0
 51
180.0
  0
ARC
  5
195
330
150
100
AcDbEntity
  8
1
 62
   133
100
AcDbCircle
 10
1529.524775120904
 20
1346.093058803334
 30
0.0
 40
1.0
100
AcDbArc
 50
270.0
 51
0.0
  0
ARC
  5
196
330
150
100
AcDbEntity
  8
1
 62
   133
100
AcDbCircle
 10
1529.524775120904
 20
1350.093058803334
 30
0.0
 40
1.0
100
AcDbArc
 50
0.0
 51
90.0
  0
ARC
  5
197
330
150
100
AcDbEntity
  8
1
 62
   133
100
AcDbCircle
 10
1519.524775120904
 20
1343.093058803334
 30
0.0
 40
0.5
100
AcDbArc
 50
0.0
 51
90.0
  0
ARC
  5
198
330
150
100
AcDbEntity
  8
1
 62
   133
100
AcDbCircle
 10
1531.724775120904
 20
1343.093058803334
 30
0.0
 40
0.5
100
AcDbArc
 50
90.0
 51
180.0
  0
ARC
  5
199
330
150
100
AcDbEntity
  8
1
 62
   133
100
AcDbCircle
 10
1519.524775120904
 20
1353.093058803334
 30
0.0
 40
0.5
100
AcDbArc
 50
270.0
 51
0.0
  0
ARC
  5
19A
330
150
100
AcDbEntity
  8
1
 62
   133
100
AcDbCircle
 10
1531.724775120904
 20
1353.093058803334
 30
0.0
 40
0.5
100
AcDbArc
 50
180.0
 51
270.0
  0
ARC
  5
19B
330
150
100
AcDbEntity
  8
1
 62
     7
100
AcDbCircle
 10
1670.274775120904
 20
1348.093058803334
 30
0.0
 40
1.40000000000009
100
AcDbArc
 50
270.0
 51
90.0
  0
ARC
  5
19C
330
150
100
AcDbEntity
  8
1
 62
     7
100
AcDbCircle
 10
1670.274775120904
 20
1348.093058803334
 30
0.0
 40
1.90000000000009
100
AcDbArc
 50
270.0
 51
90.0
  0
ARC
  5
19D
330
150
100
AcDbEntity
  8
1
 62
     7
100
AcDbCircle
 10
1525.624775120904
 20
1361.193058803334
 30
0.0
 40
6.40000000000009
100
AcDbArc
 50
0.0
 51
180.0
  0
ARC
  5
19E
330
150
100
AcDbEntity
  8
1
 62
     7
100
AcDbCircle
 10
1525.624775120904
 20
1361.193058803334
 30
0.0
 40
7.90000000000009
100
AcDbArc
 50
0.0
 51
180.0
  0
ARC
  5
19F
330
150
100
AcDbEntity
  8
1
 62
     7
100
AcDbCircle
 10
1520.224775120904
 20
1350.093058803334
 30
0.0
 40
1.0
100
AcDbArc
 50
90.0
 51
180.0
  0
ARC
  5
1A0
330
150
100
AcDbEntity
  8
1
 62
     7
100
AcDbCircle
 10
1520.224775120904
 20
1346.093058803334
 30
0.0
 40
1.0
100
AcDbArc
 50
180.0
 51
270.0
  0
ARC
  5
1A1
330
150
100
AcDbEntity
  8
1
 62
     7
100
AcDbCircle
 10
1523.874775120904
 20
1346.093058803334
 30
0.0
 40
1.0
100
AcDbArc
 50
270.0
 51
0.0
  0
ARC
  5
1A2
330
150
100
AcDbEntity
  8
1
 62
     7
100
AcDbCircle
 10
1523.874775120904
 20
1350.093058803334
 30
0.0
 40
1.0
100
AcDbArc
 50
0.0
 51
90.0
  0
ARC
  5
1A3
330
150
100
AcDbEntity
  8
1
 62
     7
100
AcDbCircle
 10
1527.374775120904
 20
1350.093058803334
 30
0.0
 40
1.0
100
AcDbArc
 50
90.0
 51
180.0
  0
ARC
  5
1A4
330
150
100
AcDbEntity
  8
1
 62
     7
100
AcDbCircle
 10
1527.374775120904
 20
1346.093058803334
 30
0.0
 40
1.0
100
AcDbArc
 50
180.0
 51
270.0
  0
ARC
  5
1A5
330
150
100
AcDbEntity
  8
1
 62
     7
100
AcDbCircle
 10
1531.024775120904
 20
1346.093058803334
 30
0.0
 40
1.0
100
AcDbArc
 50
270.0
 51
0.0
  0
ARC
  5
1A6
330
150
100
AcDbEntity
  8
1
 62
     7
100
AcDbCircle
 10
1531.024775120904
 20
1350.093058803334
 30
0.0
 40
1.0
100
AcDbArc
 50
0.0
 51
90.0
  0
TEXT
  5
1A7
330
150
100
AcDbEntity
  8
1
 62
     3
100
AcDbText
 10
1527.617275120904
 20
1332.043058803334
 30
0.0
 40
2.7
  1
す
 41
0.9
 72
     1
 11
1528.224775120904
 21
1333.393058803334
 31
0.0
100
AcDbText
 73
     2
  0
TEXT
  5
1A8
330
150
100
AcDbEntity
  8
1
 62
     3
100
AcDbText
 10
1525.039775120904
 20
1332.093058803334
 30
0.0
 40
2.6
  1
外
 41
0.9
 72
     1
 11
1525.624775120904
 21
1333.393058803334
 31
0.0
100
AcDbText
 73
     2
  0
TEXT
  5
1A9
330
150
100
AcDbEntity
  8
1
 62
     3
100
AcDbText
 10
1527.617275120904
 20
1359.743058803334
 30
0.0
 40
2.7
  1
す
 41
0.9
 72
     1
 11
1528.224775120904
 21
1361.093058803334
 31
0.0
100
AcDbText
 73
     2
  0
TEXT
  5
1AA
330
150
100
AcDbEntity
  8
1
 62
     3
100
AcDbText
 10
1525.039775120904
 20
1359.793058803334
 30
0.0
 40
2.6
  1
外
 41
0.9
 72
     1
 11
1525.624775120904
 21
1361.093058803334
 31
0.0
100
AcDbText
 73
     2
  0
ENDBLK
  5
1AB
330
150
100
AcDbEntity
  8
0
100
AcDbBlockEnd
  0
BLOCK
  5
1AD
330
1AC
100
AcDbEntity
  8
0
100
AcDbBlockBegin
  2
_4
 70
     0
 10
1488.63537108553
 20
1663.394582566781
 30
0.0
  3
_4
  1

  0
LINE
  5
1AE
330
1AC
100
AcDbEntity
  8
1
 62
     7
100
AcDbLine
 10
1690.074775120904
 20
1320.593058803334
 30
0.0
 11
1684.674775120904
 21
1320.593058803334
 31
0.0
  0
LINE
  5
1AF
330
1AC
100
AcDbEntity
  8
1
 62
     7
100
AcDbLine
 10
1690.374775120904
 20
1326.593058803334
 30
0.0
 11
1690.374775120904
 21
1320.893058803334
 31
0.0
  0
LINE
  5
1B0
330
1AC
100
AcDbEntity
  8
1
 62
     7
100
AcDbLine
 10
1690.074775120904
 20
1320.593058803334
 30
0.0
 11
1684.674775120904
 21
1320.593058803334
 31
0.0
  0
LINE
  5
1B1
330
1AC
100
AcDbEntity
  8
1
 62
     7
100
AcDbLine
 10
1684.374775120904
 20
1320.893058803334
 30
0.0
 11
1684.374775120904
 21
1326.593058803334
 31
0.0
  0
LINE
  5
1B2
330
1AC
100
AcDbEntity
  8
1
 62
     7
100
AcDbLine
 10
1522.624775120904
 20
1320.893058803334
 30
0.0
 11
1522.624775120904
 21
1326.593058803334
 31
0.0
  0
LINE
  5
1B3
330
1AC
100
AcDbEntity
  8
1
 62
     7
100
AcDbLine
 10
1528.324775120904
 20
1320.593058803334
 30
0.0
 11
1522.924775120904
 21
1320.593058803334
 31
0.0
  0
LINE
  5
1B4
330
1AC
100
AcDbEntity
  8
1
 62
     7
100
AcDbLine
 10
1528.624775120904
 20
1326.593058803334
 30
0.0
 11
1528.624775120904
 21
1320.893058803334
 31
0.0
  0
LINE
  5
1B5
330
1AC
100
AcDbEntity
  8
1
 62
     7
100
AcDbLine
 10
1528.324775120904
 20
1320.593058803334
 30
0.0
 11
1522.924775120904
 21
1320.593058803334
 31
0.0
  0
ARC
  5
1B6
330
1AC
100
AcDbEntity
  8
1
 62
     7
100
AcDbCircle
 10
1690.074775120904
 20
1320.893058803334
 30
0.0
 40
0.2999999999999545
100
AcDbArc
 50
270.0
 51
0.0
  0
ARC
  5
1B7
330
1AC
100
AcDbEntity
  8
1
 62
     7
100
AcDbCircle
 10
1684.674775120904
 20
1320.893058803334
 30
0.0
 40
0.3000000000001819
100
AcDbArc
 50
180.0
 51
270.0
  0
ARC
  5
1B8
330
1AC
100
AcDbEntity
  8
1
 62
     7
100
AcDbCircle
 10
1690.074775120904
 20
1320.893058803334
 30
0.0
 40
0.2999999999999545
100
AcDbArc
 50
270.0
 51
0.0
  0
ARC
  5
1B9
330
1AC
100
AcDbEntity
  8
1
 62
     7
100
AcDbCircle
 10
1684.674775120904
 20
1320.893058803334
 30
0.0
 40
0.3000000000001819
100
AcDbArc
 50
180.0
 51
270.0
  0
ARC
  5
1BA
330
1AC
100
AcDbEntity
  8
1
 62
     7
100
AcDbCircle
 10
1522.924775120904
 20
1320.893058803334
 30
0.0
 40
0.3000000000001819
100
AcDbArc
 50
180.0
 51
270.0
  0
ARC
  5
1BB
330
1AC
100
AcDbEntity
  8
1
 62
     7
100
AcDbCircle
 10
1528.324775120904
 20
1320.893058803334
 30
0.0
 40
0.2999999999999545
100
AcDbArc
 50
270.0
 51
0.0
  0
ARC
  5
1BC
330
1AC
100
AcDbEntity
  8
1
 62
     7
100
AcDbCircle
 10
1522.924775120904
 20
1320.893058803334
 30
0.0
 40
0.3000000000001819
100
AcDbArc
 50
180.0
 51
270.0
  0
ARC
  5
1BD
330
1AC
100
AcDbEntity
  8
1
 62
     7
100
AcDbCircle
 10
1528.324775120904
 20
1320.893058803334
 30
0.0
 40
0.2999999999999545
100
AcDbArc
 50
270.0
 51
0.0
  0
ENDBLK
  5
1BE
330
1AC
100
AcDbEntity
  8
0
100
AcDbBlockEnd
  0
BLOCK
  5
1C0
330
1BF
100
AcDbEntity
  8
0
100
AcDbBlockBegin
  2
______
 70
     0
 10
2977.656133403442
 20
1488.503465444209
 30
0.0
  3
______
  1

  0
LINE
  5
1C1
330
1BF
100
AcDbEntity
  8
1
 62
     5
100
AcDbLine
 10
2765.236169694385
 20
1497.917997989959
 30
0.0
 11
2750.236169694384
 21
1497.917997989959
 31
0.0
  0
LINE
  5
1C2
330
1BF
100
AcDbEntity
  8
1
 62
     5
100
AcDbLine
 10
2750.236169694384
 20
1490.917997989959
 30
0.0
 11
2750.236169694384
 21
1497.917997989959
 31
0.0
  0
LINE
  5
1C3
330
1BF
100
AcDbEntity
  8
1
 62
     5
100
AcDbLine
 10
2765.236169694385
 20
1497.917997989959
 30
0.0
 11
2765.236169694385
 21
1490.917997989959
 31
0.0
  0
LINE
  5
1C4
330
1BF
100
AcDbEntity
  8
1
 62
     5
100
AcDbLine
 10
2765.236169694385
 20
1497.917997989959
 30
0.0
 11
2815.236169694384
 21
1497.917997989959
 31
0.0
  0
LINE
  5
1C5
330
1BF
100
AcDbEntity
  8
1
 62
     5
100
AcDbLine
 10
2845.236169694384
 20
1497.917997989959
 30
0.0
 11
2815.236169694384
 21
1497.917997989959
 31
0.0
  0
LINE
  5
1C6
330
1BF
100
AcDbEntity
  8
1
 62
     5
100
AcDbLine
 10
2815.236169694384
 20
1497.917997989959
 30
0.0
 11
2815.236169694384
 21
1490.917997989959
 31
0.0
  0
LINE
  5
1C7
330
1BF
100
AcDbEntity
  8
1
 62
     5
100
AcDbLine
 10
2845.236169694384
 20
1497.917997989959
 30
0.0
 11
2845.236169694384
 21
1490.917997989959
 31
0.0
  0
LINE
  5
1C8
330
1BF
100
AcDbEntity
  8
1
 62
     5
100
AcDbLine
 10
2900.236169694384
 20
1497.917997989959
 30
0.0
 11
2930.236169694384
 21
1497.917997989959
 31
0.0
  0
LINE
  5
1C9
330
1BF
100
AcDbEntity
  8
1
 62
     5
100
AcDbLine
 10
2900.236169694384
 20
1497.917997989959
 30
0.0
 11
2900.236169694384
 21
1490.917997989959
 31
0.0
  0
LINE
  5
1CA
330
1BF
100
AcDbEntity
  8
1
 62
     5
100
AcDbLine
 10
2860.236169694384
 20
1497.917997989959
 30
0.0
 11
2860.236169694384
 21
1490.917997989959
 31
0.0
  0
LINE
  5
1CB
330
1BF
100
AcDbEntity
  8
1
 62
     5
100
AcDbLine
 10
2900.236169694384
 20
1497.917997989959
 30
0.0
 11
2860.236169694384
 21
1497.917997989959
 31
0.0
  0
LINE
  5
1CC
330
1BF
100
AcDbEntity
  8
1
 62
     5
100
AcDbLine
 10
2860.236169694384
 20
1497.917997989959
 30
0.0
 11
2845.236169694384
 21
1497.917997989959
 31
0.0
  0
LINE
  5
1CD
330
1BF
100
AcDbEntity
  8
1
 62
     7
100
AcDbLine
 10
2750.236169694384
 20
1424.917997989959
 30
0.0
 11
2843.236169694384
 21
1424.917997989959
 31
0.0
  0
LINE
  5
1CE
330
1BF
100
AcDbEntity
  8
1
 62
     7
100
AcDbLine
 10
2930.236169694384
 20
1424.917997989959
 30
0.0
 11
2930.236169694384
 21
1439.917997989959
 31
0.0
  0
LINE
  5
1CF
330
1BF
100
AcDbEntity
  8
1
 62
     7
100
AcDbLine
 10
2750.236169694384
 20
1469.917997989959
 30
0.0
 11
2750.236169694384
 21
1459.917997989959
 31
0.0
  0
LINE
  5
1D0
330
1BF
100
AcDbEntity
  8
1
 62
     7
100
AcDbLine
 10
2843.236169694384
 20
1469.917997989959
 30
0.0
 11
2843.236169694384
 21
1462.917997989959
 31
0.0
  0
LINE
  5
1D1
330
1BF
100
AcDbEntity
  8
1
 62
     7
100
AcDbLine
 10
2843.236169694384
 20
1424.917997989959
 30
0.0
 11
2850.236169694384
 21
1424.917997989959
 31
0.0
  0
LINE
  5
1D2
330
1BF
100
AcDbEntity
  8
1
 62
     7
100
AcDbLine
 10
2850.236169694384
 20
1469.917997989959
 30
0.0
 11
2850.236169694384
 21
1424.917997989959
 31
0.0
  0
LINE
  5
1D3
330
1BF
100
AcDbEntity
  8
1
 62
     7
100
AcDbLine
 10
2850.236169694384
 20
1424.917997989959
 30
0.0
 11
2930.236169694384
 21
1424.917997989959
 31
0.0
  0
LINE
  5
1D4
330
1BF
100
AcDbEntity
  8
1
 62
     7
100
AcDbLine
 10
2843.236169694384
 20
1454.917997989959
 30
0.0
 11
2930.236169694384
 21
1454.917997989959
 31
0.0
  0
LINE
  5
1D5
330
1BF
100
AcDbEntity
  8
1
 62
     7
100
AcDbLine
 10
2843.236169694384
 20
1454.917997989959
 30
0.0
 11
2843.236169694384
 21
1451.917997989959
 31
0.0
  0
LINE
  5
1D6
330
1BF
100
AcDbEntity
  8
1
 62
     7
100
AcDbLine
 10
2930.236169694384
 20
1454.917997989959
 30
0.0
 11
2930.236169694384
 21
1469.917997989959
 31
0.0
  0
LINE
  5
1D7
330
1BF
100
AcDbEntity
  8
1
 62
     7
100
AcDbLine
 10
2843.236169694384
 20
1439.917997989959
 30
0.0
 11
2930.236169694384
 21
1439.917997989959
 31
0.0
  0
LINE
  5
1D8
330
1BF
100
AcDbEntity
  8
1
 62
     7
100
AcDbLine
 10
2843.236169694384
 20
1439.917997989959
 30
0.0
 11
2843.236169694384
 21
1424.917997989959
 31
0.0
  0
LINE
  5
1D9
330
1BF
100
AcDbEntity
  8
1
 62
     7
100
AcDbLine
 10
2930.236169694384
 20
1439.917997989959
 30
0.0
 11
2930.236169694384
 21
1454.917997989959
 31
0.0
  0
LINE
  5
1DA
330
1BF
100
AcDbEntity
  8
1
 62
     7
100
AcDbLine
 10
2783.236169694384
 20
1469.917997989959
 30
0.0
 11
2783.236169694384
 21
1462.917997989959
 31
0.0
  0
LINE
  5
1DB
330
1BF
100
AcDbEntity
  8
1
 62
     7
100
AcDbLine
 10
2783.236169694384
 20
1469.917997989959
 30
0.0
 11
2803.236169694384
 21
1469.917997989959
 31
0.0
  0
LINE
  5
1DC
330
1BF
100
AcDbEntity
  8
1
 62
     7
100
AcDbLine
 10
2750.236169694384
 20
1444.917997989959
 30
0.0
 11
2803.236169694384
 21
1444.917997989959
 31
0.0
  0
LINE
  5
1DD
330
1BF
100
AcDbEntity
  8
1
 62
     7
100
AcDbLine
 10
2750.236169694384
 20
1444.917997989959
 30
0.0
 11
2750.236169694384
 21
1424.917997989959
 31
0.0
  0
LINE
  5
1DE
330
1BF
100
AcDbEntity
  8
1
 62
     7
100
AcDbLine
 10
2843.236169694384
 20
1444.917997989959
 30
0.0
 11
2843.236169694384
 21
1439.917997989959
 31
0.0
  0
LINE
  5
1DF
330
1BF
100
AcDbEntity
  8
1
 62
     7
100
AcDbLine
 10
2783.236169694384
 20
1462.917997989959
 30
0.0
 11
2843.236169694384
 21
1462.917997989959
 31
0.0
  0
LINE
  5
1E0
330
1BF
100
AcDbEntity
  8
1
 62
     7
100
AcDbLine
 10
2783.236169694384
 20
1462.917997989959
 30
0.0
 11
2783.236169694384
 21
1459.917997989959
 31
0.0
  0
LINE
  5
1E1
330
1BF
100
AcDbEntity
  8
1
 62
     7
100
AcDbLine
 10
2843.236169694384
 20
1462.917997989959
 30
0.0
 11
2843.236169694384
 21
1454.917997989959
 31
0.0
  0
LINE
  5
1E2
330
1BF
100
AcDbEntity
  8
1
 62
     7
100
AcDbLine
 10
2803.236169694384
 20
1469.917997989959
 30
0.0
 11
2803.236169694384
 21
1444.917997989959
 31
0.0
  0
LINE
  5
1E3
330
1BF
100
AcDbEntity
  8
1
 62
     7
100
AcDbLine
 10
2803.236169694384
 20
1444.917997989959
 30
0.0
 11
2823.236169694384
 21
1444.917997989959
 31
0.0
  0
LINE
  5
1E4
330
1BF
100
AcDbEntity
  8
1
 62
     7
100
AcDbLine
 10
2823.236169694384
 20
1469.917997989959
 30
0.0
 11
2823.236169694384
 21
1444.917997989959
 31
0.0
  0
LINE
  5
1E5
330
1BF
100
AcDbEntity
  8
1
 62
     7
100
AcDbLine
 10
2823.236169694384
 20
1469.917997989959
 30
0.0
 11
2843.236169694384
 21
1469.917997989959
 31
0.0
  0
LINE
  5
1E6
330
1BF
100
AcDbEntity
  8
1
 62
     7
100
AcDbLine
 10
2823.236169694384
 20
1444.917997989959
 30
0.0
 11
2843.236169694384
 21
1444.917997989959
 31
0.0
  0
LINE
  5
1E7
330
1BF
100
AcDbEntity
  8
1
 62
     7
100
AcDbLine
 10
2750.236169694384
 20
1459.917997989959
 30
0.0
 11
2783.236169694384
 21
1459.917997989959
 31
0.0
  0
LINE
  5
1E8
330
1BF
100
AcDbEntity
  8
1
 62
     7
100
AcDbLine
 10
2750.236169694384
 20
1459.917997989959
 30
0.0
 11
2750.236169694384
 21
1444.917997989959
 31
0.0
  0
LINE
  5
1E9
330
1BF
100
AcDbEntity
  8
1
 62
     7
100
AcDbLine
 10
2783.236169694384
 20
1459.917997989959
 30
0.0
 11
2783.236169694384
 21
1451.917997989959
 31
0.0
  0
LINE
  5
1EA
330
1BF
100
AcDbEntity
  8
1
 62
     7
100
AcDbLine
 10
2850.236169694384
 20
1469.917997989959
 30
0.0
 11
2930.236169694384
 21
1469.917997989959
 31
0.0
  0
LINE
  5
1EB
330
1BF
100
AcDbEntity
  8
1
 62
     7
100
AcDbLine
 10
2843.236169694384
 20
1469.917997989959
 30
0.0
 11
2850.236169694384
 21
1469.917997989959
 31
0.0
  0
LINE
  5
1EC
330
1BF
100
AcDbEntity
  8
1
 62
     7
100
AcDbLine
 10
2803.236169694384
 20
1469.917997989959
 30
0.0
 11
2823.236169694384
 21
1469.917997989959
 31
0.0
  0
LINE
  5
1ED
330
1BF
100
AcDbEntity
  8
1
 62
     7
100
AcDbLine
 10
2750.236169694384
 20
1469.917997989959
 30
0.0
 11
2783.236169694384
 21
1469.917997989959
 31
0.0
  0
LINE
  5
1EE
330
1BF
100
AcDbEntity
  8
1
 62
     5
100
AcDbLine
 10
2783.236169694384
 20
1451.917997989959
 30
0.0
 11
2843.236169694384
 21
1451.917997989959
 31
0.0
  0
LINE
  5
1EF
330
1BF
100
AcDbEntity
  8
1
 62
     7
100
AcDbLine
 10
2783.236169694384
 20
1451.917997989959
 30
0.0
 11
2783.236169694384
 21
1444.917997989959
 31
0.0
  0
LINE
  5
1F0
330
1BF
100
AcDbEntity
  8
1
 62
     7
100
AcDbLine
 10
2843.236169694384
 20
1451.917997989959
 30
0.0
 11
2843.236169694384
 21
1444.917997989959
 31
0.0
  0
LINE
  5
1F1
330
1BF
100
AcDbEntity
  8
1
 62
     7
100
AcDbLine
 10
2754.420803440093
 20
1433.566027124166
 30
0.0
 11
2752.747060952268
 21
1433.566027124166
 31
0.0
  0
LINE
  5
1F2
330
1BF
100
AcDbEntity
  8
1
 62
     7
100
AcDbLine
 10
2752.747060952268
 20
1433.566027124166
 30
0.0
 11
2752.747060952268
 21
1433.984462746122
 31
0.0
  0
LINE
  5
1F3
330
1BF
100
AcDbEntity
  8
1
 62
     7
100
AcDbLine
 10
2752.851669857757
 20
1434.089071651611
 30
0.0
 11
2753.107992215445
 21
1434.089071651611
 31
0.0
  0
LINE
  5
1F4
330
1BF
100
AcDbEntity
  8
1
 62
     7
100
AcDbLine
 10
2753.358087200033
 20
1434.274132205266
 30
0.0
 11
2755.348366236408
 21
1440.784041602907
 31
0.0
  0
LINE
  5
1F5
330
1BF
100
AcDbEntity
  8
1
 62
     7
100
AcDbLine
 10
2755.348366236408
 20
1440.784041602907
 30
0.0
 11
2757.052606270971
 21
1440.784041602907
 31
0.0
  0
LINE
  5
1F6
330
1BF
100
AcDbEntity
  8
1
 62
     7
100
AcDbLine
 10
2757.052606270971
 20
1440.784041602907
 30
0.0
 11
2759.042885307346
 21
1434.274132205266
 31
0.0
  0
LINE
  5
1F7
330
1BF
100
AcDbEntity
  8
1
 62
     7
100
AcDbLine
 10
2759.292980291935
 20
1434.089071651611
 30
0.0
 11
2759.651248714543
 21
1434.089071651611
 31
0.0
  0
LINE
  5
1F8
330
1BF
100
AcDbEntity
  8
1
 62
     7
100
AcDbLine
 10
2759.755857620032
 20
1433.984462746122
 30
0.0
 11
2759.755857620032
 21
1433.566027124166
 31
0.0
  0
LINE
  5
1F9
330
1BF
100
AcDbEntity
  8
1
 62
     7
100
AcDbLine
 10
2759.755857620032
 20
1433.566027124166
 30
0.0
 11
2756.61759045536
 21
1433.566027124166
 31
0.0
  0
LINE
  5
1FA
330
1BF
100
AcDbEntity
  8
1
 62
     7
100
AcDbLine
 10
2756.61759045536
 20
1433.566027124166
 30
0.0
 11
2756.61759045536
 21
1433.984462746122
 31
0.0
  0
LINE
  5
1FB
330
1BF
100
AcDbEntity
  8
1
 62
     7
100
AcDbLine
 10
2756.722199360849
 20
1434.089071651611
 30
0.0
 11
2757.01180929529
 21
1434.089071651611
 31
0.0
  0
LINE
  5
1FC
330
1BF
100
AcDbEntity
  8
1
 62
     7
100
AcDbLine
 10
2757.211885282961
 20
1434.359458830643
 30
0.0
 11
2756.700170851572
 21
1436.033201318467
 31
0.0
  0
LINE
  5
1FD
330
1BF
100
AcDbEntity
  8
1
 62
     7
100
AcDbLine
 10
2756.500094863901
 20
1436.181249761391
 30
0.0
 11
2754.604204677959
 21
1436.181249761391
 31
0.0
  0
LINE
  5
1FE
330
1BF
100
AcDbEntity
  8
1
 62
     7
100
AcDbLine
 10
2754.454147687206
 20
1436.070213429198
 30
0.0
 11
2753.910451103855
 21
1434.291862035885
 31
0.0
  0
LINE
  5
1FF
330
1BF
100
AcDbEntity
  8
1
 62
     7
100
AcDbLine
 10
2754.060508094608
 20
1434.089071651611
 30
0.0
 11
2754.316194534603
 21
1434.089071651611
 31
0.0
  0
LINE
  5
200
330
1BF
100
AcDbEntity
  8
1
 62
     7
100
AcDbLine
 10
2754.420803440093
 20
1433.984462746122
 30
0.0
 11
2754.420803440093
 21
1433.566027124166
 31
0.0
  0
LINE
  5
201
330
1BF
100
AcDbEntity
  8
1
 62
     7
100
AcDbLine
 10
2755.421444409718
 20
1439.234098446878
 30
0.0
 11
2754.7100049029
 21
1436.90708467311
 31
0.0
  0
LINE
  5
202
330
1BF
100
AcDbEntity
  8
1
 62
     7
100
AcDbLine
 10
2754.860061893653
 20
1436.704294288836
 30
0.0
 11
2756.282940907289
 21
1436.704294288836
 31
0.0
  0
LINE
  5
203
330
1BF
100
AcDbEntity
  8
1
 62
     7
100
AcDbLine
 10
2756.432997898042
 20
1436.90708467311
 30
0.0
 11
2755.721558391224
 21
1439.234098446878
 31
0.0
  0
LINE
  5
204
330
1BF
100
AcDbEntity
  8
1
 62
     7
100
AcDbLine
 10
2762.214166899023
 20
1440.784041602907
 30
0.0
 11
2765.09091179997
 21
1440.784041602907
 31
0.0
  0
LINE
  5
205
330
1BF
100
AcDbEntity
  8
1
 62
     7
100
AcDbLine
 10
2765.09091179997
 20
1440.784041602907
 30
0.0
 11
2765.143079579753
 21
1439.171057405104
 31
0.0
  0
LINE
  5
206
330
1BF
100
AcDbEntity
  8
1
 62
     7
100
AcDbLine
 10
2764.632238584719
 20
1439.084080350231
 30
0.0
 11
2764.42306211373
 21
1439.748599746308
 31
0.0
  0
LINE
  5
207
330
1BF
100
AcDbEntity
  8
1
 62
     7
100
AcDbLine
 10
2763.724586981766
 20
1440.260997075462
 30
0.0
 11
2763.574082670381
 21
1440.260997075462
 31
0.0
  0
LINE
  5
208
330
1BF
100
AcDbEntity
  8
1
 62
     7
100
AcDbLine
 10
2763.207951501168
 20
1439.89486590625
 30
0.0
 11
2763.207951501168
 21
1434.350593915333
 31
0.0
  0
LINE
  5
209
330
1BF
100
AcDbEntity
  8
1
 62
     7
100
AcDbLine
 10
2763.469473764891
 20
1434.089071651611
 30
0.0
 11
2763.678691575869
 21
1434.089071651611
 31
0.0
  0
LINE
  5
20A
330
1BF
100
AcDbEntity
  8
1
 62
     7
100
AcDbLine
 10
2763.783300481357
 20
1433.984462746122
 30
0.0
 11
2763.783300481357
 21
1433.566027124166
 31
0.0
  0
LINE
  5
20B
330
1BF
100
AcDbEntity
  8
1
 62
     7
100
AcDbLine
 10
2763.783300481357
 20
1433.566027124166
 30
0.0
 11
2762.214166899023
 21
1433.566027124166
 31
0.0
  0
LINE
  5
20C
330
1BF
100
AcDbEntity
  8
1
 62
     7
100
AcDbLine
 10
2759.337421998074
 20
1440.784041602907
 30
0.0
 11
2762.214166899023
 21
1440.784041602907
 31
0.0
  0
LINE
  5
20D
330
1BF
100
AcDbEntity
  8
1
 62
     7
100
AcDbLine
 10
2759.285254218291
 20
1439.171057405104
 30
0.0
 11
2759.337421998074
 21
1440.784041602907
 31
0.0
  0
LINE
  5
20E
330
1BF
100
AcDbEntity
  8
1
 62
     7
100
AcDbLine
 10
2760.005271684314
 20
1439.748599746308
 30
0.0
 11
2759.796095213326
 21
1439.084080350231
 31
0.0
  0
LINE
  5
20F
330
1BF
100
AcDbEntity
  8
1
 62
     7
100
AcDbLine
 10
2760.854251127666
 20
1440.260997075462
 30
0.0
 11
2760.703746816278
 21
1440.260997075462
 31
0.0
  0
LINE
  5
210
330
1BF
100
AcDbEntity
  8
1
 62
     7
100
AcDbLine
 10
2761.220382296877
 20
1434.350593915333
 30
0.0
 11
2761.220382296877
 21
1439.89486590625
 31
0.0
  0
LINE
  5
211
330
1BF
100
AcDbEntity
  8
1
 62
     7
100
AcDbLine
 10
2760.749642222177
 20
1434.089071651611
 30
0.0
 11
2760.958860033155
 21
1434.089071651611
 31
0.0
  0
LINE
  5
212
330
1BF
100
AcDbEntity
  8
1
 62
     7
100
AcDbLine
 10
2760.645033316687
 20
1433.566027124166
 30
0.0
 11
2760.645033316687
 21
1433.984462746122
 31
0.0
  0
LINE
  5
213
330
1BF
100
AcDbEntity
  8
1
 62
     7
100
AcDbLine
 10
2762.214166899023
 20
1433.566027124166
 30
0.0
 11
2760.645033316687
 21
1433.566027124166
 31
0.0
  0
LINE
  5
214
330
1BF
100
AcDbEntity
  8
1
 62
     7
100
AcDbLine
 10
2771.553008059765
 20
1438.321564193415
 30
0.0
 11
2768.076433736907
 21
1434.844989870558
 31
0.0
  0
LINE
  5
215
330
1BF
100
AcDbEntity
  8
1
 62
     7
100
AcDbLine
 10
2766.892919073806
 20
1436.028504533658
 30
0.0
 11
2770.369493396664
 21
1439.505078856515
 31
0.0
  0
LINE
  5
216
330
1BF
100
AcDbEntity
  8
1
 62
     7
100
AcDbLine
 10
2776.597891403761
 20
1440.784041602907
 30
0.0
 11
2777.440109340699
 21
1437.640841471208
 31
0.0
  0
LINE
  5
217
330
1BF
100
AcDbEntity
  8
1
 62
     7
100
AcDbLine
 10
2777.743242671113
 20
1437.640841471208
 30
0.0
 11
2778.585460608051
 21
1440.784041602907
 31
0.0
  0
LINE
  5
218
330
1BF
100
AcDbEntity
  8
1
 62
     7
100
AcDbLine
 10
2774.767235557702
 20
1434.089071651611
 30
0.0
 11
2774.924148915936
 21
1434.089071651611
 31
0.0
  0
LINE
  5
219
330
1BF
100
AcDbEntity
  8
1
 62
     7
100
AcDbLine
 10
2775.028757821425
 20
1433.984462746122
 30
0.0
 11
2775.028757821425
 21
1433.566027124166
 31
0.0
  0
LINE
  5
21A
330
1BF
100
AcDbEntity
  8
1
 62
     7
100
AcDbLine
 10
2775.028757821425
 20
1433.566027124166
 30
0.0
 11
2773.564233144579
 21
1433.566027124166
 31
0.0
  0
LINE
  5
21B
330
1BF
100
AcDbEntity
  8
1
 62
     7
100
AcDbLine
 10
2773.564233144579
 20
1433.566027124166
 30
0.0
 11
2773.564233144579
 21
1433.984462746122
 31
0.0
  0
LINE
  5
21C
330
1BF
100
AcDbEntity
  8
1
 62
     7
100
AcDbLine
 10
2773.668842050068
 20
1434.089071651611
 30
0.0
 11
2773.93036431379
 21
1434.089071651611
 31
0.0
  0
LINE
  5
21D
330
1BF
100
AcDbEntity
  8
1
 62
     7
100
AcDbLine
 10
2774.087277672024
 20
1434.245985009844
 30
0.0
 11
2774.087277672024
 21
1440.104083717228
 31
0.0
  0
LINE
  5
21E
330
1BF
100
AcDbEntity
  8
1
 62
     7
100
AcDbLine
 10
2773.93036431379
 20
1440.260997075462
 30
0.0
 11
2773.668842050068
 21
1440.260997075462
 31
0.0
  0
LINE
  5
21F
330
1BF
100
AcDbEntity
  8
1
 62
     7
100
AcDbLine
 10
2773.564233144579
 20
1440.365605980951
 30
0.0
 11
2773.564233144579
 21
1440.784041602907
 31
0.0
  0
LINE
  5
220
330
1BF
100
AcDbEntity
  8
1
 62
     7
100
AcDbLine
 10
2773.564233144579
 20
1440.784041602907
 30
0.0
 11
2776.597891403761
 21
1440.784041602907
 31
0.0
  0
LINE
  5
221
330
1BF
100
AcDbEntity
  8
1
 62
     7
100
AcDbLine
 10
2778.585460608051
 20
1440.784041602907
 30
0.0
 11
2781.619118867232
 21
1440.784041602907
 31
0.0
  0
LINE
  5
222
330
1BF
100
AcDbEntity
  8
1
 62
     7
100
AcDbLine
 10
2781.619118867232
 20
1440.784041602907
 30
0.0
 11
2781.619118867232
 21
1440.365605980951
 31
0.0
  0
LINE
  5
223
330
1BF
100
AcDbEntity
  8
1
 62
     7
100
AcDbLine
 10
2781.514509961743
 20
1440.260997075462
 30
0.0
 11
2781.305292150765
 21
1440.260997075462
 31
0.0
  0
LINE
  5
224
330
1BF
100
AcDbEntity
  8
1
 62
     7
100
AcDbLine
 10
2781.043769887042
 20
1439.999474811739
 30
0.0
 11
2781.043769887042
 21
1434.350593915333
 31
0.0
  0
LINE
  5
225
330
1BF
100
AcDbEntity
  8
1
 62
     7
100
AcDbLine
 10
2781.305292150765
 20
1434.089071651611
 30
0.0
 11
2781.514509961743
 21
1434.089071651611
 31
0.0
  0
LINE
  5
226
330
1BF
100
AcDbEntity
  8
1
 62
     7
100
AcDbLine
 10
2781.619118867232
 20
1433.984462746122
 30
0.0
 11
2781.619118867232
 21
1433.566027124166
 31
0.0
  0
LINE
  5
227
330
1BF
100
AcDbEntity
  8
1
 62
     7
100
AcDbLine
 10
2781.619118867232
 20
1433.566027124166
 30
0.0
 11
2778.69006951354
 21
1433.566027124166
 31
0.0
  0
LINE
  5
228
330
1BF
100
AcDbEntity
  8
1
 62
     7
100
AcDbLine
 10
2778.69006951354
 20
1433.566027124166
 30
0.0
 11
2778.69006951354
 21
1433.984462746122
 31
0.0
  0
LINE
  5
229
330
1BF
100
AcDbEntity
  8
1
 62
     7
100
AcDbLine
 10
2778.794678419029
 20
1434.089071651611
 30
0.0
 11
2779.003896230007
 21
1434.089071651611
 31
0.0
  0
LINE
  5
22A
330
1BF
100
AcDbEntity
  8
1
 62
     7
100
AcDbLine
 10
2777.192894998074
 20
1433.566027124166
 30
0.0
 11
2776.690867716398
 21
1433.566027124166
 31
0.0
  0
LINE
  5
22B
330
1BF
100
AcDbEntity
  8
1
 62
     7
100
AcDbLine
 10
2774.610322199469
 20
1434.245985009844
 30
0.0
 11
2774.610322199469
 21
1440.138853414664
 31
0.0
  0
LINE
  5
22C
330
1BF
100
AcDbEntity
  8
1
 62
     7
100
AcDbLine
 10
2774.91880222291
 20
1440.179465580206
 30
0.0
 11
2776.690867716398
 21
1433.566027124166
 31
0.0
  0
LINE
  5
22D
330
1BF
100
AcDbEntity
  8
1
 62
     7
100
AcDbLine
 10
2777.192894998074
 20
1433.566027124166
 30
0.0
 11
2778.956938470289
 21
1440.149526989231
 31
0.0
  0
LINE
  5
22E
330
1BF
100
AcDbEntity
  8
1
 62
     7
100
AcDbLine
 10
2779.265418493729
 20
1440.108914823689
 30
0.0
 11
2779.265418493729
 21
1434.350593915333
 31
0.0
  0
LINE
  5
22F
330
1BF
100
AcDbEntity
  8
1
 62
     5
100
AcDbLine
 10
2768.286496099781
 20
1450.417997989959
 30
0.0
 11
2768.286496099781
 21
1454.417997989959
 31
0.0
  0
LINE
  5
230
330
1BF
100
AcDbEntity
  8
1
 62
     5
100
AcDbLine
 10
2768.286496099781
 20
1454.417997989959
 30
0.0
 11
2778.11785259143
 21
1456.417997989959
 31
0.0
  0
LINE
  5
231
330
1BF
100
AcDbEntity
  8
1
 62
     5
100
AcDbLine
 10
2778.11785259143
 20
1456.417997989959
 30
0.0
 11
2778.11785259143
 21
1448.417997989959
 31
0.0
  0
LINE
  5
232
330
1BF
100
AcDbEntity
  8
1
 62
     5
100
AcDbLine
 10
2778.11785259143
 20
1448.417997989959
 30
0.0
 11
2768.286496099781
 21
1450.417997989959
 31
0.0
  0
LINE
  5
233
330
1BF
100
AcDbEntity
  8
1
 62
     5
100
AcDbLine
 10
2752.830454101576
 20
1452.417997989959
 30
0.0
 11
2756.877787345891
 21
1452.417997989959
 31
0.0
  0
LINE
  5
234
330
1BF
100
AcDbEntity
  8
1
 62
     5
100
AcDbLine
 10
2757.426578294273
 20
1452.417997989959
 30
0.0
 11
2759.381646047883
 21
1452.417997989959
 31
0.0
  0
LINE
  5
235
330
1BF
100
AcDbEntity
  8
1
 62
     5
100
AcDbLine
 10
2759.861838127717
 20
1452.417997989959
 30
0.0
 11
2771.935238992115
 21
1452.417997989959
 31
0.0
  0
LINE
  5
236
330
1BF
100
AcDbEntity
  8
1
 62
     5
100
AcDbLine
 10
2772.449730506223
 20
1452.417997989959
 30
0.0
 11
2773.30721636307
 21
1452.417997989959
 31
0.0
  0
LINE
  5
237
330
1BF
100
AcDbEntity
  8
1
 62
     5
100
AcDbLine
 10
2774.061803917094
 20
1452.417997989959
 30
0.0
 11
2780.51009756058
 21
1452.417997989959
 31
0.0
  0
LINE
  5
238
330
1BF
100
AcDbEntity
  8
1
 62
     5
100
AcDbLine
 10
2758.3116161557
 20
1458.014036628632
 30
0.0
 11
2758.3116161557
 21
1453.658008475852
 31
0.0
  0
LINE
  5
239
330
1BF
100
AcDbEntity
  8
1
 62
     5
100
AcDbLine
 10
2758.3116161557
 20
1453.212115830292
 30
0.0
 11
2758.3116161557
 21
1451.702940722242
 31
0.0
  0
LINE
  5
23A
330
1BF
100
AcDbEntity
  8
1
 62
     5
100
AcDbLine
 10
2758.3116161557
 20
1451.222748642408
 30
0.0
 11
2758.3116161557
 21
1446.420827844068
 31
0.0
  0
LINE
  5
23B
330
1BF
100
AcDbEntity
  8
1
 62
     5
100
AcDbLine
 10
2765.236169694385
 20
1483.917997989959
 30
0.0
 11
2815.236169694384
 21
1483.917997989959
 31
0.0
  0
LINE
  5
23C
330
1BF
100
AcDbEntity
  8
1
 62
     5
100
AcDbLine
 10
2765.236169694385
 20
1483.917997989959
 30
0.0
 11
2765.236169694385
 21
1476.917997989959
 31
0.0
  0
LINE
  5
23D
330
1BF
100
AcDbEntity
  8
1
 62
     5
100
AcDbLine
 10
2815.236169694384
 20
1483.917997989959
 30
0.0
 11
2815.236169694384
 21
1476.917997989959
 31
0.0
  0
LINE
  5
23E
330
1BF
100
AcDbEntity
  8
1
 62
     5
100
AcDbLine
 10
2845.236169694384
 20
1483.917997989959
 30
0.0
 11
2845.236169694384
 21
1476.917997989959
 31
0.0
  0
LINE
  5
23F
330
1BF
100
AcDbEntity
  8
1
 62
     5
100
AcDbLine
 10
2860.236169694384
 20
1483.917997989959
 30
0.0
 11
2860.236169694384
 21
1476.917997989959
 31
0.0
  0
LINE
  5
240
330
1BF
100
AcDbEntity
  8
1
 62
     5
100
AcDbLine
 10
2900.236169694384
 20
1483.917997989959
 30
0.0
 11
2930.236169694384
 21
1483.917997989959
 31
0.0
  0
LINE
  5
241
330
1BF
100
AcDbEntity
  8
1
 62
     5
100
AcDbLine
 10
2900.236169694384
 20
1483.917997989959
 30
0.0
 11
2900.236169694384
 21
1476.917997989959
 31
0.0
  0
LINE
  5
242
330
1BF
100
AcDbEntity
  8
1
 62
     5
100
AcDbLine
 10
2750.236169694384
 20
1476.917997989959
 30
0.0
 11
2750.236169694384
 21
1483.917997989959
 31
0.0
  0
LINE
  5
243
330
1BF
100
AcDbEntity
  8
1
 62
     7
100
AcDbLine
 10
2765.236169694385
 20
1469.917997989959
 30
0.0
 11
2783.236169694384
 21
1469.917997989959
 31
0.0
  0
LINE
  5
244
330
1BF
100
AcDbEntity
  8
1
 62
     7
100
AcDbLine
 10
2765.236169694385
 20
1476.917997989959
 30
0.0
 11
2750.236169694384
 21
1476.917997989959
 31
0.0
  0
LINE
  5
245
330
1BF
100
AcDbEntity
  8
1
 62
     7
100
AcDbLine
 10
2765.236169694385
 20
1476.917997989959
 30
0.0
 11
2765.236169694385
 21
1469.917997989959
 31
0.0
  0
LINE
  5
246
330
1BF
100
AcDbEntity
  8
1
 62
     7
100
AcDbLine
 10
2815.236169694384
 20
1469.917997989959
 30
0.0
 11
2823.236169694384
 21
1469.917997989959
 31
0.0
  0
LINE
  5
247
330
1BF
100
AcDbEntity
  8
1
 62
     7
100
AcDbLine
 10
2815.236169694384
 20
1476.917997989959
 30
0.0
 11
2765.236169694385
 21
1476.917997989959
 31
0.0
  0
LINE
  5
248
330
1BF
100
AcDbEntity
  8
1
 62
     7
100
AcDbLine
 10
2815.236169694384
 20
1476.917997989959
 30
0.0
 11
2815.236169694384
 21
1469.917997989959
 31
0.0
  0
LINE
  5
249
330
1BF
100
AcDbEntity
  8
1
 62
     7
100
AcDbLine
 10
2845.236169694384
 20
1469.917997989959
 30
0.0
 11
2850.236169694384
 21
1469.917997989959
 31
0.0
  0
LINE
  5
24A
330
1BF
100
AcDbEntity
  8
1
 62
     7
100
AcDbLine
 10
2845.236169694384
 20
1476.917997989959
 30
0.0
 11
2815.236169694384
 21
1476.917997989959
 31
0.0
  0
LINE
  5
24B
330
1BF
100
AcDbEntity
  8
1
 62
     7
100
AcDbLine
 10
2845.236169694384
 20
1476.917997989959
 30
0.0
 11
2845.236169694384
 21
1469.917997989959
 31
0.0
  0
LINE
  5
24C
330
1BF
100
AcDbEntity
  8
1
 62
     7
100
AcDbLine
 10
2860.236169694384
 20
1476.917997989959
 30
0.0
 11
2845.236169694384
 21
1476.917997989959
 31
0.0
  0
LINE
  5
24D
330
1BF
100
AcDbEntity
  8
1
 62
     7
100
AcDbLine
 10
2860.236169694384
 20
1476.917997989959
 30
0.0
 11
2860.236169694384
 21
1469.917997989959
 31
0.0
  0
LINE
  5
24E
330
1BF
100
AcDbEntity
  8
1
 62
     7
100
AcDbLine
 10
2900.236169694384
 20
1476.917997989959
 30
0.0
 11
2860.236169694384
 21
1476.917997989959
 31
0.0
  0
LINE
  5
24F
330
1BF
100
AcDbEntity
  8
1
 62
     7
100
AcDbLine
 10
2900.236169694384
 20
1476.917997989959
 30
0.0
 11
2900.236169694384
 21
1469.917997989959
 31
0.0
  0
LINE
  5
250
330
1BF
100
AcDbEntity
  8
1
 62
     7
100
AcDbLine
 10
2823.236169694384
 20
1469.917997989959
 30
0.0
 11
2843.236169694384
 21
1469.917997989959
 31
0.0
  0
LINE
  5
251
330
1BF
100
AcDbEntity
  8
1
 62
     7
100
AcDbLine
 10
2803.236169694384
 20
1469.917997989959
 30
0.0
 11
2815.236169694384
 21
1469.917997989959
 31
0.0
  0
LINE
  5
252
330
1BF
100
AcDbEntity
  8
1
 62
     7
100
AcDbLine
 10
2783.236169694384
 20
1469.917997989959
 30
0.0
 11
2803.236169694384
 21
1469.917997989959
 31
0.0
  0
LINE
  5
253
330
1BF
100
AcDbEntity
  8
1
 62
     7
100
AcDbLine
 10
2843.236169694384
 20
1469.917997989959
 30
0.0
 11
2845.236169694384
 21
1469.917997989959
 31
0.0
  0
LINE
  5
254
330
1BF
100
AcDbEntity
  8
1
 62
     7
100
AcDbLine
 10
2930.236169694384
 20
1469.917997989959
 30
0.0
 11
2930.236169694384
 21
1476.917997989959
 31
0.0
  0
LINE
  5
255
330
1BF
100
AcDbEntity
  8
1
 62
     7
100
AcDbLine
 10
2750.236169694384
 20
1469.917997989959
 30
0.0
 11
2765.236169694385
 21
1469.917997989959
 31
0.0
  0
LINE
  5
256
330
1BF
100
AcDbEntity
  8
1
 62
     7
100
AcDbLine
 10
2750.236169694384
 20
1476.917997989959
 30
0.0
 11
2750.236169694384
 21
1469.917997989959
 31
0.0
  0
LINE
  5
257
330
1BF
100
AcDbEntity
  8
1
 62
     7
100
AcDbLine
 10
2930.236169694384
 20
1476.917997989959
 30
0.0
 11
2900.236169694384
 21
1476.917997989959
 31
0.0
  0
LINE
  5
258
330
1BF
100
AcDbEntity
  8
1
 62
     5
100
AcDbLine
 10
2900.236169694384
 20
1490.917997989959
 30
0.0
 11
2930.236169694384
 21
1490.917997989959
 31
0.0
  0
LINE
  5
259
330
1BF
100
AcDbEntity
  8
1
 62
     5
100
AcDbLine
 10
2815.236169694384
 20
1490.917997989959
 30
0.0
 11
2765.236169694385
 21
1490.917997989959
 31
0.0
  0
LINE
  5
25A
330
1BF
100
AcDbEntity
  8
1
 62
     5
100
AcDbLine
 10
2765.236169694385
 20
1490.917997989959
 30
0.0
 11
2765.236169694385
 21
1483.917997989959
 31
0.0
  0
LINE
  5
25B
330
1BF
100
AcDbEntity
  8
1
 62
     5
100
AcDbLine
 10
2845.236169694384
 20
1490.917997989959
 30
0.0
 11
2815.236169694384
 21
1490.917997989959
 31
0.0
  0
LINE
  5
25C
330
1BF
100
AcDbEntity
  8
1
 62
     5
100
AcDbLine
 10
2815.236169694384
 20
1490.917997989959
 30
0.0
 11
2815.236169694384
 21
1483.917997989959
 31
0.0
  0
LINE
  5
25D
330
1BF
100
AcDbEntity
  8
1
 62
     5
100
AcDbLine
 10
2860.236169694384
 20
1490.917997989959
 30
0.0
 11
2845.236169694384
 21
1490.917997989959
 31
0.0
  0
LINE
  5
25E
330
1BF
100
AcDbEntity
  8
1
 62
     5
100
AcDbLine
 10
2845.236169694384
 20
1490.917997989959
 30
0.0
 11
2845.236169694384
 21
1483.917997989959
 31
0.0
  0
LINE
  5
25F
330
1BF
100
AcDbEntity
  8
1
 62
     5
100
AcDbLine
 10
2900.236169694384
 20
1490.917997989959
 30
0.0
 11
2860.236169694384
 21
1490.917997989959
 31
0.0
  0
LINE
  5
260
330
1BF
100
AcDbEntity
  8
1
 62
     5
100
AcDbLine
 10
2860.236169694384
 20
1490.917997989959
 30
0.0
 11
2860.236169694384
 21
1483.917997989959
 31
0.0
  0
LINE
  5
261
330
1BF
100
AcDbEntity
  8
1
 62
     5
100
AcDbLine
 10
2900.236169694384
 20
1490.917997989959
 30
0.0
 11
2930.236169694384
 21
1490.917997989959
 31
0.0
  0
LINE
  5
262
330
1BF
100
AcDbEntity
  8
1
 62
     5
100
AcDbLine
 10
2900.236169694384
 20
1490.917997989959
 30
0.0
 11
2900.236169694384
 21
1483.917997989959
 31
0.0
  0
LINE
  5
263
330
1BF
100
AcDbEntity
  8
1
 62
     5
100
AcDbLine
 10
2750.236169694384
 20
1490.917997989959
 30
0.0
 11
2765.236169694385
 21
1490.917997989959
 31
0.0
  0
LINE
  5
264
330
1BF
100
AcDbEntity
  8
1
 62
     5
100
AcDbLine
 10
2750.236169694384
 20
1483.917997989959
 30
0.0
 11
2750.236169694384
 21
1490.917997989959
 31
0.0
  0
LINE
  5
265
330
1BF
100
AcDbEntity
  8
1
 62
     5
100
AcDbLine
 10
2765.236169694385
 20
1483.917997989959
 30
0.0
 11
2750.236169694384
 21
1483.917997989959
 31
0.0
  0
LINE
  5
266
330
1BF
100
AcDbEntity
  8
1
 62
     5
100
AcDbLine
 10
2845.236169694384
 20
1483.917997989959
 30
0.0
 11
2815.236169694384
 21
1483.917997989959
 31
0.0
  0
LINE
  5
267
330
1BF
100
AcDbEntity
  8
1
 62
     5
100
AcDbLine
 10
2860.236169694384
 20
1483.917997989959
 30
0.0
 11
2845.236169694384
 21
1483.917997989959
 31
0.0
  0
LINE
  5
268
330
1BF
100
AcDbEntity
  8
1
 62
     5
100
AcDbLine
 10
2900.236169694384
 20
1483.917997989959
 30
0.0
 11
2860.236169694384
 21
1483.917997989959
 31
0.0
  0
LINE
  5
269
330
1BF
100
AcDbEntity
  8
1
 62
     5
100
AcDbLine
 10
2900.236169694384
 20
1490.917997989959
 30
0.0
 11
2930.236169694384
 21
1490.917997989959
 31
0.0
  0
LINE
  5
26A
330
1BF
100
AcDbEntity
  8
1
 62
     5
100
AcDbLine
 10
2815.236169694384
 20
1490.917997989959
 30
0.0
 11
2765.236169694385
 21
1490.917997989959
 31
0.0
  0
LINE
  5
26B
330
1BF
100
AcDbEntity
  8
1
 62
     5
100
AcDbLine
 10
2845.236169694384
 20
1490.917997989959
 30
0.0
 11
2815.236169694384
 21
1490.917997989959
 31
0.0
  0
LINE
  5
26C
330
1BF
100
AcDbEntity
  8
1
 62
     5
100
AcDbLine
 10
2860.236169694384
 20
1490.917997989959
 30
0.0
 11
2845.236169694384
 21
1490.917997989959
 31
0.0
  0
LINE
  5
26D
330
1BF
100
AcDbEntity
  8
1
 62
     5
100
AcDbLine
 10
2900.236169694384
 20
1490.917997989959
 30
0.0
 11
2860.236169694384
 21
1490.917997989959
 31
0.0
  0
LINE
  5
26E
330
1BF
100
AcDbEntity
  8
1
 62
     5
100
AcDbLine
 10
2900.236169694384
 20
1490.917997989959
 30
0.0
 11
2930.236169694384
 21
1490.917997989959
 31
0.0
  0
LINE
  5
26F
330
1BF
100
AcDbEntity
  8
1
 62
     5
100
AcDbLine
 10
2750.236169694384
 20
1490.917997989959
 30
0.0
 11
2765.236169694385
 21
1490.917997989959
 31
0.0
  0
LINE
  5
270
330
1BF
100
AcDbEntity
  8
1
 62
     5
100
AcDbLine
 10
2750.236169694384
 20
1497.917997989959
 30
0.0
 11
2750.236169694384
 21
1504.917997989959
 31
0.0
  0
LINE
  5
271
330
1BF
100
AcDbEntity
  8
1
 62
     5
100
AcDbLine
 10
2765.236169694385
 20
1504.917997989959
 30
0.0
 11
2765.236169694385
 21
1497.917997989959
 31
0.0
  0
LINE
  5
272
330
1BF
100
AcDbEntity
  8
1
 62
     5
100
AcDbLine
 10
2765.236169694385
 20
1504.917997989959
 30
0.0
 11
2815.236169694384
 21
1504.917997989959
 31
0.0
  0
LINE
  5
273
330
1BF
100
AcDbEntity
  8
1
 62
     5
100
AcDbLine
 10
2765.236169694385
 20
1511.917997989959
 30
0.0
 11
2815.236169694384
 21
1511.917997989959
 31
0.0
  0
LINE
  5
274
330
1BF
100
AcDbEntity
  8
1
 62
     5
100
AcDbLine
 10
2815.236169694384
 20
1504.917997989959
 30
0.0
 11
2815.236169694384
 21
1497.917997989959
 31
0.0
  0
LINE
  5
275
330
1BF
100
AcDbEntity
  8
1
 62
     5
100
AcDbLine
 10
2815.236169694384
 20
1511.917997989959
 30
0.0
 11
2815.236169694384
 21
1504.917997989959
 31
0.0
  0
LINE
  5
276
330
1BF
100
AcDbEntity
  8
1
 62
     5
100
AcDbLine
 10
2845.236169694384
 20
1504.917997989959
 30
0.0
 11
2815.236169694384
 21
1504.917997989959
 31
0.0
  0
LINE
  5
277
330
1BF
100
AcDbEntity
  8
1
 62
     5
100
AcDbLine
 10
2845.236169694384
 20
1504.917997989959
 30
0.0
 11
2845.236169694384
 21
1497.917997989959
 31
0.0
  0
LINE
  5
278
330
1BF
100
AcDbEntity
  8
1
 62
     5
100
AcDbLine
 10
2860.236169694384
 20
1504.917997989959
 30
0.0
 11
2845.236169694384
 21
1504.917997989959
 31
0.0
  0
LINE
  5
279
330
1BF
100
AcDbEntity
  8
1
 62
     5
100
AcDbLine
 10
2845.236169694384
 20
1511.917997989959
 30
0.0
 11
2815.236169694384
 21
1511.917997989959
 31
0.0
  0
LINE
  5
27A
330
1BF
100
AcDbEntity
  8
1
 62
     5
100
AcDbLine
 10
2845.236169694384
 20
1511.917997989959
 30
0.0
 11
2845.236169694384
 21
1504.917997989959
 31
0.0
  0
LINE
  5
27B
330
1BF
100
AcDbEntity
  8
1
 62
     5
100
AcDbLine
 10
2860.236169694384
 20
1511.917997989959
 30
0.0
 11
2845.236169694384
 21
1511.917997989959
 31
0.0
  0
LINE
  5
27C
330
1BF
100
AcDbEntity
  8
1
 62
     5
100
AcDbLine
 10
2860.236169694384
 20
1504.917997989959
 30
0.0
 11
2860.236169694384
 21
1497.917997989959
 31
0.0
  0
LINE
  5
27D
330
1BF
100
AcDbEntity
  8
1
 62
     5
100
AcDbLine
 10
2900.236169694384
 20
1504.917997989959
 30
0.0
 11
2860.236169694384
 21
1504.917997989959
 31
0.0
  0
LINE
  5
27E
330
1BF
100
AcDbEntity
  8
1
 62
     5
100
AcDbLine
 10
2900.236169694384
 20
1511.917997989959
 30
0.0
 11
2860.236169694384
 21
1511.917997989959
 31
0.0
  0
LINE
  5
27F
330
1BF
100
AcDbEntity
  8
1
 62
     5
100
AcDbLine
 10
2860.236169694384
 20
1511.917997989959
 30
0.0
 11
2860.236169694384
 21
1504.917997989959
 31
0.0
  0
LINE
  5
280
330
1BF
100
AcDbEntity
  8
1
 62
     5
100
AcDbLine
 10
2900.236169694384
 20
1504.917997989959
 30
0.0
 11
2900.236169694384
 21
1497.917997989959
 31
0.0
  0
LINE
  5
281
330
1BF
100
AcDbEntity
  8
1
 62
     5
100
AcDbLine
 10
2900.236169694384
 20
1504.917997989959
 30
0.0
 11
2930.236169694384
 21
1504.917997989959
 31
0.0
  0
LINE
  5
282
330
1BF
100
AcDbEntity
  8
1
 62
     5
100
AcDbLine
 10
2900.236169694384
 20
1504.917997989959
 30
0.0
 11
2900.236169694384
 21
1497.917997989959
 31
0.0
  0
LINE
  5
283
330
1BF
100
AcDbEntity
  8
1
 62
     5
100
AcDbLine
 10
2900.236169694384
 20
1504.917997989959
 30
0.0
 11
2860.236169694384
 21
1504.917997989959
 31
0.0
  0
LINE
  5
284
330
1BF
100
AcDbEntity
  8
1
 62
     5
100
AcDbLine
 10
2900.236169694384
 20
1511.917997989959
 30
0.0
 11
2900.236169694384
 21
1504.917997989959
 31
0.0
  0
LINE
  5
285
330
1BF
100
AcDbEntity
  8
1
 62
     5
100
AcDbLine
 10
2900.236169694384
 20
1511.917997989959
 30
0.0
 11
2930.236169694384
 21
1511.917997989959
 31
0.0
  0
LINE
  5
286
330
1BF
100
AcDbEntity
  8
1
 62
     5
100
AcDbLine
 10
2765.236169694385
 20
1518.917997989959
 30
0.0
 11
2815.236169694384
 21
1518.917997989959
 31
0.0
  0
LINE
  5
287
330
1BF
100
AcDbEntity
  8
1
 62
     5
100
AcDbLine
 10
2815.236169694384
 20
1518.917997989959
 30
0.0
 11
2815.236169694384
 21
1511.917997989959
 31
0.0
  0
LINE
  5
288
330
1BF
100
AcDbEntity
  8
1
 62
     5
100
AcDbLine
 10
2845.236169694384
 20
1518.917997989959
 30
0.0
 11
2815.236169694384
 21
1518.917997989959
 31
0.0
  0
LINE
  5
289
330
1BF
100
AcDbEntity
  8
1
 62
     5
100
AcDbLine
 10
2845.236169694384
 20
1518.917997989959
 30
0.0
 11
2845.236169694384
 21
1511.917997989959
 31
0.0
  0
LINE
  5
28A
330
1BF
100
AcDbEntity
  8
1
 62
     5
100
AcDbLine
 10
2860.236169694384
 20
1518.917997989959
 30
0.0
 11
2845.236169694384
 21
1518.917997989959
 31
0.0
  0
LINE
  5
28B
330
1BF
100
AcDbEntity
  8
1
 62
     5
100
AcDbLine
 10
2860.236169694384
 20
1518.917997989959
 30
0.0
 11
2860.236169694384
 21
1511.917997989959
 31
0.0
  0
LINE
  5
28C
330
1BF
100
AcDbEntity
  8
1
 62
     5
100
AcDbLine
 10
2900.236169694384
 20
1518.917997989959
 30
0.0
 11
2860.236169694384
 21
1518.917997989959
 31
0.0
  0
LINE
  5
28D
330
1BF
100
AcDbEntity
  8
1
 62
     5
100
AcDbLine
 10
2900.236169694384
 20
1518.917997989959
 30
0.0
 11
2860.236169694384
 21
1518.917997989959
 31
0.0
  0
LINE
  5
28E
330
1BF
100
AcDbEntity
  8
1
 62
     5
100
AcDbLine
 10
2900.236169694384
 20
1518.917997989959
 30
0.0
 11
2900.236169694384
 21
1511.917997989959
 31
0.0
  0
LINE
  5
28F
330
1BF
100
AcDbEntity
  8
1
 62
     5
100
AcDbLine
 10
2900.236169694384
 20
1518.917997989959
 30
0.0
 11
2930.236169694384
 21
1518.917997989959
 31
0.0
  0
LINE
  5
290
330
1BF
100
AcDbEntity
  8
1
 62
     5
100
AcDbLine
 10
2765.236169694385
 20
1504.917997989959
 30
0.0
 11
2750.236169694384
 21
1504.917997989959
 31
0.0
  0
LINE
  5
291
330
1BF
100
AcDbEntity
  8
1
 62
     5
100
AcDbLine
 10
2765.236169694385
 20
1511.917997989959
 30
0.0
 11
2750.236169694384
 21
1511.917997989959
 31
0.0
  0
LINE
  5
292
330
1BF
100
AcDbEntity
  8
1
 62
     5
100
AcDbLine
 10
2765.236169694385
 20
1518.917997989959
 30
0.0
 11
2750.236169694384
 21
1518.917997989959
 31
0.0
  0
LINE
  5
293
330
1BF
100
AcDbEntity
  8
1
 62
     5
100
AcDbLine
 10
2750.236169694384
 20
1504.917997989959
 30
0.0
 11
2750.236169694384
 21
1511.917997989959
 31
0.0
  0
LINE
  5
294
330
1BF
100
AcDbEntity
  8
1
 62
     5
100
AcDbLine
 10
2750.236169694384
 20
1511.917997989959
 30
0.0
 11
2750.236169694384
 21
1518.917997989959
 31
0.0
  0
LINE
  5
295
330
1BF
100
AcDbEntity
  8
1
 62
     5
100
AcDbLine
 10
2765.236169694385
 20
1511.917997989959
 30
0.0
 11
2765.236169694385
 21
1504.917997989959
 31
0.0
  0
LINE
  5
296
330
1BF
100
AcDbEntity
  8
1
 62
     5
100
AcDbLine
 10
2765.236169694385
 20
1518.917997989959
 30
0.0
 11
2765.236169694385
 21
1511.917997989959
 31
0.0
  0
ARC
  5
297
330
1BF
100
AcDbEntity
  8
1
 62
     7
100
AcDbCircle
 10
2764.881693988991
 20
1439.162603567827
 30
0.0
 40
0.2615222637220663
100
AcDbArc
 50
197.472885270319
 51
1.852437285439998
  0
ARC
  5
298
330
1BF
100
AcDbEntity
  8
1
 62
     7
100
AcDbCircle
 10
2759.546639809053
 20
1439.162603567827
 30
0.0
 40
0.2615222637228858
100
AcDbArc
 50
178.1475627145631
 51
342.5271147297408
  0
ARC
  5
299
330
1BF
100
AcDbEntity
  8
1
 62
     7
100
AcDbCircle
 10
2770.961250728215
 20
1438.913321524965
 30
0.0
 40
0.8368712439118217
100
AcDbArc
 50
315.0
 51
135.000000000055
  0
ARC
  5
29A
330
1BF
100
AcDbEntity
  8
1
 62
     7
100
AcDbCircle
 10
2767.484676405356
 20
1435.436747202108
 30
0.0
 40
0.8368712439116608
100
AcDbArc
 50
135.000000000011
 51
315.000000000044
  0
CIRCLE
  5
29B
330
1BF
100
AcDbEntity
  8
1
 62
     7
100
AcDbCircle
 10
2769.222963566785
 20
1437.175034363537
 30
0.0
 40
3.818225050347791
  0
CIRCLE
  5
29C
330
1BF
100
AcDbEntity
  8
1
 62
     5
100
AcDbCircle
 10
2758.3116161557
 20
1452.417997989959
 30
0.0
 40
2.0
  0
CIRCLE
  5
29D
330
1BF
100
AcDbEntity
  8
1
 62
     5
100
AcDbCircle
 10
2758.3116161557
 20
1452.417997989959
 30
0.0
 40
4.0
  0
ARC
  5
29E
330
1BF
100
AcDbEntity
  8
1
 62
     7
100
AcDbCircle
 10
2755.571501400472
 20
1439.188221420838
 30
0.0
 40
0.1569133582335167
100
AcDbArc
 50
16.99999999980375
 51
163.0000000001962
  0
ARC
  5
29F
330
1BF
100
AcDbEntity
  8
1
 62
     7
100
AcDbCircle
 10
2754.860061893653
 20
1436.86120764707
 30
0.0
 40
0.1569133582335167
100
AcDbArc
 50
163.0000000001962
 51
270.0
  0
ARC
  5
2A0
330
1BF
100
AcDbEntity
  8
1
 62
     7
100
AcDbCircle
 10
2756.282940907289
 20
1436.86120764707
 30
0.0
 40
0.1569133582338509
100
AcDbArc
 50
270.0
 51
16.99999999980375
  0
ARC
  5
2A1
330
1BF
100
AcDbEntity
  8
1
 62
     7
100
AcDbCircle
 10
2754.604204677959
 20
1436.024336403157
 30
0.0
 40
0.1569133582340783
100
AcDbArc
 50
90.0
 51
162.9999999997993
  0
ARC
  5
2A2
330
1BF
100
AcDbEntity
  8
1
 62
     7
100
AcDbCircle
 10
2754.060508094608
 20
1434.245985009844
 30
0.0
 40
0.1569133582338491
100
AcDbArc
 50
162.9999999997993
 51
270.0
  0
ARC
  5
2A3
330
1BF
100
AcDbEntity
  8
1
 62
     7
100
AcDbCircle
 10
2756.500094863901
 20
1435.972031950413
 30
0.0
 40
0.2092178109784895
100
AcDbArc
 50
16.99999999993827
 51
90.0
  0
ARC
  5
2A4
330
1BF
100
AcDbEntity
  8
1
 62
     7
100
AcDbCircle
 10
2757.01180929529
 20
1434.298289462589
 30
0.0
 40
0.2092178109780889
100
AcDbArc
 50
270.0
 51
16.99999999993827
  0
ARC
  5
2A5
330
1BF
100
AcDbEntity
  8
1
 62
     7
100
AcDbCircle
 10
2753.107992215445
 20
1434.350593915333
 30
0.0
 40
0.2615222637220995
100
AcDbArc
 50
270.0
 51
343.0000000000657
  0
ARC
  5
2A6
330
1BF
100
AcDbEntity
  8
1
 62
     7
100
AcDbCircle
 10
2759.292980291935
 20
1434.350593915333
 30
0.0
 40
0.2615222637223931
100
AcDbArc
 50
196.9999999999343
 51
270.0
  0
ARC
  5
2A7
330
1BF
100
AcDbEntity
  8
1
 62
     7
100
AcDbCircle
 10
2752.851669857757
 20
1433.984462746122
 30
0.0
 40
0.1046089054889308
100
AcDbArc
 50
90.0
 51
180.0
  0
ARC
  5
2A8
330
1BF
100
AcDbEntity
  8
1
 62
     7
100
AcDbCircle
 10
2754.316194534603
 20
1433.984462746122
 30
0.0
 40
0.1046089054893855
100
AcDbArc
 50
0.0
 51
90.0
  0
ARC
  5
2A9
330
1BF
100
AcDbEntity
  8
1
 62
     7
100
AcDbCircle
 10
2756.722199360849
 20
1433.984462746122
 30
0.0
 40
0.1046089054889308
100
AcDbArc
 50
90.0
 51
180.0
  0
ARC
  5
2AA
330
1BF
100
AcDbEntity
  8
1
 62
     7
100
AcDbCircle
 10
2759.651248714543
 20
1433.984462746122
 30
0.0
 40
0.1046089054889308
100
AcDbArc
 50
0.0
 51
90.0
  0
ARC
  5
2AB
330
1BF
100
AcDbEntity
  8
1
 62
     7
100
AcDbCircle
 10
2760.854251127666
 20
1439.89486590625
 30
0.0
 40
0.3661311692108029
100
AcDbArc
 50
0.0
 51
90.0
  0
ARC
  5
2AC
330
1BF
100
AcDbEntity
  8
1
 62
     7
100
AcDbCircle
 10
2763.574082670381
 20
1439.89486590625
 30
0.0
 40
0.3661311692119398
100
AcDbArc
 50
90.0
 51
180.0
  0
ARC
  5
2AD
330
1BF
100
AcDbEntity
  8
1
 62
     7
100
AcDbCircle
 10
2763.724586981766
 20
1439.528734737039
 30
0.0
 40
0.7322623384229
100
AcDbArc
 50
17.4728852702878
 51
90.0
  0
ARC
  5
2AE
330
1BF
100
AcDbEntity
  8
1
 62
     7
100
AcDbCircle
 10
2760.703746816278
 20
1439.528734737039
 30
0.0
 40
0.7322623384229701
100
AcDbArc
 50
90.0
 51
162.5271147297229
  0
ARC
  5
2AF
330
1BF
100
AcDbEntity
  8
1
 62
     7
100
AcDbCircle
 10
2760.958860033155
 20
1434.350593915333
 30
0.0
 40
0.2615222637220995
100
AcDbArc
 50
270.0
 51
0.0
  0
ARC
  5
2B0
330
1BF
100
AcDbEntity
  8
1
 62
     7
100
AcDbCircle
 10
2763.469473764891
 20
1434.350593915333
 30
0.0
 40
0.2615222637232364
100
AcDbArc
 50
180.0
 51
270.0
  0
ARC
  5
2B1
330
1BF
100
AcDbEntity
  8
1
 62
     7
100
AcDbCircle
 10
2763.678691575869
 20
1433.984462746122
 30
0.0
 40
0.1046089054880213
100
AcDbArc
 50
0.0
 51
90.0
  0
ARC
  5
2B2
330
1BF
100
AcDbEntity
  8
1
 62
     7
100
AcDbCircle
 10
2760.749642222177
 20
1433.984462746122
 30
0.0
 40
0.1046089054889308
100
AcDbArc
 50
90.0
 51
180.0
  0
ARC
  5
2B3
330
1BF
100
AcDbEntity
  8
1
 62
     7
100
AcDbCircle
 10
2773.668842050068
 20
1440.365605980951
 30
0.0
 40
0.1046089054893855
100
AcDbArc
 50
180.0
 51
270.0
  0
ARC
  5
2B4
330
1BF
100
AcDbEntity
  8
1
 62
     7
100
AcDbCircle
 10
2781.514509961743
 20
1440.365605980951
 30
0.0
 40
0.1046089054889308
100
AcDbArc
 50
270.0
 51
0.0
  0
ARC
  5
2B5
330
1BF
100
AcDbEntity
  8
1
 62
     7
100
AcDbCircle
 10
2781.514509961743
 20
1433.984462746122
 30
0.0
 40
0.1046089054889308
100
AcDbArc
 50
0.0
 51
90.0
  0
ARC
  5
2B6
330
1BF
100
AcDbEntity
  8
1
 62
     7
100
AcDbCircle
 10
2778.794678419029
 20
1433.984462746122
 30
0.0
 40
0.1046089054889308
100
AcDbArc
 50
90.0
 51
180.0
  0
ARC
  5
2B7
330
1BF
100
AcDbEntity
  8
1
 62
     7
100
AcDbCircle
 10
2773.668842050068
 20
1433.984462746122
 30
0.0
 40
0.1046089054889308
100
AcDbArc
 50
90.0
 51
180.0
  0
ARC
  5
2B8
330
1BF
100
AcDbEntity
  8
1
 62
     7
100
AcDbCircle
 10
2774.924148915936
 20
1433.984462746122
 30
0.0
 40
0.1046089054893855
100
AcDbArc
 50
0.0
 51
90.0
  0
ARC
  5
2B9
330
1BF
100
AcDbEntity
  8
1
 62
     7
100
AcDbCircle
 10
2773.93036431379
 20
1440.104083717228
 30
0.0
 40
0.1569133582338509
100
AcDbArc
 50
0.0
 51
90.0
  0
ARC
  5
2BA
330
1BF
100
AcDbEntity
  8
1
 62
     7
100
AcDbCircle
 10
2773.93036431379
 20
1434.245985009844
 30
0.0
 40
0.1569133582329414
100
AcDbArc
 50
270.0
 51
0.0
  0
ARC
  5
2BB
330
1BF
100
AcDbEntity
  8
1
 62
     7
100
AcDbCircle
 10
2774.767235557702
 20
1434.245985009844
 30
0.0
 40
0.1569133582329414
100
AcDbArc
 50
180.0
 51
270.0
  0
ARC
  5
2BC
330
1BF
100
AcDbEntity
  8
1
 62
     7
100
AcDbCircle
 10
2774.767235557702
 20
1440.138853414664
 30
0.0
 40
0.1569133582340832
100
AcDbArc
 50
14.99999999997748
 51
180.0
  0
ARC
  5
2BD
330
1BF
100
AcDbEntity
  8
1
 62
     7
100
AcDbCircle
 10
2777.591676005906
 20
1437.68145363675
 30
0.0
 40
0.1569133582327655
100
AcDbArc
 50
195.0000000001064
 51
345.0000000000225
  0
ARC
  5
2BE
330
1BF
100
AcDbEntity
  8
1
 62
     7
100
AcDbCircle
 10
2779.108505135496
 20
1440.108914823689
 30
0.0
 40
0.1569133582329414
100
AcDbArc
 50
0.0
 51
165.0000000000225
  0
ARC
  5
2BF
330
1BF
100
AcDbEntity
  8
1
 62
     7
100
AcDbCircle
 10
2781.305292150765
 20
1439.999474811739
 30
0.0
 40
0.261522263723009
100
AcDbArc
 50
90.0
 51
180.0
  0
ARC
  5
2C0
330
1BF
100
AcDbEntity
  8
1
 62
     7
100
AcDbCircle
 10
2779.003896230007
 20
1434.350593915333
 30
0.0
 40
0.2615222637220995
100
AcDbArc
 50
270.0
 51
0.0
  0
ARC
  5
2C1
330
1BF
100
AcDbEntity
  8
1
 62
     7
100
AcDbCircle
 10
2781.305292150765
 20
1434.350593915333
 30
0.0
 40
0.2615222637223269
100
AcDbArc
 50
180.0
 51
270.0
  0
TEXT
  5
2C2
330
1BF
100
AcDbEntity
  8
1
 62
     3
100
AcDbText
 10
2902.587635856635
 20
1506.667997989959
 30
0.0
 40
3.5
  1
\U+03C68 穴\U+03C64.5
 41
0.6300000000000001
 11
2902.587635856635
 21
1508.417997989959
 31
0.0
100
AcDbText
 73
     2
  0
TEXT
  5
2C3
330
1BF
100
AcDbEntity
  8
1
 62
     3
100
AcDbText
 10
2757.001169694384
 20
1492.667997989958
 30
0.0
 40
3.5
  1
3
 41
0.6300000000000001
 72
     1
 11
2757.736169694384
 21
1494.417997989958
 31
0.0
100
AcDbText
 73
     2
  0
TEXT
  5
2C4
330
1BF
100
AcDbEntity
  8
1
 62
     3
100
AcDbText
 10
2767.187301918956
 20
1492.667997989959
 30
0.0
 40
3.5
  1
シャフト
 41
0.6300000000000001
 11
2767.187301918956
 21
1494.417997989959
 31
0.0
100
AcDbText
 73
     2
  0
TEXT
  5
2C5
330
1BF
100
AcDbEntity
  8
1
 62
     3
100
AcDbText
 10
2817.651668756719
 20
1492.667997989959
 30
0.0
 40
3.5
  1
SWCH 10 A
 41
0.6300000000000001
 11
2817.651668756719
 21
1494.417997989959
 31
0.0
100
AcDbText
 73
     2
  0
TEXT
  5
2C6
330
1BF
100
AcDbEntity
  8
1
 62
     3
100
AcDbText
 10
2852.368669694384
 20
1492.667997989959
 30
0.0
 40
3.5
  1
1
 41
0.6300000000000001
 72
     1
 11
2852.736169694384
 21
1494.417997989959
 31
0.0
100
AcDbText
 73
     2
  0
TEXT
  5
2C7
330
1BF
100
AcDbEntity
  8
1
 62
     3
100
AcDbText
 10
2862.587635856635
 20
1492.667997989959
 30
0.0
 40
3.5
  1
クロメート
 41
0.6300000000000001
 11
2862.587635856635
 21
1494.417997989959
 31
0.0
100
AcDbText
 73
     2
  0
TEXT
  5
2C8
330
1BF
100
AcDbEntity
  8
1
 62
     3
100
AcDbText
 10
2853.28025374938
 20
1429.417997989958
 30
0.0
 40
6.0
  1
GDFD-HR4-A02
 41
0.6299999999999999
 11
2853.28025374938
 21
1432.417997989958
 31
0.0
100
AcDbText
 73
     2
  0
TEXT
  5
2C9
330
1BF
100
AcDbEntity
  8
1
 62
     3
100
AcDbText
 10
2785.466169694384
 20
1446.417997989958
 30
0.0
 40
4.0
  1
98.10.28.
 41
0.6299999999999998
 72
     1
 11
2793.236169694384
 21
1448.417997989958
 31
0.0
100
AcDbText
 73
     2
  0
TEXT
  5
2CA
330
1BF
100
AcDbEntity
  8
1
 62
     3
100
AcDbText
 10
2805.466169694384
 20
1446.417997989959
 30
0.0
 40
4.0
  1
98.10.28.
 41
0.6299999999999998
 72
     1
 11
2813.236169694384
 21
1448.417997989959
 31
0.0
100
AcDbText
 73
     2
  0
TEXT
  5
2CB
330
1BF
100
AcDbEntity
  8
1
 62
     3
100
AcDbText
 10
2790.716169694384
 20
1454.417997989958
 30
0.0
 40
6.0
  1
逢坂
 41
0.6299999999999999
 72
     1
 11
2793.236169694384
 21
1457.417997989958
 31
0.0
100
AcDbText
 73
     2
  0
TEXT
  5
2CC
330
1BF
100
AcDbEntity
  8
1
 62
     3
100
AcDbText
 10
2810.716169694384
 20
1454.417997989959
 30
0.0
 40
6.0
  1
中島
 41
0.6299999999999999
 72
     1
 11
2813.236169694384
 21
1457.417997989959
 31
0.0
100
AcDbText
 73
     2
  0
TEXT
  5
2CD
330
1BF
100
AcDbEntity
  8
1
 62
     3
100
AcDbText
 10
2852.368669694384
 20
1485.667997989959
 30
0.0
 40
3.5
  1
1
 41
0.6300000000000001
 72
     1
 11
2852.736169694384
 21
1487.417997989959
 31
0.0
100
AcDbText
 73
     2
  0
TEXT
  5
2CE
330
1BF
100
AcDbEntity
  8
1
 62
     3
100
AcDbText
 10
2852.368669694384
 20
1478.667997989959
 30
0.0
 40
3.5
  1
1
 41
0.6300000000000001
 72
     1
 11
2852.736169694384
 21
1480.417997989959
 31
0.0
100
AcDbText
 73
     2
  0
TEXT
  5
2CF
330
1BF
100
AcDbEntity
  8
1
 62
     3
100
AcDbText
 10
2767.187301918956
 20
1478.667997989959
 30
0.0
 40
3.5
  1
固定カップ
 41
0.6300000000000001
 11
2767.187301918956
 21
1480.417997989959
 31
0.0
100
AcDbText
 73
     2
  0
TEXT
  5
2D0
330
1BF
100
AcDbEntity
  8
1
 62
     3
100
AcDbText
 10
2757.368669694384
 20
1478.667997989959
 30
0.0
 40
3.5
  1
1
 41
0.6300000000000001
 72
     1
 11
2757.736169694384
 21
1480.417997989959
 31
0.0
100
AcDbText
 73
     2
  0
TEXT
  5
2D1
330
1BF
100
AcDbEntity
  8
1
 62
     3
100
AcDbText
 10
2757.001169694384
 20
1485.667997989958
 30
0.0
 40
3.5
  1
2
 41
0.6300000000000001
 72
     1
 11
2757.736169694384
 21
1487.417997989958
 31
0.0
100
AcDbText
 73
     2
  0
TEXT
  5
2D2
330
1BF
100
AcDbEntity
  8
1
 62
     4
100
AcDbText
 10
2843.136169694384
 20
1464.417997989959
 30
0.0
 40
4.0
  1
品
 41
0.9
100
AcDbText
  0
TEXT
  5
2D3
330
1BF
100
AcDbEntity
  8
1
 62
     4
100
AcDbText
 10
2843.136169694384
 20
1456.417997989959
 30
0.0
 40
4.0
  1
名
 41
0.9
100
AcDbText
  0
TEXT
  5
2D4
330
1BF
100
AcDbEntity
  8
1
 62
     4
100
AcDbText
 10
2843.136169694384
 20
1449.417997989959
 30
0.0
 40
4.0
  1
図
 41
0.9
100
AcDbText
  0
TEXT
  5
2D5
330
1BF
100
AcDbEntity
  8
1
 62
     4
100
AcDbText
 10
2843.136169694384
 20
1441.417997989959
 30
0.0
 40
4.0
  1
名
 41
0.9
100
AcDbText
  0
TEXT
  5
2D6
330
1BF
100
AcDbEntity
  8
1
 62
     4
100
AcDbText
 10
2843.136169694384
 20
1434.417997989959
 30
0.0
 40
4.0
  1
図
 41
0.9
100
AcDbText
  0
TEXT
  5
2D7
330
1BF
100
AcDbEntity
  8
1
 62
     4
100
AcDbText
 10
2843.136169694384
 20
1426.417997989959
 30
0.0
 40
4.0
  1
番
 41
0.9
100
AcDbText
  0
TEXT
  5
2D8
330
1BF
100
AcDbEntity
  8
1
 62
     4
100
AcDbText
 10
2783.636169694384
 20
1464.417997989959
 30
0.0
 40
4.0
  1
?%d  認
 41
0.9
 72
     1
 11
2793.236169694384
 21
1466.417997989959
 31
0.0
100
AcDbText
 73
     2
  0
TEXT
  5
2D9
330
1BF
100
AcDbEntity
  8
1
 62
     4
100
AcDbText
 10
2807.236169694384
 20
1464.417997989959
 30
0.0
 40
4.0
  1
検  図
 41
0.9
 72
     1
 11
2813.236169694384
 21
1466.417997989959
 31
0.0
100
AcDbText
 73
     2
  0
TEXT
  5
2DA
330
1BF
100
AcDbEntity
  8
1
 62
     4
100
AcDbText
 10
2827.236169694384
 20
1464.417997989959
 30
0.0
 40
4.0
  1
担  当
 41
0.9
 72
     1
 11
2833.236169694384
 21
1466.417997989959
 31
0.0
100
AcDbText
 73
     2
  0
TEXT
  5
2DB
330
1BF
100
AcDbEntity
  8
1
 62
     4
100
AcDbText
 10
2752.023241192914
 20
1465.411141966452
 30
0.0
 40
4.0
  1
尺度
 41
0.9
 72
     1
 11
2754.423241192914
 21
1467.411141966452
 31
0.0
100
AcDbText
 73
     2
  0
TEXT
  5
2DC
330
1BF
100
AcDbEntity
  8
1
 62
     4
100
AcDbText
 10
2755.761084523973
 20
1427.324368279492
 30
0.0
 40
4.0
  1
高橋金物株式会社
 41
0.9
 72
     1
 11
2767.161084523973
 21
1429.324368279492
 31
0.0
100
AcDbText
 73
     2
  0
TEXT
  5
2DD
330
1BF
100
AcDbEntity
  8
1
 62
     4
100
AcDbText
 10
2792.925881821976
 20
1438.094793607169
 30
0.0
 40
3.0
  1
本社
 41
0.9
 72
     1
 11
2794.725881821976
 21
1439.594793607169
 31
0.0
100
AcDbText
 73
     2
  0
TEXT
  5
2DE
330
1BF
100
AcDbEntity
  8
1
 62
     4
100
AcDbText
 10
2807.747026304014
 20
1433.61588712709
 30
0.0
 40
2.5
  1
東京都台東区入谷
 41
0.9
 72
     1
 11
2814.872026304013
 21
1434.86588712709
 31
0.0
100
AcDbText
 73
     2
  0
TEXT
  5
2DF
330
1BF
100
AcDbEntity
  8
1
 62
     4
100
AcDbText
 10
2826.348072622224
 20
1433.884304837525
 30
0.0
 40
2.0
  1
1-27-4
 41
0.9
 72
     1
 11
2831.148072622224
 21
1434.884304837525
 31
0.0
100
AcDbText
 73
     2
  0
TEXT
  5
2E0
330
1BF
100
AcDbEntity
  8
1
 62
     4
100
AcDbText
 10
2800.922374381268
 20
1428.70705972103
 30
0.0
 40
2.0
  1
03 (3876) 0600
 41
0.9
 72
     1
 11
2812.022374381268
 21
1429.70705972103
 31
0.0
100
AcDbText
 73
     2
  0
TEXT
  5
2E1
330
1BF
100
AcDbEntity
  8
1
 62
     4
100
AcDbText
 10
2792.823458507372
 20
1433.518733427264
 30
0.0
 40
2.5
  1
〒
 41
0.9
 72
     1
 11
2793.385958507372
 21
1434.768733427264
 31
0.0
100
AcDbText
 73
     2
  0
TEXT
  5
2E2
330
1BF
100
AcDbEntity
  8
1
 62
     4
100
AcDbText
 10
2794.471267042132
 20
1428.726997731911
 30
0.0
 40
2.0
  1
TEL
 41
0.7200000000000001
  7
COMPLEX
 72
     1
 11
2796.356981327846
 21
1429.726997731911
 31
0.0
100
AcDbText
 73
     2
  0
TEXT
  5
2E3
330
1BF
100
AcDbEntity
  8
1
 62
     4
100
AcDbText
 10
2795.884879491737
 20
1433.831190512721
 30
0.0
 40
2.0
  1
110
 41
0.9
 72
     1
 11
2797.534879491737
 21
1434.831190512721
 31
0.0
100
AcDbText
 73
     2
  0
TEXT
  5
2E4
330
1BF
100
AcDbEntity
  8
1
 62
     3
100
AcDbText
 10
2853.28025374938
 20
1459.417997989959
 30
0.0
 40
6.0
  1
HR-420（木口付け下部ガイド）
 41
0.6299999999999999
 11
2853.28025374938
 21
1462.417997989959
 31
0.0
100
AcDbText
 73
     2
  0
TEXT
  5
2E5
330
1BF
100
AcDbEntity
  8
1
 62
     3
100
AcDbText
 10
2830.716169694384
 20
1454.417997989959
 30
0.0
 40
6.0
  1
緒方
 41
0.6299999999999999
 72
     1
 11
2833.236169694384
 21
1457.417997989959
 31
0.0
100
AcDbText
 73
     2
  0
TEXT
  5
2E6
330
1BF
100
AcDbEntity
  8
1
 62
     3
100
AcDbText
 10
2825.466169694384
 20
1446.417997989959
 30
0.0
 40
4.0
  1
98.10.28.
 41
0.6299999999999998
 72
     1
 11
2833.236169694384
 21
1448.417997989959
 31
0.0
100
AcDbText
 73
     2
  0
TEXT
  5
2E7
330
1BF
100
AcDbEntity
  8
1
 62
     3
100
AcDbText
 10
2762.670881053518
 20
1461.108910826634
 30
0.0
 40
6.0
  1
1 : 1
 41
0.6299999999999999
 72
     1
 11
2768.970881053518
 21
1464.108910826634
 31
0.0
100
AcDbText
 73
     2
  0
TEXT
  5
2E8
330
1BF
100
AcDbEntity
  8
1
 62
     3
100
AcDbText
 10
2853.28025374938
 20
1444.417997989959
 30
0.0
 40
6.0
  1
組 立 図
 41
0.6299999999999999
 11
2853.28025374938
 21
1447.417997989959
 31
0.0
100
AcDbText
 73
     2
  0
TEXT
  5
2E9
330
1BF
100
AcDbEntity
  8
1
 62
     4
100
AcDbText
 10
2907.436169694384
 20
1471.417997989959
 30
0.0
 40
4.0
  1
記   事
 41
0.9
 72
     1
 11
2915.236169694384
 21
1473.417997989959
 31
0.0
100
AcDbText
 73
     2
  0
TEXT
  5
2EA
330
1BF
100
AcDbEntity
  8
1
 62
     4
100
AcDbText
 10
2865.536169694384
 20
1471.417997989959
 30
0.0
 40
4.0
  1
仕   上   げ
 41
0.9
 72
     1
 11
2880.236169694384
 21
1473.417997989959
 31
0.0
100
AcDbText
 73
     2
  0
TEXT
  5
2EB
330
1BF
100
AcDbEntity
  8
1
 62
     4
100
AcDbText
 10
2848.536169694384
 20
1471.417997989959
 30
0.0
 40
4.0
  1
数 量
 41
0.9
 72
     1
 11
2852.736169694384
 21
1473.417997989959
 31
0.0
100
AcDbText
 73
     2
  0
TEXT
  5
2EC
330
1BF
100
AcDbEntity
  8
1
 62
     4
100
AcDbText
 10
2822.436169694384
 20
1471.417997989959
 30
0.0
 40
4.0
  1
坑   質
 41
0.9
 72
     1
 11
2830.236169694384
 21
1473.417997989959
 31
0.0
100
AcDbText
 73
     2
  0
TEXT
  5
2ED
330
1BF
100
AcDbEntity
  8
1
 62
     4
100
AcDbText
 10
2773.436169694384
 20
1471.417997989959
 30
0.0
 40
4.0
  1
品        名
 41
0.9
 72
     1
 11
2790.236169694384
 21
1473.417997989959
 31
0.0
100
AcDbText
 73
     2
  0
TEXT
  5
2EE
330
1BF
100
AcDbEntity
  8
1
 62
     4
100
AcDbText
 10
2753.536169694384
 20
1471.417997989959
 30
0.0
 40
4.0
  1
品 番
 41
0.9
 72
     1
 11
2757.736169694384
 21
1473.417997989959
 31
0.0
100
AcDbText
 73
     2
  0
TEXT
  5
2EF
330
1BF
100
AcDbEntity
  8
1
 62
     3
100
AcDbText
 10
2817.651668756719
 20
1478.667997989959
 30
0.0
 40
3.5
  1
ZDC 2
 41
0.6300000000000001
 11
2817.651668756719
 21
1480.417997989959
 31
0.0
100
AcDbText
 73
     2
  0
TEXT
  5
2F0
330
1BF
100
AcDbEntity
  8
1
 62
     3
100
AcDbText
 10
2862.587635856635
 20
1485.667997989959
 30
0.0
 40
3.5
  1
DG(ディープグレー)色
 41
0.6300000000000001
 11
2862.587635856635
 21
1487.417997989959
 31
0.0
100
AcDbText
 73
     2
  0
TEXT
  5
2F1
330
1BF
100
AcDbEntity
  8
1
 62
     3
100
AcDbText
 10
2817.651668756719
 20
1485.667997989959
 30
0.0
 40
3.5
  1
PBT
 41
0.6300000000000001
 11
2817.651668756719
 21
1487.417997989959
 31
0.0
100
AcDbText
 73
     2
  0
TEXT
  5
2F2
330
1BF
100
AcDbEntity
  8
1
 62
     3
100
AcDbText
 10
2767.187301918956
 20
1485.66799798996
 30
0.0
 40
3.5
  1
着脱ホルダー
 41
0.6300000000000001
 11
2767.187301918956
 21
1487.41799798996
 31
0.0
100
AcDbText
 73
     2
  0
TEXT
  5
2F3
330
1BF
100
AcDbEntity
  8
1
 62
     3
100
AcDbText
 10
2767.187301918956
 20
1506.667997989959
 30
0.0
 40
3.5
  1
ワッシャー
 41
0.6300000000000001
 11
2767.187301918956
 21
1508.417997989959
 31
0.0
100
AcDbText
 73
     2
  0
TEXT
  5
2F4
330
1BF
100
AcDbEntity
  8
1
 62
     3
100
AcDbText
 10
2767.187301918956
 20
1499.667997989959
 30
0.0
 40
3.5
  1
ローラーガイド
 41
0.6300000000000001
 11
2767.187301918956
 21
1501.417997989959
 31
0.0
100
AcDbText
 73
     2
  0
TEXT
  5
2F5
330
1BF
100
AcDbEntity
  8
1
 62
     3
100
AcDbText
 10
2817.651668756719
 20
1499.667997989959
 30
0.0
 40
3.5
  1
6ナイロン
 41
0.6300000000000001
 11
2817.651668756719
 21
1501.417997989959
 31
0.0
100
AcDbText
 73
     2
  0
TEXT
  5
2F6
330
1BF
100
AcDbEntity
  8
1
 62
     3
100
AcDbText
 10
2817.651668756719
 20
1506.667997989959
 30
0.0
 40
3.5
  1
SPCC ｔ＝0.5
 41
0.6300000000000001
 11
2817.651668756719
 21
1508.417997989959
 31
0.0
100
AcDbText
 73
     2
  0
TEXT
  5
2F7
330
1BF
100
AcDbEntity
  8
1
 62
     3
100
AcDbText
 10
2852.368669694384
 20
1499.667997989959
 30
0.0
 40
3.5
  1
1
 41
0.6300000000000001
 72
     1
 11
2852.736169694384
 21
1501.417997989959
 31
0.0
100
AcDbText
 73
     2
  0
TEXT
  5
2F8
330
1BF
100
AcDbEntity
  8
1
 62
     3
100
AcDbText
 10
2852.368669694384
 20
1506.667997989959
 30
0.0
 40
3.5
  1
1
 41
0.6300000000000001
 72
     1
 11
2852.736169694384
 21
1508.417997989959
 31
0.0
100
AcDbText
 73
     2
  0
TEXT
  5
2F9
330
1BF
100
AcDbEntity
  8
1
 62
     3
100
AcDbText
 10
2862.587635856635
 20
1499.667997989959
 30
0.0
 40
3.5
  1
DG色
 41
0.6300000000000001
 11
2862.587635856635
 21
1501.417997989959
 31
0.0
100
AcDbText
 73
     2
  0
TEXT
  5
2FA
330
1BF
100
AcDbEntity
  8
1
 62
     3
100
AcDbText
 10
2862.587635856635
 20
1506.667997989959
 30
0.0
 40
3.5
  1
クロメート
 41
0.6300000000000001
 11
2862.587635856635
 21
1508.417997989959
 31
0.0
100
AcDbText
 73
     2
  0
TEXT
  5
2FB
330
1BF
100
AcDbEntity
  8
1
 62
     3
100
AcDbText
 10
2767.187301918956
 20
1513.667997989959
 30
0.0
 40
3.5
  1
取付けねじ
 41
0.6300000000000001
 11
2767.187301918956
 21
1515.417997989959
 31
0.0
100
AcDbText
 73
     2
  0
TEXT
  5
2FC
330
1BF
100
AcDbEntity
  8
1
 62
     3
100
AcDbText
 10
2817.651668756719
 20
1513.667997989959
 30
0.0
 40
3.5
  1
SWCH
 41
0.6300000000000001
 11
2817.651668756719
 21
1515.417997989959
 31
0.0
100
AcDbText
 73
     2
  0
TEXT
  5
2FD
330
1BF
100
AcDbEntity
  8
1
 62
     3
100
AcDbText
 10
2852.001169694384
 20
1513.667997989959
 30
0.0
 40
3.5
  1
3
 41
0.6300000000000001
 72
     1
 11
2852.736169694384
 21
1515.417997989959
 31
0.0
100
AcDbText
 73
     2
  0
TEXT
  5
2FE
330
1BF
100
AcDbEntity
  8
1
 62
     3
100
AcDbText
 10
2862.587635856635
 20
1513.667997989959
 30
0.0
 40
3.5
  1
ユニクロメッキ
 41
0.6300000000000001
 11
2862.587635856635
 21
1515.417997989959
 31
0.0
100
AcDbText
 73
     2
  0
TEXT
  5
2FF
330
1BF
100
AcDbEntity
  8
1
 62
     3
100
AcDbText
 10
2902.587635856635
 20
1513.667997989959
 30
0.0
 40
3.5
  1
なべ3.5\U+00D725タッピンネジ
 41
0.4950000000000001
 11
2902.587635856635
 21
1515.417997989959
 31
0.0
100
AcDbText
 73
     2
  0
TEXT
  5
300
330
1BF
100
AcDbEntity
  8
1
 62
     3
100
AcDbText
 10
2757.001169694384
 20
1499.667997989958
 30
0.0
 40
3.5
  1
4
 41
0.6300000000000001
 72
     1
 11
2757.736169694384
 21
1501.417997989958
 31
0.0
100
AcDbText
 73
     2
  0
TEXT
  5
301
330
1BF
100
AcDbEntity
  8
1
 62
     3
100
AcDbText
 10
2757.001169694384
 20
1506.667997989958
 30
0.0
 40
3.5
  1
5
 41
0.6300000000000001
 72
     1
 11
2757.736169694384
 21
1508.417997989958
 31
0.0
100
AcDbText
 73
     2
  0
TEXT
  5
302
330
1BF
100
AcDbEntity
  8
1
 62
     3
100
AcDbText
 10
2757.001169694384
 20
1513.667997989958
 30
0.0
 40
3.5
  1
6
 41
0.6300000000000001
 72
     1
 11
2757.736169694384
 21
1515.417997989958
 31
0.0
100
AcDbText
 73
     2
  0
TEXT
  5
303
330
1BF
100
AcDbEntity
  8
1
 62
     3
100
AcDbText
 10
2862.587635856635
 20
1478.667997989959
 30
0.0
 40
3.5
  1
クロメート
 41
0.6300000000000001
 11
2862.587635856635
 21
1480.417997989959
 31
0.0
100
AcDbText
 73
     2
  0
ENDBLK
  5
304
330
1BF
100
AcDbEntity
  8
0
100
AcDbBlockEnd
  0
BLOCK
  5
306
330
305
100
AcDbEntity
  8
0
100
AcDbBlockBegin
  2
FORMAT_A3
 70
     0
 10
2582.618972687722
 20
1510.375010010685
 30
0.0
  3
FORMAT_A3
  1

  0
LINE
  5
307
330
305
100
AcDbEntity
  8
1
 62
     7
100
AcDbLine
 10
2750.236169694384
 20
1424.917997989959
 30
0.0
 11
2555.236169694384
 21
1424.917997989959
 31
0.0
  0
LINE
  5
308
330
305
100
AcDbEntity
  8
1
 62
     7
100
AcDbLine
 10
2555.236169694384
 20
1694.917997989958
 30
0.0
 11
2555.236169694384
 21
1424.917997989959
 31
0.0
  0
LINE
  5
309
330
305
100
AcDbEntity
  8
1
 62
     7
100
AcDbLine
 10
2930.236169694384
 20
1469.917997989958
 30
0.0
 11
2930.236169694385
 21
1694.917997989958
 31
0.0
  0
LINE
  5
30A
330
305
100
AcDbEntity
  8
1
 62
     7
100
AcDbLine
 10
2930.236169694385
 20
1694.917997989958
 30
0.0
 11
2555.236169694384
 21
1694.917997989958
 31
0.0
  0
INSERT
  5
30B
330
305
100
AcDbEntity
  8
0
100
AcDbBlockReference
  2
______
 10
2977.656133403442
 20
1488.503465444209
 30
0.0
  0
ENDBLK
  5
30C
330
305
100
AcDbEntity
  8
0
100
AcDbBlockEnd
  0
BLOCK
  5
30E
330
30D
100
AcDbEntity
  8
0
100
AcDbBlockBegin
  2
_3
 70
     0
 10
1453.983765657445
 20
1257.30321333417
 30
0.0
  3
_3
  1

  0
INSERT
  5
30F
330
30D
100
AcDbEntity
  8
0
100
AcDbBlockReference
  2
FORMAT_A3
 10
1439.257578114242
 20
1249.754704484148
 30
0.0
  0
ENDBLK
  5
310
330
30D
100
AcDbEntity
  8
0
100
AcDbBlockEnd
  0
BLOCK
  5
312
330
311
100
AcDbEntity
  8
0
100
AcDbBlockBegin
  2
TOP__1
 70
     0
 10
341.699953811624
 20
995.7317950340099
 30
0.0
  3
TOP__1
  1

  0
INSERT
  5
313
330
311
100
AcDbEntity
  8
0
100
AcDbBlockReference
  2
_3
 10
1453.983765657445
 20
1257.30321333417
 30
0.0
  0
ENDBLK
  5
314
330
311
100
AcDbEntity
  8
0
100
AcDbBlockEnd
  0
BLOCK
  5
316
330
315
100
AcDbEntity
  8
0
100
AcDbBlockBegin
  2
_1
 70
     0
 10
1486.03537108553
 20
1604.98256440742
 30
0.0
  3
_1
  1

  0
LINE
  5
317
330
315
100
AcDbEntity
  8
1
 62
     7
100
AcDbLine
 10
1534.124775120904
 20
1320.093058803334
 30
0.0
 11
1517.124775120904
 21
1320.093058803334
 31
0.0
  0
LINE
  5
318
330
315
100
AcDbEntity
  8
1
 62
     7
100
AcDbLine
 10
1517.124775120904
 20
1317.073381338805
 30
0.0
 11
1517.124775120904
 21
1320.093058803334
 31
0.0
  0
LINE
  5
319
330
315
100
AcDbEntity
  8
1
 62
     7
100
AcDbLine
 10
1534.124775120904
 20
1320.093058803334
 30
0.0
 11
1534.124775120904
 21
1317.073381338805
 31
0.0
  0
LINE
  5
31A
330
315
100
AcDbEntity
  8
1
 62
     7
100
AcDbLine
 10
1532.10921068383
 20
1315.493058803334
 30
0.0
 11
1519.140339557979
 21
1315.493058803334
 31
0.0
  0
LINE
  5
31B
330
315
100
AcDbEntity
  8
1
 62
     7
100
AcDbLine
 10
1517.628636182547
 20
1316.205138196681
 30
0.0
 11
1518.644200619622
 21
1315.62481566121
 31
0.0
  0
LINE
  5
31C
330
315
100
AcDbEntity
  8
1
 62
     7
100
AcDbLine
 10
1533.620914059261
 20
1316.205138196681
 30
0.0
 11
1532.605349622186
 21
1315.62481566121
 31
0.0
  0
LINE
  5
31D
330
315
100
AcDbEntity
  8
1
 62
     7
100
AcDbLine
 10
1695.874775120904
 20
1320.093058803334
 30
0.0
 11
1678.874775120904
 21
1320.093058803334
 31
0.0
  0
LINE
  5
31E
330
315
100
AcDbEntity
  8
1
 62
     7
100
AcDbLine
 10
1695.874775120904
 20
1320.093058803334
 30
0.0
 11
1695.874775120904
 21
1317.073381338805
 31
0.0
  0
LINE
  5
31F
330
315
100
AcDbEntity
  8
1
 62
     7
100
AcDbLine
 10
1678.874775120904
 20
1317.073381338805
 30
0.0
 11
1678.874775120904
 21
1320.093058803334
 31
0.0
  0
LINE
  5
320
330
315
100
AcDbEntity
  8
1
 62
     7
100
AcDbLine
 10
1693.859210683829
 20
1315.493058803334
 30
0.0
 11
1680.890339557978
 21
1315.493058803334
 31
0.0
  0
LINE
  5
321
330
315
100
AcDbEntity
  8
1
 62
     7
100
AcDbLine
 10
1694.355349622186
 20
1315.62481566121
 30
0.0
 11
1695.370914059261
 21
1316.205138196681
 31
0.0
  0
LINE
  5
322
330
315
100
AcDbEntity
  8
1
 62
     7
100
AcDbLine
 10
1680.394200619622
 20
1315.62481566121
 30
0.0
 11
1679.378636182547
 21
1316.205138196681
 31
0.0
  0
ARC
  5
323
330
315
100
AcDbEntity
  8
1
 62
     7
100
AcDbCircle
 10
1518.124775120904
 20
1317.073381338805
 30
0.0
 40
1.0
100
AcDbArc
 50
180.0
 51
240.2551187030433
  0
ARC
  5
324
330
315
100
AcDbEntity
  8
1
 62
     7
100
AcDbCircle
 10
1519.140339557979
 20
1316.493058803334
 30
0.0
 40
0.9999999999995027
100
AcDbArc
 50
240.2551187030433
 51
270.0
  0
ARC
  5
325
330
315
100
AcDbEntity
  8
1
 62
     7
100
AcDbCircle
 10
1532.109210683829
 20
1316.493058803334
 30
0.0
 40
1.0
100
AcDbArc
 50
270.0
 51
299.7448812969681
  0
ARC
  5
326
330
315
100
AcDbEntity
  8
1
 62
     7
100
AcDbCircle
 10
1533.124775120904
 20
1317.073381338805
 30
0.0
 40
0.9999999999996157
100
AcDbArc
 50
299.7448812969681
 51
0.0
  0
ARC
  5
327
330
315
100
AcDbEntity
  8
1
 62
     7
100
AcDbCircle
 10
1694.874775120904
 20
1317.073381338805
 30
0.0
 40
0.9999999999996157
100
AcDbArc
 50
299.7448812969681
 51
0.0
  0
ARC
  5
328
330
315
100
AcDbEntity
  8
1
 62
     7
100
AcDbCircle
 10
1693.859210683829
 20
1316.493058803334
 30
0.0
 40
1.0
100
AcDbArc
 50
270.0
 51
299.7448812969681
  0
ARC
  5
329
330
315
100
AcDbEntity
  8
1
 62
     7
100
AcDbCircle
 10
1680.890339557979
 20
1316.493058803334
 30
0.0
 40
0.9999999999995027
100
AcDbArc
 50
240.2551187030433
 51
270.0
  0
ARC
  5
32A
330
315
100
AcDbEntity
  8
1
 62
     7
100
AcDbCircle
 10
1679.874775120904
 20
1317.073381338805
 30
0.0
 40
1.0
100
AcDbArc
 50
180.0
 51
240.2551187030433
  0
ENDBLK
  5
32B
330
315
100
AcDbEntity
  8
0
100
AcDbBlockEnd
  0
BLOCK
  5
32D
330
32C
100
AcDbEntity
  8
0
100
AcDbBlockBegin
  2
_2
 70
     0
 10
1488.53537108553
 20
1635.76612514078
 30
0.0
  3
_2
  1

  0
LINE
  5
32E
330
32C
100
AcDbEntity
  8
1
 62
     7
100
AcDbLine
 10
1683.374775120904
 20
1320.093058803334
 30
0.0
 11
1691.374775120904
 21
1320.093058803334
 31
0.0
  0
LINE
  5
32F
330
32C
100
AcDbEntity
  8
1
 62
     7
100
AcDbLine
 10
1691.374775120904
 20
1320.093058803334
 30
0.0
 11
1691.374775120904
 21
1320.593058803334
 31
0.0
  0
LINE
  5
330
330
32C
100
AcDbEntity
  8
1
 62
     7
100
AcDbLine
 10
1691.374775120904
 20
1320.593058803334
 30
0.0
 11
1683.374775120904
 21
1320.593058803334
 31
0.0
  0
LINE
  5
331
330
32C
100
AcDbEntity
  8
1
 62
     7
100
AcDbLine
 10
1683.374775120904
 20
1320.593058803334
 30
0.0
 11
1683.374775120904
 21
1320.093058803334
 31
0.0
  0
LINE
  5
332
330
32C
100
AcDbEntity
  8
1
 62
     7
100
AcDbLine
 10
1521.624775120904
 20
1320.093058803334
 30
0.0
 11
1529.624775120904
 21
1320.093058803334
 31
0.0
  0
LINE
  5
333
330
32C
100
AcDbEntity
  8
1
 62
     7
100
AcDbLine
 10
1521.624775120904
 20
1320.593058803334
 30
0.0
 11
1521.624775120904
 21
1320.093058803334
 31
0.0
  0
LINE
  5
334
330
32C
100
AcDbEntity
  8
1
 62
     7
100
AcDbLine
 10
1529.624775120904
 20
1320.593058803334
 30
0.0
 11
1521.624775120904
 21
1320.593058803334
 31
0.0
  0
LINE
  5
335
330
32C
100
AcDbEntity
  8
1
 62
     7
100
AcDbLine
 10
1529.624775120904
 20
1320.093058803334
 30
0.0
 11
1529.624775120904
 21
1320.593058803334
 31
0.0
  0
ENDBLK
  5
336
330
32C
100
AcDbEntity
  8
0
100
AcDbBlockEnd
  0
BLOCK
  5
338
330
337
100
AcDbEntity
  8
1
100
AcDbBlockBegin
  2
*D9
 70
     1
 10
0.0
 20
0.0
 30
0.0
  3
*D9
  1

  0
LINE
  5
339
330
337
100
AcDbEntity
  8
1
 62
     2
100
AcDbLine
 10
1725.374775120904
 20
1331.493058803334
 30
0.0
 11
1725.374775120904
 21
1326.593058803334
 31
0.0
  0
LINE
  5
33A
330
337
100
AcDbEntity
  8
1
 62
     2
100
AcDbLine
 10
1725.374775120904
 20
1320.593058803334
 30
0.0
 11
1725.374775120904
 21
1326.593058803334
 31
0.0
  0
LINE
  5
33B
330
337
100
AcDbEntity
  8
1
 62
     2
100
AcDbLine
 10
1725.374775120904
 20
1320.593058803334
 30
0.0
 11
1725.374775120904
 21
1297.624581031409
 31
0.0
  0
LINE
  5
33C
330
337
100
AcDbEntity
  8
1
 62
     2
100
AcDbLine
 10
1692.374775120904
 20
1320.593058803334
 30
0.0
 11
1726.374775120904
 21
1320.593058803334
 31
0.0
  0
LINE
  5
33D
330
337
100
AcDbEntity
  8
1
 62
     2
100
AcDbLine
 10
1698.374775120904
 20
1326.593058803334
 30
0.0
 11
1726.374775120904
 21
1326.593058803334
 31
0.0
  0
LINE
  5
33E
330
337
100
AcDbEntity
  8
1
 62
     2
100
AcDbLine
 10
1725.374775120904
 20
1326.593058803334
 30
0.0
 11
1724.713275120904
 21
1329.043058803334
 31
0.0
  0
LINE
  5
33F
330
337
100
AcDbEntity
  8
1
 62
     2
100
AcDbLine
 10
1725.374775120904
 20
1326.593058803334
 30
0.0
 11
1726.036275120904
 21
1329.043058803334
 31
0.0
  0
LINE
  5
340
330
337
100
AcDbEntity
  8
1
 62
     2
100
AcDbLine
 10
1725.374775120904
 20
1320.593058803334
 30
0.0
 11
1726.036275120904
 21
1318.143058803334
 31
0.0
  0
LINE
  5
341
330
337
100
AcDbEntity
  8
1
 62
     2
100
AcDbLine
 10
1725.374775120904
 20
1320.593058803334
 30
0.0
 11
1724.713275120904
 21
1318.143058803334
 31
0.0
  0
TEXT
  5
342
330
337
100
AcDbEntity
  8
1
 62
     3
100
AcDbText
 10
1724.258108454238
 20
1297.624581031409
 30
0.0
 40
3.5
  1
調整範囲 0～13
 50
90.0
 41
0.63
  7
SIMPLEX
100
AcDbText
  0
ENDBLK
  5
343
330
337
100
AcDbEntity
  8
0
100
AcDbBlockEnd
  0
BLOCK
  5
345
330
344
100
AcDbEntity
  8
1
100
AcDbBlockBegin
  2
*D10
 70
     1
 10
0.0
 20
0.0
 30
0.0
  3
*D10
  1

  0
LINE
  5
346
330
344
100
AcDbEntity
  8
1
 62
     2
100
AcDbLine
 10
1725.374775120904
 20
1326.593058803334
 30
0.0
 11
1725.374775120904
 21
1337.593058803334
 31
0.0
  0
LINE
  5
347
330
344
100
AcDbEntity
  8
1
 62
     2
100
AcDbLine
 10
1700.374775120904
 20
1337.593058803334
 30
0.0
 11
1726.374775120904
 21
1337.593058803334
 31
0.0
  0
LINE
  5
348
330
344
100
AcDbEntity
  8
1
 62
     2
100
AcDbLine
 10
1698.374775120904
 20
1326.593058803334
 30
0.0
 11
1726.374775120904
 21
1326.593058803334
 31
0.0
  0
LINE
  5
349
330
344
100
AcDbEntity
  8
1
 62
     2
100
AcDbLine
 10
1725.374775120904
 20
1337.593058803334
 30
0.0
 11
1726.036275120904
 21
1335.143058803334
 31
0.0
  0
LINE
  5
34A
330
344
100
AcDbEntity
  8
1
 62
     2
100
AcDbLine
 10
1725.374775120904
 20
1337.593058803334
 30
0.0
 11
1724.713275120904
 21
1335.143058803334
 31
0.0
  0
LINE
  5
34B
330
344
100
AcDbEntity
  8
1
 62
     2
100
AcDbLine
 10
1725.374775120904
 20
1326.593058803334
 30
0.0
 11
1724.713275120904
 21
1329.043058803334
 31
0.0
  0
LINE
  5
34C
330
344
100
AcDbEntity
  8
1
 62
     2
100
AcDbLine
 10
1725.374775120904
 20
1326.593058803334
 30
0.0
 11
1726.036275120904
 21
1329.043058803334
 31
0.0
  0
TEXT
  5
34D
330
344
100
AcDbEntity
  8
1
 62
     3
100
AcDbText
 10
1724.374775120904
 20
1330.990558803334
 30
0.0
 40
3.5
  1
11
 50
90.0
 41
0.63
  7
SIMPLEX
100
AcDbText
  0
ENDBLK
  5
34E
330
344
100
AcDbEntity
  8
0
100
AcDbBlockEnd
  0
BLOCK
  5
350
330
34F
100
AcDbEntity
  8
1
100
AcDbBlockBegin
  2
*D11
 70
     1
 10
0.0
 20
0.0
 30
0.0
  3
*D11
  1

  0
LINE
  5
351
330
34F
100
AcDbEntity
  8
1
 62
     2
100
AcDbLine
 10
1496.724775120904
 20
1315.493058803334
 30
0.0
 11
1496.724775120904
 21
1320.093058803334
 31
0.0
  0
LINE
  5
352
330
34F
100
AcDbEntity
  8
1
 62
     2
100
AcDbLine
 10
1496.724775120904
 20
1315.493058803334
 30
0.0
 11
1496.724775120904
 21
1310.593058803334
 31
0.0
  0
LINE
  5
353
330
34F
100
AcDbEntity
  8
1
 62
     2
100
AcDbLine
 10
1496.724775120904
 20
1320.093058803334
 30
0.0
 11
1496.724775120904
 21
1324.993058803334
 31
0.0
  0
LINE
  5
354
330
34F
100
AcDbEntity
  8
1
 62
     2
100
AcDbLine
 10
1518.140339557979
 20
1315.493058803334
 30
0.0
 11
1495.724775120904
 21
1315.493058803334
 31
0.0
  0
LINE
  5
355
330
34F
100
AcDbEntity
  8
1
 62
     2
100
AcDbLine
 10
1516.124775120904
 20
1320.093058803334
 30
0.0
 11
1495.724775120904
 21
1320.093058803334
 31
0.0
  0
LINE
  5
356
330
34F
100
AcDbEntity
  8
1
 62
     2
100
AcDbLine
 10
1496.724775120904
 20
1320.093058803334
 30
0.0
 11
1496.063275120904
 21
1322.543058803334
 31
0.0
  0
LINE
  5
357
330
34F
100
AcDbEntity
  8
1
 62
     2
100
AcDbLine
 10
1496.724775120904
 20
1320.093058803334
 30
0.0
 11
1497.386275120904
 21
1322.543058803334
 31
0.0
  0
LINE
  5
358
330
34F
100
AcDbEntity
  8
1
 62
     2
100
AcDbLine
 10
1496.724775120904
 20
1315.493058803334
 30
0.0
 11
1497.386275120904
 21
1313.043058803334
 31
0.0
  0
LINE
  5
359
330
34F
100
AcDbEntity
  8
1
 62
     2
100
AcDbLine
 10
1496.724775120904
 20
1315.493058803334
 30
0.0
 11
1496.063275120904
 21
1313.043058803334
 31
0.0
  0
TEXT
  5
35A
330
34F
100
AcDbEntity
  8
1
 62
     3
100
AcDbText
 10
1495.724775120904
 20
1315.526808803334
 30
0.0
 40
3.5
  1
4.6
 50
90.0
 41
0.63
  7
SIMPLEX
100
AcDbText
  0
ENDBLK
  5
35B
330
34F
100
AcDbEntity
  8
0
100
AcDbBlockEnd
  0
BLOCK
  5
35D
330
35C
100
AcDbEntity
  8
1
100
AcDbBlockBegin
  2
*D12
 70
     1
 10
0.0
 20
0.0
 30
0.0
  3
*D12
  1

  0
LINE
  5
35E
330
35C
100
AcDbEntity
  8
1
 62
     2
100
AcDbLine
 10
1517.124775120904
 20
1294.493058803334
 30
0.0
 11
1534.124775120904
 21
1294.493058803334
 31
0.0
  0
LINE
  5
35F
330
35C
100
AcDbEntity
  8
1
 62
     2
100
AcDbLine
 10
1517.124775120904
 20
1316.073381338805
 30
0.0
 11
1517.124775120904
 21
1293.493058803334
 31
0.0
  0
LINE
  5
360
330
35C
100
AcDbEntity
  8
1
 62
     2
100
AcDbLine
 10
1534.124775120904
 20
1316.073381338805
 30
0.0
 11
1534.124775120904
 21
1293.493058803334
 31
0.0
  0
LINE
  5
361
330
35C
100
AcDbEntity
  8
1
 62
     2
100
AcDbLine
 10
1534.124775120904
 20
1294.493058803334
 30
0.0
 11
1531.674775120904
 21
1293.831558803334
 31
0.0
  0
LINE
  5
362
330
35C
100
AcDbEntity
  8
1
 62
     2
100
AcDbLine
 10
1534.124775120904
 20
1294.493058803334
 30
0.0
 11
1531.674775120904
 21
1295.154558803334
 31
0.0
  0
LINE
  5
363
330
35C
100
AcDbEntity
  8
1
 62
     2
100
AcDbLine
 10
1517.124775120904
 20
1294.493058803334
 30
0.0
 11
1519.574775120904
 21
1295.154558803334
 31
0.0
  0
LINE
  5
364
330
35C
100
AcDbEntity
  8
1
 62
     2
100
AcDbLine
 10
1517.124775120904
 20
1294.493058803334
 30
0.0
 11
1519.574775120904
 21
1293.831558803334
 31
0.0
  0
TEXT
  5
365
330
35C
100
AcDbEntity
  8
1
 62
     3
100
AcDbText
 10
1525.887275120904
 20
1295.493058803334
 30
0.0
 40
3.5
  1
17
 41
0.63
  7
SIMPLEX
100
AcDbText
  0
TEXT
  5
366
330
35C
100
AcDbEntity
  8
1
 62
     3
100
AcDbText
 10
1522.422275120904
 20
1295.493058803334
 30
0.0
 40
3.5
  1
%%c
 41
0.63
  7
SIMPLEX
100
AcDbText
  0
ENDBLK
  5
367
330
35C
100
AcDbEntity
  8
0
100
AcDbBlockEnd
  0
BLOCK
  5
369
330
368
100
AcDbEntity
  8
1
100
AcDbBlockBegin
  2
*D13
 70
     1
 10
0.0
 20
0.0
 30
0.0
  3
*D13
  1

  0
LINE
  5
36A
330
368
100
AcDbEntity
  8
1
 62
     2
100
AcDbLine
 10
1496.724775120904
 20
1326.593058803334
 30
0.0
 11
1496.724775120904
 21
1369.593058803334
 31
0.0
  0
LINE
  5
36B
330
368
100
AcDbEntity
  8
1
 62
     2
100
AcDbLine
 10
1516.724775120904
 20
1326.593058803334
 30
0.0
 11
1495.724775120904
 21
1326.593058803334
 31
0.0
  0
LINE
  5
36C
330
368
100
AcDbEntity
  8
1
 62
     2
100
AcDbLine
 10
1524.624775120904
 20
1369.593058803334
 30
0.0
 11
1495.724775120904
 21
1369.593058803334
 31
0.0
  0
LINE
  5
36D
330
368
100
AcDbEntity
  8
1
 62
     2
100
AcDbLine
 10
1496.724775120904
 20
1369.593058803334
 30
0.0
 11
1497.386275120904
 21
1367.143058803334
 31
0.0
  0
LINE
  5
36E
330
368
100
AcDbEntity
  8
1
 62
     2
100
AcDbLine
 10
1496.724775120904
 20
1369.593058803334
 30
0.0
 11
1496.063275120904
 21
1367.143058803334
 31
0.0
  0
LINE
  5
36F
330
368
100
AcDbEntity
  8
1
 62
     2
100
AcDbLine
 10
1496.724775120904
 20
1326.593058803334
 30
0.0
 11
1496.063275120904
 21
1329.043058803334
 31
0.0
  0
LINE
  5
370
330
368
100
AcDbEntity
  8
1
 62
     2
100
AcDbLine
 10
1496.724775120904
 20
1326.593058803334
 30
0.0
 11
1497.386275120904
 21
1329.043058803334
 31
0.0
  0
TEXT
  5
371
330
368
100
AcDbEntity
  8
1
 62
     3
100
AcDbText
 10
1495.724775120904
 20
1346.255558803334
 30
0.0
 40
3.5
  1
43
 50
90.0
 41
0.63
  7
SIMPLEX
100
AcDbText
  0
ENDBLK
  5
372
330
368
100
AcDbEntity
  8
0
100
AcDbBlockEnd
  0
BLOCK
  5
374
330
373
100
AcDbEntity
  8
1
100
AcDbBlockBegin
  2
*D14
 70
     1
 10
0.0
 20
0.0
 30
0.0
  3
*D14
  1

  0
LINE
  5
375
330
373
100
AcDbEntity
  8
1
 62
     2
100
AcDbLine
 10
1517.724775120904
 20
1390.593058803334
 30
0.0
 11
1533.524775120904
 21
1390.593058803334
 31
0.0
  0
LINE
  5
376
330
373
100
AcDbEntity
  8
1
 62
     2
100
AcDbLine
 10
1517.724775120904
 20
1362.693058803334
 30
0.0
 11
1517.724775120904
 21
1391.593058803334
 31
0.0
  0
LINE
  5
377
330
373
100
AcDbEntity
  8
1
 62
     2
100
AcDbLine
 10
1533.524775120904
 20
1362.693058803334
 30
0.0
 11
1533.524775120904
 21
1391.593058803334
 31
0.0
  0
LINE
  5
378
330
373
100
AcDbEntity
  8
1
 62
     2
100
AcDbLine
 10
1517.724775120904
 20
1390.593058803334
 30
0.0
 11
1520.174775120904
 21
1391.254558803334
 31
0.0
  0
LINE
  5
379
330
373
100
AcDbEntity
  8
1
 62
     2
100
AcDbLine
 10
1517.724775120904
 20
1390.593058803334
 30
0.0
 11
1520.174775120904
 21
1389.931558803334
 31
0.0
  0
LINE
  5
37A
330
373
100
AcDbEntity
  8
1
 62
     2
100
AcDbLine
 10
1533.524775120904
 20
1390.593058803334
 30
0.0
 11
1531.074775120904
 21
1389.931558803334
 31
0.0
  0
LINE
  5
37B
330
373
100
AcDbEntity
  8
1
 62
     2
100
AcDbLine
 10
1533.524775120904
 20
1390.593058803334
 30
0.0
 11
1531.074775120904
 21
1391.254558803334
 31
0.0
  0
TEXT
  5
37C
330
373
100
AcDbEntity
  8
1
 62
     3
100
AcDbText
 10
1522.623525120904
 20
1391.593058803334
 30
0.0
 40
3.5
  1
15.8
 41
0.63
  7
SIMPLEX
100
AcDbText
  0
ENDBLK
  5
37D
330
373
100
AcDbEntity
  8
0
100
AcDbBlockEnd
  0
BLOCK
  5
37F
330
37E
100
AcDbEntity
  8
1
100
AcDbBlockBegin
  2
*D15
 70
     1
 10
0.0
 20
0.0
 30
0.0
  3
*D15
  1

  0
LINE
  5
380
330
37E
100
AcDbEntity
  8
1
 62
     2
100
AcDbLine
 10
1725.374775120904
 20
1349.593058803334
 30
0.0
 11
1725.374775120904
 21
1369.593058803334
 31
0.0
  0
LINE
  5
381
330
37E
100
AcDbEntity
  8
1
 62
     2
100
AcDbLine
 10
1700.374775120904
 20
1349.593058803334
 30
0.0
 11
1726.374775120904
 21
1349.593058803334
 31
0.0
  0
LINE
  5
382
330
37E
100
AcDbEntity
  8
1
 62
     2
100
AcDbLine
 10
1697.374775120904
 20
1369.593058803334
 30
0.0
 11
1726.374775120904
 21
1369.593058803334
 31
0.0
  0
LINE
  5
383
330
37E
100
AcDbEntity
  8
1
 62
     2
100
AcDbLine
 10
1725.374775120904
 20
1369.593058803334
 30
0.0
 11
1726.036275120904
 21
1367.143058803334
 31
0.0
  0
LINE
  5
384
330
37E
100
AcDbEntity
  8
1
 62
     2
100
AcDbLine
 10
1725.374775120904
 20
1369.593058803334
 30
0.0
 11
1724.713275120904
 21
1367.143058803334
 31
0.0
  0
LINE
  5
385
330
37E
100
AcDbEntity
  8
1
 62
     2
100
AcDbLine
 10
1725.374775120904
 20
1349.593058803334
 30
0.0
 11
1724.713275120904
 21
1352.043058803334
 31
0.0
  0
LINE
  5
386
330
37E
100
AcDbEntity
  8
1
 62
     2
100
AcDbLine
 10
1725.374775120904
 20
1349.593058803334
 30
0.0
 11
1726.036275120904
 21
1352.043058803334
 31
0.0
  0
TEXT
  5
387
330
37E
100
AcDbEntity
  8
1
 62
     3
100
AcDbText
 10
1724.374775120904
 20
1357.755558803334
 30
0.0
 40
3.5
  1
20
 50
90.0
 41
0.63
  7
SIMPLEX
100
AcDbText
  0
ENDBLK
  5
388
330
37E
100
AcDbEntity
  8
0
100
AcDbBlockEnd
  0
BLOCK
  5
38A
330
389
100
AcDbEntity
  8
1
100
AcDbBlockBegin
  2
*D16
 70
     1
 10
0.0
 20
0.0
 30
0.0
  3
*D16
  1

  0
LINE
  5
38B
330
389
100
AcDbEntity
  8
1
 62
     2
100
AcDbLine
 10
1725.374775120904
 20
1337.593058803334
 30
0.0
 11
1725.374775120904
 21
1349.593058803334
 31
0.0
  0
LINE
  5
38C
330
389
100
AcDbEntity
  8
1
 62
     2
100
AcDbLine
 10
1700.374775120904
 20
1337.593058803334
 30
0.0
 11
1726.374775120904
 21
1337.593058803334
 31
0.0
  0
LINE
  5
38D
330
389
100
AcDbEntity
  8
1
 62
     2
100
AcDbLine
 10
1700.374775120904
 20
1349.593058803334
 30
0.0
 11
1726.374775120904
 21
1349.593058803334
 31
0.0
  0
LINE
  5
38E
330
389
100
AcDbEntity
  8
1
 62
     2
100
AcDbLine
 10
1725.374775120904
 20
1349.593058803334
 30
0.0
 11
1726.036275120904
 21
1347.143058803334
 31
0.0
  0
LINE
  5
38F
330
389
100
AcDbEntity
  8
1
 62
     2
100
AcDbLine
 10
1725.374775120904
 20
1349.593058803334
 30
0.0
 11
1724.713275120904
 21
1347.143058803334
 31
0.0
  0
LINE
  5
390
330
389
100
AcDbEntity
  8
1
 62
     2
100
AcDbLine
 10
1725.374775120904
 20
1337.593058803334
 30
0.0
 11
1724.713275120904
 21
1340.043058803334
 31
0.0
  0
LINE
  5
391
330
389
100
AcDbEntity
  8
1
 62
     2
100
AcDbLine
 10
1725.374775120904
 20
1337.593058803334
 30
0.0
 11
1726.036275120904
 21
1340.043058803334
 31
0.0
  0
TEXT
  5
392
330
389
100
AcDbEntity
  8
1
 62
     3
100
AcDbText
 10
1724.374775120904
 20
1342.123058803334
 30
0.0
 40
3.5
  1
12
 50
90.0
 41
0.63
  7
SIMPLEX
100
AcDbText
  0
ENDBLK
  5
393
330
389
100
AcDbEntity
  8
0
100
AcDbBlockEnd
  0
BLOCK
  5
395
330
394
100
AcDbEntity
  8
1
100
AcDbBlockBegin
  2
*D17
 70
     1
 10
0.0
 20
0.0
 30
0.0
  3
*D17
  1

  0
LINE
  5
396
330
394
100
AcDbEntity
  8
1
 62
     2
100
AcDbLine
 10
1687.374775120904
 20
1397.593058803334
 30
0.0
 11
1697.374775120904
 21
1397.593058803334
 31
0.0
  0
LINE
  5
397
330
394
100
AcDbEntity
  8
1
 62
     2
100
AcDbLine
 10
1687.374775120904
 20
1375.593058803334
 30
0.0
 11
1687.374775120904
 21
1398.593058803334
 31
0.0
  0
LINE
  5
398
330
394
100
AcDbEntity
  8
1
 62
     2
100
AcDbLine
 10
1697.374775120904
 20
1369.593058803334
 30
0.0
 11
1697.374775120904
 21
1398.593058803334
 31
0.0
  0
LINE
  5
399
330
394
100
AcDbEntity
  8
1
 62
     2
100
AcDbLine
 10
1697.374775120904
 20
1397.593058803334
 30
0.0
 11
1694.924775120904
 21
1396.931558803334
 31
0.0
  0
LINE
  5
39A
330
394
100
AcDbEntity
  8
1
 62
     2
100
AcDbLine
 10
1697.374775120904
 20
1397.593058803334
 30
0.0
 11
1694.924775120904
 21
1398.254558803334
 31
0.0
  0
LINE
  5
39B
330
394
100
AcDbEntity
  8
1
 62
     2
100
AcDbLine
 10
1687.374775120904
 20
1397.593058803334
 30
0.0
 11
1689.824775120904
 21
1398.254558803334
 31
0.0
  0
LINE
  5
39C
330
394
100
AcDbEntity
  8
1
 62
     2
100
AcDbLine
 10
1687.374775120904
 20
1397.593058803334
 30
0.0
 11
1689.824775120904
 21
1396.931558803334
 31
0.0
  0
TEXT
  5
39D
330
394
100
AcDbEntity
  8
1
 62
     3
100
AcDbText
 10
1690.904775120904
 20
1398.593058803334
 30
0.0
 40
3.5
  1
10
 41
0.63
  7
SIMPLEX
100
AcDbText
  0
ENDBLK
  5
39E
330
394
100
AcDbEntity
  8
0
100
AcDbBlockEnd
  0
BLOCK
  5
3A0
330
39F
100
AcDbEntity
  8
1
100
AcDbBlockBegin
  2
*D18
 70
     1
 10
0.0
 20
0.0
 30
0.0
  3
*D18
  1

  0
LINE
  5
3A1
330
39F
100
AcDbEntity
  8
1
 62
     2
100
AcDbLine
 10
1657.374775120904
 20
1397.593058803334
 30
0.0
 11
1687.374775120904
 21
1397.593058803334
 31
0.0
  0
LINE
  5
3A2
330
39F
100
AcDbEntity
  8
1
 62
     2
100
AcDbLine
 10
1657.374775120904
 20
1370.093058803334
 30
0.0
 11
1657.374775120904
 21
1398.593058803334
 31
0.0
  0
LINE
  5
3A3
330
39F
100
AcDbEntity
  8
1
 62
     2
100
AcDbLine
 10
1687.374775120904
 20
1375.593058803334
 30
0.0
 11
1687.374775120904
 21
1398.593058803334
 31
0.0
  0
LINE
  5
3A4
330
39F
100
AcDbEntity
  8
1
 62
     2
100
AcDbLine
 10
1687.374775120904
 20
1397.593058803334
 30
0.0
 11
1684.924775120904
 21
1396.931558803334
 31
0.0
  0
LINE
  5
3A5
330
39F
100
AcDbEntity
  8
1
 62
     2
100
AcDbLine
 10
1687.374775120904
 20
1397.593058803334
 30
0.0
 11
1684.924775120904
 21
1398.254558803334
 31
0.0
  0
LINE
  5
3A6
330
39F
100
AcDbEntity
  8
1
 62
     2
100
AcDbLine
 10
1657.374775120904
 20
1397.593058803334
 30
0.0
 11
1659.824775120904
 21
1398.254558803334
 31
0.0
  0
LINE
  5
3A7
330
39F
100
AcDbEntity
  8
1
 62
     2
100
AcDbLine
 10
1657.374775120904
 20
1397.593058803334
 30
0.0
 11
1659.824775120904
 21
1396.931558803334
 31
0.0
  0
TEXT
  5
3A8
330
39F
100
AcDbEntity
  8
1
 62
     3
100
AcDbText
 10
1670.537275120904
 20
1398.593058803334
 30
0.0
 40
3.5
  1
30
 41
0.63
  7
SIMPLEX
100
AcDbText
  0
ENDBLK
  5
3A9
330
39F
100
AcDbEntity
  8
0
100
AcDbBlockEnd
  0
BLOCK
  5
3AB
330
3AA
100
AcDbEntity
  8
1
100
AcDbBlockBegin
  2
*D19
 70
     1
 10
0.0
 20
0.0
 30
0.0
  3
*D19
  1

  0
LINE
  5
3AC
330
3AA
100
AcDbEntity
  8
1
 62
     2
100
AcDbLine
 10
1657.374775120904
 20
1390.593058803334
 30
0.0
 11
1664.374775120904
 21
1390.593058803334
 31
0.0
  0
LINE
  5
3AD
330
3AA
100
AcDbEntity
  8
1
 62
     2
100
AcDbLine
 10
1657.374775120904
 20
1370.093058803334
 30
0.0
 11
1657.374775120904
 21
1391.593058803334
 31
0.0
  0
LINE
  5
3AE
330
3AA
100
AcDbEntity
  8
1
 62
     2
100
AcDbLine
 10
1664.374775120904
 20
1370.593058803334
 30
0.0
 11
1664.374775120904
 21
1391.593058803334
 31
0.0
  0
LINE
  5
3AF
330
3AA
100
AcDbEntity
  8
1
 62
     2
100
AcDbLine
 10
1664.374775120904
 20
1390.593058803334
 30
0.0
 11
1661.924775120904
 21
1389.931558803334
 31
0.0
  0
LINE
  5
3B0
330
3AA
100
AcDbEntity
  8
1
 62
     2
100
AcDbLine
 10
1664.374775120904
 20
1390.593058803334
 30
0.0
 11
1661.924775120904
 21
1391.254558803334
 31
0.0
  0
LINE
  5
3B1
330
3AA
100
AcDbEntity
  8
1
 62
     2
100
AcDbLine
 10
1657.374775120904
 20
1390.593058803334
 30
0.0
 11
1659.824775120904
 21
1391.254558803334
 31
0.0
  0
LINE
  5
3B2
330
3AA
100
AcDbEntity
  8
1
 62
     2
100
AcDbLine
 10
1657.374775120904
 20
1390.593058803334
 30
0.0
 11
1659.824775120904
 21
1389.931558803334
 31
0.0
  0
TEXT
  5
3B3
330
3AA
100
AcDbEntity
  8
1
 62
     3
100
AcDbText
 10
1660.139775120904
 20
1391.593058803334
 30
0.0
 40
3.5
  1
7
 41
0.63
  7
SIMPLEX
100
AcDbText
  0
ENDBLK
  5
3B4
330
3AA
100
AcDbEntity
  8
0
100
AcDbBlockEnd
  0
BLOCK
  5
3B6
330
3B5
100
AcDbEntity
  8
1
100
AcDbBlockBegin
  2
*D20
 70
     1
 10
0.0
 20
0.0
 30
0.0
  3
*D20
  1

  0
LINE
  5
3B7
330
3B5
100
AcDbEntity
  8
1
 62
     2
100
AcDbLine
 10
1657.374775120904
 20
1404.593058803334
 30
0.0
 11
1697.374775120904
 21
1404.593058803334
 31
0.0
  0
LINE
  5
3B8
330
3B5
100
AcDbEntity
  8
1
 62
     2
100
AcDbLine
 10
1697.374775120904
 20
1369.593058803334
 30
0.0
 11
1697.374775120904
 21
1405.593058803334
 31
0.0
  0
LINE
  5
3B9
330
3B5
100
AcDbEntity
  8
1
 62
     2
100
AcDbLine
 10
1657.374775120904
 20
1370.093058803334
 30
0.0
 11
1657.374775120904
 21
1405.593058803334
 31
0.0
  0
LINE
  5
3BA
330
3B5
100
AcDbEntity
  8
1
 62
     2
100
AcDbLine
 10
1697.374775120904
 20
1404.593058803334
 30
0.0
 11
1694.924775120904
 21
1403.931558803334
 31
0.0
  0
LINE
  5
3BB
330
3B5
100
AcDbEntity
  8
1
 62
     2
100
AcDbLine
 10
1697.374775120904
 20
1404.593058803334
 30
0.0
 11
1694.924775120904
 21
1405.254558803334
 31
0.0
  0
LINE
  5
3BC
330
3B5
100
AcDbEntity
  8
1
 62
     2
100
AcDbLine
 10
1657.374775120904
 20
1404.593058803334
 30
0.0
 11
1659.824775120904
 21
1405.254558803334
 31
0.0
  0
LINE
  5
3BD
330
3B5
100
AcDbEntity
  8
1
 62
     2
100
AcDbLine
 10
1657.374775120904
 20
1404.593058803334
 30
0.0
 11
1659.824775120904
 21
1403.931558803334
 31
0.0
  0
TEXT
  5
3BE
330
3B5
100
AcDbEntity
  8
1
 62
     3
100
AcDbText
 10
1675.537275120904
 20
1405.593058803334
 30
0.0
 40
3.5
  1
40
 41
0.63
  7
SIMPLEX
100
AcDbText
  0
ENDBLK
  5
3BF
330
3B5
100
AcDbEntity
  8
0
100
AcDbBlockEnd
  0
BLOCK
  5
3C1
330
3C0
100
AcDbEntity
  8
1
100
AcDbBlockBegin
  2
*D21
 70
     1
 10
0.0
 20
0.0
 30
0.0
  3
*D21
  1

  0
LINE
  5
3C2
330
3C0
100
AcDbEntity
  8
1
 62
     2
100
AcDbLine
 10
1551.797360051661
 20
1394.866932856758
 30
0.0
 11
1530.51797043131
 21
1367.895206790461
 31
0.0
  0
LINE
  5
3C3
330
3C0
100
AcDbEntity
  8
1
 62
     2
100
AcDbLine
 10
1530.51797043131
 20
1367.895206790461
 30
0.0
 11
1531.516148610678
 21
1370.228385431764
 31
0.0
  0
LINE
  5
3C4
330
3C0
100
AcDbEntity
  8
1
 62
     2
100
AcDbLine
 10
1530.51797043131
 20
1367.895206790461
 30
0.0
 11
1532.554812128016
 21
1369.408930065224
 31
0.0
  0
TEXT
  5
3C5
330
3C0
100
AcDbEntity
  8
1
 62
     3
100
AcDbText
 10
1548.204884642605
 20
1391.927940395841
 30
0.0
 40
3.5
  1
7.9
 50
51.72826508621087
 41
0.63
  7
SIMPLEX
100
AcDbText
  0
TEXT
  5
3C6
330
3C0
100
AcDbEntity
  8
1
 62
     3
100
AcDbText
 10
1546.058692015953
 20
1389.207631183765
 30
0.0
 40
3.5
  1
R
 50
51.72826508621087
 41
0.63
  7
SIMPLEX
100
AcDbText
  0
ENDBLK
  5
3C7
330
3C0
100
AcDbEntity
  8
0
100
AcDbBlockEnd
  0
ENDSEC
  0
SECTION
  2
ENTITIES
  0
LINE
  5
3F5
330
6B
100
AcDbEntity
  8
1
 62
     7
100
AcDbLine
 10
1683.374775120904
 20
1320.093058803334
 30
0.0
 11
1691.374775120904
 21
1320.093058803334
 31
0.0
  0
LINE
  5
3F6
330
6B
100
AcDbEntity
  8
1
 62
     7
100
AcDbLine
 10
1691.374775120904
 20
1320.093058803334
 30
0.0
 11
1691.374775120904
 21
1320.593058803334
 31
0.0
  0
LINE
  5
3F7
330
6B
100
AcDbEntity
  8
1
 62
     7
100
AcDbLine
 10
1691.374775120904
 20
1320.593058803334
 30
0.0
 11
1683.374775120904
 21
1320.593058803334
 31
0.0
  0
LINE
  5
3F8
330
6B
100
AcDbEntity
  8
1
 62
     7
100
AcDbLine
 10
1683.374775120904
 20
1320.593058803334
 30
0.0
 11
1683.374775120904
 21
1320.093058803334
 31
0.0
  0
LINE
  5
3F9
330
6B
100
AcDbEntity
  8
1
 62
     7
100
AcDbLine
 10
1521.624775120904
 20
1320.093058803334
 30
0.0
 11
1529.624775120904
 21
1320.093058803334
 31
0.0
  0
LINE
  5
3FA
330
6B
100
AcDbEntity
  8
1
 62
     7
100
AcDbLine
 10
1521.624775120904
 20
1320.593058803334
 30
0.0
 11
1521.624775120904
 21
1320.093058803334
 31
0.0
  0
LINE
  5
3FB
330
6B
100
AcDbEntity
  8
1
 62
     7
100
AcDbLine
 10
1529.624775120904
 20
1320.593058803334
 30
0.0
 11
1521.624775120904
 21
1320.593058803334
 31
0.0
  0
LINE
  5
3FC
330
6B
100
AcDbEntity
  8
1
 62
     7
100
AcDbLine
 10
1529.624775120904
 20
1320.093058803334
 30
0.0
 11
1529.624775120904
 21
1320.593058803334
 31
0.0
  0
LINE
  5
3FF
330
6B
100
AcDbEntity
  8
1
 62
     7
100
AcDbLine
 10
1534.124775120904
 20
1320.093058803334
 30
0.0
 11
1517.124775120904
 21
1320.093058803334
 31
0.0
  0
LINE
  5
400
330
6B
100
AcDbEntity
  8
1
 62
     7
100
AcDbLine
 10
1517.124775120904
 20
1317.073381338805
 30
0.0
 11
1517.124775120904
 21
1320.093058803334
 31
0.0
  0
LINE
  5
401
330
6B
100
AcDbEntity
  8
1
 62
     7
100
AcDbLine
 10
1534.124775120904
 20
1320.093058803334
 30
0.0
 11
1534.124775120904
 21
1317.073381338805
 31
0.0
  0
LINE
  5
402
330
6B
100
AcDbEntity
  8
1
 62
     7
100
AcDbLine
 10
1532.10921068383
 20
1315.493058803334
 30
0.0
 11
1519.140339557979
 21
1315.493058803334
 31
0.0
  0
LINE
  5
403
330
6B
100
AcDbEntity
  8
1
 62
     7
100
AcDbLine
 10
1517.628636182547
 20
1316.205138196681
 30
0.0
 11
1518.644200619622
 21
1315.62481566121
 31
0.0
  0
LINE
  5
404
330
6B
100
AcDbEntity
  8
1
 62
     7
100
AcDbLine
 10
1533.620914059261
 20
1316.205138196681
 30
0.0
 11
1532.605349622186
 21
1315.62481566121
 31
0.0
  0
LINE
  5
405
330
6B
100
AcDbEntity
  8
1
 62
     7
100
AcDbLine
 10
1695.874775120904
 20
1320.093058803334
 30
0.0
 11
1678.874775120904
 21
1320.093058803334
 31
0.0
  0
LINE
  5
406
330
6B
100
AcDbEntity
  8
1
 62
     7
100
AcDbLine
 10
1695.874775120904
 20
1320.093058803334
 30
0.0
 11
1695.874775120904
 21
1317.073381338805
 31
0.0
  0
LINE
  5
407
330
6B
100
AcDbEntity
  8
1
 62
     7
100
AcDbLine
 10
1678.874775120904
 20
1317.073381338805
 30
0.0
 11
1678.874775120904
 21
1320.093058803334
 31
0.0
  0
LINE
  5
408
330
6B
100
AcDbEntity
  8
1
 62
     7
100
AcDbLine
 10
1693.859210683829
 20
1315.493058803334
 30
0.0
 11
1680.890339557978
 21
1315.493058803334
 31
0.0
  0
LINE
  5
409
330
6B
100
AcDbEntity
  8
1
 62
     7
100
AcDbLine
 10
1694.355349622186
 20
1315.62481566121
 30
0.0
 11
1695.370914059261
 21
1316.205138196681
 31
0.0
  0
LINE
  5
40A
330
6B
100
AcDbEntity
  8
1
 62
     7
100
AcDbLine
 10
1680.394200619622
 20
1315.62481566121
 30
0.0
 11
1679.378636182547
 21
1316.205138196681
 31
0.0
  0
ARC
  5
40B
330
6B
100
AcDbEntity
  8
1
 62
     7
100
AcDbCircle
 10
1518.124775120904
 20
1317.073381338805
 30
0.0
 40
1.0
100
AcDbArc
 50
180.0
 51
240.2551187030433
  0
ARC
  5
40C
330
6B
100
AcDbEntity
  8
1
 62
     7
100
AcDbCircle
 10
1519.140339557979
 20
1316.493058803334
 30
0.0
 40
0.9999999999995027
100
AcDbArc
 50
240.2551187030433
 51
270.0
  0
ARC
  5
40D
330
6B
100
AcDbEntity
  8
1
 62
     7
100
AcDbCircle
 10
1532.109210683829
 20
1316.493058803334
 30
0.0
 40
1.0
100
AcDbArc
 50
270.0
 51
299.7448812969681
  0
ARC
  5
40E
330
6B
100
AcDbEntity
  8
1
 62
     7
100
AcDbCircle
 10
1533.124775120904
 20
1317.073381338805
 30
0.0
 40
0.9999999999996157
100
AcDbArc
 50
299.7448812969681
 51
0.0
  0
ARC
  5
40F
330
6B
100
AcDbEntity
  8
1
 62
     7
100
AcDbCircle
 10
1694.874775120904
 20
1317.073381338805
 30
0.0
 40
0.9999999999996157
100
AcDbArc
 50
299.7448812969681
 51
0.0
  0
ARC
  5
410
330
6B
100
AcDbEntity
  8
1
 62
     7
100
AcDbCircle
 10
1693.859210683829
 20
1316.493058803334
 30
0.0
 40
1.0
100
AcDbArc
 50
270.0
 51
299.7448812969681
  0
ARC
  5
411
330
6B
100
AcDbEntity
  8
1
 62
     7
100
AcDbCircle
 10
1680.890339557979
 20
1316.493058803334
 30
0.0
 40
0.9999999999995027
100
AcDbArc
 50
240.2551187030433
 51
270.0
  0
ARC
  5
412
330
6B
100
AcDbEntity
  8
1
 62
     7
100
AcDbCircle
 10
1679.874775120904
 20
1317.073381338805
 30
0.0
 40
1.0
100
AcDbArc
 50
180.0
 51
240.2551187030433
  0
LINE
  5
413
330
6B
100
AcDbEntity
  8
1
 62
     7
100
AcDbLine
 10
1690.074775120904
 20
1320.593058803334
 30
0.0
 11
1684.674775120904
 21
1320.593058803334
 31
0.0
  0
LINE
  5
414
330
6B
100
AcDbEntity
  8
1
 62
     7
100
AcDbLine
 10
1690.374775120904
 20
1326.593058803334
 30
0.0
 11
1690.374775120904
 21
1320.893058803334
 31
0.0
  0
LINE
  5
415
330
6B
100
AcDbEntity
  8
1
 62
     7
100
AcDbLine
 10
1690.074775120904
 20
1320.593058803334
 30
0.0
 11
1684.674775120904
 21
1320.593058803334
 31
0.0
  0
LINE
  5
416
330
6B
100
AcDbEntity
  8
1
 62
     7
100
AcDbLine
 10
1684.374775120904
 20
1320.893058803334
 30
0.0
 11
1684.374775120904
 21
1326.593058803334
 31
0.0
  0
LINE
  5
417
330
6B
100
AcDbEntity
  8
1
 62
     7
100
AcDbLine
 10
1522.624775120904
 20
1320.893058803334
 30
0.0
 11
1522.624775120904
 21
1326.593058803334
 31
0.0
  0
LINE
  5
418
330
6B
100
AcDbEntity
  8
1
 62
     7
100
AcDbLine
 10
1528.324775120904
 20
1320.593058803334
 30
0.0
 11
1522.924775120904
 21
1320.593058803334
 31
0.0
  0
LINE
  5
419
330
6B
100
AcDbEntity
  8
1
 62
     7
100
AcDbLine
 10
1528.624775120904
 20
1326.593058803334
 30
0.0
 11
1528.624775120904
 21
1320.893058803334
 31
0.0
  0
LINE
  5
41A
330
6B
100
AcDbEntity
  8
1
 62
     7
100
AcDbLine
 10
1528.324775120904
 20
1320.593058803334
 30
0.0
 11
1522.924775120904
 21
1320.593058803334
 31
0.0
  0
ARC
  5
41B
330
6B
100
AcDbEntity
  8
1
 62
     7
100
AcDbCircle
 10
1690.074775120904
 20
1320.893058803334
 30
0.0
 40
0.2999999999999545
100
AcDbArc
 50
270.0
 51
0.0
  0
ARC
  5
41C
330
6B
100
AcDbEntity
  8
1
 62
     7
100
AcDbCircle
 10
1684.674775120904
 20
1320.893058803334
 30
0.0
 40
0.3000000000001819
100
AcDbArc
 50
180.0
 51
270.0
  0
ARC
  5
41D
330
6B
100
AcDbEntity
  8
1
 62
     7
100
AcDbCircle
 10
1690.074775120904
 20
1320.893058803334
 30
0.0
 40
0.2999999999999545
100
AcDbArc
 50
270.0
 51
0.0
  0
ARC
  5
41E
330
6B
100
AcDbEntity
  8
1
 62
     7
100
AcDbCircle
 10
1684.674775120904
 20
1320.893058803334
 30
0.0
 40
0.3000000000001819
100
AcDbArc
 50
180.0
 51
270.0
  0
ARC
  5
41F
330
6B
100
AcDbEntity
  8
1
 62
     7
100
AcDbCircle
 10
1522.924775120904
 20
1320.893058803334
 30
0.0
 40
0.3000000000001819
100
AcDbArc
 50
180.0
 51
270.0
  0
ARC
  5
420
330
6B
100
AcDbEntity
  8
1
 62
     7
100
AcDbCircle
 10
1528.324775120904
 20
1320.893058803334
 30
0.0
 40
0.2999999999999545
100
AcDbArc
 50
270.0
 51
0.0
  0
ARC
  5
421
330
6B
100
AcDbEntity
  8
1
 62
     7
100
AcDbCircle
 10
1522.924775120904
 20
1320.893058803334
 30
0.0
 40
0.3000000000001819
100
AcDbArc
 50
180.0
 51
270.0
  0
ARC
  5
422
330
6B
100
AcDbEntity
  8
1
 62
     7
100
AcDbCircle
 10
1528.324775120904
 20
1320.893058803334
 30
0.0
 40
0.2999999999999545
100
AcDbArc
 50
270.0
 51
0.0
  0
LINE
  5
423
330
6B
100
AcDbEntity
  8
1
 62
   133
100
AcDbLine
 10
1520.724775120904
 20
1346.093058803334
 30
0.0
 11
1520.724775120904
 21
1347.693058803334
 31
0.0
  0
LINE
  5
424
330
6B
100
AcDbEntity
  8
1
 62
   133
100
AcDbLine
 10
1520.724775120904
 20
1347.693058803334
 30
0.0
 11
1519.224775120904
 21
1347.693058803334
 31
0.0
  0
LINE
  5
425
330
6B
100
AcDbEntity
  8
1
 62
   133
100
AcDbLine
 10
1519.224775120904
 20
1348.493058803334
 30
0.0
 11
1520.724775120904
 21
1348.493058803334
 31
0.0
  0
LINE
  5
426
330
6B
100
AcDbEntity
  8
1
 62
   133
100
AcDbLine
 10
1520.724775120904
 20
1348.493058803334
 30
0.0
 11
1520.724775120904
 21
1350.093058803334
 31
0.0
  0
LINE
  5
427
330
6B
100
AcDbEntity
  8
1
 62
   133
100
AcDbLine
 10
1532.024775120904
 20
1347.693058803334
 30
0.0
 11
1530.524775120904
 21
1347.693058803334
 31
0.0
  0
LINE
  5
428
330
6B
100
AcDbEntity
  8
1
 62
   133
100
AcDbLine
 10
1530.524775120904
 20
1347.693058803334
 30
0.0
 11
1530.524775120904
 21
1346.093058803334
 31
0.0
  0
LINE
  5
429
330
6B
100
AcDbEntity
  8
1
 62
   133
100
AcDbLine
 10
1530.524775120904
 20
1348.493058803334
 30
0.0
 11
1532.024775120904
 21
1348.493058803334
 31
0.0
  0
LINE
  5
42A
330
6B
100
AcDbEntity
  8
1
 62
   133
100
AcDbLine
 10
1530.524775120904
 20
1350.093058803334
 30
0.0
 11
1530.524775120904
 21
1348.493058803334
 31
0.0
  0
LINE
  5
42B
330
6B
100
AcDbEntity
  8
1
 62
     7
100
AcDbLine
 10
1524.874775120904
 20
1350.093058803334
 30
0.0
 11
1524.874775120904
 21
1346.093058803334
 31
0.0
  0
LINE
  5
42C
330
6B
100
AcDbEntity
  8
1
 62
     7
100
AcDbLine
 10
1520.224775120904
 20
1351.093058803334
 30
0.0
 11
1523.874775120904
 21
1351.093058803334
 31
0.0
  0
LINE
  5
42D
330
6B
100
AcDbEntity
  8
1
 62
     7
100
AcDbLine
 10
1519.224775120904
 20
1346.093058803334
 30
0.0
 11
1519.224775120904
 21
1350.093058803334
 31
0.0
  0
LINE
  5
42E
330
6B
100
AcDbEntity
  8
1
 62
     7
100
AcDbLine
 10
1523.874775120904
 20
1345.093058803334
 30
0.0
 11
1520.224775120904
 21
1345.093058803334
 31
0.0
  0
LINE
  5
42F
330
6B
100
AcDbEntity
  8
1
 62
     7
100
AcDbLine
 10
1526.374775120904
 20
1350.093058803334
 30
0.0
 11
1526.374775120904
 21
1346.093058803334
 31
0.0
  0
LINE
  5
430
330
6B
100
AcDbEntity
  8
1
 62
     7
100
AcDbLine
 10
1531.024775120904
 20
1351.093058803334
 30
0.0
 11
1527.374775120904
 21
1351.093058803334
 31
0.0
  0
LINE
  5
431
330
6B
100
AcDbEntity
  8
1
 62
     7
100
AcDbLine
 10
1532.024775120904
 20
1346.093058803334
 30
0.0
 11
1532.024775120904
 21
1350.093058803334
 31
0.0
  0
LINE
  5
432
330
6B
100
AcDbEntity
  8
1
 62
     7
100
AcDbLine
 10
1527.374775120904
 20
1345.093058803334
 30
0.0
 11
1531.024775120904
 21
1345.093058803334
 31
0.0
  0
LINE
  5
433
330
6B
100
AcDbEntity
  8
1
 62
   133
100
AcDbLine
 10
1520.024775120904
 20
1343.093058803334
 30
0.0
 11
1520.024775120904
 21
1340.593058803334
 31
0.0
  0
LINE
  5
434
330
6B
100
AcDbEntity
  8
1
 62
   133
100
AcDbLine
 10
1531.224775120904
 20
1353.093058803334
 30
0.0
 11
1531.224775120904
 21
1355.593058803334
 31
0.0
  0
LINE
  5
435
330
6B
100
AcDbEntity
  8
1
 62
   133
100
AcDbLine
 10
1526.374775120904
 20
1352.593058803334
 30
0.0
 11
1526.374775120904
 21
1355.593058803334
 31
0.0
  0
LINE
  5
436
330
6B
100
AcDbEntity
  8
1
 62
   133
100
AcDbLine
 10
1526.374775120904
 20
1343.593058803334
 30
0.0
 11
1526.374775120904
 21
1340.593058803334
 31
0.0
  0
LINE
  5
43D
330
6B
100
AcDbEntity
  8
1
 62
     7
100
AcDbLine
 10
1663.874775120904
 20
1369.093058803334
 30
0.0
 11
1663.874775120904
 21
1349.493058803334
 31
0.0
  0
LINE
  5
43E
330
6B
100
AcDbEntity
  8
1
 62
     7
100
AcDbLine
 10
1664.374775120904
 20
1327.093058803334
 30
0.0
 11
1664.374775120904
 21
1346.193058803334
 31
0.0
  0
LINE
  5
43F
330
6B
100
AcDbEntity
  8
1
 62
     7
100
AcDbLine
 10
1663.874775120904
 20
1349.493058803334
 30
0.0
 11
1670.274775120904
 21
1349.493058803334
 31
0.0
  0
LINE
  5
440
330
6B
100
AcDbEntity
  8
1
 62
     7
100
AcDbLine
 10
1670.274775120904
 20
1346.693058803334
 30
0.0
 11
1663.874775120904
 21
1346.693058803334
 31
0.0
  0
LINE
  5
441
330
6B
100
AcDbEntity
  8
1
 62
     7
100
AcDbLine
 10
1664.374775120904
 20
1349.993058803334
 30
0.0
 11
1670.274775120904
 21
1349.993058803334
 31
0.0
  0
LINE
  5
442
330
6B
100
AcDbEntity
  8
1
 62
     7
100
AcDbLine
 10
1670.274775120904
 20
1346.193058803334
 30
0.0
 11
1664.374775120904
 21
1346.193058803334
 31
0.0
  0
LINE
  5
443
330
6B
100
AcDbEntity
  8
1
 62
     7
100
AcDbLine
 10
1520.724775120904
 20
1355.593058803334
 30
0.0
 11
1520.724775120904
 21
1359.593058803334
 31
0.0
  0
LINE
  5
444
330
6B
100
AcDbEntity
  8
1
 62
     7
100
AcDbLine
 10
1530.524775120904
 20
1355.593058803334
 30
0.0
 11
1530.524775120904
 21
1359.593058803334
 31
0.0
  0
LINE
  5
445
330
6B
100
AcDbEntity
  8
1
 62
     7
100
AcDbLine
 10
1520.724775120904
 20
1359.593058803334
 30
0.0
 11
1530.524775120904
 21
1359.593058803334
 31
0.0
  0
LINE
  5
446
330
6B
100
AcDbEntity
  8
1
 62
     7
100
AcDbLine
 10
1530.524775120904
 20
1357.593058803334
 30
0.0
 11
1520.724775120904
 21
1357.593058803334
 31
0.0
  0
LINE
  5
447
330
6B
100
AcDbEntity
  8
1
 62
     7
100
AcDbLine
 10
1519.224775120904
 20
1355.593058803334
 30
0.0
 11
1532.024775120904
 21
1355.593058803334
 31
0.0
  0
LINE
  5
448
330
6B
100
AcDbEntity
  8
1
 62
     7
100
AcDbLine
 10
1520.724775120904
 20
1338.593058803334
 30
0.0
 11
1530.524775120904
 21
1338.593058803334
 31
0.0
  0
LINE
  5
449
330
6B
100
AcDbEntity
  8
1
 62
     7
100
AcDbLine
 10
1520.724775120904
 20
1336.593058803334
 30
0.0
 11
1520.724775120904
 21
1340.593058803334
 31
0.0
  0
LINE
  5
44A
330
6B
100
AcDbEntity
  8
1
 62
     7
100
AcDbLine
 10
1530.524775120904
 20
1340.593058803334
 30
0.0
 11
1530.524775120904
 21
1336.593058803334
 31
0.0
  0
LINE
  5
44B
330
6B
100
AcDbEntity
  8
1
 62
     7
100
AcDbLine
 10
1532.024775120904
 20
1340.593058803334
 30
0.0
 11
1519.224775120904
 21
1340.593058803334
 31
0.0
  0
LINE
  5
44C
330
6B
100
AcDbEntity
  8
1
 62
     7
100
AcDbLine
 10
1520.724775120904
 20
1336.593058803334
 30
0.0
 11
1530.524775120904
 21
1336.593058803334
 31
0.0
  0
LINE
  5
44D
330
6B
100
AcDbEntity
  8
1
 62
     7
100
AcDbLine
 10
1532.024775120904
 20
1361.193058803334
 30
0.0
 11
1532.024775120904
 21
1352.593058803334
 31
0.0
  0
LINE
  5
44E
330
6B
100
AcDbEntity
  8
1
 62
     7
100
AcDbLine
 10
1532.024775120904
 20
1352.593058803334
 30
0.0
 11
1519.224775120904
 21
1352.593058803334
 31
0.0
  0
LINE
  5
44F
330
6B
100
AcDbEntity
  8
1
 62
     7
100
AcDbLine
 10
1519.224775120904
 20
1328.093058803334
 30
0.0
 11
1519.224775120904
 21
1343.593058803334
 31
0.0
  0
LINE
  5
450
330
6B
100
AcDbEntity
  8
1
 62
     7
100
AcDbLine
 10
1519.224775120904
 20
1343.593058803334
 30
0.0
 11
1532.024775120904
 21
1343.593058803334
 31
0.0
  0
LINE
  5
451
330
6B
100
AcDbEntity
  8
1
 62
     7
100
AcDbLine
 10
1519.224775120904
 20
1352.593058803334
 30
0.0
 11
1519.224775120904
 21
1361.193058803334
 31
0.0
  0
LINE
  5
452
330
6B
100
AcDbEntity
  8
1
 62
     7
100
AcDbLine
 10
1532.024775120904
 20
1343.593058803334
 30
0.0
 11
1532.024775120904
 21
1328.093058803334
 31
0.0
  0
LINE
  5
453
330
6B
100
AcDbEntity
  8
1
 62
     7
100
AcDbLine
 10
1519.224775120904
 20
1328.093058803334
 30
0.0
 11
1532.024775120904
 21
1328.093058803334
 31
0.0
  0
LINE
  5
454
330
6B
100
AcDbEntity
  8
1
 62
     7
100
AcDbLine
 10
1663.874775120904
 20
1346.693058803334
 30
0.0
 11
1663.874775120904
 21
1326.593058803334
 31
0.0
  0
LINE
  5
455
330
6B
100
AcDbEntity
  8
1
 62
     7
100
AcDbLine
 10
1663.874775120904
 20
1369.093058803334
 30
0.0
 11
1664.374775120904
 21
1368.593058803334
 31
0.0
  0
LINE
  5
456
330
6B
100
AcDbEntity
  8
1
 62
     7
100
AcDbLine
 10
1663.874775120904
 20
1326.593058803334
 30
0.0
 11
1664.374775120904
 21
1327.093058803334
 31
0.0
  0
LINE
  5
457
330
6B
100
AcDbEntity
  8
1
 62
     7
100
AcDbLine
 10
1664.374775120904
 20
1349.993058803334
 30
0.0
 11
1664.374775120904
 21
1368.593058803334
 31
0.0
  0
LINE
  5
458
330
6B
100
AcDbEntity
  8
1
 62
     7
100
AcDbLine
 10
1657.374775120904
 20
1369.093058803334
 30
0.0
 11
1657.374775120904
 21
1326.593058803334
 31
0.0
  0
LINE
  5
459
330
6B
100
AcDbEntity
  8
1
 62
     7
100
AcDbLine
 10
1663.874775120904
 20
1369.093058803334
 30
0.0
 11
1657.374775120904
 21
1369.093058803334
 31
0.0
  0
LINE
  5
45A
330
6B
100
AcDbEntity
  8
1
 62
     7
100
AcDbLine
 10
1657.374775120904
 20
1326.593058803334
 30
0.0
 11
1663.874775120904
 21
1326.593058803334
 31
0.0
  0
LINE
  5
45B
330
6B
100
AcDbEntity
  8
1
 62
     7
100
AcDbLine
 10
1533.524775120904
 20
1361.193058803334
 30
0.0
 11
1533.524775120904
 21
1326.593058803334
 31
0.0
  0
LINE
  5
45C
330
6B
100
AcDbEntity
  8
1
 62
     7
100
AcDbLine
 10
1517.724775120904
 20
1326.593058803334
 30
0.0
 11
1517.724775120904
 21
1361.193058803334
 31
0.0
  0
LINE
  5
45D
330
6B
100
AcDbEntity
  8
1
 62
     7
100
AcDbLine
 10
1533.524775120904
 20
1326.593058803334
 30
0.0
 11
1517.724775120904
 21
1326.593058803334
 31
0.0
  0
LINE
  5
45E
330
6B
100
AcDbEntity
  8
1
 62
   133
100
AcDbLine
 10
1531.224775120904
 20
1340.593058803334
 30
0.0
 11
1531.224775120904
 21
1343.093058803334
 31
0.0
  0
LINE
  5
45F
330
6B
100
AcDbEntity
  8
1
 62
   133
100
AcDbLine
 10
1524.874775120904
 20
1340.593058803334
 30
0.0
 11
1524.874775120904
 21
1343.593058803334
 31
0.0
  0
LINE
  5
460
330
6B
100
AcDbEntity
  8
1
 62
   133
100
AcDbLine
 10
1524.874775120904
 20
1355.593058803334
 30
0.0
 11
1524.874775120904
 21
1352.593058803334
 31
0.0
  0
LINE
  5
461
330
6B
100
AcDbEntity
  8
1
 62
   133
100
AcDbLine
 10
1520.024775120904
 20
1355.593058803334
 30
0.0
 11
1520.024775120904
 21
1353.093058803334
 31
0.0
  0
LINE
  5
462
330
6B
100
AcDbEntity
  8
1
 62
     7
100
AcDbLine
 10
1663.874775120904
 20
1349.493058803334
 30
0.0
 11
1664.374775120904
 21
1349.993058803334
 31
0.0
  0
LINE
  5
463
330
6B
100
AcDbEntity
  8
1
 62
     7
100
AcDbLine
 10
1664.374775120904
 20
1346.193058803334
 30
0.0
 11
1663.874775120904
 21
1346.693058803334
 31
0.0
  0
ARC
  5
464
330
6B
100
AcDbEntity
  8
1
 62
   133
100
AcDbCircle
 10
1521.724775120904
 20
1346.093058803334
 30
0.0
 40
1.0
100
AcDbArc
 50
180.0
 51
270.0
  0
ARC
  5
465
330
6B
100
AcDbEntity
  8
1
 62
   133
100
AcDbCircle
 10
1521.724775120904
 20
1350.093058803334
 30
0.0
 40
1.0
100
AcDbArc
 50
90.0
 51
180.0
  0
ARC
  5
466
330
6B
100
AcDbEntity
  8
1
 62
   133
100
AcDbCircle
 10
1529.524775120904
 20
1346.093058803334
 30
0.0
 40
1.0
100
AcDbArc
 50
270.0
 51
0.0
  0
ARC
  5
467
330
6B
100
AcDbEntity
  8
1
 62
   133
100
AcDbCircle
 10
1529.524775120904
 20
1350.093058803334
 30
0.0
 40
1.0
100
AcDbArc
 50
0.0
 51
90.0
  0
ARC
  5
468
330
6B
100
AcDbEntity
  8
1
 62
   133
100
AcDbCircle
 10
1519.524775120904
 20
1343.093058803334
 30
0.0
 40
0.5
100
AcDbArc
 50
0.0
 51
90.0
  0
ARC
  5
469
330
6B
100
AcDbEntity
  8
1
 62
   133
100
AcDbCircle
 10
1531.724775120904
 20
1343.093058803334
 30
0.0
 40
0.5
100
AcDbArc
 50
90.0
 51
180.0
  0
ARC
  5
46A
330
6B
100
AcDbEntity
  8
1
 62
   133
100
AcDbCircle
 10
1519.524775120904
 20
1353.093058803334
 30
0.0
 40
0.5
100
AcDbArc
 50
270.0
 51
0.0
  0
ARC
  5
46B
330
6B
100
AcDbEntity
  8
1
 62
   133
100
AcDbCircle
 10
1531.724775120904
 20
1353.093058803334
 30
0.0
 40
0.5
100
AcDbArc
 50
180.0
 51
270.0
  0
ARC
  5
46C
330
6B
100
AcDbEntity
  8
1
 62
     7
100
AcDbCircle
 10
1670.274775120904
 20
1348.093058803334
 30
0.0
 40
1.40000000000009
100
AcDbArc
 50
270.0
 51
90.0
  0
ARC
  5
46D
330
6B
100
AcDbEntity
  8
1
 62
     7
100
AcDbCircle
 10
1670.274775120904
 20
1348.093058803334
 30
0.0
 40
1.90000000000009
100
AcDbArc
 50
270.0
 51
90.0
  0
ARC
  5
46E
330
6B
100
AcDbEntity
  8
1
 62
     7
100
AcDbCircle
 10
1525.624775120904
 20
1361.193058803334
 30
0.0
 40
6.40000000000009
100
AcDbArc
 50
0.0
 51
180.0
  0
ARC
  5
46F
330
6B
100
AcDbEntity
  8
1
 62
     7
100
AcDbCircle
 10
1525.624775120904
 20
1361.193058803334
 30
0.0
 40
7.90000000000009
100
AcDbArc
 50
0.0
 51
180.0
  0
ARC
  5
470
330
6B
100
AcDbEntity
  8
1
 62
     7
100
AcDbCircle
 10
1520.224775120904
 20
1350.093058803334
 30
0.0
 40
1.0
100
AcDbArc
 50
90.0
 51
180.0
  0
ARC
  5
471
330
6B
100
AcDbEntity
  8
1
 62
     7
100
AcDbCircle
 10
1520.224775120904
 20
1346.093058803334
 30
0.0
 40
1.0
100
AcDbArc
 50
180.0
 51
270.0
  0
ARC
  5
472
330
6B
100
AcDbEntity
  8
1
 62
     7
100
AcDbCircle
 10
1523.874775120904
 20
1346.093058803334
 30
0.0
 40
1.0
100
AcDbArc
 50
270.0
 51
0.0
  0
ARC
  5
473
330
6B
100
AcDbEntity
  8
1
 62
     7
100
AcDbCircle
 10
1523.874775120904
 20
1350.093058803334
 30
0.0
 40
1.0
100
AcDbArc
 50
0.0
 51
90.0
  0
ARC
  5
474
330
6B
100
AcDbEntity
  8
1
 62
     7
100
AcDbCircle
 10
1527.374775120904
 20
1350.093058803334
 30
0.0
 40
1.0
100
AcDbArc
 50
90.0
 51
180.0
  0
ARC
  5
475
330
6B
100
AcDbEntity
  8
1
 62
     7
100
AcDbCircle
 10
1527.374775120904
 20
1346.093058803334
 30
0.0
 40
1.0
100
AcDbArc
 50
180.0
 51
270.0
  0
ARC
  5
476
330
6B
100
AcDbEntity
  8
1
 62
     7
100
AcDbCircle
 10
1531.024775120904
 20
1346.093058803334
 30
0.0
 40
1.0
100
AcDbArc
 50
270.0
 51
0.0
  0
ARC
  5
477
330
6B
100
AcDbEntity
  8
1
 62
     7
100
AcDbCircle
 10
1531.024775120904
 20
1350.093058803334
 30
0.0
 40
1.0
100
AcDbArc
 50
0.0
 51
90.0
  0
LINE
  5
47C
330
6B
100
AcDbEntity
  8
1
 62
     7
100
AcDbLine
 10
1697.374775120904
 20
1326.593058803334
 30
0.0
 11
1664.374775120904
 21
1326.593058803334
 31
0.0
  0
LINE
  5
47D
330
6B
100
AcDbEntity
  8
1
  6
DASHDOT
 62
     2
100
AcDbLine
 10
1687.374775120904
 20
1310.493058803334
 30
0.0
 11
1687.374775120904
 21
1374.593058803334
 31
0.0
  0
LINE
  5
47E
330
6B
100
AcDbEntity
  8
1
 62
     7
100
AcDbLine
 10
1683.874775120903
 20
1367.809430276683
 30
0.0
 11
1683.874775120903
 21
1369.593058803334
 31
0.0
  0
LINE
  5
47F
330
6B
100
AcDbEntity
  8
1
 62
     7
100
AcDbLine
 10
1690.874775120904
 20
1367.809430276683
 30
0.0
 11
1690.874775120904
 21
1369.593058803334
 31
0.0
  0
LINE
  5
480
330
6B
100
AcDbEntity
  8
1
 62
     7
100
AcDbLine
 10
1683.874775120903
 20
1369.593058803334
 30
0.0
 11
1685.374775120904
 21
1369.593058803334
 31
0.0
  0
LINE
  5
481
330
6B
100
AcDbEntity
  8
1
 62
     7
100
AcDbLine
 10
1690.874775120904
 20
1369.593058803334
 30
0.0
 11
1689.374775120904
 21
1369.593058803334
 31
0.0
  0
LINE
  5
482
330
6B
100
AcDbEntity
  8
1
 62
     7
100
AcDbLine
 10
1672.374775120904
 20
1367.809430276683
 30
0.0
 11
1685.374775120904
 21
1367.809430276683
 31
0.0
  0
LINE
  5
483
330
6B
100
AcDbEntity
  8
1
 62
     7
100
AcDbLine
 10
1689.374775120904
 20
1367.809430276683
 30
0.0
 11
1694.874775120904
 21
1367.809430276683
 31
0.0
  0
LINE
  5
484
330
6B
100
AcDbEntity
  8
1
 62
     7
100
AcDbLine
 10
1671.374775120904
 20
1369.593058803334
 30
0.0
 11
1671.374775120904
 21
1368.505547335434
 31
0.0
  0
LINE
  5
485
330
6B
100
AcDbEntity
  8
1
 62
     7
100
AcDbLine
 10
1695.874775120904
 20
1369.593058803334
 30
0.0
 11
1695.874775120904
 21
1368.505547335434
 31
0.0
  0
LINE
  5
486
330
6B
100
AcDbEntity
  8
1
 62
     7
100
AcDbLine
 10
1671.374775120904
 20
1369.593058803334
 30
0.0
 11
1669.874775120904
 21
1369.593058803334
 31
0.0
  0
LINE
  5
487
330
6B
100
AcDbEntity
  8
1
 62
     7
100
AcDbLine
 10
1696.374775120904
 20
1369.593058803334
 30
0.0
 11
1696.374775120904
 21
1326.593058803334
 31
0.0
  0
LINE
  5
488
330
6B
100
AcDbEntity
  8
1
 62
     7
100
AcDbLine
 10
1696.374775120904
 20
1369.593058803334
 30
0.0
 11
1697.374775120904
 21
1368.593058803334
 31
0.0
  0
LINE
  5
489
330
6B
100
AcDbEntity
  8
1
 62
     7
100
AcDbLine
 10
1697.374775120904
 20
1368.593058803334
 30
0.0
 11
1697.374775120904
 21
1326.593058803334
 31
0.0
  0
LINE
  5
48A
330
6B
100
AcDbEntity
  8
1
 62
     7
100
AcDbLine
 10
1696.374775120904
 20
1369.593058803334
 30
0.0
 11
1695.874775120904
 21
1369.593058803334
 31
0.0
  0
LINE
  5
48B
330
6B
100
AcDbEntity
  8
1
 62
     7
100
AcDbLine
 10
1669.874775120904
 20
1369.593058803334
 30
0.0
 11
1669.874775120904
 21
1367.809430276683
 31
0.0
  0
LINE
  5
48C
330
6B
100
AcDbEntity
  8
1
 62
     7
100
AcDbLine
 10
1666.574775120904
 20
1369.593058803334
 30
0.0
 11
1666.574775120904
 21
1367.809430276683
 31
0.0
  0
LINE
  5
48D
330
6B
100
AcDbEntity
  8
1
 62
     7
100
AcDbLine
 10
1669.874775120904
 20
1367.809430276683
 30
0.0
 11
1666.574775120904
 21
1367.809430276683
 31
0.0
  0
LINE
  5
48E
330
6B
100
AcDbEntity
  8
1
 62
     7
100
AcDbLine
 10
1666.574775120904
 20
1369.593058803334
 30
0.0
 11
1664.374775120904
 21
1369.593058803334
 31
0.0
  0
LINE
  5
48F
330
6B
100
AcDbEntity
  8
1
 62
     7
100
AcDbLine
 10
1664.874775120904
 20
1350.193058803334
 30
0.0
 11
1670.774775120904
 21
1350.193058803334
 31
0.0
  0
LINE
  5
490
330
6B
100
AcDbEntity
  8
1
 62
     7
100
AcDbLine
 10
1670.774775120904
 20
1345.993058803334
 30
0.0
 11
1664.874775120904
 21
1345.993058803334
 31
0.0
  0
LINE
  5
491
330
6B
100
AcDbEntity
  8
1
 62
     7
100
AcDbLine
 10
1664.874775120904
 20
1350.193058803334
 30
0.0
 11
1664.374775120904
 21
1350.693058803334
 31
0.0
  0
LINE
  5
492
330
6B
100
AcDbEntity
  8
1
 62
     7
100
AcDbLine
 10
1664.874775120904
 20
1345.993058803334
 30
0.0
 11
1664.374775120904
 21
1345.493058803334
 31
0.0
  0
LINE
  5
493
330
6B
100
AcDbEntity
  8
1
 62
     7
100
AcDbLine
 10
1664.374775120904
 20
1369.593058803334
 30
0.0
 11
1664.374775120904
 21
1350.693058803334
 31
0.0
  0
LINE
  5
494
330
6B
100
AcDbEntity
  8
1
 62
     7
100
AcDbLine
 10
1664.374775120904
 20
1345.493058803334
 30
0.0
 11
1664.374775120904
 21
1326.593058803334
 31
0.0
  0
LINE
  5
495
330
6B
100
AcDbEntity
  8
1
 62
     7
100
AcDbLine
 10
1518.224775120904
 20
1364.093058803334
 30
0.0
 11
1518.224775120904
 21
1363.958922140522
 31
0.0
  0
LINE
  5
496
330
6B
100
AcDbEntity
  8
1
 62
     7
100
AcDbLine
 10
1533.524775120904
 20
1361.693058803334
 30
0.0
 11
1533.524775120904
 21
1326.593058803334
 31
0.0
  0
LINE
  5
497
330
6B
100
AcDbEntity
  8
1
  6
DASHDOT
 62
     2
100
AcDbLine
 10
1538.524775120904
 20
1348.093058803334
 30
0.0
 11
1512.724775120904
 21
1348.093058803334
 31
0.0
  0
LINE
  5
498
330
6B
100
AcDbEntity
  8
1
 62
     7
100
AcDbLine
 10
1518.224775120904
 20
1364.093058803334
 30
0.0
 11
1518.261801426467
 21
1364.056032497771
 31
0.0
  0
LINE
  5
499
330
6B
100
AcDbEntity
  8
1
 62
     7
100
AcDbLine
 10
1518.224775120904
 20
1364.093058803334
 30
0.0
 11
1518.276305892555
 21
1364.093058803334
 31
0.0
  0
LINE
  5
49A
330
6B
100
AcDbEntity
  8
1
 62
     7
100
AcDbLine
 10
1520.924775120904
 20
1328.093058803334
 30
0.0
 11
1521.424775120904
 21
1328.593058803334
 31
0.0
  0
LINE
  5
49B
330
6B
100
AcDbEntity
  8
1
 62
     7
100
AcDbLine
 10
1529.824775120904
 20
1328.593058803334
 30
0.0
 11
1530.324775120904
 21
1328.093058803334
 31
0.0
  0
LINE
  5
49C
330
6B
100
AcDbEntity
  8
1
 62
     7
100
AcDbLine
 10
1521.424775120904
 20
1328.593058803334
 30
0.0
 11
1521.424775120904
 21
1328.093058803334
 31
0.0
  0
LINE
  5
49D
330
6B
100
AcDbEntity
  8
1
  6
DASHDOT
 62
     2
100
AcDbLine
 10
1525.624775120904
 20
1310.493058803334
 30
0.0
 11
1525.624775120904
 21
1374.593058803334
 31
0.0
  0
LINE
  5
49E
330
6B
100
AcDbEntity
  8
1
 62
     7
100
AcDbLine
 10
1517.724775120904
 20
1326.593058803334
 30
0.0
 11
1517.724775120904
 21
1361.693058803334
 31
0.0
  0
LINE
  5
49F
330
6B
100
AcDbEntity
  8
1
 62
     7
100
AcDbLine
 10
1533.524775120904
 20
1326.593058803334
 30
0.0
 11
1517.724775120904
 21
1326.593058803334
 31
0.0
  0
LINE
  5
4A0
330
6B
100
AcDbEntity
  8
1
 62
     7
100
AcDbLine
 10
1532.98774881534
 20
1364.056032497771
 30
0.0
 11
1533.024775120904
 21
1364.093058803334
 31
0.0
  0
LINE
  5
4A1
330
6B
100
AcDbEntity
  8
1
 62
     7
100
AcDbLine
 10
1532.973244349253
 20
1364.093058803334
 30
0.0
 11
1533.024775120904
 21
1364.093058803334
 31
0.0
  0
LINE
  5
4A2
330
6B
100
AcDbEntity
  8
1
 62
     7
100
AcDbLine
 10
1533.024775120904
 20
1363.958922140521
 30
0.0
 11
1533.024775120904
 21
1364.093058803334
 31
0.0
  0
LINE
  5
4A3
330
6B
100
AcDbEntity
  8
1
 62
     7
100
AcDbLine
 10
1519.691816331228
 20
1363.593058803334
 30
0.0
 11
1531.55773391058
 21
1363.593058803334
 31
0.0
  0
LINE
  5
4A4
330
6B
100
AcDbEntity
  8
1
 62
     7
100
AcDbLine
 10
1519.919514390666
 20
1364.093058803334
 30
0.0
 11
1531.330035851142
 21
1364.093058803334
 31
0.0
  0
LINE
  5
4A5
330
6B
100
AcDbEntity
  8
1
 62
     7
100
AcDbLine
 10
1519.224775120904
 20
1328.593058803334
 30
0.0
 11
1532.024775120904
 21
1328.593058803334
 31
0.0
  0
LINE
  5
4A6
330
6B
100
AcDbEntity
  8
1
 62
     7
100
AcDbLine
 10
1529.824775120904
 20
1328.093058803334
 30
0.0
 11
1529.824775120904
 21
1328.593058803334
 31
0.0
  0
ARC
  5
4A9
330
6B
100
AcDbEntity
  8
1
 62
     7
100
AcDbCircle
 10
1670.774775120904
 20
1348.093058803334
 30
0.0
 40
2.100000000000135
100
AcDbArc
 50
270.0
 51
90.0
  0
ARC
  5
4AA
330
6B
100
AcDbEntity
  8
1
 62
     7
100
AcDbCircle
 10
1525.624775120904
 20
1361.693058803334
 30
0.0
 40
7.90000000000009
100
AcDbArc
 50
90.0
 51
180.0
  0
ARC
  5
4AB
330
6B
100
AcDbEntity
  8
1
 62
     7
100
AcDbCircle
 10
1525.624775120904
 20
1361.693058803334
 30
0.0
 40
7.90000000000009
100
AcDbArc
 50
0.0
 51
90.0
  0
LWPOLYLINE
  5
4AC
330
6B
100
AcDbEntity
  8
1
 62
     7
100
AcDbPolyline
 90
        5
 70
     0
 43
0.0
 10
1685.942308674822
 20
1368.8477954549
 42
0.0107085241819331
 10
1685.911307293403
 20
1368.853974480777
 42
0.0195920331325436
 10
1685.849559223717
 20
1368.862436089317
 42
0.014639935531262
 10
1685.794909466353
 20
1368.865868361697
 10
1685.771345160989
 20
1368.866209217617
  0
LWPOLYLINE
  5
4AD
330
6B
100
AcDbEntity
  8
1
 62
     7
100
AcDbPolyline
 90
        5
 70
     0
 43
0.0
 10
1686.142987063594
 20
1368.768000170846
 42
0.0211002058496761
 10
1686.102548154407
 20
1368.791019633958
 42
0.0241151692663219
 10
1686.054846524189
 20
1368.812899977172
 42
0.0223917506891735
 10
1685.999913375869
 20
1368.83255826708
 42
0.0201901202307659
 10
1685.942308674822
 20
1368.8477954549
  0
LWPOLYLINE
  5
4AE
330
6B
100
AcDbEntity
  8
1
 62
     7
100
AcDbPolyline
 90
       11
 70
     0
 43
0.0
 10
1685.374775120904
 20
1367.809430276683
 42
0.016128834765168
 10
1685.456427906889
 20
1367.812066149138
 42
0.0326974901210196
 10
1685.617266634546
 20
1367.833066857664
 42
0.0340467440674765
 10
1685.770779538909
 20
1367.874438980456
 42
0.0363497883250741
 10
1685.912328622922
 20
1367.934944916106
 42
0.0396526183862666
 10
1686.037633539704
 20
1368.012779301995
 42
0.0439236157714996
 10
1686.142892313479
 20
1368.105625078634
 42
0.0489104756078205
 10
1686.224882645887
 20
1368.210716779013
 42
0.0539439982835272
 10
1686.281050026051
 20
1368.324901114466
 42
0.0578559044593155
 10
1686.309600280219
 20
1368.444698583047
 42
0.0295836000663659
 10
1686.313222307982
 20
1368.505547333112
  0
LWPOLYLINE
  5
4AF
330
6B
100
AcDbEntity
  8
1
 62
     7
100
AcDbPolyline
 90
        8
 70
     0
 43
0.0
 10
1686.311117309108
 20
1368.537121101689
 42
0.0424553626535735
 10
1686.301868488993
 20
1368.579027115201
 42
0.0410652773124124
 10
1686.285275566544
 20
1368.619832713919
 42
0.0383512199424255
 10
1686.262112722041
 20
1368.658447109914
 42
0.0331738090105647
 10
1686.231730481684
 20
1368.695795813917
 42
0.0319046349287829
 10
1686.195389595023
 20
1368.730070820467
 42
0.0286858675608254
 10
1686.153954798177
 20
1368.760947930866
 42
0.0058750872021065
 10
1686.142987063594
 20
1368.768000170846
  0
LWPOLYLINE
  5
4B0
330
6B
100
AcDbEntity
  8
1
 62
     7
100
AcDbPolyline
 90
        5
 70
     0
 43
0.0
 10
1688.606563178213
 20
1368.768000170846
 42
-0.0211002058393114
 10
1688.647002087401
 20
1368.791019633958
 42
-0.0241151692633819
 10
1688.694703717618
 20
1368.812899977172
 42
-0.0223917506850732
 10
1688.749636865938
 20
1368.83255826708
 42
-0.0201901202335444
 10
1688.807241566986
 20
1368.8477954549
  0
LWPOLYLINE
  5
4B1
330
6B
100
AcDbEntity
  8
1
 62
     7
100
AcDbPolyline
 90
        9
 70
     0
 43
0.0
 10
1688.978205087183
 20
1368.866209217699
 42
0.0099164452281958
 10
1689.375274978603
 20
1368.922103795637
 42
0.016357694304349
 10
1689.841229033829
 20
1369.012870469114
 42
0.022046661670735
 10
1690.232634723043
 20
1369.120852632974
 42
0.0335070466400053
 10
1690.53775921387
 20
1369.242804385802
 42
0.0549867340972236
 10
1690.749657199443
 20
1369.374864723272
 42
0.0855679786988167
 10
1690.830329502172
 20
1369.464243978082
 42
0.065975863518635
 10
1690.870854138188
 20
1369.556190451095
 10
1690.874775120904
 20
1369.593058803157
  0
LWPOLYLINE
  5
4B2
330
6B
100
AcDbEntity
  8
1
 62
     7
100
AcDbPolyline
 90
        5
 70
     0
 43
0.0
 10
1688.807241566986
 20
1368.8477954549
 42
-0.0107085241791216
 10
1688.838242948405
 20
1368.853974480777
 42
-0.0195920331331793
 10
1688.899991018091
 20
1368.862436089317
 42
-0.0146399355309587
 10
1688.954640775455
 20
1368.865868361697
 10
1688.978205080818
 20
1368.866209217617
  0
LWPOLYLINE
  5
4B3
330
6B
100
AcDbEntity
  8
1
 62
     7
100
AcDbPolyline
 90
        8
 70
     0
 43
0.0
 10
1688.4384329327
 20
1368.537121101689
 42
-0.0424553626432539
 10
1688.447681752815
 20
1368.579027115201
 42
-0.0410652773024871
 10
1688.464274675264
 20
1368.619832713919
 42
-0.0383512199335876
 10
1688.487437519766
 20
1368.658447109914
 42
-0.0331738090144014
 10
1688.517819760124
 20
1368.695795813917
 42
-0.0319046349359068
 10
1688.554160646784
 20
1368.730070820467
 42
-0.0286858675685021
 10
1688.595595443632
 20
1368.760947930866
 42
-0.0058750872214595
 10
1688.606563178213
 20
1368.768000170846
  0
LWPOLYLINE
  5
4B4
330
6B
100
AcDbEntity
  8
1
 62
     7
100
AcDbPolyline
 90
        9
 70
     0
 43
0.0
 10
1685.771345155311
 20
1368.866209217617
 42
-0.0099164452956174
 10
1685.374275263207
 20
1368.922103795637
 42
-0.0163576943046204
 10
1684.908321207979
 20
1369.012870469114
 42
-0.0220466616713976
 10
1684.516915518766
 20
1369.120852632974
 42
-0.0335070466417736
 10
1684.211791027938
 20
1369.242804385802
 42
-0.054986734094842
 10
1683.999893042366
 20
1369.374864723272
 42
-0.0855679786949091
 10
1683.919220739637
 20
1369.464243978082
 10
1683.890459051694
 20
1369.519322099034
 42
-0.0987794689972709
 10
1683.874775120903
 20
1369.593058803334
  0
LWPOLYLINE
  5
4B5
330
6B
100
AcDbEntity
  8
1
 62
     7
100
AcDbPolyline
 90
       19
 70
     0
 43
0.0
 10
1685.384578711324
 20
1369.569500712588
 42
0.1234380660519698
 10
1685.448424488714
 20
1369.522049276603
 42
0.0264546811588636
 10
1685.568492448301
 20
1369.482854822917
 42
0.0220209551195001
 10
1685.742367507562
 20
1369.444197111067
 42
0.0122908433704233
 10
1685.965765824944
 20
1369.410407722616
 42
0.0092946427514783
 10
1686.231876942364
 20
1369.38184054789
 42
0.0073037373219051
 10
1686.532689232268
 20
1369.359616988954
 42
0.0062707882013335
 10
1686.859071251731
 20
1369.344397993137
 42
0.0057307397139714
 10
1687.201115711815
 20
1369.336668910843
 42
0.0055658420527142
 10
1687.548434529992
 20
1369.336668910844
 42
0.0057307631954874
 10
1687.890478990075
 20
1369.344397993137
 42
0.0062708454495935
 10
1688.21686100954
 20
1369.359616988955
 42
0.007303911218718
 10
1688.517673299443
 20
1369.381840547891
 42
0.0092950053344855
 10
1688.783784416864
 20
1369.410407722616
 42
0.0122925043766724
 10
1689.007182734246
 20
1369.444197111067
 42
0.0220371893443752
 10
1689.181057793507
 20
1369.482854822917
 42
0.0264051971354515
 10
1689.301125753094
 20
1369.522049276604
 42
0.1318984577382092
 10
1689.364971530484
 20
1369.569500712588
 42
0.1615400285263172
 10
1689.374775120904
 20
1369.593058808364
  0
LWPOLYLINE
  5
4B6
330
6B
100
AcDbEntity
  8
1
 62
     7
100
AcDbPolyline
 90
       11
 70
     0
 43
0.0
 10
1672.374775087339
 20
1367.809430276683
 42
-0.0151260024210684
 10
1672.287788444213
 20
1367.812063506896
 42
-0.0307251130164727
 10
1672.116442787179
 20
1367.833053327475
 42
-0.0321850971192674
 10
1671.952899993312
 20
1367.874403419421
 42
-0.0347184682799409
 10
1671.802097902315
 20
1367.93487655214
 42
-0.038446059258097
 10
1671.668590494116
 20
1368.012670575694
 42
-0.0434412691888693
 10
1671.556420238501
 20
1368.105478332546
 42
-0.0495442164456249
 10
1671.469016232218
 20
1368.21055413356
 42
-0.0560291684726127
 10
1671.409111820409
 20
1368.324768235888
 42
-0.0613148065563796
 10
1671.378648768487
 20
1368.444646684597
 42
-0.031584879312965
 10
1671.374775120904
 20
1368.505547330547
  0
LWPOLYLINE
  5
4B7
330
6B
100
AcDbEntity
  8
1
 62
     7
100
AcDbPolyline
 90
       11
 70
     0
 43
0.0
 10
1685.374775120904
 20
1367.809430276683
 42
0.016128834765168
 10
1685.456427906889
 20
1367.812066149138
 42
0.0326974901210196
 10
1685.617266634546
 20
1367.833066857664
 42
0.0340467440674765
 10
1685.770779538909
 20
1367.874438980456
 42
0.0363497883250741
 10
1685.912328622922
 20
1367.934944916106
 42
0.0396526183862666
 10
1686.037633539704
 20
1368.012779301995
 42
0.0439236157714996
 10
1686.142892313479
 20
1368.105625078634
 42
0.0489104756078205
 10
1686.224882645887
 20
1368.210716779013
 42
0.0539439982835272
 10
1686.281050026051
 20
1368.324901114466
 42
0.0578559044593155
 10
1686.309600280219
 20
1368.444698583047
 42
0.0295836000663659
 10
1686.313222307982
 20
1368.505547333112
  0
LWPOLYLINE
  5
4B8
330
6B
100
AcDbEntity
  8
1
 62
     7
100
AcDbPolyline
 90
       11
 70
     0
 43
0.0
 10
1694.874775154413
 20
1367.809430276683
 42
0.0151260024218009
 10
1694.961761797595
 20
1367.812063506896
 42
0.0307251130190997
 10
1695.133107454629
 20
1367.833053327475
 42
0.0321850971190222
 10
1695.296650248496
 20
1367.874403419421
 42
0.0347184682788099
 10
1695.447452339494
 20
1367.93487655214
 42
0.0384460592609543
 10
1695.580959747693
 20
1368.012670575694
 42
0.0434412691880916
 10
1695.693130003307
 20
1368.105478332546
 42
0.049544216450501
 10
1695.78053400959
 20
1368.21055413356
 42
0.0560291684742667
 10
1695.840438421398
 20
1368.324768235888
 42
0.0613148065510647
 10
1695.870901473321
 20
1368.444646684597
 42
0.031584879312965
 10
1695.874775120904
 20
1368.505547330547
  0
LWPOLYLINE
  5
4B9
330
6B
100
AcDbEntity
  8
1
 62
     7
100
AcDbPolyline
 90
       11
 70
     0
 43
0.0
 10
1689.374775120904
 20
1367.809430276683
 42
-0.0161288347650781
 10
1689.293122334919
 20
1367.812066149138
 42
-0.0326974901212909
 10
1689.132283607262
 20
1367.833066857664
 42
-0.034046744067105
 10
1688.978770702899
 20
1367.874438980456
 42
-0.0363497883262329
 10
1688.837221618886
 20
1367.934944916106
 42
-0.0396526183861607
 10
1688.711916702104
 20
1368.012779301995
 42
-0.0439236157726782
 10
1688.606657928328
 20
1368.105625078634
 42
-0.0489104756064804
 10
1688.524667595921
 20
1368.210716779013
 42
-0.0539439982881298
 10
1688.468500215757
 20
1368.324901114466
 42
-0.0578559044575286
 10
1688.439949961589
 20
1368.444698583047
 42
-0.0295836000626799
 10
1688.436327933826
 20
1368.505547333112
  0
ENDSEC
  0
SECTION
  2
OBJECTS
  0
DICTIONARY
  5
C
330
0
100
AcDbDictionary
281
     1
  3
ACAD_CIP_PREVIOUS_PRODUCT_INFO
350
3F4
  3
ACAD_COLOR
350
62
  3
ACAD_GROUP
350
D
  3
ACAD_LAYOUT
350
61
  3
ACAD_MATERIAL
350
10
  3
ACAD_MLEADERSTYLE
350
65
  3
ACAD_MLINESTYLE
350
5E
  3
ACAD_PLOTSETTINGS
350
60
  3
ACAD_PLOTSTYLENAME
350
E
  3
ACAD_SCALELIST
350
42
  3
ACAD_TABLESTYLE
350
63
  3
ACAD_VISUALSTYLE
350
29
  3
ACDB_RECOMPOSE_DATA
350
533
  3
AcDbVariableDictionary
350
528
  3
DWGPROPS
350
534
  0
DICTIONARY
  5
524
330
54
100
AcDbDictionary
280
     1
281
     1
  3
ADSK_XREC_LAYER_RECONCILED
360
525
  0
DICTIONARY
  5
526
330
78
100
AcDbDictionary
280
     1
281
     1
  3
ADSK_XREC_LAYER_RECONCILED
360
527
  0
DICTIONARY
  5
3FD
330
6B
100
AcDbDictionary
280
     1
281
     1
  3
ACAD_SORTENTS
360
3FE
  0
XRECORD
  5
3F4
102
{ACAD_REACTORS
330
C
102
}
330
C
100
AcDbXrecord
280
     1
300
ACD
300
2012
300
ACD_F_S
  0
DICTIONARY
  5
62
102
{ACAD_REACTORS
330
C
102
}
330
C
100
AcDbDictionary
281
     1
  0
DICTIONARY
  5
D
102
{ACAD_REACTORS
330
C
102
}
330
C
100
AcDbDictionary
281
     1
  0
DICTIONARY
  5
61
102
{ACAD_REACTORS
330
C
102
}
330
C
100
AcDbDictionary
281
     1
  3
Model
350
6E
  3
レイアウト1
350
6A
  0
DICTIONARY
  5
10
102
{ACAD_REACTORS
330
C
102
}
330
C
100
AcDbDictionary
281
     1
  3
ByBlock
350
19
  3
ByLayer
350
11
  3
Global
350
21
  0
DICTIONARY
  5
65
102
{ACAD_REACTORS
330
C
102
}
330
C
100
AcDbDictionary
281
     1
  3
Standard
350
66
  0
DICTIONARY
  5
5E
102
{ACAD_REACTORS
330
C
102
}
330
C
100
AcDbDictionary
281
     1
  3
Standard
350
5F
  0
DICTIONARY
  5
60
102
{ACAD_REACTORS
330
C
102
}
330
C
100
AcDbDictionary
281
     1
  0
ACDBDICTIONARYWDFLT
  5
E
102
{ACAD_REACTORS
330
C
102
}
330
C
100
AcDbDictionary
281
     1
  3
Normal
350
F
100
AcDbDictionaryWithDefault
340
F
  0
DICTIONARY
  5
42
102
{ACAD_REACTORS
330
C
102
}
330
C
100
AcDbDictionary
281
     1
  3
A0
350
43
  3
A1
350
44
  3
A2
350
45
  3
A3
350
46
  3
A4
350
47
  3
A5
350
48
  3
A6
350
49
  3
A7
350
4A
  3
A8
350
4B
  3
A9
350
4C
  3
B0
350
4D
  3
B1
350
4E
  3
B2
350
4F
  3
B3
350
50
  3
B4
350
51
  3
B5
350
52
  3
B6
350
53
  0
DICTIONARY
  5
63
102
{ACAD_REACTORS
330
C
102
}
330
C
100
AcDbDictionary
281
     1
  3
Standard
350
64
  0
DICTIONARY
  5
29
102
{ACAD_REACTORS
330
C
102
}
330
C
100
AcDbDictionary
281
     1
  3
2dWireframe
350
2F
  3
Basic
350
2E
  3
Brighten
350
35
  3
ColorChange
350
39
  3
Conceptual
350
32
  3
Dim
350
34
  3
EdgeColorOff
350
41
  3
Facepattern
350
38
  3
Flat
350
2A
  3
FlatWithEdges
350
2B
  3
Gouraud
350
2C
  3
GouraudWithEdges
350
2D
  3
Hidden
350
31
  3
JitterOff
350
3F
  3
Linepattern
350
37
  3
OverhangOff
350
40
  3
Realistic
350
33
  3
Shaded
350
3E
  3
Shaded with edges
350
3D
  3
Shades of Gray
350
3A
  3
Sketchy
350
3B
  3
Thicken
350
36
  3
Wireframe
350
30
  3
X-Ray
350
3C
  0
XRECORD
  5
533
102
{ACAD_REACTORS
330
C
102
}
330
C
100
AcDbXrecord
280
     1
 90
        1
330
64
  0
DICTIONARY
  5
528
102
{ACAD_REACTORS
330
C
102
}
330
C
100
AcDbDictionary
281
     1
  3
CANNOSCALE
350
52B
  3
CMLEADERSTYLE
350
52A
  3
CTABLESTYLE
350
529
  3
DIMASSOC
350
52E
  3
INDEXCTL
350
52D
  3
SORTENTS
350
52C
  3
XCLIPFRAME
350
52F
  0
XRECORD
  5
534
102
{ACAD_REACTORS
330
C
102
}
330
C
100
AcDbXrecord
280
     1
  1
DWGPROPS COOKIE
  2

  3

  4

  6

  7

  8
0035sekine
  9

300
=
301
=
302
=
303
=
304
=
305
=
306
=
307
=
308
=
309
=
 40
0.0009182175925926
 41
2457585.378566817
 42
2457585.379484861
  1

 90
        0
  0
XRECORD
  5
525
102
{ACAD_REACTORS
330
524
102
}
330
524
100
AcDbXrecord
280
     1
290
     1
  0
XRECORD
  5
527
102
{ACAD_REACTORS
330
526
102
}
330
526
100
AcDbXrecord
280
     1
290
     1
  0
SORTENTSTABLE
  5
3FE
102
{ACAD_REACTORS
330
3FD
102
}
330
3FD
100
AcDbSortentsTable
330
6B
331
458
  5
4D3
331
4B6
  5
49A
331
49C
  5
480
331
40C
  5
515
331
469
  5
4E4
331
447
  5
4C2
331
42E
  5
4A9
331
4AD
  5
491
331
48B
  5
46F
331
3FB
  5
522
331
41D
  5
501
331
4B4
  5
498
331
49A
  5
47E
331
40A
  5
513
331
467
  5
4E2
331
445
  5
4C0
331
42C
  5
4A7
331
4AB
  5
48F
331
489
  5
46D
331
3F9
  5
520
331
41B
  5
4FF
331
456
  5
4D1
331
4B2
  5
496
331
498
  5
47C
331
408
  5
511
331
465
  5
4E0
331
443
  5
4BE
331
42A
  5
4A5
331
4A9
  5
48D
331
487
  5
46B
331
3F7
  5
51E
331
419
  5
4FD
331
476
  5
4F1
331
454
  5
4CF
331
4B0
  5
494
331
406
  5
50F
331
463
  5
4DE
331
441
  5
4BC
331
428
  5
4A3
331
485
  5
469
331
3F5
  5
51C
331
417
  5
4FB
331
474
  5
4EF
331
452
  5
4CD
331
496
  5
47A
331
404
  5
50D
331
461
  5
4DC
331
43F
  5
4BA
331
426
  5
4A1
331
4A5
  5
489
331
483
  5
467
331
415
  5
4F9
331
472
  5
4ED
331
450
  5
4CB
331
494
  5
478
331
402
  5
50B
331
45F
  5
4DA
331
43D
  5
4B8
331
424
  5
49F
331
4A3
  5
487
331
481
  5
465
331
413
  5
4F7
331
470
  5
4EB
331
44E
  5
4C9
331
435
  5
4B0
331
492
  5
476
331
400
  5
509
331
422
  5
506
331
45D
  5
4D8
331
4A1
  5
485
331
47F
  5
463
331
411
  5
51A
331
46E
  5
4E9
331
44C
  5
4C7
331
433
  5
4AE
331
490
  5
474
331
420
  5
504
331
45B
  5
4D6
331
4B9
  5
49D
331
49F
  5
483
331
47D
  5
461
331
40F
  5
518
331
46C
  5
4E7
331
44A
  5
4C5
331
431
  5
4AC
331
48E
  5
472
331
459
  5
4D4
331
4B7
  5
49B
331
49D
  5
481
331
40D
  5
516
331
46A
  5
4E5
331
448
  5
4C3
331
42F
  5
4AA
331
4AE
  5
492
331
48C
  5
470
331
3FC
  5
523
331
41E
  5
502
331
4B5
  5
499
331
49B
  5
47F
331
40B
  5
514
331
468
  5
4E3
331
446
  5
4C1
331
42D
  5
4A8
331
4AC
  5
490
331
48A
  5
46E
331
3FA
  5
521
331
41C
  5
500
331
457
  5
4D2
331
4B3
  5
497
331
499
  5
47D
331
409
  5
512
331
466
  5
4E1
331
444
  5
4BF
331
42B
  5
4A6
331
4AA
  5
48E
331
488
  5
46C
331
3F8
  5
51F
331
41A
  5
4FE
331
477
  5
4F2
331
455
  5
4D0
331
4B1
  5
495
331
407
  5
510
331
464
  5
4DF
331
442
  5
4BD
331
429
  5
4A4
331
486
  5
46A
331
3F6
  5
51D
331
418
  5
4FC
331
475
  5
4F0
331
453
  5
4CE
331
497
  5
47B
331
405
  5
50E
331
462
  5
4DD
331
440
  5
4BB
331
427
  5
4A2
331
4A6
  5
48A
331
484
  5
468
331
416
  5
4FA
331
473
  5
4EE
331
451
  5
4CC
331
495
  5
479
331
403
  5
50C
331
460
  5
4DB
331
43E
  5
4B9
331
425
  5
4A0
331
4A4
  5
488
331
482
  5
466
331
414
  5
4F8
331
471
  5
4EC
331
44F
  5
4CA
331
436
  5
4B1
331
493
  5
477
331
401
  5
50A
331
45E
  5
4D9
331
423
  5
49E
331
4A2
  5
486
331
480
  5
464
331
412
  5
51B
331
46F
  5
4EA
331
44D
  5
4C8
331
434
  5
4AF
331
491
  5
475
331
421
  5
505
331
45C
  5
4D7
331
4A0
  5
484
331
47E
  5
462
331
410
  5
519
331
46D
  5
4E8
331
44B
  5
4C6
331
432
  5
4AD
331
48F
  5
473
331
3FF
  5
508
331
45A
  5
4D5
331
4B8
  5
49C
331
49E
  5
482
331
47C
  5
460
331
40E
  5
517
331
46B
  5
4E6
331
449
  5
4C4
331
430
  5
4AB
331
4AF
  5
493
331
48D
  5
471
331
41F
  5
503
  0
LAYOUT
  5
6E
102
{ACAD_XDICTIONARY
360
56C
102
}
102
{ACAD_REACTORS
330
61
102
}
330
61
100
AcDbPlotSettings
  1

  2
\\asrv0030\DocuCentre 230 - 本社９階　開発部
  4

  6

 40
0.0
 41
0.0
 42
0.0
 43
0.0
 44
0.0
 45
0.0
 46
0.0
 47
0.0
 48
0.0
 49
0.0
140
0.0
141
0.0
142
1.0
143
1.0
 70
  1712
 72
     0
 73
     0
 74
     0
  7

 75
     0
147
1.0
148
0.0
149
0.0
100
AcDbLayout
  1
Model
 70
     1
 71
     0
 10
0.0
 20
0.0
 11
12.0
 21
9.0
 12
0.0
 22
0.0
 32
0.0
 14
0.0
 24
0.0
 34
0.0
 15
0.0
 25
0.0
 35
0.0
146
0.0
 13
0.0
 23
0.0
 33
0.0
 16
1.0
 26
0.0
 36
0.0
 17
0.0
 27
1.0
 37
0.0
 76
     0
330
6B
331
80
  0
LAYOUT
  5
6A
102
{ACAD_XDICTIONARY
360
56A
102
}
102
{ACAD_REACTORS
330
61
102
}
330
61
100
AcDbPlotSettings
  1

  2
\\asrv0030\DocuCentre 230 - 本社９階　開発部
  4

  6

 40
0.0
 41
0.0
 42
0.0
 43
0.0
 44
0.0
 45
0.0
 46
0.0
 47
0.0
 48
0.0
 49
0.0
140
0.0
141
0.0
142
1.0
143
1.0
 70
   688
 72
     0
 73
     0
 74
     5
  7

 75
    16
147
1.0
148
0.0
149
0.0
100
AcDbLayout
  1
レイアウト1
 70
     1
 71
     1
 10
0.0
 20
0.0
 11
12.0
 21
9.0
 12
0.0
 22
0.0
 32
0.0
 14
1.000000000000000E+20
 24
1.000000000000000E+20
 34
1.000000000000000E+20
 15
-1.000000000000000E+20
 25
-1.000000000000000E+20
 35
-1.000000000000000E+20
146
0.0
 13
0.0
 23
0.0
 33
0.0
 16
1.0
 26
0.0
 36
0.0
 17
0.0
 27
1.0
 37
0.0
 76
     0
330
67
  0
MATERIAL
  5
19
102
{ACAD_XDICTIONARY
360
1A
102
}
102
{ACAD_REACTORS
330
10
102
}
330
10
100
AcDbMaterial
  1
ByBlock
 72
     0
 43
0.0208333333333333
 43
0.0
 43
0.0
 43
0.0
 43
0.0
 43
0.0208333333333333
 43
0.0
 43
0.0
 43
0.0
 43
0.0
 43
1.0
 43
0.0
 43
0.0
 43
0.0
 43
0.0
 43
1.0
 77
     0
 47
0.0208333333333333
 47
0.0
 47
0.0
 47
0.0
 47
0.0
 47
0.0208333333333333
 47
0.0
 47
0.0
 47
0.0
 47
0.0
 47
1.0
 47
0.0
 47
0.0
 47
0.0
 47
0.0
 47
1.0
171
     0
 49
0.0208333333333333
 49
0.0
 49
0.0
 49
0.0
 49
0.0
 49
0.0208333333333333
 49
0.0
 49
0.0
 49
0.0
 49
0.0
 49
1.0
 49
0.0
 49
0.0
 49
0.0
 49
0.0
 49
1.0
175
     0
142
0.0208333333333333
142
0.0
142
0.0
142
0.0
142
0.0
142
0.0208333333333333
142
0.0
142
0.0
142
0.0
142
0.0
142
1.0
142
0.0
142
0.0
142
0.0
142
0.0
142
1.0
179
     0
144
0.0208333333333333
144
0.0
144
0.0
144
0.0
144
0.0
144
0.0208333333333333
144
0.0
144
0.0
144
0.0
144
0.0
144
1.0
144
0.0
144
0.0
144
0.0
144
0.0
144
1.0
147
0.0208333333333333
147
0.0
147
0.0
147
0.0
147
0.0
147
0.0208333333333333
147
0.0
147
0.0
147
0.0
147
0.0
147
1.0
147
0.0
147
0.0
147
0.0
147
0.0
147
1.0
  0
MATERIAL
  5
11
102
{ACAD_XDICTIONARY
360
12
102
}
102
{ACAD_REACTORS
330
10
102
}
330
10
100
AcDbMaterial
  1
ByLayer
 72
     0
 43
0.0208333333333333
 43
0.0
 43
0.0
 43
0.0
 43
0.0
 43
0.0208333333333333
 43
0.0
 43
0.0
 43
0.0
 43
0.0
 43
1.0
 43
0.0
 43
0.0
 43
0.0
 43
0.0
 43
1.0
 77
     0
 47
0.0208333333333333
 47
0.0
 47
0.0
 47
0.0
 47
0.0
 47
0.0208333333333333
 47
0.0
 47
0.0
 47
0.0
 47
0.0
 47
1.0
 47
0.0
 47
0.0
 47
0.0
 47
0.0
 47
1.0
171
     0
 49
0.0208333333333333
 49
0.0
 49
0.0
 49
0.0
 49
0.0
 49
0.0208333333333333
 49
0.0
 49
0.0
 49
0.0
 49
0.0
 49
1.0
 49
0.0
 49
0.0
 49
0.0
 49
0.0
 49
1.0
175
     0
142
0.0208333333333333
142
0.0
142
0.0
142
0.0
142
0.0
142
0.0208333333333333
142
0.0
142
0.0
142
0.0
142
0.0
142
1.0
142
0.0
142
0.0
142
0.0
142
0.0
142
1.0
179
     0
144
0.0208333333333333
144
0.0
144
0.0
144
0.0
144
0.0
144
0.0208333333333333
144
0.0
144
0.0
144
0.0
144
0.0
144
1.0
144
0.0
144
0.0
144
0.0
144
0.0
144
1.0
147
0.0208333333333333
147
0.0
147
0.0
147
0.0
147
0.0
147
0.0208333333333333
147
0.0
147
0.0
147
0.0
147
0.0
147
1.0
147
0.0
147
0.0
147
0.0
147
0.0
147
1.0
  0
MATERIAL
  5
21
102
{ACAD_XDICTIONARY
360
22
102
}
102
{ACAD_REACTORS
330
10
102
}
330
10
100
AcDbMaterial
  1
Global
 72
     0
 43
0.0208333333333333
 43
0.0
 43
0.0
 43
0.0
 43
0.0
 43
0.0208333333333333
 43
0.0
 43
0.0
 43
0.0
 43
0.0
 43
1.0
 43
0.0
 43
0.0
 43
0.0
 43
0.0
 43
1.0
 77
     0
 47
0.0208333333333333
 47
0.0
 47
0.0
 47
0.0
 47
0.0
 47
0.0208333333333333
 47
0.0
 47
0.0
 47
0.0
 47
0.0
 47
1.0
 47
0.0
 47
0.0
 47
0.0
 47
0.0
 47
1.0
171
     0
 49
0.0208333333333333
 49
0.0
 49
0.0
 49
0.0
 49
0.0
 49
0.0208333333333333
 49
0.0
 49
0.0
 49
0.0
 49
0.0
 49
1.0
 49
0.0
 49
0.0
 49
0.0
 49
0.0
 49
1.0
175
     0
142
0.0208333333333333
142
0.0
142
0.0
142
0.0
142
0.0
142
0.0208333333333333
142
0.0
142
0.0
142
0.0
142
0.0
142
1.0
142
0.0
142
0.0
142
0.0
142
0.0
142
1.0
179
     0
144
0.0208333333333333
144
0.0
144
0.0
144
0.0
144
0.0
144
0.0208333333333333
144
0.0
144
0.0
144
0.0
144
0.0
144
1.0
144
0.0
144
0.0
144
0.0
144
0.0
144
1.0
147
0.0208333333333333
147
0.0
147
0.0
147
0.0
147
0.0
147
0.0208333333333333
147
0.0
147
0.0
147
0.0
147
0.0
147
1.0
147
0.0
147
0.0
147
0.0
147
0.0
147
1.0
  0
MLEADERSTYLE
  5
66
102
{ACAD_REACTORS
330
65
102
}
330
65
100
AcDbMLeaderStyle
170
     2
171
     1
172
     0
 90
        2
 40
0.0
 41
0.0
173
     1
 91
-1056964608
340
5A
 92
       -2
290
     1
 42
0.09
291
     1
 43
0.36
  3
Standard
 44
0.18
300

342
55
174
     1
178
     6
175
     1
176
     0
 93
-1056964608
 45
0.18
292
     0
297
     0
 46
0.18
 94
-1056964608
 47
1.0
 49
1.0
140
1.0
293
     1
141
0.0
294
     1
177
     0
142
1.0
295
     0
296
     0
143
0.125
1001
ACAD_MLEADERVER
1070
     2
  0
MLINESTYLE
  5
5F
102
{ACAD_REACTORS
330
5E
102
}
330
5E
100
AcDbMlineStyle
  2
STANDARD
 70
     0
  3

 62
   256
 51
90.0
 52
90.0
 71
     2
 49
0.5
 62
   256
  6
BYLAYER
 49
-0.5
 62
   256
  6
BYLAYER
  0
ACDBPLACEHOLDER
  5
F
102
{ACAD_REACTORS
330
E
102
}
330
E
  0
SCALE
  5
43
102
{ACAD_REACTORS
330
42
102
}
330
42
100
AcDbScale
 70
     0
300
1:1
140
1.0
141
1.0
290
     1
  0
SCALE
  5
44
102
{ACAD_REACTORS
330
42
102
}
330
42
100
AcDbScale
 70
     0
300
1/128" = 1'-0"
140
0.0078125
141
12.0
290
     0
  0
SCALE
  5
45
102
{ACAD_REACTORS
330
42
102
}
330
42
100
AcDbScale
 70
     0
300
1/64" = 1'-0"
140
0.015625
141
12.0
290
     0
  0
SCALE
  5
46
102
{ACAD_REACTORS
330
42
102
}
330
42
100
AcDbScale
 70
     0
300
1/32" = 1'-0"
140
0.03125
141
12.0
290
     0
  0
SCALE
  5
47
102
{ACAD_REACTORS
330
42
102
}
330
42
100
AcDbScale
 70
     0
300
1/16" = 1'-0"
140
0.0625
141
12.0
290
     0
  0
SCALE
  5
48
102
{ACAD_REACTORS
330
42
102
}
330
42
100
AcDbScale
 70
     0
300
3/32" = 1'-0"
140
0.09375
141
12.0
290
     0
  0
SCALE
  5
49
102
{ACAD_REACTORS
330
42
102
}
330
42
100
AcDbScale
 70
     0
300
1/8" = 1'-0"
140
0.125
141
12.0
290
     0
  0
SCALE
  5
4A
102
{ACAD_REACTORS
330
42
102
}
330
42
100
AcDbScale
 70
     0
300
3/16" = 1'-0"
140
0.1875
141
12.0
290
     0
  0
SCALE
  5
4B
102
{ACAD_REACTORS
330
42
102
}
330
42
100
AcDbScale
 70
     0
300
1/4" = 1'-0"
140
0.25
141
12.0
290
     0
  0
SCALE
  5
4C
102
{ACAD_REACTORS
330
42
102
}
330
42
100
AcDbScale
 70
     0
300
3/8" = 1'-0"
140
0.375
141
12.0
290
     0
  0
SCALE
  5
4D
102
{ACAD_REACTORS
330
42
102
}
330
42
100
AcDbScale
 70
     0
300
1/2" = 1'-0"
140
0.5
141
12.0
290
     0
  0
SCALE
  5
4E
102
{ACAD_REACTORS
330
42
102
}
330
42
100
AcDbScale
 70
     0
300
3/4" = 1'-0"
140
0.75
141
12.0
290
     0
  0
SCALE
  5
4F
102
{ACAD_REACTORS
330
42
102
}
330
42
100
AcDbScale
 70
     0
300
1" = 1'-0"
140
1.0
141
12.0
290
     0
  0
SCALE
  5
50
102
{ACAD_REACTORS
330
42
102
}
330
42
100
AcDbScale
 70
     0
300
1-1/2" = 1'-0"
140
1.5
141
12.0
290
     0
  0
SCALE
  5
51
102
{ACAD_REACTORS
330
42
102
}
330
42
100
AcDbScale
 70
     0
300
3" = 1'-0"
140
3.0
141
12.0
290
     0
  0
SCALE
  5
52
102
{ACAD_REACTORS
330
42
102
}
330
42
100
AcDbScale
 70
     0
300
6" = 1'-0"
140
6.0
141
12.0
290
     0
  0
SCALE
  5
53
102
{ACAD_REACTORS
330
42
102
}
330
42
100
AcDbScale
 70
     0
300
1'-0" = 1'-0"
140
12.0
141
12.0
290
     0
  0
TABLESTYLE
  5
64
102
{ACAD_XDICTIONARY
360
531
102
}
102
{ACAD_REACTORS
330
63
102
}
330
63
100
AcDbTableStyle
  3
Standard
 70
     0
 71
     0
 40
0.06
 41
0.06
280
     0
281
     0
  7
STANDARD
140
0.18
170
     2
 62
     0
 63
     7
283
     0
274
    -2
284
     1
 64
     0
275
    -2
285
     1
 65
     0
276
    -2
286
     1
 66
     0
277
    -2
287
     1
 67
     0
278
    -2
288
     1
 68
     0
279
    -2
289
     1
 69
     0
  7
STANDARD
140
0.25
170
     5
 62
     0
 63
     7
283
     0
274
    -2
284
     1
 64
     0
275
    -2
285
     1
 65
     0
276
    -2
286
     1
 66
     0
277
    -2
287
     1
 67
     0
278
    -2
288
     1
 68
     0
279
    -2
289
     1
 69
     0
  7
STANDARD
140
0.18
170
     5
 62
     0
 63
     7
283
     0
274
    -2
284
     1
 64
     0
275
    -2
285
     1
 65
     0
276
    -2
286
     1
 66
     0
277
    -2
287
     1
 67
     0
278
    -2
288
     1
 68
     0
279
    -2
289
     1
 69
     0
  0
VISUALSTYLE
  5
2F
102
{ACAD_XDICTIONARY
360
542
102
}
102
{ACAD_REACTORS
330
29
102
}
330
29
100
AcDbVisualStyle
  2
2dWireframe
 70
     4
 71
     0
 72
     2
 73
     0
 90
        0
 40
-0.6
 41
-30.0
 62
     5
 63
     7
 74
     1
 91
        4
 64
     7
 65
   257
 75
     1
175
     1
 42
1.0
 92
        0
 66
   257
 43
1.0
 76
     1
 77
     6
 78
     2
 67
     7
 79
     5
170
     0
171
     0
290
     0
174
     0
 93
        1
 44
0.0
173
     0
291
     0
 45
0.0
1001
ACAD
1000
AcDbSavedByObjectVersion
1070
     0
  0
VISUALSTYLE
  5
2E
102
{ACAD_XDICTIONARY
360
540
102
}
102
{ACAD_REACTORS
330
29
102
}
330
29
100
AcDbVisualStyle
  2
Basic
 70
     7
 71
     1
 72
     0
 73
     1
 90
        0
 40
-0.6
 41
-30.0
 62
     5
 63
     7
 74
     0
 91
        4
 64
     7
 65
   257
 75
     1
175
     1
 42
1.0
 92
        8
 66
     7
 43
1.0
 76
     1
 77
     6
 78
     2
 67
     7
 79
     5
170
     0
171
     0
290
     0
174
     0
 93
        1
 44
0.0
173
     0
291
     1
 45
0.0
1001
ACAD
1000
AcDbSavedByObjectVersion
1070
     0
  0
VISUALSTYLE
  5
35
102
{ACAD_XDICTIONARY
360
54E
102
}
102
{ACAD_REACTORS
330
29
102
}
330
29
100
AcDbVisualStyle
  2
Brighten
 70
    12
 71
     2
 72
     2
 73
     0
 90
        0
 40
-0.6
 41
-30.0
 62
     5
 63
     7
 74
     1
 91
        4
 64
     7
 65
   257
 75
     1
175
     1
 42
1.0
 92
        8
 66
     7
 43
1.0
 76
     1
 77
     6
 78
     2
 67
     7
 79
     5
170
     0
171
     0
290
     0
174
     0
 93
        1
 44
50.0
173
     0
291
     1
 45
0.0
1001
ACAD
1000
AcDbSavedByObjectVersion
1070
     0
  0
VISUALSTYLE
  5
39
102
{ACAD_XDICTIONARY
360
556
102
}
102
{ACAD_REACTORS
330
29
102
}
330
29
100
AcDbVisualStyle
  2
ColorChange
 70
    16
 71
     2
 72
     2
 73
     3
 90
        0
 40
-0.6
 41
-30.0
 62
     5
 63
     8
 74
     1
 91
        4
 64
     7
 65
   257
 75
     1
175
     1
 42
1.0
 92
        8
 66
     8
 43
1.0
 76
     1
 77
     6
 78
     2
 67
     7
 79
     5
170
     0
171
     0
290
     0
174
     0
 93
        1
 44
0.0
173
     0
291
     1
 45
0.0
1001
ACAD
1000
AcDbSavedByObjectVersion
1070
     0
  0
VISUALSTYLE
  5
32
102
{ACAD_XDICTIONARY
360
548
102
}
102
{ACAD_REACTORS
330
29
102
}
330
29
100
AcDbVisualStyle
  2
Conceptual
 70
     9
 71
     3
 72
     2
 73
     0
 90
        0
 40
-0.6
 41
-30.0
 62
     5
 63
     7
 74
     2
 91
        2
 64
     7
 65
   257
 75
     1
175
     1
 42
179.0
 92
        8
 66
     7
 43
1.0
 76
     1
 77
     6
 78
     2
 67
     7
 79
     3
170
     0
171
     0
290
     0
174
     0
 93
        1
 44
0.0
173
     0
291
     0
 45
0.0
1001
ACAD
1000
AcDbSavedByObjectVersion
1070
     0
  0
VISUALSTYLE
  5
34
102
{ACAD_XDICTIONARY
360
54C
102
}
102
{ACAD_REACTORS
330
29
102
}
330
29
100
AcDbVisualStyle
  2
Dim
 70
    11
 71
     2
 72
     2
 73
     0
 90
        0
 40
-0.6
 41
-30.0
 62
     5
 63
     7
 74
     1
 91
        4
 64
     7
 65
   257
 75
     1
175
     1
 42
1.0
 92
        8
 66
     7
 43
1.0
 76
     1
 77
     6
 78
     2
 67
     7
 79
     5
170
     0
171
     0
290
     0
174
     0
 93
        1
 44
-50.0
173
     0
291
     1
 45
0.0
1001
ACAD
1000
AcDbSavedByObjectVersion
1070
     0
  0
VISUALSTYLE
  5
41
102
{ACAD_XDICTIONARY
360
566
102
}
102
{ACAD_REACTORS
330
29
102
}
330
29
100
AcDbVisualStyle
  2
EdgeColorOff
 70
    22
 71
     2
 72
     2
 73
     0
 90
        0
 40
-0.6
 41
-30.0
 62
     5
 63
     7
 74
     1
 91
        4
 64
     7
 65
   257
 75
     1
175
     1
 42
1.0
 92
        8
 66
     7
 43
1.0
 76
     1
 77
     6
 78
     2
 67
     7
 79
     5
170
     0
171
     0
290
     0
174
     0
 93
        1
 44
0.0
173
     0
291
     1
 45
0.0
1001
ACAD
1000
AcDbSavedByObjectVersion
1070
     0
  0
VISUALSTYLE
  5
38
102
{ACAD_XDICTIONARY
360
554
102
}
102
{ACAD_REACTORS
330
29
102
}
330
29
100
AcDbVisualStyle
  2
Facepattern
 70
    15
 71
     2
 72
     2
 73
     0
 90
        0
 40
-0.6
 41
-30.0
 62
     5
 63
     7
 74
     1
 91
        4
 64
     7
 65
   257
 75
     1
175
     1
 42
1.0
 92
        8
 66
     7
 43
1.0
 76
     1
 77
     6
 78
     2
 67
     7
 79
     5
170
     0
171
     0
290
     0
174
     0
 93
        1
 44
0.0
173
     0
291
     1
 45
0.0
1001
ACAD
1000
AcDbSavedByObjectVersion
1070
     0
  0
VISUALSTYLE
  5
2A
102
{ACAD_XDICTIONARY
360
538
102
}
102
{ACAD_REACTORS
330
29
102
}
330
29
100
AcDbVisualStyle
  2
Flat
 70
     0
 71
     2
 72
     1
 73
     1
 90
        2
 40
-0.6
 41
30.0
 62
     5
 63
     7
 74
     0
 91
        0
 64
     7
 65
   257
 75
     1
175
     1
 42
1.0
 92
        8
 66
     7
 43
1.0
 76
     1
 77
     6
 78
     2
 67
     7
 79
     5
170
     0
171
     0
290
     0
174
     0
 93
       13
 44
0.0
173
     0
291
     1
 45
0.0
1001
ACAD
1000
AcDbSavedByObjectVersion
1070
     0
  0
VISUALSTYLE
  5
2B
102
{ACAD_XDICTIONARY
360
53A
102
}
102
{ACAD_REACTORS
330
29
102
}
330
29
100
AcDbVisualStyle
  2
FlatWithEdges
 70
     1
 71
     2
 72
     1
 73
     1
 90
        2
 40
-0.6
 41
30.0
 62
     5
 63
     7
 74
     1
 91
        0
 64
     7
 65
   257
 75
     1
175
     1
 42
1.0
 92
        0
 66
   257
 43
1.0
 76
     1
 77
     6
 78
     2
 67
     7
 79
     5
170
     0
171
     0
290
     0
174
     0
 93
       13
 44
0.0
173
     0
291
     1
 45
0.0
1001
ACAD
1000
AcDbSavedByObjectVersion
1070
     0
  0
VISUALSTYLE
  5
2C
102
{ACAD_XDICTIONARY
360
53C
102
}
102
{ACAD_REACTORS
330
29
102
}
330
29
100
AcDbVisualStyle
  2
Gouraud
 70
     2
 71
     2
 72
     2
 73
     1
 90
        2
 40
-0.6
 41
30.0
 62
     5
 63
     7
 74
     0
 91
        0
 64
     7
 65
   257
 75
     1
175
     1
 42
1.0
 92
        0
 66
     7
 43
1.0
 76
     1
 77
     6
 78
     2
 67
     7
 79
     5
170
     0
171
     0
290
     0
174
     0
 93
       13
 44
0.0
173
     0
291
     1
 45
0.0
1001
ACAD
1000
AcDbSavedByObjectVersion
1070
     0
  0
VISUALSTYLE
  5
2D
102
{ACAD_XDICTIONARY
360
53E
102
}
102
{ACAD_REACTORS
330
29
102
}
330
29
100
AcDbVisualStyle
  2
GouraudWithEdges
 70
     3
 71
     2
 72
     2
 73
     1
 90
        2
 40
-0.6
 41
30.0
 62
     5
 63
     7
 74
     1
 91
        0
 64
     7
 65
   257
 75
     1
175
     1
 42
1.0
 92
        0
 66
   257
 43
1.0
 76
     1
 77
     6
 78
     2
 67
     7
 79
     5
170
     0
171
     0
290
     0
174
     0
 93
       13
 44
0.0
173
     0
291
     1
 45
0.0
1001
ACAD
1000
AcDbSavedByObjectVersion
1070
     0
  0
VISUALSTYLE
  5
31
102
{ACAD_XDICTIONARY
360
546
102
}
102
{ACAD_REACTORS
330
29
102
}
330
29
100
AcDbVisualStyle
  2
Hidden
 70
     6
 71
     1
 72
     2
 73
     2
 90
        0
 40
-0.6
 41
-30.0
 62
     5
 63
     7
 74
     2
 91
        2
 64
     7
 65
   257
 75
     2
175
     1
 42
40.0
 92
        0
 66
   257
 43
1.0
 76
     1
 77
     6
 78
     2
 67
     7
 79
     3
170
     0
171
     0
290
     0
174
     0
 93
        1
 44
0.0
173
     0
291
     0
 45
0.0
1001
ACAD
1000
AcDbSavedByObjectVersion
1070
     0
  0
VISUALSTYLE
  5
3F
102
{ACAD_XDICTIONARY
360
562
102
}
102
{ACAD_REACTORS
330
29
102
}
330
29
100
AcDbVisualStyle
  2
JitterOff
 70
    20
 71
     2
 72
     2
 73
     0
 90
        0
 40
-0.6
 41
-30.0
 62
     5
 63
     7
 74
     1
 91
        4
 64
     7
 65
   257
 75
     1
175
     1
 42
1.0
 92
       10
 66
     7
 43
1.0
 76
     1
 77
     6
 78
     2
 67
     7
 79
     5
170
     0
171
     0
290
     0
174
     0
 93
        1
 44
0.0
173
     0
291
     1
 45
0.0
1001
ACAD
1000
AcDbSavedByObjectVersion
1070
     0
  0
VISUALSTYLE
  5
37
102
{ACAD_XDICTIONARY
360
552
102
}
102
{ACAD_REACTORS
330
29
102
}
330
29
100
AcDbVisualStyle
  2
Linepattern
 70
    14
 71
     2
 72
     2
 73
     0
 90
        0
 40
-0.6
 41
-30.0
 62
     5
 63
     7
 74
     1
 91
        4
 64
     7
 65
   257
 75
     7
175
     7
 42
1.0
 92
        8
 66
     7
 43
1.0
 76
     1
 77
     6
 78
     2
 67
     7
 79
     5
170
     0
171
     0
290
     0
174
     0
 93
        1
 44
0.0
173
     0
291
     1
 45
0.0
1001
ACAD
1000
AcDbSavedByObjectVersion
1070
     0
  0
VISUALSTYLE
  5
40
102
{ACAD_XDICTIONARY
360
564
102
}
102
{ACAD_REACTORS
330
29
102
}
330
29
100
AcDbVisualStyle
  2
OverhangOff
 70
    21
 71
     2
 72
     2
 73
     0
 90
        0
 40
-0.6
 41
-30.0
 62
     5
 63
     7
 74
     1
 91
        4
 64
     7
 65
   257
 75
     1
175
     1
 42
1.0
 92
        9
 66
     7
 43
1.0
 76
     1
 77
     6
 78
     2
 67
     7
 79
     5
170
     0
171
     0
290
     0
174
     0
 93
        1
 44
0.0
173
     0
291
     1
 45
0.0
1001
ACAD
1000
AcDbSavedByObjectVersion
1070
     0
  0
VISUALSTYLE
  5
33
102
{ACAD_XDICTIONARY
360
54A
102
}
102
{ACAD_REACTORS
330
29
102
}
330
29
100
AcDbVisualStyle
  2
Realistic
 70
     8
 71
     2
 72
     3
 73
     0
 90
        2
 40
-0.6
 41
30.0
 62
     5
 63
     7
 74
     0
 91
        0
 64
     7
 65
   257
 75
     1
175
     1
 42
1.0
 92
        8
 66
   257
 43
1.0
 76
     1
 77
     6
 78
     2
 67
     7
 79
     3
170
     0
171
     0
290
     0
174
     0
 93
       13
 44
0.0
173
     0
291
     0
 45
0.0
1001
ACAD
1000
AcDbSavedByObjectVersion
1070
     0
  0
VISUALSTYLE
  5
3E
102
{ACAD_XDICTIONARY
360
560
102
}
102
{ACAD_REACTORS
330
29
102
}
330
29
100
AcDbVisualStyle
  2
Shaded
 70
    27
 71
     2
 72
     2
 73
     1
 90
        2
 40
-0.6
 41
30.0
 62
     5
 63
     7
 74
     0
 91
        4
 64
     7
 65
   257
 75
     1
175
     1
 42
1.0
 92
        8
 66
   257
 43
1.0
 76
     1
 77
     6
 78
     2
 67
     8
 79
     3
170
     0
171
     0
290
     0
174
     0
 93
        5
 44
0.0
173
     0
291
     0
 45
0.0
1001
ACAD
1000
AcDbSavedByObjectVersion
1070
     0
  0
VISUALSTYLE
  5
3D
102
{ACAD_XDICTIONARY
360
55E
102
}
102
{ACAD_REACTORS
330
29
102
}
330
29
100
AcDbVisualStyle
  2
Shaded with edges
 70
    26
 71
     2
 72
     2
 73
     1
 90
        2
 40
-0.6
 41
30.0
 62
     5
 63
     7
 74
     1
 91
       10
 64
     7
 65
   257
 75
     2
175
     1
 42
1.0
 92
        8
 66
   257
 43
1.0
 76
     1
 77
     6
 78
     2
 67
     7
 79
     3
170
     0
171
     0
290
     0
174
     0
 93
        5
 44
0.0
173
     0
291
     0
 45
0.0
1001
ACAD
1000
AcDbSavedByObjectVersion
1070
     0
  0
VISUALSTYLE
  5
3A
102
{ACAD_XDICTIONARY
360
558
102
}
102
{ACAD_REACTORS
330
29
102
}
330
29
100
AcDbVisualStyle
  2
Shades of Gray
 70
    23
 71
     2
 72
     2
 73
     3
 90
        0
 40
-0.6
 41
-30.0
 62
     5
 63
     7
 74
     2
 91
        2
 64
     7
 65
     7
 75
     1
175
     1
 42
40.0
 92
        8
 66
     7
 43
1.0
 76
     1
 77
     6
 78
     2
 67
     7
 79
     3
170
     0
171
     0
290
     0
174
     0
 93
        1
 44
0.0
173
     0
291
     0
 45
0.0
1001
ACAD
1000
AcDbSavedByObjectVersion
1070
     0
  0
VISUALSTYLE
  5
3B
102
{ACAD_XDICTIONARY
360
55A
102
}
102
{ACAD_REACTORS
330
29
102
}
330
29
100
AcDbVisualStyle
  2
Sketchy
 70
    24
 71
     1
 72
     2
 73
     2
 90
        0
 40
-0.6
 41
-30.0
 62
     5
 63
     7
 74
     2
 91
        2
 64
     7
 65
     7
 75
     1
175
     1
 42
40.0
 92
       11
 66
     7
 43
1.0
 76
     1
 77
     6
 78
     2
 67
     7
 79
     6
170
     0
171
     0
290
     0
174
     0
 93
        1
 44
0.0
173
     0
291
     0
 45
0.0
1001
ACAD
1000
AcDbSavedByObjectVersion
1070
     0
  0
VISUALSTYLE
  5
36
102
{ACAD_XDICTIONARY
360
550
102
}
102
{ACAD_REACTORS
330
29
102
}
330
29
100
AcDbVisualStyle
  2
Thicken
 70
    13
 71
     2
 72
     2
 73
     0
 90
        0
 40
-0.6
 41
-30.0
 62
     5
 63
     7
 74
     1
 91
        4
 64
     7
 65
   257
 75
     1
175
     1
 42
1.0
 92
       12
 66
     7
 43
1.0
 76
     1
 77
     6
 78
     2
 67
     7
 79
     5
170
     0
171
     0
290
     0
174
     0
 93
        1
 44
0.0
173
     0
291
     1
 45
0.0
1001
ACAD
1000
AcDbSavedByObjectVersion
1070
     0
  0
VISUALSTYLE
  5
30
102
{ACAD_XDICTIONARY
360
544
102
}
102
{ACAD_REACTORS
330
29
102
}
330
29
100
AcDbVisualStyle
  2
Wireframe
 70
     5
 71
     0
 72
     2
 73
     0
 90
        0
 40
-0.6
 41
-30.0
 62
     5
 63
     7
 74
     1
 91
        4
 64
     7
 65
   257
 75
     1
175
     1
 42
1.0
 92
        0
 66
   257
 43
1.0
 76
     1
 77
     6
 78
     2
 67
     7
 79
     3
170
     0
171
     0
290
     0
174
     0
 93
        1
 44
0.0
173
     0
291
     0
 45
0.0
1001
ACAD
1000
AcDbSavedByObjectVersion
1070
     0
  0
VISUALSTYLE
  5
3C
102
{ACAD_XDICTIONARY
360
55C
102
}
102
{ACAD_REACTORS
330
29
102
}
330
29
100
AcDbVisualStyle
  2
X-Ray
 70
    25
 71
     2
 72
     2
 73
     1
 90
        1
 40
0.5
 41
-30.0
 62
     5
 63
     7
 74
     1
 91
        0
 64
     7
 65
   257
 75
     1
175
     1
 42
1.0
 92
        8
 66
     7
 43
1.0
 76
     1
 77
     6
 78
     2
 67
     7
 79
     3
170
     0
171
     0
290
     0
174
     0
 93
       13
 44
0.0
173
     0
291
     0
 45
0.0
1001
ACAD
1000
AcDbSavedByObjectVersion
1070
     0
  0
DICTIONARYVAR
  5
52B
102
{ACAD_REACTORS
330
528
102
}
330
528
100
DictionaryVariables
280
     0
  1
1:1
  0
DICTIONARYVAR
  5
52A
102
{ACAD_REACTORS
330
528
102
}
330
528
100
DictionaryVariables
280
     0
  1
STANDARD
  0
DICTIONARYVAR
  5
529
102
{ACAD_REACTORS
330
528
102
}
330
528
100
DictionaryVariables
280
     0
  1
STANDARD
  0
DICTIONARYVAR
  5
52E
102
{ACAD_REACTORS
330
528
102
}
330
528
100
DictionaryVariables
280
     0
  1
1
  0
DICTIONARYVAR
  5
52D
102
{ACAD_REACTORS
330
528
102
}
330
528
100
DictionaryVariables
280
     0
  1
0
  0
DICTIONARYVAR
  5
52C
102
{ACAD_REACTORS
330
528
102
}
330
528
100
DictionaryVariables
280
     0
  1
127
  0
DICTIONARYVAR
  5
52F
102
{ACAD_REACTORS
330
528
102
}
330
528
100
DictionaryVariables
280
     0
  1
2
  0
DICTIONARY
  5
56C
330
6E
100
AcDbDictionary
280
     1
281
     1
  3
ACAD_XREC_ROUNDTRIP
360
56D
  0
DICTIONARY
  5
56A
330
6A
100
AcDbDictionary
280
     1
281
     1
  3
ACAD_XREC_ROUNDTRIP
360
56B
  0
DICTIONARY
  5
1A
330
19
100
AcDbDictionary
280
     1
281
     1
  3
ACAD_XREC_ROUNDTRIP
360
536
  3
BUMPTILE
360
1C
  3
DIFFUSETILE
360
1B
  3
OPACITYTILE
360
1F
  3
REFLECTIONTILE
360
1E
  3
REFRACTIONTILE
360
20
  3
SPECULARTILE
360
1D
  0
DICTIONARY
  5
12
330
11
100
AcDbDictionary
280
     1
281
     1
  3
ACAD_XREC_ROUNDTRIP
360
535
  3
BUMPTILE
360
14
  3
DIFFUSETILE
360
13
  3
OPACITYTILE
360
17
  3
REFLECTIONTILE
360
16
  3
REFRACTIONTILE
360
18
  3
SPECULARTILE
360
15
  0
DICTIONARY
  5
22
330
21
100
AcDbDictionary
280
     1
281
     1
  3
ACAD_XREC_ROUNDTRIP
360
537
  3
BUMPTILE
360
24
  3
DIFFUSETILE
360
23
  3
OPACITYTILE
360
27
  3
REFLECTIONTILE
360
26
  3
REFRACTIONTILE
360
28
  3
SPECULARTILE
360
25
  0
DICTIONARY
  5
531
330
64
100
AcDbDictionary
280
     1
281
     1
  3
ACAD_ROUNDTRIP_2008_TABLESTYLE_CELLSTYLEMAP
360
532
  3
ACAD_XREC_ROUNDTRIP
360
568
  0
DICTIONARY
  5
542
330
2F
100
AcDbDictionary
280
     1
281
     1
  3
ACAD_XREC_ROUNDTRIP
360
543
  0
DICTIONARY
  5
540
330
2E
100
AcDbDictionary
280
     1
281
     1
  3
ACAD_XREC_ROUNDTRIP
360
541
  0
DICTIONARY
  5
54E
330
35
100
AcDbDictionary
280
     1
281
     1
  3
ACAD_XREC_ROUNDTRIP
360
54F
  0
DICTIONARY
  5
556
330
39
100
AcDbDictionary
280
     1
281
     1
  3
ACAD_XREC_ROUNDTRIP
360
557
  0
DICTIONARY
  5
548
330
32
100
AcDbDictionary
280
     1
281
     1
  3
ACAD_XREC_ROUNDTRIP
360
549
  0
DICTIONARY
  5
54C
330
34
100
AcDbDictionary
280
     1
281
     1
  3
ACAD_XREC_ROUNDTRIP
360
54D
  0
DICTIONARY
  5
566
330
41
100
AcDbDictionary
280
     1
281
     1
  3
ACAD_XREC_ROUNDTRIP
360
567
  0
DICTIONARY
  5
554
330
38
100
AcDbDictionary
280
     1
281
     1
  3
ACAD_XREC_ROUNDTRIP
360
555
  0
DICTIONARY
  5
538
330
2A
100
AcDbDictionary
280
     1
281
     1
  3
ACAD_XREC_ROUNDTRIP
360
539
  0
DICTIONARY
  5
53A
330
2B
100
AcDbDictionary
280
     1
281
     1
  3
ACAD_XREC_ROUNDTRIP
360
53B
  0
DICTIONARY
  5
53C
330
2C
100
AcDbDictionary
280
     1
281
     1
  3
ACAD_XREC_ROUNDTRIP
360
53D
  0
DICTIONARY
  5
53E
330
2D
100
AcDbDictionary
280
     1
281
     1
  3
ACAD_XREC_ROUNDTRIP
360
53F
  0
DICTIONARY
  5
546
330
31
100
AcDbDictionary
280
     1
281
     1
  3
ACAD_XREC_ROUNDTRIP
360
547
  0
DICTIONARY
  5
562
330
3F
100
AcDbDictionary
280
     1
281
     1
  3
ACAD_XREC_ROUNDTRIP
360
563
  0
DICTIONARY
  5
552
330
37
100
AcDbDictionary
280
     1
281
     1
  3
ACAD_XREC_ROUNDTRIP
360
553
  0
DICTIONARY
  5
564
330
40
100
AcDbDictionary
280
     1
281
     1
  3
ACAD_XREC_ROUNDTRIP
360
565
  0
DICTIONARY
  5
54A
330
33
100
AcDbDictionary
280
     1
281
     1
  3
ACAD_XREC_ROUNDTRIP
360
54B
  0
DICTIONARY
  5
560
330
3E
100
AcDbDictionary
280
     1
281
     1
  3
ACAD_XREC_ROUNDTRIP
360
561
  0
DICTIONARY
  5
55E
330
3D
100
AcDbDictionary
280
     1
281
     1
  3
ACAD_XREC_ROUNDTRIP
360
55F
  0
DICTIONARY
  5
558
330
3A
100
AcDbDictionary
280
     1
281
     1
  3
ACAD_XREC_ROUNDTRIP
360
559
  0
DICTIONARY
  5
55A
330
3B
100
AcDbDictionary
280
     1
281
     1
  3
ACAD_XREC_ROUNDTRIP
360
55B
  0
DICTIONARY
  5
550
330
36
100
AcDbDictionary
280
     1
281
     1
  3
ACAD_XREC_ROUNDTRIP
360
551
  0
DICTIONARY
  5
544
330
30
100
AcDbDictionary
280
     1
281
     1
  3
ACAD_XREC_ROUNDTRIP
360
545
  0
DICTIONARY
  5
55C
330
3C
100
AcDbDictionary
280
     1
281
     1
  3
ACAD_XREC_ROUNDTRIP
360
55D
  0
XRECORD
  5
56D
102
{ACAD_REACTORS
330
56C
102
}
330
56C
100
AcDbXrecord
280
     1
102
SHADEPLOT
 70
     0
102
SHADEPLOTRESLEVEL
 70
     2
102
SHADEPLOTCUSTOMDPI
 70
   300
  0
XRECORD
  5
56B
102
{ACAD_REACTORS
330
56A
102
}
330
56A
100
AcDbXrecord
280
     1
102
SHADEPLOT
 70
     0
102
SHADEPLOTRESLEVEL
 70
     2
102
SHADEPLOTCUSTOMDPI
 70
   300
  0
XRECORD
  5
536
102
{ACAD_REACTORS
330
1A
102
}
330
1A
100
AcDbXrecord
280
     1
102
MATERIAL
148
0.0
149
0.0
149
0.0
 93
        0
 94
      127
282
     0
 72
     0
 77
     0
171
     0
175
     0
179
     0
273
     0
  0
XRECORD
  5
1C
102
{ACAD_REACTORS
330
1A
102
}
330
1A
100
AcDbXrecord
280
     1
270
     1
271
     1
  0
XRECORD
  5
1B
102
{ACAD_REACTORS
330
1A
102
}
330
1A
100
AcDbXrecord
280
     1
270
     1
271
     1
  0
XRECORD
  5
1F
102
{ACAD_REACTORS
330
1A
102
}
330
1A
100
AcDbXrecord
280
     1
270
     1
271
     1
  0
XRECORD
  5
1E
102
{ACAD_REACTORS
330
1A
102
}
330
1A
100
AcDbXrecord
280
     1
270
     1
271
     1
  0
XRECORD
  5
20
102
{ACAD_REACTORS
330
1A
102
}
330
1A
100
AcDbXrecord
280
     1
270
     1
271
     1
  0
XRECORD
  5
1D
102
{ACAD_REACTORS
330
1A
102
}
330
1A
100
AcDbXrecord
280
     1
270
     1
271
     1
  0
XRECORD
  5
535
102
{ACAD_REACTORS
330
12
102
}
330
12
100
AcDbXrecord
280
     1
102
MATERIAL
148
0.0
149
0.0
149
0.0
 93
        0
 94
      127
282
     0
 72
     0
 77
     0
171
     0
175
     0
179
     0
273
     0
  0
XRECORD
  5
14
102
{ACAD_REACTORS
330
12
102
}
330
12
100
AcDbXrecord
280
     1
270
     1
271
     1
  0
XRECORD
  5
13
102
{ACAD_REACTORS
330
12
102
}
330
12
100
AcDbXrecord
280
     1
270
     1
271
     1
  0
XRECORD
  5
17
102
{ACAD_REACTORS
330
12
102
}
330
12
100
AcDbXrecord
280
     1
270
     1
271
     1
  0
XRECORD
  5
16
102
{ACAD_REACTORS
330
12
102
}
330
12
100
AcDbXrecord
280
     1
270
     1
271
     1
  0
XRECORD
  5
18
102
{ACAD_REACTORS
330
12
102
}
330
12
100
AcDbXrecord
280
     1
270
     1
271
     1
  0
XRECORD
  5
15
102
{ACAD_REACTORS
330
12
102
}
330
12
100
AcDbXrecord
280
     1
270
     1
271
     1
  0
XRECORD
  5
537
102
{ACAD_REACTORS
330
22
102
}
330
22
100
AcDbXrecord
280
     1
102
MATERIAL
148
0.0
149
0.0
149
0.0
 93
        0
 94
      127
282
     0
 72
     0
 77
     0
171
     0
175
     0
179
     0
273
     0
  0
XRECORD
  5
24
102
{ACAD_REACTORS
330
22
102
}
330
22
100
AcDbXrecord
280
     1
270
     1
271
     1
  0
XRECORD
  5
23
102
{ACAD_REACTORS
330
22
102
}
330
22
100
AcDbXrecord
280
     1
270
     1
271
     1
  0
XRECORD
  5
27
102
{ACAD_REACTORS
330
22
102
}
330
22
100
AcDbXrecord
280
     1
270
     1
271
     1
  0
XRECORD
  5
26
102
{ACAD_REACTORS
330
22
102
}
330
22
100
AcDbXrecord
280
     1
270
     1
271
     1
  0
XRECORD
  5
28
102
{ACAD_REACTORS
330
22
102
}
330
22
100
AcDbXrecord
280
     1
270
     1
271
     1
  0
XRECORD
  5
25
102
{ACAD_REACTORS
330
22
102
}
330
22
100
AcDbXrecord
280
     1
270
     1
271
     1
  0
CELLSTYLEMAP
  5
532
102
{ACAD_REACTORS
330
531
102
}
330
531
100
AcDbCellStyleMap
 90
        3
300
CELLSTYLE
  1
TABLEFORMAT_BEGIN
 90
        5
170
     1
 91
        0
 92
    32768
 62
   257
 93
        1
300
CONTENTFORMAT
  1
CONTENTFORMAT_BEGIN
 90
        0
 91
        0
 92
      512
 93
        0
300

 40
0.0
140
1.0
 94
        5
 62
     0
340
55
144
0.25
309
CONTENTFORMAT_END
171
     0
 94
        0
309
TABLEFORMAT_END
  1
CELLSTYLE_BEGIN
 90
        1
 91
        1
300
_TITLE
309
CELLSTYLE_END
300
CELLSTYLE
  1
TABLEFORMAT_BEGIN
 90
        5
170
     1
 91
        0
 92
        0
 62
   257
 93
        1
300
CONTENTFORMAT
  1
CONTENTFORMAT_BEGIN
 90
        0
 91
        0
 92
      512
 93
        0
300

 40
0.0
140
1.0
 94
        5
 62
     0
340
55
144
0.18
309
CONTENTFORMAT_END
171
     0
 94
        0
309
TABLEFORMAT_END
  1
CELLSTYLE_BEGIN
 90
        2
 91
        1
300
_HEADER
309
CELLSTYLE_END
300
CELLSTYLE
  1
TABLEFORMAT_BEGIN
 90
        5
170
     1
 91
        0
 92
        0
 62
   257
 93
        1
300
CONTENTFORMAT
  1
CONTENTFORMAT_BEGIN
 90
        0
 91
        0
 92
      512
 93
        0
300

 40
0.0
140
1.0
 94
        2
 62
     0
340
55
144
0.18
309
CONTENTFORMAT_END
171
     0
 94
        0
309
TABLEFORMAT_END
  1
CELLSTYLE_BEGIN
 90
        3
 91
        2
300
_DATA
309
CELLSTYLE_END
  0
XRECORD
  5
568
102
{ACAD_REACTORS
330
531
102
}
330
531
100
AcDbXrecord
280
     1
102
ACAD_ROUNDTRIP_PRE2007_TABLESTYLE
 90
      512
 91
        0
  1

 92
      512
 93
        0
  2

 94
      512
 95
        0
  3

  0
XRECORD
  5
543
102
{ACAD_REACTORS
330
542
102
}
330
542
100
AcDbXrecord
280
     1
102
RTVSPropertyOp0
 70
     1
102
RTVSPropertyOp1
 70
     1
102
RTVSPropertyOp2
 70
     1
102
RTVSPropertyOp3
 70
     1
102
RTVSPropertyOp4
 70
     1
102
RTVSPropertyOp5
 70
     1
102
RTVSPropertyOp6
 70
     1
102
RTVSPropertyOp7
 70
     1
102
RTVSPropertyOp8
 70
     1
102
RTVSPropertyOp9
 70
     1
102
RTVSPropertyOp10
 70
     1
102
RTVSPropertyOp11
 70
     1
102
RTVSPropertyOp12
 70
     1
102
RTVSPropertyOp13
 70
     1
102
RTVSPropertyOp14
 70
     1
102
RTVSPropertyOp15
 70
     1
102
RTVSPropertyOp16
 70
     1
102
RTVSPropertyOp17
 70
     1
102
RTVSPropertyOp18
 70
     1
102
RTVSPropertyOp19
 70
     1
102
RTVSPropertyOp20
 70
     1
102
RTVSPropertyOp21
 70
     1
102
RTVSPropertyOp22
 70
     1
102
RTVSPropertyOp23
 70
     1
102
RTVSPropertyOp24
 70
     1
102
RTVSPropertyOp25
 70
     1
102
RTVSPropertyOp26
 70
     1
102
RTVSPropertyOp27
 70
     1
102
RTVSPropertyOp28
 70
     1
102
RTVSPropertyOp29
 70
     1
102
RTVSPropertyOp30
 70
     1
102
RTVSPropertyOp31
 70
     1
102
RTVSPropertyOp32
 70
     1
  0
XRECORD
  5
541
102
{ACAD_REACTORS
330
540
102
}
330
540
100
AcDbXrecord
280
     1
102
RTVSPropertyOp0
 70
     1
102
RTVSPropertyOp1
 70
     1
102
RTVSPropertyOp2
 70
     1
102
RTVSPropertyOp3
 70
     1
102
RTVSPropertyOp4
 70
     1
102
RTVSPropertyOp5
 70
     1
102
RTVSPropertyOp6
 70
     1
102
RTVSPropertyOp7
 70
     1
102
RTVSPropertyOp8
 70
     1
102
RTVSPropertyOp9
 70
     1
102
RTVSPropertyOp10
 70
     1
102
RTVSPropertyOp11
 70
     1
102
RTVSPropertyOp12
 70
     1
102
RTVSPropertyOp13
 70
     1
102
RTVSPropertyOp14
 70
     1
102
RTVSPropertyOp15
 70
     1
102
RTVSPropertyOp16
 70
     1
102
RTVSPropertyOp17
 70
     1
102
RTVSPropertyOp18
 70
     1
102
RTVSPropertyOp19
 70
     1
102
RTVSPropertyOp20
 70
     1
102
RTVSPropertyOp21
 70
     1
102
RTVSPropertyOp22
 70
     1
102
RTVSPropertyOp23
 70
     1
102
RTVSPropertyOp24
 70
     1
102
RTVSPropertyOp25
 70
     1
102
RTVSPropertyOp26
 70
     1
102
RTVSPropertyOp27
 70
     1
102
RTVSPropertyOp28
 70
     1
102
RTVSPropertyOp29
 70
     1
102
RTVSPropertyOp30
 70
     1
102
RTVSPropertyOp31
 70
     1
102
RTVSPropertyOp32
 70
     1
  0
XRECORD
  5
54F
102
{ACAD_REACTORS
330
54E
102
}
330
54E
100
AcDbXrecord
280
     1
102
RTVSPropertyOp0
 70
     1
102
RTVSPropertyOp1
 70
     1
102
RTVSPropertyOp2
 70
     1
102
RTVSPropertyOp3
 70
     1
102
RTVSPropertyOp4
 70
     1
102
RTVSPropertyOp5
 70
     1
102
RTVSPropertyOp6
 70
     1
102
RTVSPropertyOp7
 70
     1
102
RTVSPropertyOp8
 70
     1
102
RTVSPropertyOp9
 70
     1
102
RTVSPropertyOp10
 70
     1
102
RTVSPropertyOp11
 70
     1
102
RTVSPropertyOp12
 70
     1
102
RTVSPropertyOp13
 70
     1
102
RTVSPropertyOp14
 70
     1
102
RTVSPropertyOp15
 70
     1
102
RTVSPropertyOp16
 70
     1
102
RTVSPropertyOp17
 70
     1
102
RTVSPropertyOp18
 70
     1
102
RTVSPropertyOp19
 70
     1
102
RTVSPropertyOp20
 70
     1
102
RTVSPropertyOp21
 70
     1
102
RTVSPropertyOp22
 70
     1
102
RTVSPropertyOp23
 70
     1
102
RTVSPropertyOp24
 70
     1
102
RTVSPropertyOp25
 70
     1
102
RTVSPropertyOp26
 70
     1
102
RTVSPropertyOp27
 70
     1
102
RTVSPropertyOp28
 70
     1
102
RTVSPropertyOp29
 70
     1
102
RTVSPropertyOp30
 70
     1
102
RTVSPropertyOp31
 70
     1
102
RTVSPropertyOp32
 70
     1
  0
XRECORD
  5
557
102
{ACAD_REACTORS
330
556
102
}
330
556
100
AcDbXrecord
280
     1
102
RTVSPropertyOp0
 70
     1
102
RTVSPropertyOp1
 70
     1
102
RTVSPropertyOp2
 70
     1
102
RTVSPropertyOp3
 70
     1
102
RTVSPropertyOp4
 70
     1
102
RTVSPropertyOp5
 70
     1
102
RTVSPropertyOp6
 70
     1
102
RTVSPropertyOp7
 70
     1
102
RTVSPropertyOp8
 70
     1
102
RTVSPropertyOp9
 70
     1
102
RTVSPropertyOp10
 70
     1
102
RTVSPropertyOp11
 70
     1
102
RTVSPropertyOp12
 70
     1
102
RTVSPropertyOp13
 70
     1
102
RTVSPropertyOp14
 70
     1
102
RTVSPropertyOp15
 70
     1
102
RTVSPropertyOp16
 70
     1
102
RTVSPropertyOp17
 70
     1
102
RTVSPropertyOp18
 70
     1
102
RTVSPropertyOp19
 70
     1
102
RTVSPropertyOp20
 70
     1
102
RTVSPropertyOp21
 70
     1
102
RTVSPropertyOp22
 70
     1
102
RTVSPropertyOp23
 70
     1
102
RTVSPropertyOp24
 70
     1
102
RTVSPropertyOp25
 70
     1
102
RTVSPropertyOp26
 70
     1
102
RTVSPropertyOp27
 70
     1
102
RTVSPropertyOp28
 70
     1
102
RTVSPropertyOp29
 70
     1
102
RTVSPropertyOp30
 70
     1
102
RTVSPropertyOp31
 70
     1
102
RTVSPropertyOp32
 70
     1
  0
XRECORD
  5
549
102
{ACAD_REACTORS
330
548
102
}
330
548
100
AcDbXrecord
280
     1
102
RTVSPropertyOp0
 70
     1
102
RTVSPropertyOp1
 70
     1
102
RTVSPropertyOp2
 70
     1
102
RTVSPropertyOp3
 70
     1
102
RTVSPropertyOp4
 70
     1
102
RTVSPropertyOp5
 70
     1
102
RTVSPropertyOp6
 70
     1
102
RTVSPropertyOp7
 70
     1
102
RTVSPropertyOp8
 70
     1
102
RTVSPropertyOp9
 70
     1
102
RTVSPropertyOp10
 70
     1
102
RTVSPropertyOp11
 70
     1
102
RTVSPropertyOp12
 70
     1
102
RTVSPropertyOp13
 70
     1
102
RTVSPropertyOp14
 70
     1
102
RTVSPropertyOp15
 70
     1
102
RTVSPropertyOp16
 70
     1
102
RTVSPropertyOp17
 70
     1
102
RTVSPropertyOp18
 70
     1
102
RTVSPropertyOp19
 70
     1
102
RTVSPropertyOp20
 70
     1
102
RTVSPropertyOp21
 70
     1
102
RTVSPropertyOp22
 70
     1
102
RTVSPropertyOp23
 70
     1
102
RTVSPropertyOp24
 70
     1
102
RTVSPropertyOp25
 70
     1
102
RTVSPropertyOp26
 70
     1
102
RTVSPropertyOp27
 70
     1
102
RTVSPropertyOp28
 70
     1
102
RTVSPropertyOp29
 70
     1
102
RTVSPropertyOp30
 70
     1
102
RTVSPropertyOp31
 70
     1
102
RTVSPropertyOp32
 70
     1
  0
XRECORD
  5
54D
102
{ACAD_REACTORS
330
54C
102
}
330
54C
100
AcDbXrecord
280
     1
102
RTVSPropertyOp0
 70
     1
102
RTVSPropertyOp1
 70
     1
102
RTVSPropertyOp2
 70
     1
102
RTVSPropertyOp3
 70
     1
102
RTVSPropertyOp4
 70
     1
102
RTVSPropertyOp5
 70
     1
102
RTVSPropertyOp6
 70
     1
102
RTVSPropertyOp7
 70
     1
102
RTVSPropertyOp8
 70
     1
102
RTVSPropertyOp9
 70
     1
102
RTVSPropertyOp10
 70
     1
102
RTVSPropertyOp11
 70
     1
102
RTVSPropertyOp12
 70
     1
102
RTVSPropertyOp13
 70
     1
102
RTVSPropertyOp14
 70
     1
102
RTVSPropertyOp15
 70
     1
102
RTVSPropertyOp16
 70
     1
102
RTVSPropertyOp17
 70
     1
102
RTVSPropertyOp18
 70
     1
102
RTVSPropertyOp19
 70
     1
102
RTVSPropertyOp20
 70
     1
102
RTVSPropertyOp21
 70
     1
102
RTVSPropertyOp22
 70
     1
102
RTVSPropertyOp23
 70
     1
102
RTVSPropertyOp24
 70
     1
102
RTVSPropertyOp25
 70
     1
102
RTVSPropertyOp26
 70
     1
102
RTVSPropertyOp27
 70
     1
102
RTVSPropertyOp28
 70
     1
102
RTVSPropertyOp29
 70
     1
102
RTVSPropertyOp30
 70
     1
102
RTVSPropertyOp31
 70
     1
102
RTVSPropertyOp32
 70
     1
  0
XRECORD
  5
567
102
{ACAD_REACTORS
330
566
102
}
330
566
100
AcDbXrecord
280
     1
102
RTVSPropertyOp0
 70
     0
102
RTVSPropertyOp1
 70
     0
102
RTVSPropertyOp2
 70
     0
102
RTVSPropertyOp3
 70
     0
102
RTVSPropertyOp4
 70
     0
102
RTVSPropertyOp5
 70
     0
102
RTVSPropertyOp6
 70
     0
102
RTVSPropertyOp7
 70
     0
102
RTVSPropertyOp8
 70
     0
102
RTVSPropertyOp9
 70
     0
102
RTVSPropertyOp10
 70
     0
102
RTVSPropertyOp11
 70
     0
102
RTVSPropertyOp12
 70
     0
102
RTVSPropertyOp13
 70
     0
102
RTVSPropertyOp14
 70
     2
102
RTVSPropertyOp15
 70
     0
102
RTVSPropertyOp16
 70
     0
102
RTVSPropertyOp17
 70
     0
102
RTVSPropertyOp18
 70
     0
102
RTVSPropertyOp19
 70
     0
102
RTVSPropertyOp20
 70
     0
102
RTVSPropertyOp21
 70
     0
102
RTVSPropertyOp22
 70
     0
102
RTVSPropertyOp23
 70
     0
102
RTVSPropertyOp24
 70
     0
102
RTVSPropertyOp25
 70
     0
102
RTVSPropertyOp26
 70
     0
102
RTVSPropertyOp27
 70
     0
102
RTVSPropertyOp28
 70
     0
102
RTVSPropertyOp29
 70
     0
102
RTVSPropertyOp30
 70
     0
102
RTVSPropertyOp31
 70
     0
102
RTVSPropertyOp32
 70
     0
  0
XRECORD
  5
555
102
{ACAD_REACTORS
330
554
102
}
330
554
100
AcDbXrecord
280
     1
102
RTVSPropertyOp0
 70
     1
102
RTVSPropertyOp1
 70
     1
102
RTVSPropertyOp2
 70
     1
102
RTVSPropertyOp3
 70
     1
102
RTVSPropertyOp4
 70
     1
102
RTVSPropertyOp5
 70
     1
102
RTVSPropertyOp6
 70
     1
102
RTVSPropertyOp7
 70
     1
102
RTVSPropertyOp8
 70
     1
102
RTVSPropertyOp9
 70
     1
102
RTVSPropertyOp10
 70
     1
102
RTVSPropertyOp11
 70
     1
102
RTVSPropertyOp12
 70
     1
102
RTVSPropertyOp13
 70
     1
102
RTVSPropertyOp14
 70
     1
102
RTVSPropertyOp15
 70
     1
102
RTVSPropertyOp16
 70
     1
102
RTVSPropertyOp17
 70
     1
102
RTVSPropertyOp18
 70
     1
102
RTVSPropertyOp19
 70
     1
102
RTVSPropertyOp20
 70
     1
102
RTVSPropertyOp21
 70
     1
102
RTVSPropertyOp22
 70
     1
102
RTVSPropertyOp23
 70
     1
102
RTVSPropertyOp24
 70
     1
102
RTVSPropertyOp25
 70
     1
102
RTVSPropertyOp26
 70
     1
102
RTVSPropertyOp27
 70
     1
102
RTVSPropertyOp28
 70
     1
102
RTVSPropertyOp29
 70
     1
102
RTVSPropertyOp30
 70
     1
102
RTVSPropertyOp31
 70
     1
102
RTVSPropertyOp32
 70
     1
  0
XRECORD
  5
539
102
{ACAD_REACTORS
330
538
102
}
330
538
100
AcDbXrecord
280
     1
102
RTVSPropertyOp0
 70
     1
102
RTVSPropertyOp1
 70
     1
102
RTVSPropertyOp2
 70
     1
102
RTVSPropertyOp3
 70
     1
102
RTVSPropertyOp4
 70
     1
102
RTVSPropertyOp5
 70
     1
102
RTVSPropertyOp6
 70
     1
102
RTVSPropertyOp7
 70
     1
102
RTVSPropertyOp8
 70
     1
102
RTVSPropertyOp9
 70
     1
102
RTVSPropertyOp10
 70
     1
102
RTVSPropertyOp11
 70
     1
102
RTVSPropertyOp12
 70
     1
102
RTVSPropertyOp13
 70
     1
102
RTVSPropertyOp14
 70
     1
102
RTVSPropertyOp15
 70
     1
102
RTVSPropertyOp16
 70
     1
102
RTVSPropertyOp17
 70
     1
102
RTVSPropertyOp18
 70
     1
102
RTVSPropertyOp19
 70
     1
102
RTVSPropertyOp20
 70
     1
102
RTVSPropertyOp21
 70
     1
102
RTVSPropertyOp22
 70
     1
102
RTVSPropertyOp23
 70
     1
102
RTVSPropertyOp24
 70
     1
102
RTVSPropertyOp25
 70
     1
102
RTVSPropertyOp26
 70
     1
102
RTVSPropertyOp27
 70
     1
102
RTVSPropertyOp28
 70
     1
102
RTVSPropertyOp29
 70
     1
102
RTVSPropertyOp30
 70
     1
102
RTVSPropertyOp31
 70
     1
102
RTVSPropertyOp32
 70
     1
  0
XRECORD
  5
53B
102
{ACAD_REACTORS
330
53A
102
}
330
53A
100
AcDbXrecord
280
     1
102
RTVSPropertyOp0
 70
     1
102
RTVSPropertyOp1
 70
     1
102
RTVSPropertyOp2
 70
     1
102
RTVSPropertyOp3
 70
     1
102
RTVSPropertyOp4
 70
     1
102
RTVSPropertyOp5
 70
     1
102
RTVSPropertyOp6
 70
     1
102
RTVSPropertyOp7
 70
     1
102
RTVSPropertyOp8
 70
     1
102
RTVSPropertyOp9
 70
     1
102
RTVSPropertyOp10
 70
     1
102
RTVSPropertyOp11
 70
     1
102
RTVSPropertyOp12
 70
     1
102
RTVSPropertyOp13
 70
     1
102
RTVSPropertyOp14
 70
     1
102
RTVSPropertyOp15
 70
     1
102
RTVSPropertyOp16
 70
     1
102
RTVSPropertyOp17
 70
     1
102
RTVSPropertyOp18
 70
     1
102
RTVSPropertyOp19
 70
     1
102
RTVSPropertyOp20
 70
     1
102
RTVSPropertyOp21
 70
     1
102
RTVSPropertyOp22
 70
     1
102
RTVSPropertyOp23
 70
     1
102
RTVSPropertyOp24
 70
     1
102
RTVSPropertyOp25
 70
     1
102
RTVSPropertyOp26
 70
     1
102
RTVSPropertyOp27
 70
     1
102
RTVSPropertyOp28
 70
     1
102
RTVSPropertyOp29
 70
     1
102
RTVSPropertyOp30
 70
     1
102
RTVSPropertyOp31
 70
     1
102
RTVSPropertyOp32
 70
     1
  0
XRECORD
  5
53D
102
{ACAD_REACTORS
330
53C
102
}
330
53C
100
AcDbXrecord
280
     1
102
RTVSPropertyOp0
 70
     1
102
RTVSPropertyOp1
 70
     1
102
RTVSPropertyOp2
 70
     1
102
RTVSPropertyOp3
 70
     1
102
RTVSPropertyOp4
 70
     1
102
RTVSPropertyOp5
 70
     1
102
RTVSPropertyOp6
 70
     1
102
RTVSPropertyOp7
 70
     1
102
RTVSPropertyOp8
 70
     1
102
RTVSPropertyOp9
 70
     1
102
RTVSPropertyOp10
 70
     1
102
RTVSPropertyOp11
 70
     1
102
RTVSPropertyOp12
 70
     1
102
RTVSPropertyOp13
 70
     1
102
RTVSPropertyOp14
 70
     1
102
RTVSPropertyOp15
 70
     1
102
RTVSPropertyOp16
 70
     1
102
RTVSPropertyOp17
 70
     1
102
RTVSPropertyOp18
 70
     1
102
RTVSPropertyOp19
 70
     1
102
RTVSPropertyOp20
 70
     1
102
RTVSPropertyOp21
 70
     1
102
RTVSPropertyOp22
 70
     1
102
RTVSPropertyOp23
 70
     1
102
RTVSPropertyOp24
 70
     1
102
RTVSPropertyOp25
 70
     1
102
RTVSPropertyOp26
 70
     1
102
RTVSPropertyOp27
 70
     1
102
RTVSPropertyOp28
 70
     1
102
RTVSPropertyOp29
 70
     1
102
RTVSPropertyOp30
 70
     1
102
RTVSPropertyOp31
 70
     1
102
RTVSPropertyOp32
 70
     1
  0
XRECORD
  5
53F
102
{ACAD_REACTORS
330
53E
102
}
330
53E
100
AcDbXrecord
280
     1
102
RTVSPropertyOp0
 70
     1
102
RTVSPropertyOp1
 70
     1
102
RTVSPropertyOp2
 70
     1
102
RTVSPropertyOp3
 70
     1
102
RTVSPropertyOp4
 70
     1
102
RTVSPropertyOp5
 70
     1
102
RTVSPropertyOp6
 70
     1
102
RTVSPropertyOp7
 70
     1
102
RTVSPropertyOp8
 70
     1
102
RTVSPropertyOp9
 70
     1
102
RTVSPropertyOp10
 70
     1
102
RTVSPropertyOp11
 70
     1
102
RTVSPropertyOp12
 70
     1
102
RTVSPropertyOp13
 70
     1
102
RTVSPropertyOp14
 70
     1
102
RTVSPropertyOp15
 70
     1
102
RTVSPropertyOp16
 70
     1
102
RTVSPropertyOp17
 70
     1
102
RTVSPropertyOp18
 70
     1
102
RTVSPropertyOp19
 70
     1
102
RTVSPropertyOp20
 70
     1
102
RTVSPropertyOp21
 70
     1
102
RTVSPropertyOp22
 70
     1
102
RTVSPropertyOp23
 70
     1
102
RTVSPropertyOp24
 70
     1
102
RTVSPropertyOp25
 70
     1
102
RTVSPropertyOp26
 70
     1
102
RTVSPropertyOp27
 70
     1
102
RTVSPropertyOp28
 70
     1
102
RTVSPropertyOp29
 70
     1
102
RTVSPropertyOp30
 70
     1
102
RTVSPropertyOp31
 70
     1
102
RTVSPropertyOp32
 70
     1
  0
XRECORD
  5
547
102
{ACAD_REACTORS
330
546
102
}
330
546
100
AcDbXrecord
280
     1
102
RTVSPropertyOp0
 70
     1
102
RTVSPropertyOp1
 70
     1
102
RTVSPropertyOp2
 70
     1
102
RTVSPropertyOp3
 70
     1
102
RTVSPropertyOp4
 70
     1
102
RTVSPropertyOp5
 70
     1
102
RTVSPropertyOp6
 70
     1
102
RTVSPropertyOp7
 70
     1
102
RTVSPropertyOp8
 70
     1
102
RTVSPropertyOp9
 70
     1
102
RTVSPropertyOp10
 70
     1
102
RTVSPropertyOp11
 70
     1
102
RTVSPropertyOp12
 70
     1
102
RTVSPropertyOp13
 70
     1
102
RTVSPropertyOp14
 70
     1
102
RTVSPropertyOp15
 70
     1
102
RTVSPropertyOp16
 70
     1
102
RTVSPropertyOp17
 70
     1
102
RTVSPropertyOp18
 70
     1
102
RTVSPropertyOp19
 70
     1
102
RTVSPropertyOp20
 70
     1
102
RTVSPropertyOp21
 70
     1
102
RTVSPropertyOp22
 70
     1
102
RTVSPropertyOp23
 70
     1
102
RTVSPropertyOp24
 70
     1
102
RTVSPropertyOp25
 70
     1
102
RTVSPropertyOp26
 70
     1
102
RTVSPropertyOp27
 70
     1
102
RTVSPropertyOp28
 70
     1
102
RTVSPropertyOp29
 70
     1
102
RTVSPropertyOp30
 70
     1
102
RTVSPropertyOp31
 70
     1
102
RTVSPropertyOp32
 70
     1
  0
XRECORD
  5
563
102
{ACAD_REACTORS
330
562
102
}
330
562
100
AcDbXrecord
280
     1
102
RTVSPropertyOp0
 70
     0
102
RTVSPropertyOp1
 70
     0
102
RTVSPropertyOp2
 70
     0
102
RTVSPropertyOp3
 70
     0
102
RTVSPropertyOp4
 70
     0
102
RTVSPropertyOp5
 70
     0
102
RTVSPropertyOp6
 70
     0
102
RTVSPropertyOp7
 70
     0
102
RTVSPropertyOp8
 70
     0
102
RTVSPropertyOp9
 70
     0
102
RTVSPropertyOp10
 70
     0
102
RTVSPropertyOp11
 70
     0
102
RTVSPropertyOp12
 70
     0
102
RTVSPropertyOp13
 70
     0
102
RTVSPropertyOp14
 70
     2
102
RTVSPropertyOp15
 70
     0
102
RTVSPropertyOp16
 70
     0
102
RTVSPropertyOp17
 70
     0
102
RTVSPropertyOp18
 70
     0
102
RTVSPropertyOp19
 70
     0
102
RTVSPropertyOp20
 70
     0
102
RTVSPropertyOp21
 70
     0
102
RTVSPropertyOp22
 70
     0
102
RTVSPropertyOp23
 70
     0
102
RTVSPropertyOp24
 70
     0
102
RTVSPropertyOp25
 70
     0
102
RTVSPropertyOp26
 70
     0
102
RTVSPropertyOp27
 70
     0
102
RTVSPropertyOp28
 70
     0
102
RTVSPropertyOp29
 70
     0
102
RTVSPropertyOp30
 70
     0
102
RTVSPropertyOp31
 70
     0
102
RTVSPropertyOp32
 70
     0
  0
XRECORD
  5
553
102
{ACAD_REACTORS
330
552
102
}
330
552
100
AcDbXrecord
280
     1
102
RTVSPropertyOp0
 70
     1
102
RTVSPropertyOp1
 70
     1
102
RTVSPropertyOp2
 70
     1
102
RTVSPropertyOp3
 70
     1
102
RTVSPropertyOp4
 70
     1
102
RTVSPropertyOp5
 70
     1
102
RTVSPropertyOp6
 70
     1
102
RTVSPropertyOp7
 70
     1
102
RTVSPropertyOp8
 70
     1
102
RTVSPropertyOp9
 70
     1
102
RTVSPropertyOp10
 70
     1
102
RTVSPropertyOp11
 70
     1
102
RTVSPropertyOp12
 70
     1
102
RTVSPropertyOp13
 70
     1
102
RTVSPropertyOp14
 70
     1
102
RTVSPropertyOp15
 70
     1
102
RTVSPropertyOp16
 70
     1
102
RTVSPropertyOp17
 70
     1
102
RTVSPropertyOp18
 70
     1
102
RTVSPropertyOp19
 70
     1
102
RTVSPropertyOp20
 70
     1
102
RTVSPropertyOp21
 70
     1
102
RTVSPropertyOp22
 70
     1
102
RTVSPropertyOp23
 70
     1
102
RTVSPropertyOp24
 70
     1
102
RTVSPropertyOp25
 70
     1
102
RTVSPropertyOp26
 70
     1
102
RTVSPropertyOp27
 70
     1
102
RTVSPropertyOp28
 70
     1
102
RTVSPropertyOp29
 70
     1
102
RTVSPropertyOp30
 70
     1
102
RTVSPropertyOp31
 70
     1
102
RTVSPropertyOp32
 70
     1
  0
XRECORD
  5
565
102
{ACAD_REACTORS
330
564
102
}
330
564
100
AcDbXrecord
280
     1
102
RTVSPropertyOp0
 70
     0
102
RTVSPropertyOp1
 70
     0
102
RTVSPropertyOp2
 70
     0
102
RTVSPropertyOp3
 70
     0
102
RTVSPropertyOp4
 70
     0
102
RTVSPropertyOp5
 70
     0
102
RTVSPropertyOp6
 70
     0
102
RTVSPropertyOp7
 70
     0
102
RTVSPropertyOp8
 70
     0
102
RTVSPropertyOp9
 70
     0
102
RTVSPropertyOp10
 70
     0
102
RTVSPropertyOp11
 70
     0
102
RTVSPropertyOp12
 70
     0
102
RTVSPropertyOp13
 70
     0
102
RTVSPropertyOp14
 70
     2
102
RTVSPropertyOp15
 70
     0
102
RTVSPropertyOp16
 70
     0
102
RTVSPropertyOp17
 70
     0
102
RTVSPropertyOp18
 70
     0
102
RTVSPropertyOp19
 70
     0
102
RTVSPropertyOp20
 70
     0
102
RTVSPropertyOp21
 70
     0
102
RTVSPropertyOp22
 70
     0
102
RTVSPropertyOp23
 70
     0
102
RTVSPropertyOp24
 70
     0
102
RTVSPropertyOp25
 70
     0
102
RTVSPropertyOp26
 70
     0
102
RTVSPropertyOp27
 70
     0
102
RTVSPropertyOp28
 70
     0
102
RTVSPropertyOp29
 70
     0
102
RTVSPropertyOp30
 70
     0
102
RTVSPropertyOp31
 70
     0
102
RTVSPropertyOp32
 70
     0
  0
XRECORD
  5
54B
102
{ACAD_REACTORS
330
54A
102
}
330
54A
100
AcDbXrecord
280
     1
102
RTVSPropertyOp0
 70
     1
102
RTVSPropertyOp1
 70
     1
102
RTVSPropertyOp2
 70
     1
102
RTVSPropertyOp3
 70
     1
102
RTVSPropertyOp4
 70
     1
102
RTVSPropertyOp5
 70
     1
102
RTVSPropertyOp6
 70
     1
102
RTVSPropertyOp7
 70
     1
102
RTVSPropertyOp8
 70
     1
102
RTVSPropertyOp9
 70
     1
102
RTVSPropertyOp10
 70
     1
102
RTVSPropertyOp11
 70
     1
102
RTVSPropertyOp12
 70
     1
102
RTVSPropertyOp13
 70
     1
102
RTVSPropertyOp14
 70
     1
102
RTVSPropertyOp15
 70
     1
102
RTVSPropertyOp16
 70
     1
102
RTVSPropertyOp17
 70
     1
102
RTVSPropertyOp18
 70
     1
102
RTVSPropertyOp19
 70
     1
102
RTVSPropertyOp20
 70
     1
102
RTVSPropertyOp21
 70
     1
102
RTVSPropertyOp22
 70
     1
102
RTVSPropertyOp23
 70
     1
102
RTVSPropertyOp24
 70
     1
102
RTVSPropertyOp25
 70
     1
102
RTVSPropertyOp26
 70
     1
102
RTVSPropertyOp27
 70
     1
102
RTVSPropertyOp28
 70
     1
102
RTVSPropertyOp29
 70
     1
102
RTVSPropertyOp30
 70
     1
102
RTVSPropertyOp31
 70
     1
102
RTVSPropertyOp32
 70
     1
  0
XRECORD
  5
561
102
{ACAD_REACTORS
330
560
102
}
330
560
100
AcDbXrecord
280
     1
102
RTVSPropertyOp0
 70
     1
102
RTVSPropertyOp1
 70
     1
102
RTVSPropertyOp2
 70
     1
102
RTVSPropertyOp3
 70
     1
102
RTVSPropertyOp4
 70
     1
102
RTVSPropertyOp5
 70
     1
102
RTVSPropertyOp6
 70
     1
102
RTVSPropertyOp7
 70
     1
102
RTVSPropertyOp8
 70
     1
102
RTVSPropertyOp9
 70
     1
102
RTVSPropertyOp10
 70
     1
102
RTVSPropertyOp11
 70
     1
102
RTVSPropertyOp12
 70
     1
102
RTVSPropertyOp13
 70
     1
102
RTVSPropertyOp14
 70
     1
102
RTVSPropertyOp15
 70
     1
102
RTVSPropertyOp16
 70
     1
102
RTVSPropertyOp17
 70
     1
102
RTVSPropertyOp18
 70
     1
102
RTVSPropertyOp19
 70
     1
102
RTVSPropertyOp20
 70
     1
102
RTVSPropertyOp21
 70
     1
102
RTVSPropertyOp22
 70
     1
102
RTVSPropertyOp23
 70
     1
102
RTVSPropertyOp24
 70
     1
102
RTVSPropertyOp25
 70
     1
102
RTVSPropertyOp26
 70
     1
102
RTVSPropertyOp27
 70
     1
102
RTVSPropertyOp28
 70
     1
102
RTVSPropertyOp29
 70
     1
102
RTVSPropertyOp30
 70
     1
102
RTVSPropertyOp31
 70
     1
102
RTVSPropertyOp32
 70
     1
  0
XRECORD
  5
55F
102
{ACAD_REACTORS
330
55E
102
}
330
55E
100
AcDbXrecord
280
     1
102
RTVSPropertyOp0
 70
     1
102
RTVSPropertyOp1
 70
     1
102
RTVSPropertyOp2
 70
     1
102
RTVSPropertyOp3
 70
     1
102
RTVSPropertyOp4
 70
     1
102
RTVSPropertyOp5
 70
     1
102
RTVSPropertyOp6
 70
     1
102
RTVSPropertyOp7
 70
     1
102
RTVSPropertyOp8
 70
     1
102
RTVSPropertyOp9
 70
     1
102
RTVSPropertyOp10
 70
     1
102
RTVSPropertyOp11
 70
     1
102
RTVSPropertyOp12
 70
     1
102
RTVSPropertyOp13
 70
     1
102
RTVSPropertyOp14
 70
     1
102
RTVSPropertyOp15
 70
     1
102
RTVSPropertyOp16
 70
     1
102
RTVSPropertyOp17
 70
     1
102
RTVSPropertyOp18
 70
     1
102
RTVSPropertyOp19
 70
     1
102
RTVSPropertyOp20
 70
     1
102
RTVSPropertyOp21
 70
     1
102
RTVSPropertyOp22
 70
     1
102
RTVSPropertyOp23
 70
     1
102
RTVSPropertyOp24
 70
     1
102
RTVSPropertyOp25
 70
     1
102
RTVSPropertyOp26
 70
     1
102
RTVSPropertyOp27
 70
     1
102
RTVSPropertyOp28
 70
     1
102
RTVSPropertyOp29
 70
     1
102
RTVSPropertyOp30
 70
     1
102
RTVSPropertyOp31
 70
     1
102
RTVSPropertyOp32
 70
     1
  0
XRECORD
  5
559
102
{ACAD_REACTORS
330
558
102
}
330
558
100
AcDbXrecord
280
     1
102
RTVSPropertyOp0
 70
     1
102
RTVSPropertyOp1
 70
     1
102
RTVSPropertyOp2
 70
     1
102
RTVSPropertyOp3
 70
     1
102
RTVSPropertyOp4
 70
     1
102
RTVSPropertyOp5
 70
     1
102
RTVSPropertyOp6
 70
     1
102
RTVSPropertyOp7
 70
     1
102
RTVSPropertyOp8
 70
     1
102
RTVSPropertyOp9
 70
     1
102
RTVSPropertyOp10
 70
     1
102
RTVSPropertyOp11
 70
     1
102
RTVSPropertyOp12
 70
     1
102
RTVSPropertyOp13
 70
     1
102
RTVSPropertyOp14
 70
     1
102
RTVSPropertyOp15
 70
     1
102
RTVSPropertyOp16
 70
     1
102
RTVSPropertyOp17
 70
     1
102
RTVSPropertyOp18
 70
     1
102
RTVSPropertyOp19
 70
     1
102
RTVSPropertyOp20
 70
     1
102
RTVSPropertyOp21
 70
     1
102
RTVSPropertyOp22
 70
     1
102
RTVSPropertyOp23
 70
     1
102
RTVSPropertyOp24
 70
     1
102
RTVSPropertyOp25
 70
     1
102
RTVSPropertyOp26
 70
     1
102
RTVSPropertyOp27
 70
     1
102
RTVSPropertyOp28
 70
     1
102
RTVSPropertyOp29
 70
     1
102
RTVSPropertyOp30
 70
     1
102
RTVSPropertyOp31
 70
     1
102
RTVSPropertyOp32
 70
     1
  0
XRECORD
  5
55B
102
{ACAD_REACTORS
330
55A
102
}
330
55A
100
AcDbXrecord
280
     1
102
RTVSPropertyOp0
 70
     1
102
RTVSPropertyOp1
 70
     1
102
RTVSPropertyOp2
 70
     1
102
RTVSPropertyOp3
 70
     1
102
RTVSPropertyOp4
 70
     1
102
RTVSPropertyOp5
 70
     1
102
RTVSPropertyOp6
 70
     1
102
RTVSPropertyOp7
 70
     1
102
RTVSPropertyOp8
 70
     1
102
RTVSPropertyOp9
 70
     1
102
RTVSPropertyOp10
 70
     1
102
RTVSPropertyOp11
 70
     1
102
RTVSPropertyOp12
 70
     1
102
RTVSPropertyOp13
 70
     1
102
RTVSPropertyOp14
 70
     1
102
RTVSPropertyOp15
 70
     1
102
RTVSPropertyOp16
 70
     1
102
RTVSPropertyOp17
 70
     1
102
RTVSPropertyOp18
 70
     1
102
RTVSPropertyOp19
 70
     1
102
RTVSPropertyOp20
 70
     1
102
RTVSPropertyOp21
 70
     1
102
RTVSPropertyOp22
 70
     1
102
RTVSPropertyOp23
 70
     1
102
RTVSPropertyOp24
 70
     1
102
RTVSPropertyOp25
 70
     1
102
RTVSPropertyOp26
 70
     1
102
RTVSPropertyOp27
 70
     1
102
RTVSPropertyOp28
 70
     1
102
RTVSPropertyOp29
 70
     1
102
RTVSPropertyOp30
 70
     1
102
RTVSPropertyOp31
 70
     1
102
RTVSPropertyOp32
 70
     1
  0
XRECORD
  5
551
102
{ACAD_REACTORS
330
550
102
}
330
550
100
AcDbXrecord
280
     1
102
RTVSPropertyOp0
 70
     1
102
RTVSPropertyOp1
 70
     1
102
RTVSPropertyOp2
 70
     1
102
RTVSPropertyOp3
 70
     1
102
RTVSPropertyOp4
 70
     1
102
RTVSPropertyOp5
 70
     1
102
RTVSPropertyOp6
 70
     1
102
RTVSPropertyOp7
 70
     1
102
RTVSPropertyOp8
 70
     1
102
RTVSPropertyOp9
 70
     1
102
RTVSPropertyOp10
 70
     1
102
RTVSPropertyOp11
 70
     1
102
RTVSPropertyOp12
 70
     1
102
RTVSPropertyOp13
 70
     1
102
RTVSPropertyOp14
 70
     1
102
RTVSPropertyOp15
 70
     1
102
RTVSPropertyOp16
 70
     1
102
RTVSPropertyOp17
 70
     1
102
RTVSPropertyOp18
 70
     1
102
RTVSPropertyOp19
 70
     1
102
RTVSPropertyOp20
 70
     1
102
RTVSPropertyOp21
 70
     1
102
RTVSPropertyOp22
 70
     1
102
RTVSPropertyOp23
 70
     1
102
RTVSPropertyOp24
 70
     1
102
RTVSPropertyOp25
 70
     1
102
RTVSPropertyOp26
 70
     1
102
RTVSPropertyOp27
 70
     1
102
RTVSPropertyOp28
 70
     1
102
RTVSPropertyOp29
 70
     1
102
RTVSPropertyOp30
 70
     1
102
RTVSPropertyOp31
 70
     1
102
RTVSPropertyOp32
 70
     1
  0
XRECORD
  5
545
102
{ACAD_REACTORS
330
544
102
}
330
544
100
AcDbXrecord
280
     1
102
RTVSPropertyOp0
 70
     1
102
RTVSPropertyOp1
 70
     1
102
RTVSPropertyOp2
 70
     1
102
RTVSPropertyOp3
 70
     1
102
RTVSPropertyOp4
 70
     1
102
RTVSPropertyOp5
 70
     1
102
RTVSPropertyOp6
 70
     1
102
RTVSPropertyOp7
 70
     1
102
RTVSPropertyOp8
 70
     1
102
RTVSPropertyOp9
 70
     1
102
RTVSPropertyOp10
 70
     1
102
RTVSPropertyOp11
 70
     1
102
RTVSPropertyOp12
 70
     1
102
RTVSPropertyOp13
 70
     1
102
RTVSPropertyOp14
 70
     1
102
RTVSPropertyOp15
 70
     1
102
RTVSPropertyOp16
 70
     1
102
RTVSPropertyOp17
 70
     1
102
RTVSPropertyOp18
 70
     1
102
RTVSPropertyOp19
 70
     1
102
RTVSPropertyOp20
 70
     1
102
RTVSPropertyOp21
 70
     1
102
RTVSPropertyOp22
 70
     1
102
RTVSPropertyOp23
 70
     1
102
RTVSPropertyOp24
 70
     1
102
RTVSPropertyOp25
 70
     1
102
RTVSPropertyOp26
 70
     1
102
RTVSPropertyOp27
 70
     1
102
RTVSPropertyOp28
 70
     1
102
RTVSPropertyOp29
 70
     1
102
RTVSPropertyOp30
 70
     1
102
RTVSPropertyOp31
 70
     1
102
RTVSPropertyOp32
 70
     1
  0
XRECORD
  5
55D
102
{ACAD_REACTORS
330
55C
102
}
330
55C
100
AcDbXrecord
280
     1
102
RTVSPropertyOp0
 70
     1
102
RTVSPropertyOp1
 70
     1
102
RTVSPropertyOp2
 70
     1
102
RTVSPropertyOp3
 70
     1
102
RTVSPropertyOp4
 70
     1
102
RTVSPropertyOp5
 70
     1
102
RTVSPropertyOp6
 70
     1
102
RTVSPropertyOp7
 70
     1
102
RTVSPropertyOp8
 70
     1
102
RTVSPropertyOp9
 70
     1
102
RTVSPropertyOp10
 70
     1
102
RTVSPropertyOp11
 70
     1
102
RTVSPropertyOp12
 70
     1
102
RTVSPropertyOp13
 70
     1
102
RTVSPropertyOp14
 70
     1
102
RTVSPropertyOp15
 70
     1
102
RTVSPropertyOp16
 70
     1
102
RTVSPropertyOp17
 70
     1
102
RTVSPropertyOp18
 70
     1
102
RTVSPropertyOp19
 70
     1
102
RTVSPropertyOp20
 70
     1
102
RTVSPropertyOp21
 70
     1
102
RTVSPropertyOp22
 70
     1
102
RTVSPropertyOp23
 70
     1
102
RTVSPropertyOp24
 70
     1
102
RTVSPropertyOp25
 70
     1
102
RTVSPropertyOp26
 70
     1
102
RTVSPropertyOp27
 70
     1
102
RTVSPropertyOp28
 70
     1
102
RTVSPropertyOp29
 70
     1
102
RTVSPropertyOp30
 70
     1
102
RTVSPropertyOp31
 70
     1
102
RTVSPropertyOp32
 70
     1
  0
ENDSEC
  0
EOF
