  0
SECTION
  2
HEADER
  9
$ACADVER
  1
AC1015
  9
$ACADMAINTVER
 70
    20
  9
$DWGCODEPAGE
  3
ANSI_932
  9
$INSBASE
 10
0.0
 20
0.0
 30
0.0
  9
$EXTMIN
 10
1411.863331902209
 20
1164.289453345961
 30
-0.0015258207003583
  9
$EXTMAX
 10
1786.88622008583
 20
1434.305932838167
 30
0.0000000349246037
  9
$LIMMIN
 10
1411.874775120904
 20
1164.297692463422
  9
$LIMMAX
 10
1786.874775120905
 20
1434.297692463421
  9
$ORTHOMODE
 70
     0
  9
$REGENMODE
 70
     1
  9
$FILLMODE
 70
     1
  9
$QTEXTMODE
 70
     0
  9
$MIRRTEXT
 70
     0
  9
$LTSCALE
 40
1.0
  9
$ATTMODE
 70
     1
  9
$TEXTSIZE
 40
3.5
  9
$TRACEWID
 40
0.5
  9
$TEXTSTYLE
  7
STANDARD
  9
$CLAYER
  8
0
  9
$CELTYPE
  6
ByLayer
  9
$CECOLOR
 62
   256
  9
$CELTSCALE
 40
1.0
  9
$DISPSILH
 70
     0
  9
$DIMSCALE
 40
1.0
  9
$DIMASZ
 40
0.18
  9
$DIMEXO
 40
0.0625
  9
$DIMDLI
 40
0.38
  9
$DIMRND
 40
0.0
  9
$DIMDLE
 40
0.0
  9
$DIMEXE
 40
0.18
  9
$DIMTP
 40
0.0
  9
$DIMTM
 40
0.0
  9
$DIMTXT
 40
0.18
  9
$DIMCEN
 40
0.09
  9
$DIMTSZ
 40
0.0
  9
$DIMTOL
 70
     0
  9
$DIMLIM
 70
     0
  9
$DIMTIH
 70
     1
  9
$DIMTOH
 70
     1
  9
$DIMSE1
 70
     0
  9
$DIMSE2
 70
     0
  9
$DIMTAD
 70
     0
  9
$DIMZIN
 70
     0
  9
$DIMBLK
  1

  9
$DIMASO
 70
     1
  9
$DIMSHO
 70
     1
  9
$DIMPOST
  1

  9
$DIMAPOST
  1

  9
$DIMALT
 70
     0
  9
$DIMALTD
 70
     2
  9
$DIMALTF
 40
25.4
  9
$DIMLFAC
 40
1.0
  9
$DIMTOFL
 70
     0
  9
$DIMTVP
 40
0.0
  9
$DIMTIX
 70
     0
  9
$DIMSOXD
 70
     0
  9
$DIMSAH
 70
     0
  9
$DIMBLK1
  1

  9
$DIMBLK2
  1

  9
$DIMSTYLE
  2
Standard
  9
$DIMCLRD
 70
     0
  9
$DIMCLRE
 70
     0
  9
$DIMCLRT
 70
     0
  9
$DIMTFAC
 40
1.0
  9
$DIMGAP
 40
0.09
  9
$DIMJUST
 70
     0
  9
$DIMSD1
 70
     0
  9
$DIMSD2
 70
     0
  9
$DIMTOLJ
 70
     1
  9
$DIMTZIN
 70
     0
  9
$DIMALTZ
 70
     0
  9
$DIMALTTZ
 70
     0
  9
$DIMUPT
 70
     0
  9
$DIMDEC
 70
     4
  9
$DIMTDEC
 70
     4
  9
$DIMALTU
 70
     2
  9
$DIMALTTD
 70
     2
  9
$DIMTXSTY
  7
STANDARD
  9
$DIMAUNIT
 70
     0
  9
$DIMADEC
 70
     0
  9
$DIMALTRND
 40
0.0
  9
$DIMAZIN
 70
     0
  9
$DIMDSEP
 70
    46
  9
$DIMATFIT
 70
     3
  9
$DIMFRAC
 70
     0
  9
$DIMLDRBLK
  1

  9
$DIMLUNIT
 70
     2
  9
$DIMLWD
 70
    -2
  9
$DIMLWE
 70
    -2
  9
$DIMTMOVE
 70
     0
  9
$LUNITS
 70
     2
  9
$LUPREC
 70
     4
  9
$SKETCHINC
 40
0.1
  9
$FILLETRAD
 40
2.0
  9
$AUNITS
 70
     0
  9
$AUPREC
 70
     0
  9
$MENU
  1
ACAD
  9
$ELEVATION
 40
0.0
  9
$PELEVATION
 40
0.0
  9
$THICKNESS
 40
0.0
  9
$LIMCHECK
 70
     0
  9
$CHAMFERA
 40
0.0
  9
$CHAMFERB
 40
0.0
  9
$CHAMFERC
 40
0.0
  9
$CHAMFERD
 40
0.0
  9
$SKPOLY
 70
     0
  9
$TDCREATE
 40
2457585.374783438
  9
$TDUCREATE
 40
2457584.999783438
  9
$TDUPDATE
 40
2457585.376075127
  9
$TDUUPDATE
 40
2457585.001075127
  9
$TDINDWG
 40
0.0012924074
  9
$TDUSRTIMER
 40
0.0012924074
  9
$USRTIMER
 70
     1
  9
$ANGBASE
 50
0.0
  9
$ANGDIR
 70
     0
  9
$PDMODE
 70
     0
  9
$PDSIZE
 40
0.0
  9
$PLINEWID
 40
0.0
  9
$SPLFRAME
 70
     0
  9
$SPLINETYPE
 70
     6
  9
$SPLINESEGS
 70
     8
  9
$HANDSEED
  5
7A6
  9
$SURFTAB1
 70
     6
  9
$SURFTAB2
 70
     6
  9
$SURFTYPE
 70
     6
  9
$SURFU
 70
     6
  9
$SURFV
 70
     6
  9
$UCSBASE
  2

  9
$UCSNAME
  2

  9
$UCSORG
 10
0.0
 20
0.0
 30
0.0
  9
$UCSXDIR
 10
1.0
 20
0.0
 30
0.0
  9
$UCSYDIR
 10
0.0
 20
1.0
 30
0.0
  9
$UCSORTHOREF
  2

  9
$UCSORTHOVIEW
 70
     0
  9
$UCSORGTOP
 10
0.0
 20
0.0
 30
0.0
  9
$UCSORGBOTTOM
 10
0.0
 20
0.0
 30
0.0
  9
$UCSORGLEFT
 10
0.0
 20
0.0
 30
0.0
  9
$UCSORGRIGHT
 10
0.0
 20
0.0
 30
0.0
  9
$UCSORGFRONT
 10
0.0
 20
0.0
 30
0.0
  9
$UCSORGBACK
 10
0.0
 20
0.0
 30
0.0
  9
$PUCSBASE
  2

  9
$PUCSNAME
  2

  9
$PUCSORG
 10
0.0
 20
0.0
 30
0.0
  9
$PUCSXDIR
 10
1.0
 20
0.0
 30
0.0
  9
$PUCSYDIR
 10
0.0
 20
1.0
 30
0.0
  9
$PUCSORTHOREF
  2

  9
$PUCSORTHOVIEW
 70
     0
  9
$PUCSORGTOP
 10
0.0
 20
0.0
 30
0.0
  9
$PUCSORGBOTTOM
 10
0.0
 20
0.0
 30
0.0
  9
$PUCSORGLEFT
 10
0.0
 20
0.0
 30
0.0
  9
$PUCSORGRIGHT
 10
0.0
 20
0.0
 30
0.0
  9
$PUCSORGFRONT
 10
0.0
 20
0.0
 30
0.0
  9
$PUCSORGBACK
 10
0.0
 20
0.0
 30
0.0
  9
$USERI1
 70
     0
  9
$USERI2
 70
     0
  9
$USERI3
 70
     0
  9
$USERI4
 70
     0
  9
$USERI5
 70
     0
  9
$USERR1
 40
0.0
  9
$USERR2
 40
0.0
  9
$USERR3
 40
0.0
  9
$USERR4
 40
0.0
  9
$USERR5
 40
0.0
  9
$WORLDVIEW
 70
     1
  9
$SHADEDGE
 70
     3
  9
$SHADEDIF
 70
    70
  9
$TILEMODE
 70
     1
  9
$MAXACTVP
 70
    64
  9
$PINSBASE
 10
0.0
 20
0.0
 30
0.0
  9
$PLIMCHECK
 70
     0
  9
$PEXTMIN
 10
1.000000000000000E+20
 20
1.000000000000000E+20
 30
1.000000000000000E+20
  9
$PEXTMAX
 10
-1.000000000000000E+20
 20
-1.000000000000000E+20
 30
-1.000000000000000E+20
  9
$PLIMMIN
 10
0.0
 20
0.0
  9
$PLIMMAX
 10
12.0
 20
9.0
  9
$UNITMODE
 70
     0
  9
$VISRETAIN
 70
     1
  9
$PLINEGEN
 70
     0
  9
$PSLTSCALE
 70
     1
  9
$TREEDEPTH
 70
  3020
  9
$CMLSTYLE
  2
Standard
  9
$CMLJUST
 70
     0
  9
$CMLSCALE
 40
1.0
  9
$PROXYGRAPHICS
 70
     1
  9
$MEASUREMENT
 70
     0
  9
$CELWEIGHT
370
    -1
  9
$ENDCAPS
280
     0
  9
$JOINSTYLE
280
     0
  9
$LWDISPLAY
290
     0
  9
$INSUNITS
 70
     0
  9
$HYPERLINKBASE
  1

  9
$STYLESHEET
  1

  9
$XEDIT
290
     1
  9
$CEPSNTYPE
380
     0
  9
$PSTYLEMODE
290
     1
  9
$FINGERPRINTGUID
  2
{8A467CBB-8F0F-40AE-A3CD-322C79F5F8E6}
  9
$VERSIONGUID
  2
{7253C67B-A074-4504-A8AC-0AEFE0D38A85}
  9
$EXTNAMES
290
     1
  9
$PSVPSCALE
 40
0.0
  9
$OLESTARTUP
290
     0
  0
ENDSEC
  0
SECTION
  2
CLASSES
  0
CLASS
  1
ACDBDICTIONARYWDFLT
  2
AcDbDictionaryWithDefault
  3
ObjectDBX Classes
 90
        0
280
     0
281
     0
  0
CLASS
  1
MATERIAL
  2
AcDbMaterial
  3
ObjectDBX Classes
 90
     1153
280
     0
281
     0
  0
CLASS
  1
VISUALSTYLE
  2
AcDbVisualStyle
  3
ObjectDBX Classes
 90
     4095
280
     0
281
     0
  0
CLASS
  1
SCALE
  2
AcDbScale
  3
ObjectDBX Classes
 90
     1153
280
     0
281
     0
  0
CLASS
  1
TABLESTYLE
  2
AcDbTableStyle
  3
ObjectDBX Classes
 90
     4095
280
     0
281
     0
  0
CLASS
  1
MLEADERSTYLE
  2
AcDbMLeaderStyle
  3
ACDB_MLEADERSTYLE_CLASS
 90
     4095
280
     0
281
     0
  0
CLASS
  1
SORTENTSTABLE
  2
AcDbSortentsTable
  3
ObjectDBX Classes
 90
        0
280
     0
281
     0
  0
CLASS
  1
DICTIONARYVAR
  2
AcDbDictionaryVar
  3
ObjectDBX Classes
 90
        0
280
     0
281
     0
  0
CLASS
  1
CELLSTYLEMAP
  2
AcDbCellStyleMap
  3
ObjectDBX Classes
 90
     1152
280
     0
281
     0
  0
CLASS
  1
ACDBPLACEHOLDER
  2
AcDbPlaceHolder
  3
ObjectDBX Classes
 90
        0
280
     0
281
     0
  0
CLASS
  1
LAYOUT
  2
AcDbLayout
  3
ObjectDBX Classes
 90
        0
280
     0
281
     0
  0
ENDSEC
  0
SECTION
  2
TABLES
  0
TABLE
  2
VPORT
  5
8
330
0
100
AcDbSymbolTable
 70
     1
  0
VPORT
  5
81
330
8
100
AcDbSymbolTableRecord
100
AcDbViewportTableRecord
  2
*Active
 70
     0
 10
0.0
 20
0.0
 11
1.0
 21
1.0
 12
1542.342148289753
 22
1341.340882054976
 13
0.0
 23
0.0
 14
1.0
 24
1.0
 15
0.0
 25
0.0
 16
0.0
 26
0.0
 36
1.0
 17
0.0
 27
0.0
 37
0.0
 40
313.0137827548253
 41
2.023923444976076
 42
50.0
 43
0.0
 44
0.0
 50
0.0
 51
0.0
 71
     0
 72
   100
 73
     1
 74
     1
 75
     0
 76
     0
 77
     0
 78
     0
281
     0
 65
     1
110
0.0
120
0.0
130
0.0
111
1.0
121
0.0
131
0.0
112
0.0
122
1.0
132
0.0
 79
     0
146
0.0
1001
ACAD_NAV_VCDISPLAY
1070
     3
  0
ENDTAB
  0
TABLE
  2
LTYPE
  5
5
330
0
100
AcDbSymbolTable
 70
     9
  0
LTYPE
  5
5A
330
5
100
AcDbSymbolTableRecord
100
AcDbLinetypeTableRecord
  2
ByBlock
 70
     0
  3

 72
    65
 73
     0
 40
0.0
  0
LTYPE
  5
5B
330
5
100
AcDbSymbolTableRecord
100
AcDbLinetypeTableRecord
  2
ByLayer
 70
     0
  3

 72
    65
 73
     0
 40
0.0
  0
LTYPE
  5
5C
330
5
100
AcDbSymbolTableRecord
100
AcDbLinetypeTableRecord
  2
CONTINUOUS
 70
     0
  3
Solid line
 72
    65
 73
     0
 40
0.0
  0
LTYPE
  5
71
330
5
100
AcDbSymbolTableRecord
100
AcDbLinetypeTableRecord
  2
BORDER
 70
     0
  3
__ __ . __ __ .
 72
    65
 73
     6
 40
17.26973684210532
 49
4.934210526315804
 74
     0
 49
-2.467105263157901
 74
     0
 49
4.934210526315804
 74
     0
 49
-2.467105263157901
 74
     0
 49
0.0
 74
     0
 49
-2.467105263157901
 74
     0
  0
LTYPE
  5
72
330
5
100
AcDbSymbolTableRecord
100
AcDbLinetypeTableRecord
  2
CENTER
 70
     0
  3
____ _ ____ _
 72
    65
 73
     4
 40
19.73684210526322
 49
12.33552631578951
 74
     0
 49
-2.467105263157901
 74
     0
 49
2.467105263157901
 74
     0
 49
-2.467105263157901
 74
     0
  0
LTYPE
  5
73
330
5
100
AcDbSymbolTableRecord
100
AcDbLinetypeTableRecord
  2
DASHDOT
 70
     0
  3
__ . __ . __ .
 72
    65
 73
     4
 40
9.868421052631607
 49
4.934210526315804
 74
     0
 49
-2.467105263157901
 74
     0
 49
0.0
 74
     0
 49
-2.467105263157901
 74
     0
  0
LTYPE
  5
74
330
5
100
AcDbSymbolTableRecord
100
AcDbLinetypeTableRecord
  2
DASHED
 70
     0
  3
__ __ __ __ __
 72
    65
 73
     2
 40
7.401315789473706
 49
4.934210526315804
 74
     0
 49
-2.467105263157901
 74
     0
  0
LTYPE
  5
75
330
5
100
AcDbSymbolTableRecord
100
AcDbLinetypeTableRecord
  2
DIVIDE
 70
     0
  3
__ . . __ . . 
 72
    65
 73
     6
 40
12.33552631578951
 49
4.934210526315804
 74
     0
 49
-2.467105263157901
 74
     0
 49
0.0
 74
     0
 49
-2.467105263157901
 74
     0
 49
0.0
 74
     0
 49
-2.467105263157901
 74
     0
  0
LTYPE
  5
76
330
5
100
AcDbSymbolTableRecord
100
AcDbLinetypeTableRecord
  2
DOT
 70
     0
  3
..............
 72
    65
 73
     4
 40
4.934210526315804
 49
0.0
 74
     0
 49
-2.467105263157901
 74
     0
 49
0.0
 74
     0
 49
-2.467105263157901
 74
     0
  0
LTYPE
  5
77
330
5
100
AcDbSymbolTableRecord
100
AcDbLinetypeTableRecord
  2
HIDDEN
 70
     0
  3
_ _ _ _ _ _ _
 72
    65
 73
     2
 40
3.700657894736853
 49
2.467105263157901
 74
     0
 49
-1.23355263157895
 74
     0
  0
LTYPE
  5
78
330
5
100
AcDbSymbolTableRecord
100
AcDbLinetypeTableRecord
  2
PHANTOM
 70
     0
  3
_____ _ _ _____ _ _ 
 72
    65
 73
     6
 40
24.67105263157902
 49
12.33552631578951
 74
     0
 49
-2.467105263157901
 74
     0
 49
2.467105263157901
 74
     0
 49
-2.467105263157901
 74
     0
 49
2.467105263157901
 74
     0
 49
-2.467105263157901
 74
     0
  0
ENDTAB
  0
TABLE
  2
LAYER
  5
2
330
0
100
AcDbSymbolTable
 70
     2
  0
LAYER
  5
54
102
{ACAD_XDICTIONARY
360
75C
102
}
330
2
100
AcDbSymbolTableRecord
100
AcDbLayerTableRecord
  2
0
 70
     0
 62
     7
  6
CONTINUOUS
370
    -3
390
F
  0
LAYER
  5
79
102
{ACAD_XDICTIONARY
360
75E
102
}
330
2
100
AcDbSymbolTableRecord
100
AcDbLayerTableRecord
  2
1
 70
     0
 62
     7
  6
CONTINUOUS
370
    -3
390
F
  0
ENDTAB
  0
TABLE
  2
STYLE
  5
3
330
0
100
AcDbSymbolTable
 70
     5
  0
STYLE
  5
55
330
3
100
AcDbSymbolTableRecord
100
AcDbTextStyleTableRecord
  2
STANDARD
 70
     0
 40
0.0
 41
1.0
 50
0.0
 71
     0
 42
3.5
  3
txt
  4

  0
STYLE
  5
59
330
3
100
AcDbSymbolTableRecord
100
AcDbTextStyleTableRecord
  2
Annotative
 70
     0
 40
0.0
 41
1.0
 50
0.0
 71
     0
 42
0.2
  3
txt
  4

1001
AcadAnnotative
1000
AnnotativeData
1002
{
1070
     1
1070
     1
1002
}
  0
STYLE
  5
7A
330
3
100
AcDbSymbolTableRecord
100
AcDbTextStyleTableRecord
  2
SIMPLEX
 70
     0
 40
0.0
 41
1.0
 50
0.0
 71
     0
 42
3.5
  3
simplex
  4

  0
STYLE
  5
7B
330
3
100
AcDbSymbolTableRecord
100
AcDbTextStyleTableRecord
  2
COMPLEX
 70
     0
 40
0.0
 41
1.0
 50
0.0
 71
     0
 42
3.5
  3
complex
  4

  0
STYLE
  5
7C
330
3
100
AcDbSymbolTableRecord
100
AcDbTextStyleTableRecord
  2
ITALIC
 70
     0
 40
0.0
 41
1.0
 50
0.0
 71
     0
 42
3.5
  3
italic
  4

  0
ENDTAB
  0
TABLE
  2
VIEW
  5
6
330
0
100
AcDbSymbolTable
 70
     0
  0
ENDTAB
  0
TABLE
  2
UCS
  5
7
330
0
100
AcDbSymbolTable
 70
     0
  0
ENDTAB
  0
TABLE
  2
APPID
  5
9
330
0
100
AcDbSymbolTable
 70
     4
  0
APPID
  5
56
330
9
100
AcDbSymbolTableRecord
100
AcDbRegAppTableRecord
  2
ACAD
 70
     0
  0
APPID
  5
5D
330
9
100
AcDbSymbolTableRecord
100
AcDbRegAppTableRecord
  2
AcadAnnotative
 70
     0
  0
APPID
  5
768
330
9
100
AcDbSymbolTableRecord
100
AcDbRegAppTableRecord
  2
ACAD_NAV_VCDISPLAY
 70
     0
  0
APPID
  5
7A1
330
9
100
AcDbSymbolTableRecord
100
AcDbRegAppTableRecord
  2
ACAD_MLEADERVER
 70
     0
  0
ENDTAB
  0
TABLE
  2
DIMSTYLE
  5
A
330
0
100
AcDbSymbolTable
 70
     4
100
AcDbDimStyleTable
 71
     0
  0
DIMSTYLE
105
57
330
A
100
AcDbSymbolTableRecord
100
AcDbDimStyleTableRecord
  2
Standard
 70
     0
340
55
  0
DIMSTYLE
105
58
330
A
100
AcDbSymbolTableRecord
100
AcDbDimStyleTableRecord
  2
Annotative
 70
     0
340
55
1001
AcadAnnotative
1000
AnnotativeData
1002
{
1070
     1
1070
     1
1002
}
  0
DIMSTYLE
105
6F
330
A
100
AcDbSymbolTableRecord
100
AcDbDimStyleTableRecord
  2
DMST_1
 70
     0
 41
2.45
 42
1.0
 43
7.0
 44
1.0
 73
     0
 74
     0
 77
     1
 78
     9
140
3.5
141
0.0
176
     2
177
     2
178
     3
279
     2
340
55
  0
DIMSTYLE
105
70
330
A
100
AcDbSymbolTableRecord
100
AcDbDimStyleTableRecord
  2
DMST_2
 70
     0
 41
1.0
 42
1.0
 43
7.0
 44
1.0
 73
     0
 74
     0
 77
     1
 78
     9
140
3.5
141
0.0
173
     1
176
     2
177
     2
178
     3
279
     2
340
55
  0
ENDTAB
  0
TABLE
  2
BLOCK_RECORD
  5
1
330
0
100
AcDbSymbolTable
 70
    27
  0
BLOCK_RECORD
  5
6B
102
{ACAD_XDICTIONARY
360
4DF
102
}
330
1
100
AcDbSymbolTableRecord
100
AcDbBlockTableRecord
  2
*Model_Space
340
6E
  0
BLOCK_RECORD
  5
67
330
1
100
AcDbSymbolTableRecord
100
AcDbBlockTableRecord
  2
*Paper_Space
340
6A
  0
BLOCK_RECORD
  5
82
330
1
100
AcDbSymbolTableRecord
100
AcDbBlockTableRecord
  2
_6
340
0
  0
BLOCK_RECORD
  5
1DB
330
1
100
AcDbSymbolTableRecord
100
AcDbBlockTableRecord
  2
_5
340
0
  0
BLOCK_RECORD
  5
234
330
1
100
AcDbSymbolTableRecord
100
AcDbBlockTableRecord
  2
_4
340
0
  0
BLOCK_RECORD
  5
24C
330
1
100
AcDbSymbolTableRecord
100
AcDbBlockTableRecord
  2
______
340
0
102
{BLKREFS
331
398
102
}
  0
BLOCK_RECORD
  5
392
330
1
100
AcDbSymbolTableRecord
100
AcDbBlockTableRecord
  2
FORMAT_A3
340
0
102
{BLKREFS
331
39C
102
}
  0
BLOCK_RECORD
  5
39A
330
1
100
AcDbSymbolTableRecord
100
AcDbBlockTableRecord
  2
_3
340
0
102
{BLKREFS
331
3A0
102
}
  0
BLOCK_RECORD
  5
39E
330
1
100
AcDbSymbolTableRecord
100
AcDbBlockTableRecord
  2
TOP__1
340
0
  0
BLOCK_RECORD
  5
3A2
330
1
100
AcDbSymbolTableRecord
100
AcDbBlockTableRecord
  2
_1
340
0
  0
BLOCK_RECORD
  5
3C3
330
1
100
AcDbSymbolTableRecord
100
AcDbBlockTableRecord
  2
_2
340
0
  0
BLOCK_RECORD
  5
3D2
330
1
100
AcDbSymbolTableRecord
100
AcDbBlockTableRecord
  2
*D9
340
0
  0
BLOCK_RECORD
  5
3DF
330
1
100
AcDbSymbolTableRecord
100
AcDbBlockTableRecord
  2
*D10
340
0
  0
BLOCK_RECORD
  5
3EA
330
1
100
AcDbSymbolTableRecord
100
AcDbBlockTableRecord
  2
*D11
340
0
  0
BLOCK_RECORD
  5
3F5
330
1
100
AcDbSymbolTableRecord
100
AcDbBlockTableRecord
  2
*D12
340
0
  0
BLOCK_RECORD
  5
400
330
1
100
AcDbSymbolTableRecord
100
AcDbBlockTableRecord
  2
*D13
340
0
  0
BLOCK_RECORD
  5
40B
330
1
100
AcDbSymbolTableRecord
100
AcDbBlockTableRecord
  2
*D14
340
0
  0
BLOCK_RECORD
  5
416
330
1
100
AcDbSymbolTableRecord
100
AcDbBlockTableRecord
  2
*D15
340
0
  0
BLOCK_RECORD
  5
422
330
1
100
AcDbSymbolTableRecord
100
AcDbBlockTableRecord
  2
*D16
340
0
  0
BLOCK_RECORD
  5
42F
330
1
100
AcDbSymbolTableRecord
100
AcDbBlockTableRecord
  2
*D17
340
0
  0
BLOCK_RECORD
  5
43A
330
1
100
AcDbSymbolTableRecord
100
AcDbBlockTableRecord
  2
*D18
340
0
  0
BLOCK_RECORD
  5
447
330
1
100
AcDbSymbolTableRecord
100
AcDbBlockTableRecord
  2
*D19
340
0
  0
BLOCK_RECORD
  5
454
330
1
100
AcDbSymbolTableRecord
100
AcDbBlockTableRecord
  2
*D20
340
0
  0
BLOCK_RECORD
  5
45F
330
1
100
AcDbSymbolTableRecord
100
AcDbBlockTableRecord
  2
*D21
340
0
  0
BLOCK_RECORD
  5
46C
330
1
100
AcDbSymbolTableRecord
100
AcDbBlockTableRecord
  2
*D22
340
0
  0
BLOCK_RECORD
  5
477
330
1
100
AcDbSymbolTableRecord
100
AcDbBlockTableRecord
  2
*D23
340
0
  0
BLOCK_RECORD
  5
482
330
1
100
AcDbSymbolTableRecord
100
AcDbBlockTableRecord
  2
*D24
340
0
  0
BLOCK_RECORD
  5
48D
330
1
100
AcDbSymbolTableRecord
100
AcDbBlockTableRecord
  2
*D25
340
0
  0
BLOCK_RECORD
  5
498
330
1
100
AcDbSymbolTableRecord
100
AcDbBlockTableRecord
  2
*D26
340
0
  0
ENDTAB
  0
ENDSEC
  0
SECTION
  2
BLOCKS
  0
BLOCK
  5
6C
330
6B
100
AcDbEntity
  8
0
100
AcDbBlockBegin
  2
*Model_Space
 70
     0
 10
0.0
 20
0.0
 30
0.0
  3
*Model_Space
  1

  0
ENDBLK
  5
6D
330
6B
100
AcDbEntity
  8
0
100
AcDbBlockEnd
  0
BLOCK
  5
68
330
67
100
AcDbEntity
 67
     1
  8
0
100
AcDbBlockBegin
  2
*Paper_Space
 70
     0
 10
0.0
 20
0.0
 30
0.0
  3
*Paper_Space
  1

  0
ENDBLK
  5
69
330
67
100
AcDbEntity
 67
     1
  8
0
100
AcDbBlockEnd
  0
BLOCK
  5
83
330
82
100
AcDbEntity
  8
0
100
AcDbBlockBegin
  2
_6
 70
     0
 10
1695.210189394928
 20
1556.859113551005
 30
0.0
  3
_6
  1

  0
LINE
  5
84
330
82
100
AcDbEntity
  8
1
 62
     7
100
AcDbLine
 10
1493.524775120904
 20
1314.593058803334
 30
0.0
 11
1476.624775120904
 21
1314.593058803334
 31
0.0
  0
LINE
  5
85
330
82
100
AcDbEntity
  8
1
 62
     7
100
AcDbLine
 10
1492.624775120904
 20
1317.593058803334
 30
0.0
 11
1487.624775120904
 21
1317.593058803334
 31
0.0
  0
LINE
  5
86
330
82
100
AcDbEntity
  8
1
 62
     7
100
AcDbLine
 10
1505.624775120904
 20
1331.593058803334
 30
0.0
 11
1505.624775120904
 21
1317.593058803334
 31
0.0
  0
LINE
  5
87
330
82
100
AcDbEntity
  8
1
 62
     7
100
AcDbLine
 10
1505.124775120904
 20
1331.593058803334
 30
0.0
 11
1505.124775120904
 21
1317.593058803334
 31
0.0
  0
LINE
  5
88
330
82
100
AcDbEntity
  8
1
 62
     7
100
AcDbLine
 10
1490.124775120904
 20
1340.593058803334
 30
0.0
 11
1490.124775120904
 21
1348.093058803334
 31
0.0
  0
LINE
  5
89
330
82
100
AcDbEntity
  8
1
 62
     7
100
AcDbLine
 10
1489.624775120904
 20
1340.593058803334
 30
0.0
 11
1489.624775120904
 21
1348.093058803334
 31
0.0
  0
LINE
  5
8A
330
82
100
AcDbEntity
  8
1
  6
DASHDOT
 62
     2
100
AcDbLine
 10
1611.374775120904
 20
1298.493058803334
 30
0.0
 11
1611.374775120904
 21
1373.593058803334
 31
0.0
  0
LINE
  5
8B
330
82
100
AcDbEntity
  8
1
  6
DASHDOT
 62
     2
100
AcDbLine
 10
1497.624775120904
 20
1373.593058803334
 30
0.0
 11
1497.624775120904
 21
1298.493058803334
 31
0.0
  0
LINE
  5
8C
330
82
100
AcDbEntity
  8
1
 62
     7
100
AcDbLine
 10
1615.374775120904
 20
1352.266490175152
 30
0.0
 11
1602.374775120904
 21
1352.266490175152
 31
0.0
  0
LINE
  5
8D
330
82
100
AcDbEntity
  8
1
 62
     7
100
AcDbLine
 10
1596.374775120904
 20
1314.593058803334
 30
0.0
 11
1596.374775120904
 21
1368.593058803334
 31
0.0
  0
LINE
  5
8E
330
82
100
AcDbEntity
  8
1
 62
     7
100
AcDbLine
 10
1596.374775120904
 20
1353.055802857015
 30
0.0
 11
1599.374775120904
 21
1353.055802857015
 31
0.0
  0
LINE
  5
8F
330
82
100
AcDbEntity
  8
1
 62
     7
100
AcDbLine
 10
1599.374775120904
 20
1353.055802857015
 30
0.0
 11
1599.374775120904
 21
1354.593058803334
 31
0.0
  0
LINE
  5
90
330
82
100
AcDbEntity
  8
1
 62
     7
100
AcDbLine
 10
1592.374775120904
 20
1368.093058803334
 30
0.0
 11
1592.374775120904
 21
1315.093058803334
 31
0.0
  0
LINE
  5
91
330
82
100
AcDbEntity
  8
1
 62
     7
100
AcDbLine
 10
1617.374775120904
 20
1314.593058803334
 30
0.0
 11
1617.374775120904
 21
1354.593058803334
 31
0.0
  0
LINE
  5
92
330
82
100
AcDbEntity
  8
1
 62
     7
100
AcDbLine
 10
1601.374775120904
 20
1353.266490175152
 30
0.0
 11
1601.374775120904
 21
1354.593058803334
 31
0.0
  0
LINE
  5
93
330
82
100
AcDbEntity
  8
1
 62
     7
100
AcDbLine
 10
1616.374775120904
 20
1353.266490175152
 30
0.0
 11
1616.374775120904
 21
1354.593058803334
 31
0.0
  0
LINE
  5
94
330
82
100
AcDbEntity
  8
1
 62
     7
100
AcDbLine
 10
1592.874775120904
 20
1314.593058803334
 30
0.0
 11
1618.374775120904
 21
1314.593058803334
 31
0.0
  0
LINE
  5
95
330
82
100
AcDbEntity
  8
1
 62
     7
100
AcDbLine
 10
1617.374775120904
 20
1354.593058803334
 30
0.0
 11
1618.374775120904
 21
1353.593058803334
 31
0.0
  0
LINE
  5
96
330
82
100
AcDbEntity
  8
1
 62
     7
100
AcDbLine
 10
1618.374775120904
 20
1353.593058803334
 30
0.0
 11
1618.374775120904
 21
1314.593058803334
 31
0.0
  0
LINE
  5
97
330
82
100
AcDbEntity
  8
1
 62
     7
100
AcDbLine
 10
1617.374775120904
 20
1354.593058803334
 30
0.0
 11
1616.374775120904
 21
1354.593058803334
 31
0.0
  0
LINE
  5
98
330
82
100
AcDbEntity
  8
1
 62
     7
100
AcDbLine
 10
1601.374775120904
 20
1354.593058803334
 30
0.0
 11
1599.374775120904
 21
1354.593058803334
 31
0.0
  0
LINE
  5
99
330
82
100
AcDbEntity
  8
1
 62
     7
100
AcDbLine
 10
1592.874775120904
 20
1368.593058803334
 30
0.0
 11
1592.874775120904
 21
1314.593058803334
 31
0.0
  0
LINE
  5
9A
330
82
100
AcDbEntity
  8
1
 62
     7
100
AcDbLine
 10
1592.374775120904
 20
1368.093058803334
 30
0.0
 11
1592.874775120904
 21
1368.593058803334
 31
0.0
  0
LINE
  5
9B
330
82
100
AcDbEntity
  8
1
 62
     7
100
AcDbLine
 10
1592.874775120904
 20
1314.593058803334
 30
0.0
 11
1592.374775120904
 21
1315.093058803334
 31
0.0
  0
LINE
  5
9C
330
82
100
AcDbEntity
  8
1
 62
     7
100
AcDbLine
 10
1596.374775120904
 20
1368.593058803334
 30
0.0
 11
1592.874775120904
 21
1368.593058803334
 31
0.0
  0
LINE
  5
9D
330
82
100
AcDbEntity
  8
1
 62
     3
100
AcDbLine
 10
1487.56536918031
 20
1361.336128110266
 30
0.0
 11
1487.56536918031
 21
1363.59256375383
 31
0.0
  0
LINE
  5
9E
330
82
100
AcDbEntity
  8
1
 62
     3
100
AcDbLine
 10
1486.756458289221
 20
1363.59256375383
 30
0.0
 11
1486.756458289221
 21
1361.336128110266
 31
0.0
  0
LINE
  5
9F
330
82
100
AcDbEntity
  8
1
 62
     3
100
AcDbLine
 10
1486.564874130804
 20
1363.698999397394
 30
0.0
 11
1486.650022645657
 21
1363.698999397394
 31
0.0
  0
LINE
  5
A0
330
82
100
AcDbEntity
  8
1
 62
     3
100
AcDbLine
 10
1486.522299873379
 20
1363.911870684523
 30
0.0
 11
1486.522299873379
 21
1363.741573654819
 31
0.0
  0
LINE
  5
A1
330
82
100
AcDbEntity
  8
1
 62
     3
100
AcDbLine
 10
1487.799527596151
 20
1363.911870684523
 30
0.0
 11
1486.522299873379
 21
1363.911870684523
 31
0.0
  0
LINE
  5
A2
330
82
100
AcDbEntity
  8
1
 62
     3
100
AcDbLine
 10
1487.799527596151
 20
1363.741573654819
 30
0.0
 11
1487.799527596151
 21
1363.911870684523
 31
0.0
  0
LINE
  5
A3
330
82
100
AcDbEntity
  8
1
 62
     3
100
AcDbLine
 10
1487.671804823875
 20
1363.698999397394
 30
0.0
 11
1487.756953338726
 21
1363.698999397394
 31
0.0
  0
LINE
  5
A4
330
82
100
AcDbEntity
  8
1
 62
     3
100
AcDbLine
 10
1486.607448388231
 20
1361.187118209276
 30
0.0
 11
1486.542915378964
 21
1361.187118209276
 31
0.0
  0
LINE
  5
A5
330
82
100
AcDbEntity
  8
1
 62
     3
100
AcDbLine
 10
1487.778912090566
 20
1361.187118209276
 30
0.0
 11
1487.7143790813
 21
1361.187118209276
 31
0.0
  0
LINE
  5
A6
330
82
100
AcDbEntity
  8
1
 62
     3
100
AcDbLine
 10
1486.181705813973
 20
1361.634147912246
 30
0.0
 11
1486.259287365157
 21
1361.393645103576
 31
0.0
  0
LINE
  5
A7
330
82
100
AcDbEntity
  8
1
 62
     3
100
AcDbLine
 10
1485.990121655558
 20
1360.974246922147
 30
0.0
 11
1485.969055806769
 21
1361.627288234594
 31
0.0
  0
LINE
  5
A8
330
82
100
AcDbEntity
  8
1
 62
     3
100
AcDbLine
 10
1488.140121655557
 20
1361.634147912246
 30
0.0
 11
1488.062540104374
 21
1361.393645103576
 31
0.0
  0
LINE
  5
A9
330
82
100
AcDbEntity
  8
1
 62
     3
100
AcDbLine
 10
1488.331705813972
 20
1360.974246922147
 30
0.0
 11
1488.352771662761
 21
1361.627288234594
 31
0.0
  0
LINE
  5
AA
330
82
100
AcDbEntity
  8
1
 62
     3
100
AcDbLine
 10
1490.153924302757
 20
1362.634642961751
 30
0.0
 11
1489.574833859844
 21
1362.634642961751
 31
0.0
  0
LINE
  5
AB
330
82
100
AcDbEntity
  8
1
 62
     3
100
AcDbLine
 10
1489.405027522892
 20
1362.907767747288
 30
0.0
 11
1489.196767415125
 21
1363.5889558661
 31
0.0
  0
LINE
  5
AC
330
82
100
AcDbEntity
  8
1
 62
     3
100
AcDbLine
 10
1490.258054356639
 20
1362.84751424888
 30
0.0
 11
1489.486455452608
 21
1362.84751424888
 31
0.0
  0
LINE
  5
AD
330
82
100
AcDbEntity
  8
1
 62
     3
100
AcDbLine
 10
1489.261591586904
 20
1360.974246922147
 30
0.0
 11
1489.955191750366
 21
1360.974246922147
 31
0.0
  0
LINE
  5
AE
330
82
100
AcDbEntity
  8
1
 62
     3
100
AcDbLine
 10
1488.203983041696
 20
1363.698999397394
 30
0.0
 11
1488.349792922607
 21
1363.698999397394
 31
0.0
  0
LINE
  5
AF
330
82
100
AcDbEntity
  8
1
 62
     3
100
AcDbLine
 10
1488.16140878427
 20
1363.911870684523
 30
0.0
 11
1488.16140878427
 21
1363.741573654819
 31
0.0
  0
LINE
  5
B0
330
82
100
AcDbEntity
  8
1
 62
     3
100
AcDbLine
 10
1489.438636507043
 20
1363.911870684523
 30
0.0
 11
1488.16140878427
 21
1363.911870684523
 31
0.0
  0
LINE
  5
B1
330
82
100
AcDbEntity
  8
1
 62
     3
100
AcDbLine
 10
1489.438636507043
 20
1363.741573654819
 30
0.0
 11
1489.438636507043
 21
1363.911870684523
 31
0.0
  0
LINE
  5
B2
330
82
100
AcDbEntity
  8
1
 62
     3
100
AcDbLine
 10
1489.278195344841
 20
1363.698999397394
 30
0.0
 11
1489.396062249616
 21
1363.698999397394
 31
0.0
  0
LINE
  5
B3
330
82
100
AcDbEntity
  8
1
 62
     3
100
AcDbLine
 10
1490.971309774368
 20
1363.698999397394
 30
0.0
 11
1490.866990414663
 21
1363.698999397394
 31
0.0
  0
LINE
  5
B4
330
82
100
AcDbEntity
  8
1
 62
     3
100
AcDbLine
 10
1490.540401668428
 20
1363.616466748923
 30
0.0
 11
1490.319125303925
 21
1362.892704372687
 31
0.0
  0
LINE
  5
B5
330
82
100
AcDbEntity
  8
1
 62
     3
100
AcDbLine
 10
1490.375270170408
 20
1363.698999397394
 30
0.0
 11
1490.479330721141
 21
1363.698999397394
 31
0.0
  0
LINE
  5
B6
330
82
100
AcDbEntity
  8
1
 62
     3
100
AcDbLine
 10
1490.332695912983
 20
1363.911870684523
 30
0.0
 11
1490.332695912983
 21
1363.741573654819
 31
0.0
  0
LINE
  5
B7
330
82
100
AcDbEntity
  8
1
 62
     3
100
AcDbLine
 10
1491.013884031794
 20
1363.741573654819
 30
0.0
 11
1491.013884031794
 21
1363.911870684523
 31
0.0
  0
LINE
  5
B8
330
82
100
AcDbEntity
  8
1
 62
     3
100
AcDbLine
 10
1491.013884031794
 20
1363.911870684523
 30
0.0
 11
1490.332695912983
 21
1363.911870684523
 31
0.0
  0
LINE
  5
B9
330
82
100
AcDbEntity
  8
1
 62
     3
100
AcDbLine
 10
1490.928735516944
 20
1364.593058803335
 30
0.0
 11
1479.220814724864
 21
1364.593058803335
 31
0.0
  0
LINE
  5
BA
330
82
100
AcDbEntity
  8
1
 62
     3
100
AcDbLine
 10
1491.524775120904
 20
1360.889098407294
 30
0.0
 11
1491.524775120904
 21
1363.997019199374
 31
0.0
  0
LINE
  5
BB
330
82
100
AcDbEntity
  8
1
 62
     3
100
AcDbLine
 10
1479.220814724864
 20
1360.293058803335
 30
0.0
 11
1490.928735516944
 21
1360.293058803335
 31
0.0
  0
LINE
  5
BC
330
82
100
AcDbEntity
  8
1
 62
     3
100
AcDbLine
 10
1478.624775120904
 20
1363.997019199374
 30
0.0
 11
1478.624775120904
 21
1360.889098407294
 31
0.0
  0
LINE
  5
BD
330
82
100
AcDbEntity
  8
1
 62
     3
100
AcDbLine
 10
1483.84181802223
 20
1361.494765600249
 30
0.0
 11
1485.256731690327
 21
1362.909679268345
 31
0.0
  0
LINE
  5
BE
330
82
100
AcDbEntity
  8
1
 62
     3
100
AcDbLine
 10
1484.775058952251
 20
1363.391352006421
 30
0.0
 11
1483.360145284153
 21
1361.976438338323
 31
0.0
  0
LINE
  5
BF
330
82
100
AcDbEntity
  8
1
 62
     3
100
AcDbLine
 10
1485.969055806769
 20
1361.627288234594
 30
0.0
 11
1485.968834526844
 21
1361.634147912246
 31
0.0
  0
LINE
  5
C0
330
82
100
AcDbEntity
  8
1
 62
     3
100
AcDbLine
 10
1488.352771662761
 20
1361.627288234594
 30
0.0
 11
1488.352992942686
 21
1361.634147912246
 31
0.0
  0
LINE
  5
C1
330
82
100
AcDbEntity
  8
1
 62
     3
100
AcDbLine
 10
1481.306953338726
 20
1360.974246922147
 30
0.0
 11
1482.541606804071
 21
1360.974246922147
 31
0.0
  0
LINE
  5
C2
330
82
100
AcDbEntity
  8
1
 62
     3
100
AcDbLine
 10
1482.541606804071
 20
1360.974246922147
 30
0.0
 11
1482.541606804071
 21
1361.144543951849
 31
0.0
  0
LINE
  5
C3
330
82
100
AcDbEntity
  8
1
 62
     3
100
AcDbLine
 10
1482.499032546647
 20
1361.187118209276
 30
0.0
 11
1482.392596903082
 21
1361.187118209276
 31
0.0
  0
LINE
  5
C4
330
82
100
AcDbEntity
  8
1
 62
     3
100
AcDbLine
 10
1482.328735516944
 20
1361.250979595414
 30
0.0
 11
1482.328735516944
 21
1363.635138011255
 31
0.0
  0
LINE
  5
C5
330
82
100
AcDbEntity
  8
1
 62
     3
100
AcDbLine
 10
1482.392596903082
 20
1363.698999397394
 30
0.0
 11
1482.499032546647
 21
1363.698999397394
 31
0.0
  0
LINE
  5
C6
330
82
100
AcDbEntity
  8
1
 62
     3
100
AcDbLine
 10
1482.541606804071
 20
1363.741573654819
 30
0.0
 11
1482.541606804071
 21
1363.911870684523
 31
0.0
  0
LINE
  5
C7
330
82
100
AcDbEntity
  8
1
 62
     3
100
AcDbLine
 10
1482.541606804071
 20
1363.911870684523
 30
0.0
 11
1481.945567200111
 21
1363.911870684523
 31
0.0
  0
LINE
  5
C8
330
82
100
AcDbEntity
  8
1
 62
     3
100
AcDbLine
 10
1481.945567200111
 20
1363.911870684523
 30
0.0
 11
1481.945567200111
 21
1363.741573654819
 31
0.0
  0
LINE
  5
C9
330
82
100
AcDbEntity
  8
1
 62
     3
100
AcDbLine
 10
1481.988141457538
 20
1363.698999397394
 30
0.0
 11
1482.052002843675
 21
1363.698999397394
 31
0.0
  0
LINE
  5
CA
330
82
100
AcDbEntity
  8
1
 62
     3
100
AcDbLine
 10
1482.115864229815
 20
1361.23682884943
 30
0.0
 11
1482.115864229815
 21
1363.635138011255
 31
0.0
  0
LINE
  5
CB
330
82
100
AcDbEntity
  8
1
 62
     3
100
AcDbLine
 10
1480.221309774368
 20
1363.59256375383
 30
0.0
 11
1480.221309774368
 21
1361.249013407457
 31
0.0
  0
LINE
  5
CC
330
82
100
AcDbEntity
  8
1
 62
     3
100
AcDbLine
 10
1481.064795789374
 20
1363.911870684523
 30
0.0
 11
1481.269113372327
 21
1363.911870684523
 31
0.0
  0
LINE
  5
CD
330
82
100
AcDbEntity
  8
1
 62
     3
100
AcDbLine
 10
1488.331705813972
 20
1360.974246922147
 30
0.0
 11
1485.990121655558
 21
1360.974246922147
 31
0.0
  0
LINE
  5
CE
330
82
100
AcDbEntity
  8
1
 62
     3
100
AcDbLine
 10
1480.498042447637
 20
1360.974246922147
 30
0.0
 11
1479.263388982289
 21
1360.974246922147
 31
0.0
  0
LINE
  5
CF
330
82
100
AcDbEntity
  8
1
 62
     3
100
AcDbLine
 10
1479.263388982289
 20
1360.974246922147
 30
0.0
 11
1479.263388982289
 21
1361.144543951849
 31
0.0
  0
LINE
  5
D0
330
82
100
AcDbEntity
  8
1
 62
     3
100
AcDbLine
 10
1479.305963239715
 20
1361.187118209276
 30
0.0
 11
1479.391111754567
 21
1361.187118209276
 31
0.0
  0
LINE
  5
D1
330
82
100
AcDbEntity
  8
1
 62
     3
100
AcDbLine
 10
1479.497547398132
 20
1361.293553852839
 30
0.0
 11
1479.497547398132
 21
1363.59256375383
 31
0.0
  0
LINE
  5
D2
330
82
100
AcDbEntity
  8
1
 62
     3
100
AcDbLine
 10
1479.391111754567
 20
1363.698999397394
 30
0.0
 11
1479.305963239715
 21
1363.698999397394
 31
0.0
  0
LINE
  5
D3
330
82
100
AcDbEntity
  8
1
 62
     3
100
AcDbLine
 10
1479.263388982289
 20
1363.741573654819
 30
0.0
 11
1479.263388982289
 21
1363.911870684523
 31
0.0
  0
LINE
  5
D4
330
82
100
AcDbEntity
  8
1
 62
     3
100
AcDbLine
 10
1479.263388982289
 20
1363.911870684523
 30
0.0
 11
1480.455468190211
 21
1363.911870684523
 31
0.0
  0
LINE
  5
D5
330
82
100
AcDbEntity
  8
1
 62
     3
100
AcDbLine
 10
1480.455468190211
 20
1363.911870684523
 30
0.0
 11
1480.455468190211
 21
1363.741573654819
 31
0.0
  0
LINE
  5
D6
330
82
100
AcDbEntity
  8
1
 62
     3
100
AcDbLine
 10
1480.412893932785
 20
1363.698999397394
 30
0.0
 11
1480.327745417933
 21
1363.698999397394
 31
0.0
  0
LINE
  5
D7
330
82
100
AcDbEntity
  8
1
 62
     3
100
AcDbLine
 10
1489.513762912556
 20
1362.55211031328
 30
0.0
 11
1489.803308134013
 21
1361.60505056751
 31
0.0
  0
LINE
  5
D8
330
82
100
AcDbEntity
  8
1
 62
     3
100
AcDbLine
 10
1488.451577834751
 20
1363.623682524381
 30
0.0
 11
1489.261591586904
 21
1360.974246922147
 31
0.0
  0
LINE
  5
D9
330
82
100
AcDbEntity
  8
1
 62
     3
100
AcDbLine
 10
1489.925450028587
 20
1361.60505056751
 30
0.0
 11
1490.214995250043
 21
1362.55211031328
 31
0.0
  0
LINE
  5
DA
330
82
100
AcDbEntity
  8
1
 62
     3
100
AcDbLine
 10
1490.765205502519
 20
1363.623682524381
 30
0.0
 11
1489.955191750366
 21
1360.974246922147
 31
0.0
  0
LINE
  5
DB
330
82
100
AcDbEntity
  8
1
 62
     3
100
AcDbLine
 10
1480.964183255354
 20
1362.2534822886
 30
0.0
 11
1481.306953338726
 21
1360.974246922147
 31
0.0
  0
LINE
  5
DC
330
82
100
AcDbEntity
  8
1
 62
     3
100
AcDbLine
 10
1481.269113372327
 20
1363.911870684523
 30
0.0
 11
1481.990317481502
 21
1361.22030030645
 31
0.0
  0
LINE
  5
DD
330
82
100
AcDbEntity
  8
1
 62
     3
100
AcDbLine
 10
1480.498042447637
 20
1360.974246922147
 30
0.0
 11
1480.840812531008
 21
1362.2534822886
 31
0.0
  0
LINE
  5
DE
330
82
100
AcDbEntity
  8
1
 62
     3
100
AcDbLine
 10
1480.346856522682
 20
1361.232484864477
 30
0.0
 11
1481.064795789374
 21
1363.911870684523
 31
0.0
  0
LINE
  5
DF
330
82
100
AcDbEntity
  8
1
 62
     3
100
AcDbLine
 10
1503.624775120904
 20
1354.093058803334
 30
0.0
 11
1501.624775120904
 21
1350.093058803334
 31
0.0
  0
LINE
  5
E0
330
82
100
AcDbEntity
  8
1
 62
     3
100
AcDbLine
 10
1499.624775120904
 20
1354.093058803334
 30
0.0
 11
1503.624775120904
 21
1354.093058803334
 31
0.0
  0
LINE
  5
E1
330
82
100
AcDbEntity
  8
1
 62
     3
100
AcDbLine
 10
1501.624775120904
 20
1350.093058803334
 30
0.0
 11
1499.624775120904
 21
1354.093058803334
 31
0.0
  0
LINE
  5
E2
330
82
100
AcDbEntity
  8
1
 62
     7
100
AcDbLine
 10
1487.624775120904
 20
1349.093058803334
 30
0.0
 11
1487.874775120904
 21
1349.093058803334
 31
0.0
  0
LINE
  5
E3
330
82
100
AcDbEntity
  8
1
 62
     7
100
AcDbLine
 10
1507.374775120904
 20
1349.093058803334
 30
0.0
 11
1507.624775120904
 21
1349.093058803334
 31
0.0
  0
LINE
  5
E4
330
82
100
AcDbEntity
  8
1
  6
DASHDOT
 62
     2
100
AcDbLine
 10
1492.624775120904
 20
1362.593058803334
 30
0.0
 11
1502.624775120904
 21
1362.593058803334
 31
0.0
  0
LINE
  5
E5
330
82
100
AcDbEntity
  8
1
  6
DASHDOT
 62
     2
100
AcDbLine
 10
1508.624775120904
 20
1325.593058803334
 30
0.0
 11
1518.624775120904
 21
1325.593058803334
 31
0.0
  0
LINE
  5
E6
330
82
100
AcDbEntity
  8
1
  6
DASHDOT
 62
     2
100
AcDbLine
 10
1513.624775120904
 20
1320.593058803334
 30
0.0
 11
1513.624775120904
 21
1330.593058803334
 31
0.0
  0
LINE
  5
E7
330
82
100
AcDbEntity
  8
1
  6
DASHDOT
 62
     2
100
AcDbLine
 10
1476.624775120904
 20
1325.593058803334
 30
0.0
 11
1486.624775120904
 21
1325.593058803334
 31
0.0
  0
LINE
  5
E8
330
82
100
AcDbEntity
  8
1
  6
DASHDOT
 62
     2
100
AcDbLine
 10
1481.624775120904
 20
1320.593058803334
 30
0.0
 11
1481.624775120904
 21
1330.593058803334
 31
0.0
  0
LINE
  5
E9
330
82
100
AcDbEntity
  8
1
 62
     7
100
AcDbLine
 10
1507.624775120904
 20
1348.593058803334
 30
0.0
 11
1507.124775120904
 21
1348.593058803334
 31
0.0
  0
LINE
  5
EA
330
82
100
AcDbEntity
  8
1
 62
     7
100
AcDbLine
 10
1508.124775120904
 20
1338.093058803334
 30
0.0
 11
1508.124775120904
 21
1348.093058803334
 31
0.0
  0
LINE
  5
EB
330
82
100
AcDbEntity
  8
1
 62
     7
100
AcDbLine
 10
1488.624775120904
 20
1355.593058803334
 30
0.0
 11
1506.624775120904
 21
1355.593058803334
 31
0.0
  0
LINE
  5
EC
330
82
100
AcDbEntity
  8
1
 62
     7
100
AcDbLine
 10
1487.624775120904
 20
1348.593058803334
 30
0.0
 11
1488.124775120904
 21
1348.593058803334
 31
0.0
  0
LINE
  5
ED
330
82
100
AcDbEntity
  8
1
 62
     7
100
AcDbLine
 10
1490.624775120904
 20
1349.093058803334
 30
0.0
 11
1504.624775120904
 21
1349.093058803334
 31
0.0
  0
LINE
  5
EE
330
82
100
AcDbEntity
  8
1
 62
     7
100
AcDbLine
 10
1489.624775120904
 20
1317.593058803334
 30
0.0
 11
1489.624775120904
 21
1331.593058803334
 31
0.0
  0
LINE
  5
EF
330
82
100
AcDbEntity
  8
1
 62
     7
100
AcDbLine
 10
1505.624775120904
 20
1348.093058803334
 30
0.0
 11
1505.624775120904
 21
1340.593058803334
 31
0.0
  0
LINE
  5
F0
330
82
100
AcDbEntity
  8
1
 62
     7
100
AcDbLine
 10
1488.124775120904
 20
1349.343058803334
 30
0.0
 11
1488.124775120904
 21
1357.093058803334
 31
0.0
  0
LINE
  5
F1
330
82
100
AcDbEntity
  8
1
 62
     7
100
AcDbLine
 10
1507.124775120904
 20
1357.093058803334
 30
0.0
 11
1507.124775120904
 21
1349.343058803334
 31
0.0
  0
LINE
  5
F2
330
82
100
AcDbEntity
  8
1
 62
     7
100
AcDbLine
 10
1519.624775120904
 20
1362.593058803334
 30
0.0
 11
1519.624775120904
 21
1315.593058803334
 31
0.0
  0
LINE
  5
F3
330
82
100
AcDbEntity
  8
1
 62
     7
100
AcDbLine
 10
1481.624775120904
 20
1368.593058803334
 30
0.0
 11
1513.624775120904
 21
1368.593058803334
 31
0.0
  0
LINE
  5
F4
330
82
100
AcDbEntity
  8
1
 62
     7
100
AcDbLine
 10
1475.624775120904
 20
1315.593058803334
 30
0.0
 11
1475.624775120904
 21
1362.593058803334
 31
0.0
  0
LINE
  5
F5
330
82
100
AcDbEntity
  8
1
 62
     7
100
AcDbLine
 10
1505.124775120904
 20
1348.093058803334
 30
0.0
 11
1505.124775120904
 21
1340.593058803334
 31
0.0
  0
LINE
  5
F6
330
82
100
AcDbEntity
  8
1
 62
     7
100
AcDbLine
 10
1490.124775120904
 20
1317.593058803334
 30
0.0
 11
1490.124775120904
 21
1331.593058803334
 31
0.0
  0
LINE
  5
F7
330
82
100
AcDbEntity
  8
1
 62
     7
100
AcDbLine
 10
1490.624775120904
 20
1348.593058803334
 30
0.0
 11
1504.624775120904
 21
1348.593058803334
 31
0.0
  0
LINE
  5
F8
330
82
100
AcDbEntity
  8
1
 62
     7
100
AcDbLine
 10
1502.124775120904
 20
1317.093058803334
 30
0.0
 11
1502.124775120904
 21
1315.093058803334
 31
0.0
  0
LINE
  5
F9
330
82
100
AcDbEntity
  8
1
 62
     7
100
AcDbLine
 10
1493.124775120904
 20
1317.093058803334
 30
0.0
 11
1493.124775120904
 21
1315.093058803334
 31
0.0
  0
LINE
  5
FA
330
82
100
AcDbEntity
  8
1
 62
     7
100
AcDbLine
 10
1518.624775120904
 20
1314.593058803334
 30
0.0
 11
1501.724775120904
 21
1314.593058803334
 31
0.0
  0
LINE
  5
FB
330
82
100
AcDbEntity
  8
1
 62
     7
100
AcDbLine
 10
1518.624775120904
 20
1315.093058803334
 30
0.0
 11
1502.874775120904
 21
1315.093058803334
 31
0.0
  0
LINE
  5
FC
330
82
100
AcDbEntity
  8
1
 62
     7
100
AcDbLine
 10
1502.624775120904
 20
1316.843058803334
 30
0.0
 11
1502.624775120904
 21
1315.343058803334
 31
0.0
  0
LINE
  5
FD
330
82
100
AcDbEntity
  8
1
 62
     7
100
AcDbLine
 10
1492.624775120904
 20
1315.343058803334
 30
0.0
 11
1492.624775120904
 21
1316.843058803334
 31
0.0
  0
LINE
  5
FE
330
82
100
AcDbEntity
  8
1
 62
     7
100
AcDbLine
 10
1476.624775120904
 20
1315.093058803334
 30
0.0
 11
1492.374775120904
 21
1315.093058803334
 31
0.0
  0
LINE
  5
FF
330
82
100
AcDbEntity
  8
1
 62
     7
100
AcDbLine
 10
1476.124775120904
 20
1362.593058803334
 30
0.0
 11
1476.124775120904
 21
1315.593058803334
 31
0.0
  0
LINE
  5
100
330
82
100
AcDbEntity
  8
1
 62
     7
100
AcDbLine
 10
1513.624775120904
 20
1368.093058803334
 30
0.0
 11
1481.624775120904
 21
1368.093058803334
 31
0.0
  0
LINE
  5
101
330
82
100
AcDbEntity
  8
1
 62
     7
100
AcDbLine
 10
1519.124775120904
 20
1315.593058803334
 30
0.0
 11
1519.124775120904
 21
1362.593058803334
 31
0.0
  0
LINE
  5
102
330
82
100
AcDbEntity
  8
1
 62
     7
100
AcDbLine
 10
1507.624775120904
 20
1317.093058803334
 30
0.0
 11
1502.874775120904
 21
1317.093058803334
 31
0.0
  0
LINE
  5
103
330
82
100
AcDbEntity
  8
1
 62
     7
100
AcDbLine
 10
1487.624775120904
 20
1317.093058803334
 30
0.0
 11
1492.374775120904
 21
1317.093058803334
 31
0.0
  0
LINE
  5
104
330
82
100
AcDbEntity
  8
1
 62
     7
100
AcDbLine
 10
1511.124775120904
 20
1337.093058803334
 30
0.0
 11
1511.124775120904
 21
1334.093058803334
 31
0.0
  0
LINE
  5
105
330
82
100
AcDbEntity
  8
1
 62
     7
100
AcDbLine
 10
1508.874775120904
 20
1333.093058803334
 30
0.0
 11
1510.124775120904
 21
1333.093058803334
 31
0.0
  0
LINE
  5
106
330
82
100
AcDbEntity
  8
1
 62
     7
100
AcDbLine
 10
1508.624775120904
 20
1318.093058803334
 30
0.0
 11
1508.624775120904
 21
1332.843058803334
 31
0.0
  0
LINE
  5
107
330
82
100
AcDbEntity
  8
1
 62
     7
100
AcDbLine
 10
1510.124775120904
 20
1338.093058803334
 30
0.0
 11
1508.874775120904
 21
1338.093058803334
 31
0.0
  0
LINE
  5
108
330
82
100
AcDbEntity
  8
1
 62
     7
100
AcDbLine
 10
1508.624775120904
 20
1348.093058803334
 30
0.0
 11
1508.624775120904
 21
1338.343058803334
 31
0.0
  0
LINE
  5
109
330
82
100
AcDbEntity
  8
1
 62
     7
100
AcDbLine
 10
1508.124775120904
 20
1333.093058803334
 30
0.0
 11
1508.124775120904
 21
1318.093058803334
 31
0.0
  0
LINE
  5
10A
330
82
100
AcDbEntity
  8
1
 62
     7
100
AcDbLine
 10
1510.124775120904
 20
1333.593058803334
 30
0.0
 11
1508.624775120904
 21
1333.593058803334
 31
0.0
  0
LINE
  5
10B
330
82
100
AcDbEntity
  8
1
 62
     7
100
AcDbLine
 10
1510.624775120904
 20
1337.093058803334
 30
0.0
 11
1510.624775120904
 21
1334.093058803334
 31
0.0
  0
LINE
  5
10C
330
82
100
AcDbEntity
  8
1
 62
     7
100
AcDbLine
 10
1508.624775120904
 20
1337.593058803334
 30
0.0
 11
1510.124775120904
 21
1337.593058803334
 31
0.0
  0
LINE
  5
10D
330
82
100
AcDbEntity
  8
1
 62
     7
100
AcDbLine
 10
1484.124775120904
 20
1334.093058803334
 30
0.0
 11
1484.124775120904
 21
1337.093058803334
 31
0.0
  0
LINE
  5
10E
330
82
100
AcDbEntity
  8
1
 62
     7
100
AcDbLine
 10
1484.624775120904
 20
1334.093058803334
 30
0.0
 11
1484.624775120904
 21
1337.093058803334
 31
0.0
  0
LINE
  5
10F
330
82
100
AcDbEntity
  8
1
 62
     7
100
AcDbLine
 10
1486.624775120904
 20
1333.593058803334
 30
0.0
 11
1485.124775120904
 21
1333.593058803334
 31
0.0
  0
LINE
  5
110
330
82
100
AcDbEntity
  8
1
 62
     7
100
AcDbLine
 10
1485.124775120904
 20
1337.593058803334
 30
0.0
 11
1486.624775120904
 21
1337.593058803334
 31
0.0
  0
LINE
  5
111
330
82
100
AcDbEntity
  8
1
 62
     7
100
AcDbLine
 10
1486.374775120904
 20
1338.093058803334
 30
0.0
 11
1485.124775120904
 21
1338.093058803334
 31
0.0
  0
LINE
  5
112
330
82
100
AcDbEntity
  8
1
 62
     7
100
AcDbLine
 10
1485.124775120904
 20
1333.093058803334
 30
0.0
 11
1486.374775120904
 21
1333.093058803334
 31
0.0
  0
LINE
  5
113
330
82
100
AcDbEntity
  8
1
 62
     7
100
AcDbLine
 10
1486.624775120904
 20
1332.843058803334
 30
0.0
 11
1486.624775120904
 21
1318.093058803334
 31
0.0
  0
LINE
  5
114
330
82
100
AcDbEntity
  8
1
 62
     7
100
AcDbLine
 10
1486.624775120904
 20
1338.343058803334
 30
0.0
 11
1486.624775120904
 21
1348.093058803334
 31
0.0
  0
LINE
  5
115
330
82
100
AcDbEntity
  8
1
 62
     7
100
AcDbLine
 10
1487.124775120904
 20
1338.093058803334
 30
0.0
 11
1487.124775120904
 21
1348.093058803334
 31
0.0
  0
LINE
  5
116
330
82
100
AcDbEntity
  8
1
 62
     7
100
AcDbLine
 10
1487.124775120904
 20
1318.093058803334
 30
0.0
 11
1487.124775120904
 21
1333.093058803334
 31
0.0
  0
LINE
  5
117
330
82
100
AcDbEntity
  8
1
 62
     7
100
AcDbLine
 10
1507.624775120904
 20
1317.593058803334
 30
0.0
 11
1502.624775120904
 21
1317.593058803334
 31
0.0
  0
LINE
  5
118
330
82
100
AcDbEntity
  8
1
 62
     7
100
AcDbLine
 10
1488.624775120904
 20
1357.593058803334
 30
0.0
 11
1488.624775120904
 21
1349.093058803334
 31
0.0
  0
LINE
  5
119
330
82
100
AcDbEntity
  8
1
 62
     7
100
AcDbLine
 10
1506.624775120904
 20
1357.593058803334
 30
0.0
 11
1488.624775120904
 21
1357.593058803334
 31
0.0
  0
LINE
  5
11A
330
82
100
AcDbEntity
  8
1
 62
     7
100
AcDbLine
 10
1506.624775120904
 20
1349.093058803334
 30
0.0
 11
1506.624775120904
 21
1357.593058803334
 31
0.0
  0
LINE
  5
11B
330
82
100
AcDbEntity
  8
1
  6
DASHDOT
 62
     2
100
AcDbLine
 10
1590.374775120904
 20
1325.593058803334
 30
0.0
 11
1598.374775120904
 21
1325.593058803334
 31
0.0
  0
LINE
  5
11C
330
82
100
AcDbEntity
  8
1
  6
DASHDOT
 62
     2
100
AcDbLine
 10
1598.374775120904
 20
1362.593058803334
 30
0.0
 11
1590.374775120904
 21
1362.593058803334
 31
0.0
  0
LINE
  5
11D
330
82
100
AcDbEntity
  8
1
 62
     7
100
AcDbLine
 10
1722.124775120904
 20
1314.593058803334
 30
0.0
 11
1680.124775120904
 21
1314.593058803334
 31
0.0
  0
LINE
  5
11E
330
82
100
AcDbEntity
  8
1
 62
     7
100
AcDbLine
 10
1693.224775120904
 20
1314.593058803334
 30
0.0
 11
1693.224775120904
 21
1345.693058803334
 31
0.0
  0
LINE
  5
11F
330
82
100
AcDbEntity
  8
1
 62
     7
100
AcDbLine
 10
1709.024775120904
 20
1314.593058803334
 30
0.0
 11
1709.024775120904
 21
1345.693058803334
 31
0.0
  0
LINE
  5
120
330
82
100
AcDbEntity
  8
1
 62
     7
100
AcDbLine
 10
1692.224775120904
 20
1314.593058803334
 30
0.0
 11
1692.224775120904
 21
1345.693058803334
 31
0.0
  0
LINE
  5
121
330
82
100
AcDbEntity
  8
1
 62
     7
100
AcDbLine
 10
1710.024775120904
 20
1314.593058803334
 30
0.0
 11
1710.024775120904
 21
1345.693058803334
 31
0.0
  0
LINE
  5
122
330
82
100
AcDbEntity
  8
1
  6
DASHDOT
 62
     2
100
AcDbLine
 10
1717.124775120904
 20
1329.593058803334
 30
0.0
 11
1717.124775120904
 21
1321.593058803334
 31
0.0
  0
LINE
  5
123
330
82
100
AcDbEntity
  8
1
 62
     7
100
AcDbLine
 10
1679.124775120904
 20
1315.593058803334
 30
0.0
 11
1679.124775120904
 21
1362.593058803334
 31
0.0
  0
LINE
  5
124
330
82
100
AcDbEntity
  8
1
 62
     7
100
AcDbLine
 10
1685.124775120904
 20
1368.593058803334
 30
0.0
 11
1717.124775120904
 21
1368.593058803334
 31
0.0
  0
LINE
  5
125
330
82
100
AcDbEntity
  8
1
 62
     7
100
AcDbLine
 10
1723.124775120904
 20
1362.593058803334
 30
0.0
 11
1723.124775120904
 21
1315.593058803334
 31
0.0
  0
LINE
  5
126
330
82
100
AcDbEntity
  8
1
  6
DASHDOT
 62
     2
100
AcDbLine
 10
1701.124775120904
 20
1298.493058803334
 30
0.0
 11
1701.124775120904
 21
1373.593058803334
 31
0.0
  0
LINE
  5
127
330
82
100
AcDbEntity
  8
1
 62
   133
100
AcDbLine
 10
1714.124775120904
 20
1316.593058803334
 30
0.0
 11
1720.124775120904
 21
1316.593058803334
 31
0.0
  0
LINE
  5
128
330
82
100
AcDbEntity
  8
1
 62
   133
100
AcDbLine
 10
1713.124775120904
 20
1317.593058803334
 30
0.0
 11
1713.124775120904
 21
1320.396906380627
 31
0.0
  0
LINE
  5
129
330
82
100
AcDbEntity
  8
1
 62
   133
100
AcDbLine
 10
1721.124775120904
 20
1320.396906380627
 30
0.0
 11
1721.124775120904
 21
1317.593058803334
 31
0.0
  0
LINE
  5
12A
330
82
100
AcDbEntity
  8
1
 62
   133
100
AcDbLine
 10
1715.124775120903
 20
1331.593058803334
 30
0.0
 11
1714.124775120904
 21
1331.593058803334
 31
0.0
  0
LINE
  5
12B
330
82
100
AcDbEntity
  8
1
 62
   133
100
AcDbLine
 10
1715.124775120903
 20
1339.593058803334
 30
0.0
 11
1714.124775120904
 21
1339.593058803334
 31
0.0
  0
LINE
  5
12C
330
82
100
AcDbEntity
  8
1
 62
   133
100
AcDbLine
 10
1710.124775120904
 20
1358.593058803334
 30
0.0
 11
1706.320927543611
 21
1358.593058803334
 31
0.0
  0
LINE
  5
12D
330
82
100
AcDbEntity
  8
1
 62
   133
100
AcDbLine
 10
1711.124775120904
 20
1352.326308384045
 30
0.0
 11
1711.124775120904
 21
1357.593058803334
 31
0.0
  0
LINE
  5
12E
330
82
100
AcDbEntity
  8
1
 62
   133
100
AcDbLine
 10
1713.124775120904
 20
1340.593058803334
 30
0.0
 11
1713.124775120904
 21
1345.693058803334
 31
0.0
  0
LINE
  5
12F
330
82
100
AcDbEntity
  8
1
 62
   133
100
AcDbLine
 10
1717.124775120904
 20
1366.593058803334
 30
0.0
 11
1706.320927543611
 21
1366.593058803334
 31
0.0
  0
LINE
  5
130
330
82
100
AcDbEntity
  8
1
 62
   133
100
AcDbLine
 10
1721.124775120904
 20
1330.789211226041
 30
0.0
 11
1721.124775120904
 21
1362.593058803334
 31
0.0
  0
LINE
  5
131
330
82
100
AcDbEntity
  8
1
 62
   133
100
AcDbLine
 10
1716.124775120904
 20
1338.593058803334
 30
0.0
 11
1716.124775120904
 21
1332.593058803334
 31
0.0
  0
LINE
  5
132
330
82
100
AcDbEntity
  8
1
  6
DASHDOT
 62
     2
100
AcDbLine
 10
1721.124775120904
 20
1325.593058803334
 30
0.0
 11
1713.124775120904
 21
1325.593058803334
 31
0.0
  0
LINE
  5
133
330
82
100
AcDbEntity
  8
1
  6
DASHDOT
 62
     2
100
AcDbLine
 10
1705.124775120904
 20
1362.593058803334
 30
0.0
 11
1697.124775120904
 21
1362.593058803334
 31
0.0
  0
LINE
  5
134
330
82
100
AcDbEntity
  8
1
 62
   133
100
AcDbLine
 10
1682.124775120904
 20
1316.593058803334
 30
0.0
 11
1688.124775120904
 21
1316.593058803334
 31
0.0
  0
LINE
  5
135
330
82
100
AcDbEntity
  8
1
 62
   133
100
AcDbLine
 10
1689.124775120904
 20
1320.396906380627
 30
0.0
 11
1689.124775120904
 21
1317.593058803334
 31
0.0
  0
LINE
  5
136
330
82
100
AcDbEntity
  8
1
 62
   133
100
AcDbLine
 10
1681.124775120904
 20
1317.593058803334
 30
0.0
 11
1681.124775120904
 21
1320.396906380627
 31
0.0
  0
LINE
  5
137
330
82
100
AcDbEntity
  8
1
 62
   133
100
AcDbLine
 10
1688.124775120904
 20
1331.593058803334
 30
0.0
 11
1687.124775120904
 21
1331.593058803334
 31
0.0
  0
LINE
  5
138
330
82
100
AcDbEntity
  8
1
 62
   133
100
AcDbLine
 10
1688.124775120904
 20
1339.593058803334
 30
0.0
 11
1687.124775120904
 21
1339.593058803334
 31
0.0
  0
LINE
  5
139
330
82
100
AcDbEntity
  8
1
 62
   133
100
AcDbLine
 10
1689.124775120904
 20
1345.693058803334
 30
0.0
 11
1689.124775120904
 21
1340.593058803334
 31
0.0
  0
LINE
  5
13A
330
82
100
AcDbEntity
  8
1
 62
   133
100
AcDbLine
 10
1686.124775120904
 20
1332.593058803334
 30
0.0
 11
1686.124775120904
 21
1338.593058803334
 31
0.0
  0
LINE
  5
13B
330
82
100
AcDbEntity
  8
1
 62
   133
100
AcDbLine
 10
1681.124775120904
 20
1362.593058803334
 30
0.0
 11
1681.124775120904
 21
1330.789211226041
 31
0.0
  0
LINE
  5
13C
330
82
100
AcDbEntity
  8
1
 62
   133
100
AcDbLine
 10
1695.928622698198
 20
1366.593058803334
 30
0.0
 11
1685.124775120904
 21
1366.593058803334
 31
0.0
  0
LINE
  5
13D
330
82
100
AcDbEntity
  8
1
 62
   133
100
AcDbLine
 10
1695.928622698198
 20
1358.593058803334
 30
0.0
 11
1692.124775120904
 21
1358.593058803334
 31
0.0
  0
LINE
  5
13E
330
82
100
AcDbEntity
  8
1
 62
   133
100
AcDbLine
 10
1691.124775120904
 20
1357.593058803334
 30
0.0
 11
1691.124775120904
 21
1352.326308384045
 31
0.0
  0
LINE
  5
13F
330
82
100
AcDbEntity
  8
1
  6
DASHDOT
 62
     2
100
AcDbLine
 10
1689.124775120905
 20
1325.593058803334
 30
0.0
 11
1681.124775120905
 21
1325.593058803334
 31
0.0
  0
LINE
  5
140
330
82
100
AcDbEntity
  8
1
  6
DASHDOT
 62
     2
100
AcDbLine
 10
1685.124775120904
 20
1321.593058803334
 30
0.0
 11
1685.124775120904
 21
1329.593058803334
 31
0.0
  0
ARC
  5
141
330
82
100
AcDbEntity
  8
1
 62
     3
100
AcDbCircle
 10
1488.246557299121
 20
1361.634147912246
 30
0.0
 40
0.1064356435642486
100
AcDbArc
 50
356.3047794679589
 51
180.0
  0
ARC
  5
142
330
82
100
AcDbEntity
  8
1
 62
     3
100
AcDbCircle
 10
1486.075270170409
 20
1361.634147912246
 30
0.0
 40
0.1064356435638274
100
AcDbArc
 50
0.0
 51
183.6952205320332
  0
ARC
  5
143
330
82
100
AcDbEntity
  8
1
 62
     3
100
AcDbCircle
 10
1483.600981653192
 20
1361.735601969286
 30
0.0
 40
0.3405940594062213
100
AcDbArc
 50
135.0000000002434
 51
315.0000000000811
  0
ARC
  5
144
330
82
100
AcDbEntity
  8
1
 62
     3
100
AcDbCircle
 10
1485.015895321288
 20
1363.150515637382
 30
0.0
 40
0.3405940594060605
100
AcDbArc
 50
315.0000000002163
 51
134.9999999997836
  0
CIRCLE
  5
145
330
82
100
AcDbEntity
  8
1
 62
     7
100
AcDbCircle
 10
1497.624775120904
 20
1362.593058803334
 30
0.0
 40
2.0
  0
CIRCLE
  5
146
330
82
100
AcDbEntity
  8
1
 62
     7
100
AcDbCircle
 10
1497.624775120904
 20
1362.593058803334
 30
0.0
 40
4.0
  0
CIRCLE
  5
147
330
82
100
AcDbEntity
  8
1
 62
     7
100
AcDbCircle
 10
1513.624775120904
 20
1325.593058803334
 30
0.0
 40
2.0
  0
CIRCLE
  5
148
330
82
100
AcDbEntity
  8
1
 62
     7
100
AcDbCircle
 10
1513.624775120904
 20
1325.593058803334
 30
0.0
 40
4.0
  0
CIRCLE
  5
149
330
82
100
AcDbEntity
  8
1
 62
     7
100
AcDbCircle
 10
1481.624775120904
 20
1325.593058803334
 30
0.0
 40
2.0
  0
CIRCLE
  5
14A
330
82
100
AcDbEntity
  8
1
 62
     7
100
AcDbCircle
 10
1481.624775120904
 20
1325.593058803334
 30
0.0
 40
4.0
  0
ARC
  5
14B
330
82
100
AcDbEntity
  8
1
 62
     7
100
AcDbCircle
 10
1507.124775120904
 20
1349.093058803334
 30
0.0
 40
0.5
100
AcDbArc
 50
180.0
 51
270.0
  0
ARC
  5
14C
330
82
100
AcDbEntity
  8
1
 62
     7
100
AcDbCircle
 10
1701.124775120904
 20
1345.693058803334
 30
0.0
 40
7.90000000000009
100
AcDbArc
 50
0.0
 51
180.0
  0
ARC
  5
14D
330
82
100
AcDbEntity
  8
1
 62
     7
100
AcDbCircle
 10
1701.124775120904
 20
1345.693058803334
 30
0.0
 40
8.90000000000009
100
AcDbArc
 50
0.0
 51
90.0
  0
CIRCLE
  5
14E
330
82
100
AcDbEntity
  8
1
 62
     7
100
AcDbCircle
 10
1701.124775120904
 20
1362.593058803334
 30
0.0
 40
2.0
  0
CIRCLE
  5
14F
330
82
100
AcDbEntity
  8
1
 62
     7
100
AcDbCircle
 10
1685.124775120904
 20
1325.593058803334
 30
0.0
 40
2.0
  0
CIRCLE
  5
150
330
82
100
AcDbEntity
  8
1
 62
     7
100
AcDbCircle
 10
1717.124775120904
 20
1325.593058803334
 30
0.0
 40
2.0
  0
ARC
  5
151
330
82
100
AcDbEntity
  8
1
 62
   133
100
AcDbCircle
 10
1717.124775120904
 20
1325.593058803334
 30
0.0
 40
4.99999999999982
100
AcDbArc
 50
239.9999999999988
 51
300.0000000000012
  0
ARC
  5
152
330
82
100
AcDbEntity
  8
1
 62
   133
100
AcDbCircle
 10
1717.124775120904
 20
1325.593058803334
 30
0.0
 40
4.99999999999982
100
AcDbArc
 50
59.99999999999881
 51
121.8907918021256
  0
ARC
  5
153
330
82
100
AcDbEntity
  8
1
 62
   133
100
AcDbCircle
 10
1701.124775120904
 20
1362.593058803334
 30
0.0
 40
5.000000000000804
100
AcDbArc
 50
330.0000000000053
 51
29.99999999999468
  0
ARC
  5
154
330
82
100
AcDbEntity
  8
1
 62
   133
100
AcDbCircle
 10
1701.124775120904
 20
1345.693058803334
 30
0.0
 40
12.0
100
AcDbArc
 50
0.0
 51
33.55730976192144
  0
ARC
  5
155
330
82
100
AcDbEntity
  8
1
 62
   133
100
AcDbCircle
 10
1717.124775120904
 20
1362.593058803334
 30
0.0
 40
4.0
100
AcDbArc
 50
0.0
 51
90.0
  0
ARC
  5
156
330
82
100
AcDbEntity
  8
1
 62
   133
100
AcDbCircle
 10
1714.013664009758
 20
1330.593058803334
 30
0.0
 40
0.8888888884339394
100
AcDbArc
 50
180.0
 51
301.890791802174
  0
ARC
  5
157
330
82
100
AcDbEntity
  8
1
 62
   133
100
AcDbCircle
 10
1685.124775120904
 20
1325.593058803334
 30
0.0
 40
4.99999999999982
100
AcDbArc
 50
239.9999999999988
 51
300.0000000000012
  0
ARC
  5
158
330
82
100
AcDbEntity
  8
1
 62
   133
100
AcDbCircle
 10
1685.124775120904
 20
1325.593058803334
 30
0.0
 40
5.000000000000497
100
AcDbArc
 50
58.10920819786336
 51
120.0000000000012
  0
ARC
  5
159
330
82
100
AcDbEntity
  8
1
 62
   133
100
AcDbCircle
 10
1688.235886232051
 20
1330.593058803334
 30
0.0
 40
0.8888888889073569
100
AcDbArc
 50
238.109208197826
 51
0.0
  0
ARC
  5
15A
330
82
100
AcDbEntity
  8
1
 62
   133
100
AcDbCircle
 10
1685.124775120904
 20
1362.593058803334
 30
0.0
 40
4.0
100
AcDbArc
 50
90.0
 51
180.0
  0
ARC
  5
15B
330
82
100
AcDbEntity
  8
1
 62
   133
100
AcDbCircle
 10
1701.124775120904
 20
1362.593058803334
 30
0.0
 40
4.99999999999982
100
AcDbArc
 50
149.9999999999988
 51
210.0000000000012
  0
ARC
  5
15C
330
82
100
AcDbEntity
  8
1
 62
   133
100
AcDbCircle
 10
1701.124775120904
 20
1345.693058803334
 30
0.0
 40
12.0000000000001
100
AcDbArc
 50
146.4426902380786
 51
180.0
  0
ARC
  5
15D
330
82
100
AcDbEntity
  8
1
 62
     7
100
AcDbCircle
 10
1701.124775120904
 20
1345.693058803334
 30
0.0
 40
8.90000000000009
100
AcDbArc
 50
90.0
 51
180.0
  0
CIRCLE
  5
15E
330
82
100
AcDbEntity
  8
1
 62
     3
100
AcDbCircle
 10
1484.308438487241
 20
1362.443058803335
 30
0.0
 40
1.5539603960392
  0
ARC
  5
15F
330
82
100
AcDbEntity
  8
1
 62
     7
100
AcDbCircle
 10
1602.374775120904
 20
1353.266490175152
 30
0.0
 40
1.0
100
AcDbArc
 50
180.0
 51
270.0
  0
ARC
  5
160
330
82
100
AcDbEntity
  8
1
 62
     7
100
AcDbCircle
 10
1615.374775120904
 20
1353.266490175152
 30
0.0
 40
1.0
100
AcDbArc
 50
270.0
 51
0.0
  0
ARC
  5
161
330
82
100
AcDbEntity
  8
1
 62
     3
100
AcDbCircle
 10
1486.564874130804
 20
1363.741573654819
 30
0.0
 40
0.0425742574248034
100
AcDbArc
 50
180.0
 51
270.0
  0
ARC
  5
162
330
82
100
AcDbEntity
  8
1
 62
     3
100
AcDbCircle
 10
1487.756953338726
 20
1363.741573654819
 30
0.0
 40
0.0425742574250307
100
AcDbArc
 50
270.0
 51
0.0
  0
ARC
  5
163
330
82
100
AcDbEntity
  8
1
 62
     3
100
AcDbCircle
 10
1486.650022645657
 20
1363.59256375383
 30
0.0
 40
0.1064356435640548
100
AcDbArc
 50
0.0
 51
90.0
  0
ARC
  5
164
330
82
100
AcDbEntity
  8
1
 62
     3
100
AcDbCircle
 10
1487.671804823875
 20
1363.59256375383
 30
0.0
 40
0.1064356435638274
100
AcDbArc
 50
90.0
 51
180.0
  0
ARC
  5
165
330
82
100
AcDbEntity
  8
1
 62
     3
100
AcDbCircle
 10
1486.607448388231
 20
1361.336128110266
 30
0.0
 40
0.149009900989995
100
AcDbArc
 50
270.0
 51
0.0
  0
ARC
  5
166
330
82
100
AcDbEntity
  8
1
 62
     3
100
AcDbCircle
 10
1487.7143790813
 20
1361.336128110266
 30
0.0
 40
0.149009900989995
100
AcDbArc
 50
180.0
 51
270.0
  0
ARC
  5
167
330
82
100
AcDbEntity
  8
1
 62
     3
100
AcDbCircle
 10
1486.542915378964
 20
1361.485138011256
 30
0.0
 40
0.2980198019793014
100
AcDbArc
 50
197.8786965958709
 51
270.0
  0
ARC
  5
168
330
82
100
AcDbEntity
  8
1
 62
     3
100
AcDbCircle
 10
1487.778912090566
 20
1361.485138011256
 30
0.0
 40
0.29801980197999
100
AcDbArc
 50
270.0
 51
342.1213034041829
  0
ARC
  5
169
330
82
100
AcDbEntity
  8
1
 62
     3
100
AcDbCircle
 10
1489.396062249616
 20
1363.741573654819
 30
0.0
 40
0.0425742574250307
100
AcDbArc
 50
270.0
 51
0.0
  0
ARC
  5
16A
330
82
100
AcDbEntity
  8
1
 62
     3
100
AcDbCircle
 10
1490.375270170408
 20
1363.741573654819
 30
0.0
 40
0.0425742574250307
100
AcDbArc
 50
180.0
 51
270.0
  0
ARC
  5
16B
330
82
100
AcDbEntity
  8
1
 62
     3
100
AcDbCircle
 10
1488.203983041696
 20
1363.741573654819
 30
0.0
 40
0.0425742574259402
100
AcDbArc
 50
180.0
 51
270.0
  0
ARC
  5
16C
330
82
100
AcDbEntity
  8
1
 62
     3
100
AcDbCircle
 10
1490.971309774368
 20
1363.741573654819
 30
0.0
 40
0.0425742574250307
100
AcDbArc
 50
270.0
 51
0.0
  0
ARC
  5
16D
330
82
100
AcDbEntity
  8
1
 62
     3
100
AcDbCircle
 10
1488.349792922607
 20
1363.59256375383
 30
0.0
 40
0.1064356435634255
100
AcDbArc
 50
16.99999999940728
 51
90.0
  0
ARC
  5
16E
330
82
100
AcDbEntity
  8
1
 62
     3
100
AcDbCircle
 10
1490.866990414663
 20
1363.59256375383
 30
0.0
 40
0.1064356435638274
100
AcDbArc
 50
90.0
 51
163.0000000005926
  0
ARC
  5
16F
330
82
100
AcDbEntity
  8
1
 62
     3
100
AcDbCircle
 10
1489.486455452608
 20
1362.93266276373
 30
0.0
 40
0.0851485148518689
100
AcDbArc
 50
197.000000000007
 51
270.0
  0
ARC
  5
170
330
82
100
AcDbEntity
  8
1
 62
     3
100
AcDbCircle
 10
1489.278195344841
 20
1363.613850882543
 30
0.0
 40
0.085148514850971
100
AcDbArc
 50
90.0
 51
197.0000000007387
  0
ARC
  5
171
330
82
100
AcDbEntity
  8
1
 62
     3
100
AcDbCircle
 10
1490.258054356639
 20
1362.911375635017
 30
0.0
 40
0.0638613861369777
100
AcDbArc
 50
270.0
 51
343.0000000007975
  0
ARC
  5
172
330
82
100
AcDbEntity
  8
1
 62
     3
100
AcDbCircle
 10
1490.479330721141
 20
1363.635138011255
 30
0.0
 40
0.0638613861392431
100
AcDbArc
 50
342.99999999934
 51
90.0
  0
ARC
  5
173
330
82
100
AcDbEntity
  8
1
 62
     3
100
AcDbCircle
 10
1489.574833859844
 20
1362.570781575611
 30
0.0
 40
0.0638613861401609
100
AcDbArc
 50
90.0
 51
196.9999999993106
  0
ARC
  5
174
330
82
100
AcDbEntity
  8
1
 62
     3
100
AcDbCircle
 10
1490.153924302757
 20
1362.570781575611
 30
0.0
 40
0.063861386137757
100
AcDbArc
 50
343.0000000002123
 51
90.0
  0
ARC
  5
175
330
82
100
AcDbEntity
  8
1
 62
     3
100
AcDbCircle
 10
1489.864379081299
 20
1361.623721829843
 30
0.0
 40
0.0638613861383553
100
AcDbArc
 50
197.0000000015435
 51
342.9999999989933
  0
ARC
  5
176
330
82
100
AcDbEntity
  8
1
 62
     3
100
AcDbCircle
 10
1479.220814724864
 20
1363.997019199374
 30
0.0
 40
0.5960396039608895
100
AcDbArc
 50
90.0
 51
180.0
  0
ARC
  5
177
330
82
100
AcDbEntity
  8
1
 62
     3
100
AcDbCircle
 10
1479.220814724864
 20
1360.889098407294
 30
0.0
 40
0.5960396039602074
100
AcDbArc
 50
180.0
 51
270.0
  0
ARC
  5
178
330
82
100
AcDbEntity
  8
1
 62
     3
100
AcDbCircle
 10
1490.928735516944
 20
1360.889098407294
 30
0.0
 40
0.5960396039588432
100
AcDbArc
 50
270.0
 51
0.0
  0
ARC
  5
179
330
82
100
AcDbEntity
  8
1
 62
     3
100
AcDbCircle
 10
1490.928735516944
 20
1363.997019199374
 30
0.0
 40
0.5960396039599801
100
AcDbArc
 50
0.0
 51
90.0
  0
ARC
  5
17A
330
82
100
AcDbEntity
  8
1
 62
     3
100
AcDbCircle
 10
1480.285171160507
 20
1361.249013407457
 30
0.0
 40
0.063861386139024
100
AcDbArc
 50
180.0
 51
344.999999999829
  0
ARC
  5
17B
330
82
100
AcDbEntity
  8
1
 62
     3
100
AcDbCircle
 10
1482.052002843675
 20
1361.23682884943
 30
0.0
 40
0.0638613861378339
100
AcDbArc
 50
195.0000000006462
 51
0.0
  0
ARC
  5
17C
330
82
100
AcDbEntity
  8
1
 62
     3
100
AcDbCircle
 10
1482.392596903082
 20
1361.250979595414
 30
0.0
 40
0.0638613861378872
100
AcDbArc
 50
180.0
 51
270.0
  0
ARC
  5
17D
330
82
100
AcDbEntity
  8
1
 62
     3
100
AcDbCircle
 10
1482.392596903081
 20
1363.635138011255
 30
0.0
 40
0.0638613861387967
100
AcDbArc
 50
90.0
 51
180.0
  0
ARC
  5
17E
330
82
100
AcDbEntity
  8
1
 62
     3
100
AcDbCircle
 10
1482.052002843675
 20
1363.635138011255
 30
0.0
 40
0.0638613861401609
100
AcDbArc
 50
0.0
 51
90.0
  0
ARC
  5
17F
330
82
100
AcDbEntity
  8
1
 62
     3
100
AcDbCircle
 10
1480.327745417933
 20
1363.59256375383
 30
0.0
 40
0.1064356435638274
100
AcDbArc
 50
90.0
 51
180.0
  0
ARC
  5
180
330
82
100
AcDbEntity
  8
1
 62
     3
100
AcDbCircle
 10
1482.499032546647
 20
1363.74157365482
 30
0.0
 40
0.0425742574261676
100
AcDbArc
 50
270.0
 51
0.0
  0
ARC
  5
181
330
82
100
AcDbEntity
  8
1
 62
     3
100
AcDbCircle
 10
1481.988141457538
 20
1363.741573654819
 30
0.0
 40
0.0425742574268497
100
AcDbArc
 50
180.0
 51
270.0
  0
ARC
  5
182
330
82
100
AcDbEntity
  8
1
 62
     3
100
AcDbCircle
 10
1482.499032546647
 20
1361.14454395185
 30
0.0
 40
0.0425742574241212
100
AcDbArc
 50
0.0
 51
90.0
  0
ARC
  5
183
330
82
100
AcDbEntity
  8
1
 62
     3
100
AcDbCircle
 10
1480.902497893181
 20
1362.236953745621
 30
0.0
 40
0.063861386137877
100
AcDbArc
 50
15.00000000000224
 51
164.999999999945
  0
ARC
  5
184
330
82
100
AcDbEntity
  8
1
 62
     3
100
AcDbCircle
 10
1479.391111754567
 20
1363.59256375383
 30
0.0
 40
0.1064356435649643
100
AcDbArc
 50
0.0
 51
90.0
  0
ARC
  5
185
330
82
100
AcDbEntity
  8
1
 62
     3
100
AcDbCircle
 10
1479.305963239715
 20
1363.741573654819
 30
0.0
 40
0.0425742574261676
100
AcDbArc
 50
180.0
 51
270.0
  0
ARC
  5
186
330
82
100
AcDbEntity
  8
1
 62
     3
100
AcDbCircle
 10
1479.391111754567
 20
1361.29355385284
 30
0.0
 40
0.1064356435640548
100
AcDbArc
 50
270.0
 51
0.0
  0
ARC
  5
187
330
82
100
AcDbEntity
  8
1
 62
     3
100
AcDbCircle
 10
1479.305963239715
 20
1361.144543951849
 30
0.0
 40
0.0425742574268497
100
AcDbArc
 50
90.0
 51
180.0
  0
ARC
  5
188
330
82
100
AcDbEntity
  8
1
 62
     3
100
AcDbCircle
 10
1480.412893932785
 20
1363.741573654819
 30
0.0
 40
0.0425742574250307
100
AcDbArc
 50
270.0
 51
0.0
  0
ARC
  5
189
330
82
100
AcDbEntity
  8
1
 62
     7
100
AcDbCircle
 10
1487.874775120904
 20
1349.343058803334
 30
0.0
 40
0.25
100
AcDbArc
 50
270.0
 51
0.0
  0
ARC
  5
18A
330
82
100
AcDbEntity
  8
1
 62
     7
100
AcDbCircle
 10
1487.624775120904
 20
1348.093058803334
 30
0.0
 40
1.0
100
AcDbArc
 50
90.0
 51
180.0
  0
ARC
  5
18B
330
82
100
AcDbEntity
  8
1
 62
     7
100
AcDbCircle
 10
1507.374775120904
 20
1349.343058803334
 30
0.0
 40
0.25
100
AcDbArc
 50
180.0
 51
270.0
  0
ARC
  5
18C
330
82
100
AcDbEntity
  8
1
 62
     7
100
AcDbCircle
 10
1507.624775120904
 20
1348.093058803334
 30
0.0
 40
0.5
100
AcDbArc
 50
0.0
 51
90.0
  0
ARC
  5
18D
330
82
100
AcDbEntity
  8
1
 62
     7
100
AcDbCircle
 10
1488.624775120904
 20
1357.093058803334
 30
0.0
 40
0.5
100
AcDbArc
 50
90.0
 51
180.0
  0
ARC
  5
18E
330
82
100
AcDbEntity
  8
1
 62
     7
100
AcDbCircle
 10
1506.624775120904
 20
1357.093058803334
 30
0.0
 40
0.5
100
AcDbArc
 50
0.0
 51
90.0
  0
ARC
  5
18F
330
82
100
AcDbEntity
  8
1
 62
     7
100
AcDbCircle
 10
1488.124775120904
 20
1349.093058803334
 30
0.0
 40
0.5
100
AcDbArc
 50
270.0
 51
0.0
  0
ARC
  5
190
330
82
100
AcDbEntity
  8
1
 62
     7
100
AcDbCircle
 10
1490.624775120904
 20
1348.093058803334
 30
0.0
 40
0.5
100
AcDbArc
 50
90.0
 51
180.0
  0
ARC
  5
191
330
82
100
AcDbEntity
  8
1
 62
     7
100
AcDbCircle
 10
1490.624775120904
 20
1348.093058803334
 30
0.0
 40
1.0
100
AcDbArc
 50
90.0
 51
180.0
  0
ARC
  5
192
330
82
100
AcDbEntity
  8
1
 62
     7
100
AcDbCircle
 10
1504.624775120904
 20
1348.093058803334
 30
0.0
 40
0.5
100
AcDbArc
 50
0.0
 51
90.0
  0
ARC
  5
193
330
82
100
AcDbEntity
  8
1
 62
     7
100
AcDbCircle
 10
1504.624775120904
 20
1348.093058803334
 30
0.0
 40
1.0
100
AcDbArc
 50
0.0
 51
90.0
  0
ARC
  5
194
330
82
100
AcDbEntity
  8
1
 62
     7
100
AcDbCircle
 10
1481.624775120904
 20
1362.593058803334
 30
0.0
 40
6.0
100
AcDbArc
 50
90.0
 51
180.0
  0
ARC
  5
195
330
82
100
AcDbEntity
  8
1
 62
     7
100
AcDbCircle
 10
1513.624775120904
 20
1362.593058803334
 30
0.0
 40
6.0
100
AcDbArc
 50
0.0
 51
90.0
  0
ARC
  5
196
330
82
100
AcDbEntity
  8
1
 62
     7
100
AcDbCircle
 10
1513.624775120904
 20
1362.593058803334
 30
0.0
 40
6.0
100
AcDbArc
 50
0.0
 51
90.0
  0
ARC
  5
197
330
82
100
AcDbEntity
  8
1
 62
     7
100
AcDbCircle
 10
1481.624775120904
 20
1362.593058803334
 30
0.0
 40
5.5
100
AcDbArc
 50
90.0
 51
180.0
  0
ARC
  5
198
330
82
100
AcDbEntity
  8
1
 62
     7
100
AcDbCircle
 10
1513.624775120904
 20
1362.593058803334
 30
0.0
 40
5.5
100
AcDbArc
 50
0.0
 51
90.0
  0
ARC
  5
199
330
82
100
AcDbEntity
  8
1
 62
     7
100
AcDbCircle
 10
1487.624775120904
 20
1318.093058803334
 30
0.0
 40
0.5
100
AcDbArc
 50
180.0
 51
270.0
  0
ARC
  5
19A
330
82
100
AcDbEntity
  8
1
 62
     7
100
AcDbCircle
 10
1507.624775120904
 20
1318.093058803334
 30
0.0
 40
0.5
100
AcDbArc
 50
270.0
 51
0.0
  0
ARC
  5
19B
330
82
100
AcDbEntity
  8
1
 62
     7
100
AcDbCircle
 10
1487.624775120904
 20
1348.093058803334
 30
0.0
 40
0.5
100
AcDbArc
 50
90.0
 51
180.0
  0
ARC
  5
19C
330
82
100
AcDbEntity
  8
1
 62
     7
100
AcDbCircle
 10
1485.124775120904
 20
1334.093058803334
 30
0.0
 40
0.5
100
AcDbArc
 50
180.0
 51
270.0
  0
ARC
  5
19D
330
82
100
AcDbEntity
  8
1
 62
     7
100
AcDbCircle
 10
1485.124775120904
 20
1337.093058803334
 30
0.0
 40
0.5
100
AcDbArc
 50
90.0
 51
180.0
  0
ARC
  5
19E
330
82
100
AcDbEntity
  8
1
 62
     7
100
AcDbCircle
 10
1510.124775120904
 20
1337.093058803334
 30
0.0
 40
0.5
100
AcDbArc
 50
0.0
 51
90.0
  0
ARC
  5
19F
330
82
100
AcDbEntity
  8
1
 62
     7
100
AcDbCircle
 10
1510.124775120904
 20
1334.093058803334
 30
0.0
 40
0.5
100
AcDbArc
 50
270.0
 51
0.0
  0
ARC
  5
1A0
330
82
100
AcDbEntity
  8
1
 62
     7
100
AcDbCircle
 10
1476.624775120904
 20
1315.593058803334
 30
0.0
 40
1.0
100
AcDbArc
 50
180.0
 51
270.0
  0
ARC
  5
1A1
330
82
100
AcDbEntity
  8
1
 62
     7
100
AcDbCircle
 10
1476.624775120904
 20
1315.593058803334
 30
0.0
 40
0.5
100
AcDbArc
 50
180.0
 51
270.0
  0
ARC
  5
1A2
330
82
100
AcDbEntity
  8
1
 62
     7
100
AcDbCircle
 10
1518.624775120904
 20
1315.593058803334
 30
0.0
 40
1.0
100
AcDbArc
 50
270.0
 51
0.0
  0
ARC
  5
1A3
330
82
100
AcDbEntity
  8
1
 62
     7
100
AcDbCircle
 10
1507.624775120904
 20
1318.093058803334
 30
0.0
 40
1.0
100
AcDbArc
 50
270.0
 51
0.0
  0
ARC
  5
1A4
330
82
100
AcDbEntity
  8
1
 62
     7
100
AcDbCircle
 10
1518.624775120904
 20
1315.593058803334
 30
0.0
 40
0.5
100
AcDbArc
 50
270.0
 51
0.0
  0
ARC
  5
1A5
330
82
100
AcDbEntity
  8
1
 62
     7
100
AcDbCircle
 10
1502.874775120904
 20
1315.343058803334
 30
0.0
 40
0.25
100
AcDbArc
 50
180.0
 51
270.0
  0
ARC
  5
1A6
330
82
100
AcDbEntity
  8
1
 62
     7
100
AcDbCircle
 10
1502.624775120904
 20
1315.093058803334
 30
0.0
 40
0.5
100
AcDbArc
 50
180.0
 51
270.0
  0
ARC
  5
1A7
330
82
100
AcDbEntity
  8
1
 62
     7
100
AcDbCircle
 10
1502.624775120904
 20
1317.093058803334
 30
0.0
 40
0.5
100
AcDbArc
 50
90.0
 51
180.0
  0
ARC
  5
1A8
330
82
100
AcDbEntity
  8
1
 62
     7
100
AcDbCircle
 10
1492.374775120904
 20
1316.843058803334
 30
0.0
 40
0.25
100
AcDbArc
 50
0.0
 51
90.0
  0
ARC
  5
1A9
330
82
100
AcDbEntity
  8
1
 62
     7
100
AcDbCircle
 10
1492.374775120904
 20
1315.343058803334
 30
0.0
 40
0.25
100
AcDbArc
 50
270.0
 51
0.0
  0
ARC
  5
1AA
330
82
100
AcDbEntity
  8
1
 62
     7
100
AcDbCircle
 10
1492.624775120904
 20
1315.093058803334
 30
0.0
 40
0.5
100
AcDbArc
 50
270.0
 51
0.0
  0
ARC
  5
1AB
330
82
100
AcDbEntity
  8
1
 62
     7
100
AcDbCircle
 10
1492.624775120904
 20
1317.093058803334
 30
0.0
 40
0.5
100
AcDbArc
 50
0.0
 51
90.0
  0
ARC
  5
1AC
330
82
100
AcDbEntity
  8
1
 62
     7
100
AcDbCircle
 10
1487.624775120904
 20
1318.093058803334
 30
0.0
 40
1.0
100
AcDbArc
 50
180.0
 51
270.0
  0
ARC
  5
1AD
330
82
100
AcDbEntity
  8
1
 62
     7
100
AcDbCircle
 10
1502.874775120904
 20
1316.843058803334
 30
0.0
 40
0.25
100
AcDbArc
 50
90.0
 51
180.0
  0
ARC
  5
1AE
330
82
100
AcDbEntity
  8
1
 62
     7
100
AcDbCircle
 10
1486.624775120904
 20
1333.093058803334
 30
0.0
 40
0.5
100
AcDbArc
 50
0.0
 51
90.0
  0
ARC
  5
1AF
330
82
100
AcDbEntity
  8
1
 62
     7
100
AcDbCircle
 10
1486.374775120904
 20
1332.843058803334
 30
0.0
 40
0.25
100
AcDbArc
 50
0.0
 51
90.0
  0
ARC
  5
1B0
330
82
100
AcDbEntity
  8
1
 62
     7
100
AcDbCircle
 10
1486.624775120904
 20
1338.093058803334
 30
0.0
 40
0.5
100
AcDbArc
 50
270.0
 51
0.0
  0
ARC
  5
1B1
330
82
100
AcDbEntity
  8
1
 62
     7
100
AcDbCircle
 10
1486.374775120904
 20
1338.343058803334
 30
0.0
 40
0.25
100
AcDbArc
 50
270.0
 51
0.0
  0
ARC
  5
1B2
330
82
100
AcDbEntity
  8
1
 62
     7
100
AcDbCircle
 10
1485.124775120904
 20
1337.093058803334
 30
0.0
 40
1.0
100
AcDbArc
 50
90.0
 51
180.0
  0
ARC
  5
1B3
330
82
100
AcDbEntity
  8
1
 62
     7
100
AcDbCircle
 10
1485.124775120904
 20
1334.093058803334
 30
0.0
 40
1.0
100
AcDbArc
 50
180.0
 51
270.0
  0
ARC
  5
1B4
330
82
100
AcDbEntity
  8
1
 62
     7
100
AcDbCircle
 10
1508.624775120904
 20
1338.093058803334
 30
0.0
 40
0.5
100
AcDbArc
 50
180.0
 51
270.0
  0
ARC
  5
1B5
330
82
100
AcDbEntity
  8
1
 62
     7
100
AcDbCircle
 10
1510.124775120904
 20
1334.093058803334
 30
0.0
 40
1.0
100
AcDbArc
 50
270.0
 51
0.0
  0
ARC
  5
1B6
330
82
100
AcDbEntity
  8
1
 62
     7
100
AcDbCircle
 10
1510.124775120904
 20
1337.093058803334
 30
0.0
 40
1.0
100
AcDbArc
 50
0.0
 51
90.0
  0
ARC
  5
1B7
330
82
100
AcDbEntity
  8
1
 62
     7
100
AcDbCircle
 10
1508.624775120904
 20
1333.093058803334
 30
0.0
 40
0.5
100
AcDbArc
 50
90.0
 51
180.0
  0
ARC
  5
1B8
330
82
100
AcDbEntity
  8
1
 62
     7
100
AcDbCircle
 10
1508.874775120904
 20
1332.843058803334
 30
0.0
 40
0.25
100
AcDbArc
 50
90.0
 51
180.0
  0
ARC
  5
1B9
330
82
100
AcDbEntity
  8
1
 62
     7
100
AcDbCircle
 10
1508.874775120904
 20
1338.343058803334
 30
0.0
 40
0.25
100
AcDbArc
 50
180.0
 51
270.0
  0
ARC
  5
1BA
330
82
100
AcDbEntity
  8
1
 62
     7
100
AcDbCircle
 10
1507.624775120904
 20
1348.093058803334
 30
0.0
 40
1.0
100
AcDbArc
 50
0.0
 51
90.0
  0
ARC
  5
1BB
330
82
100
AcDbEntity
  8
1
 62
     7
100
AcDbCircle
 10
1717.124775120904
 20
1362.593058803334
 30
0.0
 40
6.0
100
AcDbArc
 50
0.0
 51
90.0
  0
ARC
  5
1BC
330
82
100
AcDbEntity
  8
1
 62
     7
100
AcDbCircle
 10
1685.124775120904
 20
1362.593058803334
 30
0.0
 40
6.0
100
AcDbArc
 50
90.0
 51
180.0
  0
ARC
  5
1BD
330
82
100
AcDbEntity
  8
1
 62
     7
100
AcDbCircle
 10
1685.124775120904
 20
1362.593058803334
 30
0.0
 40
6.0
100
AcDbArc
 50
90.0
 51
180.0
  0
ARC
  5
1BE
330
82
100
AcDbEntity
  8
1
 62
     7
100
AcDbCircle
 10
1722.124775120904
 20
1315.593058803334
 30
0.0
 40
1.0
100
AcDbArc
 50
270.0
 51
0.0
  0
ARC
  5
1BF
330
82
100
AcDbEntity
  8
1
 62
     7
100
AcDbCircle
 10
1680.124775120904
 20
1315.593058803334
 30
0.0
 40
1.0
100
AcDbArc
 50
180.0
 51
270.0
  0
ARC
  5
1C0
330
82
100
AcDbEntity
  8
1
 62
   133
100
AcDbCircle
 10
1706.320927543611
 20
1359.593058803334
 30
0.0
 40
0.9999999999996884
100
AcDbArc
 50
149.9999999999897
 51
270.0
  0
ARC
  5
1C1
330
82
100
AcDbEntity
  8
1
 62
   133
100
AcDbCircle
 10
1706.320927543611
 20
1365.593058803334
 30
0.0
 40
1.0
100
AcDbArc
 50
90.0
 51
210.0000000000103
  0
ARC
  5
1C2
330
82
100
AcDbEntity
  8
1
 62
   133
100
AcDbCircle
 10
1710.124775120904
 20
1357.593058803334
 30
0.0
 40
1.0
100
AcDbArc
 50
0.0
 51
90.0
  0
ARC
  5
1C3
330
82
100
AcDbEntity
  8
1
 62
   133
100
AcDbCircle
 10
1714.124775120904
 20
1340.593058803334
 30
0.0
 40
1.0
100
AcDbArc
 50
180.0
 51
270.0
  0
ARC
  5
1C4
330
82
100
AcDbEntity
  8
1
 62
   133
100
AcDbCircle
 10
1715.124775120903
 20
1338.593058803334
 30
0.0
 40
1.0
100
AcDbArc
 50
0.0
 51
90.0
  0
ARC
  5
1C5
330
82
100
AcDbEntity
  8
1
 62
   133
100
AcDbCircle
 10
1715.124775120903
 20
1332.593058803334
 30
0.0
 40
1.0
100
AcDbArc
 50
270.0
 51
0.0
  0
ARC
  5
1C6
330
82
100
AcDbEntity
  8
1
 62
   133
100
AcDbCircle
 10
1720.124775120904
 20
1330.789211226041
 30
0.0
 40
1.000000000000475
100
AcDbArc
 50
240.0000000000158
 51
0.0
  0
ARC
  5
1C7
330
82
100
AcDbEntity
  8
1
 62
   133
100
AcDbCircle
 10
1714.124775120904
 20
1330.593058803334
 30
0.0
 40
1.0
100
AcDbArc
 50
90.0
 51
180.0
  0
ARC
  5
1C8
330
82
100
AcDbEntity
  8
1
 62
   133
100
AcDbCircle
 10
1714.124775120904
 20
1320.396906380627
 30
0.0
 40
1.000000000000673
100
AcDbArc
 50
60.00000000002226
 51
180.0
  0
ARC
  5
1C9
330
82
100
AcDbEntity
  8
1
 62
   133
100
AcDbCircle
 10
1720.124775120904
 20
1320.396906380627
 30
0.0
 40
1.0
100
AcDbArc
 50
0.0
 51
119.9999999999778
  0
ARC
  5
1CA
330
82
100
AcDbEntity
  8
1
 62
   133
100
AcDbCircle
 10
1720.124775120904
 20
1317.593058803334
 30
0.0
 40
1.0
100
AcDbArc
 50
270.0
 51
0.0
  0
ARC
  5
1CB
330
82
100
AcDbEntity
  8
1
 62
   133
100
AcDbCircle
 10
1714.124775120904
 20
1317.593058803334
 30
0.0
 40
1.0
100
AcDbArc
 50
180.0
 51
270.0
  0
ARC
  5
1CC
330
82
100
AcDbEntity
  8
1
 62
   133
100
AcDbCircle
 10
1688.124775120904
 20
1320.396906380627
 30
0.0
 40
1.0
100
AcDbArc
 50
0.0
 51
119.9999999999778
  0
ARC
  5
1CD
330
82
100
AcDbEntity
  8
1
 62
   133
100
AcDbCircle
 10
1682.124775120904
 20
1320.396906380627
 30
0.0
 40
1.000000000000673
100
AcDbArc
 50
60.00000000002226
 51
180.0
  0
ARC
  5
1CE
330
82
100
AcDbEntity
  8
1
 62
   133
100
AcDbCircle
 10
1682.124775120904
 20
1317.593058803334
 30
0.0
 40
1.0
100
AcDbArc
 50
180.0
 51
270.0
  0
ARC
  5
1CF
330
82
100
AcDbEntity
  8
1
 62
   133
100
AcDbCircle
 10
1688.124775120904
 20
1317.593058803334
 30
0.0
 40
1.0
100
AcDbArc
 50
270.0
 51
0.0
  0
ARC
  5
1D0
330
82
100
AcDbEntity
  8
1
 62
   133
100
AcDbCircle
 10
1687.124775120904
 20
1332.593058803334
 30
0.0
 40
1.0
100
AcDbArc
 50
180.0
 51
270.0
  0
ARC
  5
1D1
330
82
100
AcDbEntity
  8
1
 62
   133
100
AcDbCircle
 10
1682.124775120904
 20
1330.789211226041
 30
0.0
 40
1.0
100
AcDbArc
 50
180.0
 51
299.9999999999843
  0
ARC
  5
1D2
330
82
100
AcDbEntity
  8
1
 62
   133
100
AcDbCircle
 10
1688.124775120904
 20
1330.593058803334
 30
0.0
 40
1.0
100
AcDbArc
 50
0.0
 51
90.0
  0
ARC
  5
1D3
330
82
100
AcDbEntity
  8
1
 62
   133
100
AcDbCircle
 10
1688.124775120904
 20
1340.593058803334
 30
0.0
 40
1.0
100
AcDbArc
 50
270.0
 51
0.0
  0
ARC
  5
1D4
330
82
100
AcDbEntity
  8
1
 62
   133
100
AcDbCircle
 10
1687.124775120904
 20
1338.593058803334
 30
0.0
 40
1.0
100
AcDbArc
 50
90.0
 51
180.0
  0
ARC
  5
1D5
330
82
100
AcDbEntity
  8
1
 62
   133
100
AcDbCircle
 10
1695.928622698198
 20
1359.593058803334
 30
0.0
 40
1.0
100
AcDbArc
 50
270.0
 51
30.00000000001683
  0
ARC
  5
1D6
330
82
100
AcDbEntity
  8
1
 62
   133
100
AcDbCircle
 10
1695.928622698198
 20
1365.593058803334
 30
0.0
 40
0.9999999999994912
100
AcDbArc
 50
329.9999999999832
 51
90.0
  0
ARC
  5
1D7
330
82
100
AcDbEntity
  8
1
 62
   133
100
AcDbCircle
 10
1692.124775120904
 20
1357.593058803334
 30
0.0
 40
1.0
100
AcDbArc
 50
90.0
 51
180.0
  0
TEXT
  5
1D8
330
82
100
AcDbEntity
  8
1
 62
     3
100
AcDbText
 10
1494.592275120904
 20
1354.243058803335
 30
0.0
 40
4.299999999999999
  1
す
 50
180.0
 41
0.9
 72
     1
 11
1493.624775120904
 21
1352.093058803335
 31
0.0
100
AcDbText
 73
     2
  0
TEXT
  5
1D9
330
82
100
AcDbEntity
  8
1
 62
     3
100
AcDbText
 10
1498.524775120904
 20
1354.093058803335
 30
0.0
 40
4.0
  1
外
 50
180.0
 41
0.9
 72
     1
 11
1497.624775120904
 21
1352.093058803335
 31
0.0
100
AcDbText
 73
     2
  0
ENDBLK
  5
1DA
330
82
100
AcDbEntity
  8
0
100
AcDbBlockEnd
  0
BLOCK
  5
1DC
330
1DB
100
AcDbEntity
  8
0
100
AcDbBlockBegin
  2
_5
 70
     0
 10
1485.69351791817
 20
1480.876315754877
 30
0.0
  3
_5
  1

  0
LINE
  5
1DD
330
1DB
100
AcDbEntity
  8
1
 62
     7
100
AcDbLine
 10
1592.374775120904
 20
1348.093058803334
 30
0.0
 11
1590.374775120904
 21
1348.093058803334
 31
0.0
  0
LINE
  5
1DE
330
1DB
100
AcDbEntity
  8
1
 62
     7
100
AcDbLine
 10
1507.274775120904
 20
1331.593058803334
 30
0.0
 11
1487.974775120904
 21
1331.593058803334
 31
0.0
  0
LINE
  5
1DF
330
1DB
100
AcDbEntity
  8
1
 62
     7
100
AcDbLine
 10
1507.274775120904
 20
1340.593058803334
 30
0.0
 11
1487.974775120904
 21
1340.593058803334
 31
0.0
  0
LINE
  5
1E0
330
1DB
100
AcDbEntity
  8
1
 62
     7
100
AcDbLine
 10
1502.124775120904
 20
1316.593058803334
 30
0.0
 11
1493.124775120904
 21
1316.593058803334
 31
0.0
  0
LINE
  5
1E1
330
1DB
100
AcDbEntity
  8
1
 62
     7
100
AcDbLine
 10
1505.024775120904
 20
1317.593058803334
 30
0.0
 11
1505.024775120904
 21
1328.593058803334
 31
0.0
  0
LINE
  5
1E2
330
1DB
100
AcDbEntity
  8
1
 62
     7
100
AcDbLine
 10
1493.524775120904
 20
1316.593058803334
 30
0.0
 11
1493.524775120904
 21
1314.593058803334
 31
0.0
  0
LINE
  5
1E3
330
1DB
100
AcDbEntity
  8
1
 62
     7
100
AcDbLine
 10
1501.724775120904
 20
1314.593058803334
 30
0.0
 11
1493.524775120904
 21
1314.593058803334
 31
0.0
  0
LINE
  5
1E4
330
1DB
100
AcDbEntity
  8
1
 62
     7
100
AcDbLine
 10
1501.724775120904
 20
1316.593058803334
 30
0.0
 11
1501.724775120904
 21
1314.593058803334
 31
0.0
  0
LINE
  5
1E5
330
1DB
100
AcDbEntity
  8
1
 62
     7
100
AcDbLine
 10
1488.724775120904
 20
1331.593058803334
 30
0.0
 11
1488.724775120904
 21
1318.843058803334
 31
0.0
  0
LINE
  5
1E6
330
1DB
100
AcDbEntity
  8
1
 62
     7
100
AcDbLine
 10
1487.224775120904
 20
1318.843058803334
 30
0.0
 11
1487.224775120904
 21
1347.343058803334
 31
0.0
  0
LINE
  5
1E7
330
1DB
100
AcDbEntity
  8
1
 62
     7
100
AcDbLine
 10
1508.024775120904
 20
1347.343058803334
 30
0.0
 11
1508.024775120904
 21
1318.843058803334
 31
0.0
  0
LINE
  5
1E8
330
1DB
100
AcDbEntity
  8
1
 62
     7
100
AcDbLine
 10
1506.524775120904
 20
1340.593058803334
 30
0.0
 11
1506.524775120904
 21
1347.343058803334
 31
0.0
  0
LINE
  5
1E9
330
1DB
100
AcDbEntity
  8
1
 62
     7
100
AcDbLine
 10
1506.524775120904
 20
1318.843058803334
 30
0.0
 11
1506.524775120904
 21
1331.593058803334
 31
0.0
  0
LINE
  5
1EA
330
1DB
100
AcDbEntity
  8
1
 62
     7
100
AcDbLine
 10
1488.724775120904
 20
1347.343058803334
 30
0.0
 11
1488.724775120904
 21
1340.593058803334
 31
0.0
  0
LINE
  5
1EB
330
1DB
100
AcDbEntity
  8
1
 62
     7
100
AcDbLine
 10
1490.224775120904
 20
1328.593058803334
 30
0.0
 11
1490.224775120904
 21
1317.593058803334
 31
0.0
  0
LINE
  5
1EC
330
1DB
100
AcDbEntity
  8
1
 62
     7
100
AcDbLine
 10
1492.124775120904
 20
1324.593058803334
 30
0.0
 11
1492.124775120904
 21
1328.593058803334
 31
0.0
  0
LINE
  5
1ED
330
1DB
100
AcDbEntity
  8
1
 62
     7
100
AcDbLine
 10
1503.124775120904
 20
1326.593058803334
 30
0.0
 11
1492.124775120904
 21
1326.593058803334
 31
0.0
  0
LINE
  5
1EE
330
1DB
100
AcDbEntity
  8
1
 62
     7
100
AcDbLine
 10
1503.124775120904
 20
1328.593058803334
 30
0.0
 11
1503.124775120904
 21
1324.593058803334
 31
0.0
  0
LINE
  5
1EF
330
1DB
100
AcDbEntity
  8
1
 62
     7
100
AcDbLine
 10
1503.124775120904
 20
1324.593058803334
 30
0.0
 11
1492.124775120904
 21
1324.593058803334
 31
0.0
  0
LINE
  5
1F0
330
1DB
100
AcDbEntity
  8
1
 62
     7
100
AcDbLine
 10
1503.124775120904
 20
1343.593058803334
 30
0.0
 11
1503.124775120904
 21
1347.593058803334
 31
0.0
  0
LINE
  5
1F1
330
1DB
100
AcDbEntity
  8
1
 62
     7
100
AcDbLine
 10
1503.124775120904
 20
1347.593058803334
 30
0.0
 11
1492.124775120904
 21
1347.593058803334
 31
0.0
  0
LINE
  5
1F2
330
1DB
100
AcDbEntity
  8
1
 62
     7
100
AcDbLine
 10
1492.124775120904
 20
1345.593058803334
 30
0.0
 11
1503.124775120904
 21
1345.593058803334
 31
0.0
  0
LINE
  5
1F3
330
1DB
100
AcDbEntity
  8
1
 62
     7
100
AcDbLine
 10
1490.724775120904
 20
1348.593058803334
 30
0.0
 11
1490.224775120904
 21
1348.093058803334
 31
0.0
  0
LINE
  5
1F4
330
1DB
100
AcDbEntity
  8
1
 62
     7
100
AcDbLine
 10
1504.524775120904
 20
1348.593058803334
 30
0.0
 11
1490.724775120904
 21
1348.593058803334
 31
0.0
  0
LINE
  5
1F5
330
1DB
100
AcDbEntity
  8
1
 62
     7
100
AcDbLine
 10
1504.524775120904
 20
1348.593058803334
 30
0.0
 11
1505.024775120904
 21
1348.093058803334
 31
0.0
  0
LINE
  5
1F6
330
1DB
100
AcDbEntity
  8
1
 62
     7
100
AcDbLine
 10
1505.024775120904
 20
1343.593058803334
 30
0.0
 11
1505.024775120904
 21
1348.093058803334
 31
0.0
  0
LINE
  5
1F7
330
1DB
100
AcDbEntity
  8
1
 62
     7
100
AcDbLine
 10
1510.024775120904
 20
1333.593058803334
 30
0.0
 11
1508.024775120904
 21
1333.593058803334
 31
0.0
  0
LINE
  5
1F8
330
1DB
100
AcDbEntity
  8
1
 62
     7
100
AcDbLine
 10
1510.524775120904
 20
1336.893058803334
 30
0.0
 11
1510.524775120904
 21
1334.093058803334
 31
0.0
  0
LINE
  5
1F9
330
1DB
100
AcDbEntity
  8
1
 62
     7
100
AcDbLine
 10
1508.024775120904
 20
1337.393058803334
 30
0.0
 11
1510.024775120904
 21
1337.393058803334
 31
0.0
  0
LINE
  5
1FA
330
1DB
100
AcDbEntity
  8
1
 62
     7
100
AcDbLine
 10
1510.024775120904
 20
1333.593058803334
 30
0.0
 11
1510.524775120904
 21
1334.093058803334
 31
0.0
  0
LINE
  5
1FB
330
1DB
100
AcDbEntity
  8
1
 62
     7
100
AcDbLine
 10
1510.524775120904
 20
1336.893058803334
 30
0.0
 11
1510.024775120904
 21
1337.393058803334
 31
0.0
  0
LINE
  5
1FC
330
1DB
100
AcDbEntity
  8
1
 62
     7
100
AcDbLine
 10
1484.724775120904
 20
1334.093058803334
 30
0.0
 11
1484.724775120904
 21
1336.893058803334
 31
0.0
  0
LINE
  5
1FD
330
1DB
100
AcDbEntity
  8
1
 62
     7
100
AcDbLine
 10
1484.724775120904
 20
1334.093058803334
 30
0.0
 11
1485.224775120904
 21
1333.593058803334
 31
0.0
  0
LINE
  5
1FE
330
1DB
100
AcDbEntity
  8
1
 62
     7
100
AcDbLine
 10
1485.224775120904
 20
1337.393058803334
 30
0.0
 11
1484.724775120904
 21
1336.893058803334
 31
0.0
  0
LINE
  5
1FF
330
1DB
100
AcDbEntity
  8
1
 62
     7
100
AcDbLine
 10
1487.224775120904
 20
1333.593058803334
 30
0.0
 11
1485.224775120904
 21
1333.593058803334
 31
0.0
  0
LINE
  5
200
330
1DB
100
AcDbEntity
  8
1
 62
     7
100
AcDbLine
 10
1485.224775120904
 20
1337.393058803334
 30
0.0
 11
1487.224775120904
 21
1337.393058803334
 31
0.0
  0
LINE
  5
201
330
1DB
100
AcDbEntity
  8
1
 62
     7
100
AcDbLine
 10
1504.524775120904
 20
1317.593058803334
 30
0.0
 11
1490.724775120904
 21
1317.593058803334
 31
0.0
  0
LINE
  5
202
330
1DB
100
AcDbEntity
  8
1
 62
     7
100
AcDbLine
 10
1505.024775120904
 20
1318.093058803334
 30
0.0
 11
1504.524775120904
 21
1317.593058803334
 31
0.0
  0
LINE
  5
203
330
1DB
100
AcDbEntity
  8
1
 62
     7
100
AcDbLine
 10
1490.724775120904
 20
1317.593058803334
 30
0.0
 11
1490.224775120904
 21
1318.093058803334
 31
0.0
  0
LINE
  5
204
330
1DB
100
AcDbEntity
  8
1
 62
     7
100
AcDbLine
 10
1490.224775120904
 20
1343.593058803334
 30
0.0
 11
1505.024775120904
 21
1343.593058803334
 31
0.0
  0
LINE
  5
205
330
1DB
100
AcDbEntity
  8
1
 62
     7
100
AcDbLine
 10
1490.224775120904
 20
1348.093058803334
 30
0.0
 11
1490.224775120904
 21
1343.593058803334
 31
0.0
  0
LINE
  5
206
330
1DB
100
AcDbEntity
  8
1
 62
     7
100
AcDbLine
 10
1492.124775120904
 20
1347.593058803334
 30
0.0
 11
1492.124775120904
 21
1343.593058803334
 31
0.0
  0
LINE
  5
207
330
1DB
100
AcDbEntity
  8
1
 62
     7
100
AcDbLine
 10
1505.024775120904
 20
1328.593058803334
 30
0.0
 11
1490.224775120904
 21
1328.593058803334
 31
0.0
  0
LINE
  5
208
330
1DB
100
AcDbEntity
  8
1
 62
   133
100
AcDbLine
 10
1498.374775120904
 20
1331.593058803334
 30
0.0
 11
1498.374775120904
 21
1328.593058803334
 31
0.0
  0
LINE
  5
209
330
1DB
100
AcDbEntity
  8
1
 62
   133
100
AcDbLine
 10
1496.874775120904
 20
1328.593058803334
 30
0.0
 11
1496.874775120904
 21
1331.593058803334
 31
0.0
  0
LINE
  5
20A
330
1DB
100
AcDbEntity
  8
1
 62
   133
100
AcDbLine
 10
1503.124775120904
 20
1330.593058803334
 30
0.0
 11
1503.124775120904
 21
1328.593058803334
 31
0.0
  0
LINE
  5
20B
330
1DB
100
AcDbEntity
  8
1
 62
   133
100
AcDbLine
 10
1490.589864991048
 20
1331.593058803334
 30
0.0
 11
1490.589864991048
 21
1328.593058803334
 31
0.0
  0
LINE
  5
20C
330
1DB
100
AcDbEntity
  8
1
 62
   133
100
AcDbLine
 10
1490.589864991048
 20
1340.593058803334
 30
0.0
 11
1490.589864991048
 21
1343.593058803334
 31
0.0
  0
LINE
  5
20D
330
1DB
100
AcDbEntity
  8
1
 62
   133
100
AcDbLine
 10
1492.124775120904
 20
1341.593058803334
 30
0.0
 11
1492.124775120904
 21
1343.593058803334
 31
0.0
  0
LINE
  5
20E
330
1DB
100
AcDbEntity
  8
1
 62
     3
100
AcDbLine
 10
1499.624775120904
 20
1319.093058803334
 30
0.0
 11
1501.624775120904
 21
1323.093058803334
 31
0.0
  0
LINE
  5
20F
330
1DB
100
AcDbEntity
  8
1
 62
     3
100
AcDbLine
 10
1501.624775120904
 20
1323.093058803334
 30
0.0
 11
1503.624775120904
 21
1319.093058803334
 31
0.0
  0
LINE
  5
210
330
1DB
100
AcDbEntity
  8
1
 62
     3
100
AcDbLine
 10
1503.624775120904
 20
1319.093058803334
 30
0.0
 11
1499.624775120904
 21
1319.093058803334
 31
0.0
  0
LINE
  5
211
330
1DB
100
AcDbEntity
  8
1
 62
     7
100
AcDbLine
 10
1590.374775120904
 20
1318.093058803334
 30
0.0
 11
1592.374775120904
 21
1318.093058803334
 31
0.0
  0
LINE
  5
212
330
1DB
100
AcDbEntity
  8
1
 62
     7
100
AcDbLine
 10
1588.374775120904
 20
1346.093058803334
 30
0.0
 11
1588.374775120904
 21
1320.093058803334
 31
0.0
  0
LINE
  5
213
330
1DB
100
AcDbEntity
  8
1
 62
   133
100
AcDbLine
 10
1503.124775120904
 20
1343.593058803334
 30
0.0
 11
1503.124775120904
 21
1341.593058803334
 31
0.0
  0
LINE
  5
214
330
1DB
100
AcDbEntity
  8
1
 62
   133
100
AcDbLine
 10
1504.65968525076
 20
1343.593058803334
 30
0.0
 11
1504.65968525076
 21
1340.593058803334
 31
0.0
  0
LINE
  5
215
330
1DB
100
AcDbEntity
  8
1
 62
   133
100
AcDbLine
 10
1492.124775120904
 20
1328.593058803334
 30
0.0
 11
1492.124775120904
 21
1330.593058803334
 31
0.0
  0
LINE
  5
216
330
1DB
100
AcDbEntity
  8
1
 62
   133
100
AcDbLine
 10
1504.65968525076
 20
1328.593058803334
 30
0.0
 11
1504.65968525076
 21
1331.593058803334
 31
0.0
  0
LINE
  5
217
330
1DB
100
AcDbEntity
  8
1
 62
     7
100
AcDbLine
 10
1487.974775120904
 20
1332.593058803334
 30
0.0
 11
1507.274775120904
 21
1332.593058803334
 31
0.0
  0
LINE
  5
218
330
1DB
100
AcDbEntity
  8
1
 62
     7
100
AcDbLine
 10
1498.374775120904
 20
1332.593058803334
 30
0.0
 11
1498.374775120904
 21
1339.593058803334
 31
0.0
  0
LINE
  5
219
330
1DB
100
AcDbEntity
  8
1
 62
     7
100
AcDbLine
 10
1507.274775120904
 20
1339.593058803335
 30
0.0
 11
1487.974775120904
 21
1339.593058803335
 31
0.0
  0
LINE
  5
21A
330
1DB
100
AcDbEntity
  8
1
 62
     7
100
AcDbLine
 10
1506.524775120904
 20
1338.593058803335
 30
0.0
 11
1506.524775120904
 21
1333.593058803334
 31
0.0
  0
LINE
  5
21B
330
1DB
100
AcDbEntity
  8
1
 62
   133
100
AcDbLine
 10
1503.535045287539
 20
1338.593058803335
 30
0.0
 11
1503.535045287539
 21
1333.593058803334
 31
0.0
  0
LINE
  5
21C
330
1DB
100
AcDbEntity
  8
1
 62
     7
100
AcDbLine
 10
1496.874775120904
 20
1339.593058803334
 30
0.0
 11
1496.874775120904
 21
1332.593058803334
 31
0.0
  0
LINE
  5
21D
330
1DB
100
AcDbEntity
  8
1
 62
   133
100
AcDbLine
 10
1491.714504954269
 20
1333.593058803334
 30
0.0
 11
1491.714504954269
 21
1338.593058803335
 31
0.0
  0
LINE
  5
21E
330
1DB
100
AcDbEntity
  8
1
 62
     7
100
AcDbLine
 10
1488.724775120904
 20
1333.593058803334
 30
0.0
 11
1488.724775120904
 21
1338.593058803335
 31
0.0
  0
ARC
  5
21F
330
1DB
100
AcDbEntity
  8
1
 62
     7
100
AcDbCircle
 10
1505.524775120904
 20
1333.593058803334
 30
0.0
 40
1.0
100
AcDbArc
 50
270.0
 51
0.0
  0
ARC
  5
220
330
1DB
100
AcDbEntity
  8
1
 62
     7
100
AcDbCircle
 10
1505.524775120904
 20
1338.593058803335
 30
0.0
 40
1.0
100
AcDbArc
 50
0.0
 51
90.0
  0
ARC
  5
221
330
1DB
100
AcDbEntity
  8
1
 62
   133
100
AcDbCircle
 10
1502.53504528754
 20
1338.593058803335
 30
0.0
 40
0.9999999999990903
100
AcDbArc
 50
0.0
 51
90.0
  0
ARC
  5
222
330
1DB
100
AcDbEntity
  8
1
 62
   133
100
AcDbCircle
 10
1502.53504528754
 20
1333.593058803334
 30
0.0
 40
1.0
100
AcDbArc
 50
270.0
 51
0.0
  0
ARC
  5
223
330
1DB
100
AcDbEntity
  8
1
 62
   133
100
AcDbCircle
 10
1492.714504954268
 20
1338.593058803335
 30
0.0
 40
1.0
100
AcDbArc
 50
90.0
 51
180.0
  0
ARC
  5
224
330
1DB
100
AcDbEntity
  8
1
 62
   133
100
AcDbCircle
 10
1492.714504954268
 20
1333.593058803334
 30
0.0
 40
0.9999999999990903
100
AcDbArc
 50
180.0
 51
270.0
  0
ARC
  5
225
330
1DB
100
AcDbEntity
  8
1
 62
     7
100
AcDbCircle
 10
1489.724775120904
 20
1338.593058803335
 30
0.0
 40
1.0
100
AcDbArc
 50
90.0
 51
180.0
  0
ARC
  5
226
330
1DB
100
AcDbEntity
  8
1
 62
     7
100
AcDbCircle
 10
1489.724775120904
 20
1333.593058803334
 30
0.0
 40
1.0
100
AcDbArc
 50
180.0
 51
270.0
  0
ARC
  5
227
330
1DB
100
AcDbEntity
  8
1
 62
     7
100
AcDbCircle
 10
1487.974775120904
 20
1318.843058803334
 30
0.0
 40
0.75
100
AcDbArc
 50
180.0
 51
0.0
  0
ARC
  5
228
330
1DB
100
AcDbEntity
  8
1
 62
     7
100
AcDbCircle
 10
1487.974775120904
 20
1347.343058803334
 30
0.0
 40
0.75
100
AcDbArc
 50
0.0
 51
180.0
  0
ARC
  5
229
330
1DB
100
AcDbEntity
  8
1
 62
     7
100
AcDbCircle
 10
1507.274775120904
 20
1347.343058803334
 30
0.0
 40
0.75
100
AcDbArc
 50
0.0
 51
180.0
  0
ARC
  5
22A
330
1DB
100
AcDbEntity
  8
1
 62
     7
100
AcDbCircle
 10
1507.274775120904
 20
1318.843058803334
 30
0.0
 40
0.75
100
AcDbArc
 50
180.0
 51
0.0
  0
ARC
  5
22B
330
1DB
100
AcDbEntity
  8
1
 62
     7
100
AcDbCircle
 10
1590.374775120904
 20
1346.093058803334
 30
0.0
 40
2.0
100
AcDbArc
 50
90.0
 51
180.0
  0
ARC
  5
22C
330
1DB
100
AcDbEntity
  8
1
 62
     7
100
AcDbCircle
 10
1590.374775120904
 20
1320.093058803334
 30
0.0
 40
2.0
100
AcDbArc
 50
180.0
 51
270.0
  0
ARC
  5
22D
330
1DB
100
AcDbEntity
  8
1
 62
   133
100
AcDbCircle
 10
1504.124775120904
 20
1330.593058803334
 30
0.0
 40
1.0
100
AcDbArc
 50
90.0
 51
180.0
  0
ARC
  5
22E
330
1DB
100
AcDbEntity
  8
1
 62
   133
100
AcDbCircle
 10
1491.124775120904
 20
1330.593058803334
 30
0.0
 40
1.0
100
AcDbArc
 50
0.0
 51
90.0
  0
ARC
  5
22F
330
1DB
100
AcDbEntity
  8
1
 62
   133
100
AcDbCircle
 10
1504.124775120904
 20
1341.593058803334
 30
0.0
 40
1.0
100
AcDbArc
 50
180.0
 51
270.0
  0
ARC
  5
230
330
1DB
100
AcDbEntity
  8
1
 62
   133
100
AcDbCircle
 10
1491.124775120904
 20
1341.593058803334
 30
0.0
 40
1.0
100
AcDbArc
 50
270.0
 51
0.0
  0
TEXT
  5
231
330
1DB
100
AcDbEntity
  8
1
 62
     3
100
AcDbText
 10
1492.724775120904
 20
1319.093058803334
 30
0.0
 40
4.0
  1
外
 41
0.9
 72
     1
 11
1493.624775120904
 21
1321.093058803334
 31
0.0
100
AcDbText
 73
     2
  0
TEXT
  5
232
330
1DB
100
AcDbEntity
  8
1
 62
     3
100
AcDbText
 10
1496.657275120903
 20
1318.943058803335
 30
0.0
 40
4.299999999999999
  1
す
 41
0.9
 72
     1
 11
1497.624775120903
 21
1321.093058803335
 31
0.0
100
AcDbText
 73
     2
  0
ENDBLK
  5
233
330
1DB
100
AcDbEntity
  8
0
100
AcDbBlockEnd
  0
BLOCK
  5
235
330
234
100
AcDbEntity
  8
0
100
AcDbBlockBegin
  2
_4
 70
     0
 10
1488.63537108553
 20
1663.394582566781
 30
0.0
  3
_4
  1

  0
LINE
  5
236
330
234
100
AcDbEntity
  8
1
 62
     7
100
AcDbLine
 10
1614.074775120904
 20
1308.593058803334
 30
0.0
 11
1608.674775120904
 21
1308.593058803334
 31
0.0
  0
LINE
  5
237
330
234
100
AcDbEntity
  8
1
 62
     7
100
AcDbLine
 10
1614.374775120904
 20
1314.593058803334
 30
0.0
 11
1614.374775120904
 21
1308.893058803334
 31
0.0
  0
LINE
  5
238
330
234
100
AcDbEntity
  8
1
 62
     7
100
AcDbLine
 10
1614.074775120904
 20
1308.593058803334
 30
0.0
 11
1608.674775120904
 21
1308.593058803334
 31
0.0
  0
LINE
  5
239
330
234
100
AcDbEntity
  8
1
 62
     7
100
AcDbLine
 10
1608.374775120904
 20
1308.893058803334
 30
0.0
 11
1608.374775120904
 21
1314.593058803334
 31
0.0
  0
LINE
  5
23A
330
234
100
AcDbEntity
  8
1
 62
     7
100
AcDbLine
 10
1494.624775120904
 20
1308.893058803334
 30
0.0
 11
1494.624775120904
 21
1314.593058803334
 31
0.0
  0
LINE
  5
23B
330
234
100
AcDbEntity
  8
1
 62
     7
100
AcDbLine
 10
1500.324775120904
 20
1308.593058803334
 30
0.0
 11
1494.924775120904
 21
1308.593058803334
 31
0.0
  0
LINE
  5
23C
330
234
100
AcDbEntity
  8
1
 62
     7
100
AcDbLine
 10
1500.624775120904
 20
1314.593058803334
 30
0.0
 11
1500.624775120904
 21
1308.893058803334
 31
0.0
  0
LINE
  5
23D
330
234
100
AcDbEntity
  8
1
 62
     7
100
AcDbLine
 10
1500.324775120904
 20
1308.593058803334
 30
0.0
 11
1494.924775120904
 21
1308.593058803334
 31
0.0
  0
LINE
  5
23E
330
234
100
AcDbEntity
  8
1
 62
     7
100
AcDbLine
 10
1704.124775120904
 20
1314.593058803334
 30
0.0
 11
1704.124775120904
 21
1308.893058803334
 31
0.0
  0
LINE
  5
23F
330
234
100
AcDbEntity
  8
1
 62
     7
100
AcDbLine
 10
1703.824775120904
 20
1308.593058803334
 30
0.0
 11
1698.424775120904
 21
1308.593058803334
 31
0.0
  0
LINE
  5
240
330
234
100
AcDbEntity
  8
1
 62
     7
100
AcDbLine
 10
1698.124775120904
 20
1308.893058803334
 30
0.0
 11
1698.124775120904
 21
1314.593058803334
 31
0.0
  0
ARC
  5
241
330
234
100
AcDbEntity
  8
1
 62
     7
100
AcDbCircle
 10
1614.074775120904
 20
1308.893058803334
 30
0.0
 40
0.2999999999999545
100
AcDbArc
 50
270.0
 51
0.0
  0
ARC
  5
242
330
234
100
AcDbEntity
  8
1
 62
     7
100
AcDbCircle
 10
1608.674775120904
 20
1308.893058803334
 30
0.0
 40
0.3000000000001819
100
AcDbArc
 50
180.0
 51
270.0
  0
ARC
  5
243
330
234
100
AcDbEntity
  8
1
 62
     7
100
AcDbCircle
 10
1614.074775120904
 20
1308.893058803334
 30
0.0
 40
0.2999999999999545
100
AcDbArc
 50
270.0
 51
0.0
  0
ARC
  5
244
330
234
100
AcDbEntity
  8
1
 62
     7
100
AcDbCircle
 10
1608.674775120904
 20
1308.893058803334
 30
0.0
 40
0.3000000000001819
100
AcDbArc
 50
180.0
 51
270.0
  0
ARC
  5
245
330
234
100
AcDbEntity
  8
1
 62
     7
100
AcDbCircle
 10
1494.924775120904
 20
1308.893058803334
 30
0.0
 40
0.3000000000001819
100
AcDbArc
 50
180.0
 51
270.0
  0
ARC
  5
246
330
234
100
AcDbEntity
  8
1
 62
     7
100
AcDbCircle
 10
1500.324775120904
 20
1308.893058803334
 30
0.0
 40
0.2999999999999545
100
AcDbArc
 50
270.0
 51
0.0
  0
ARC
  5
247
330
234
100
AcDbEntity
  8
1
 62
     7
100
AcDbCircle
 10
1494.924775120904
 20
1308.893058803334
 30
0.0
 40
0.3000000000001819
100
AcDbArc
 50
180.0
 51
270.0
  0
ARC
  5
248
330
234
100
AcDbEntity
  8
1
 62
     7
100
AcDbCircle
 10
1500.324775120904
 20
1308.893058803334
 30
0.0
 40
0.2999999999999545
100
AcDbArc
 50
270.0
 51
0.0
  0
ARC
  5
249
330
234
100
AcDbEntity
  8
1
 62
     7
100
AcDbCircle
 10
1703.824775120904
 20
1308.893058803334
 30
0.0
 40
0.2999999999999545
100
AcDbArc
 50
270.0
 51
0.0
  0
ARC
  5
24A
330
234
100
AcDbEntity
  8
1
 62
     7
100
AcDbCircle
 10
1698.424775120904
 20
1308.893058803334
 30
0.0
 40
0.3000000000001819
100
AcDbArc
 50
180.0
 51
270.0
  0
ENDBLK
  5
24B
330
234
100
AcDbEntity
  8
0
100
AcDbBlockEnd
  0
BLOCK
  5
24D
330
24C
100
AcDbEntity
  8
0
100
AcDbBlockBegin
  2
______
 70
     0
 10
2977.656133403442
 20
1488.503465444209
 30
0.0
  3
______
  1

  0
LINE
  5
24E
330
24C
100
AcDbEntity
  8
1
 62
     5
100
AcDbLine
 10
2765.236169694385
 20
1497.917997989959
 30
0.0
 11
2750.236169694384
 21
1497.917997989959
 31
0.0
  0
LINE
  5
24F
330
24C
100
AcDbEntity
  8
1
 62
     5
100
AcDbLine
 10
2750.236169694384
 20
1490.917997989959
 30
0.0
 11
2750.236169694384
 21
1497.917997989959
 31
0.0
  0
LINE
  5
250
330
24C
100
AcDbEntity
  8
1
 62
     5
100
AcDbLine
 10
2765.236169694385
 20
1497.917997989959
 30
0.0
 11
2765.236169694385
 21
1490.917997989959
 31
0.0
  0
LINE
  5
251
330
24C
100
AcDbEntity
  8
1
 62
     5
100
AcDbLine
 10
2765.236169694385
 20
1497.917997989959
 30
0.0
 11
2815.236169694384
 21
1497.917997989959
 31
0.0
  0
LINE
  5
252
330
24C
100
AcDbEntity
  8
1
 62
     5
100
AcDbLine
 10
2845.236169694384
 20
1497.917997989959
 30
0.0
 11
2815.236169694384
 21
1497.917997989959
 31
0.0
  0
LINE
  5
253
330
24C
100
AcDbEntity
  8
1
 62
     5
100
AcDbLine
 10
2815.236169694384
 20
1497.917997989959
 30
0.0
 11
2815.236169694384
 21
1490.917997989959
 31
0.0
  0
LINE
  5
254
330
24C
100
AcDbEntity
  8
1
 62
     5
100
AcDbLine
 10
2845.236169694384
 20
1497.917997989959
 30
0.0
 11
2845.236169694384
 21
1490.917997989959
 31
0.0
  0
LINE
  5
255
330
24C
100
AcDbEntity
  8
1
 62
     5
100
AcDbLine
 10
2900.236169694384
 20
1497.917997989959
 30
0.0
 11
2930.236169694384
 21
1497.917997989959
 31
0.0
  0
LINE
  5
256
330
24C
100
AcDbEntity
  8
1
 62
     5
100
AcDbLine
 10
2900.236169694384
 20
1497.917997989959
 30
0.0
 11
2900.236169694384
 21
1490.917997989959
 31
0.0
  0
LINE
  5
257
330
24C
100
AcDbEntity
  8
1
 62
     5
100
AcDbLine
 10
2860.236169694384
 20
1497.917997989959
 30
0.0
 11
2860.236169694384
 21
1490.917997989959
 31
0.0
  0
LINE
  5
258
330
24C
100
AcDbEntity
  8
1
 62
     5
100
AcDbLine
 10
2900.236169694384
 20
1497.917997989959
 30
0.0
 11
2860.236169694384
 21
1497.917997989959
 31
0.0
  0
LINE
  5
259
330
24C
100
AcDbEntity
  8
1
 62
     5
100
AcDbLine
 10
2860.236169694384
 20
1497.917997989959
 30
0.0
 11
2845.236169694384
 21
1497.917997989959
 31
0.0
  0
LINE
  5
25A
330
24C
100
AcDbEntity
  8
1
 62
     7
100
AcDbLine
 10
2750.236169694384
 20
1424.917997989959
 30
0.0
 11
2843.236169694384
 21
1424.917997989959
 31
0.0
  0
LINE
  5
25B
330
24C
100
AcDbEntity
  8
1
 62
     7
100
AcDbLine
 10
2930.236169694384
 20
1424.917997989959
 30
0.0
 11
2930.236169694384
 21
1439.917997989959
 31
0.0
  0
LINE
  5
25C
330
24C
100
AcDbEntity
  8
1
 62
     7
100
AcDbLine
 10
2750.236169694384
 20
1469.917997989959
 30
0.0
 11
2750.236169694384
 21
1459.917997989959
 31
0.0
  0
LINE
  5
25D
330
24C
100
AcDbEntity
  8
1
 62
     7
100
AcDbLine
 10
2843.236169694384
 20
1469.917997989959
 30
0.0
 11
2843.236169694384
 21
1462.917997989959
 31
0.0
  0
LINE
  5
25E
330
24C
100
AcDbEntity
  8
1
 62
     7
100
AcDbLine
 10
2843.236169694384
 20
1424.917997989959
 30
0.0
 11
2850.236169694384
 21
1424.917997989959
 31
0.0
  0
LINE
  5
25F
330
24C
100
AcDbEntity
  8
1
 62
     7
100
AcDbLine
 10
2850.236169694384
 20
1469.917997989959
 30
0.0
 11
2850.236169694384
 21
1424.917997989959
 31
0.0
  0
LINE
  5
260
330
24C
100
AcDbEntity
  8
1
 62
     7
100
AcDbLine
 10
2850.236169694384
 20
1424.917997989959
 30
0.0
 11
2930.236169694384
 21
1424.917997989959
 31
0.0
  0
LINE
  5
261
330
24C
100
AcDbEntity
  8
1
 62
     7
100
AcDbLine
 10
2843.236169694384
 20
1454.917997989959
 30
0.0
 11
2930.236169694384
 21
1454.917997989959
 31
0.0
  0
LINE
  5
262
330
24C
100
AcDbEntity
  8
1
 62
     7
100
AcDbLine
 10
2843.236169694384
 20
1454.917997989959
 30
0.0
 11
2843.236169694384
 21
1451.917997989959
 31
0.0
  0
LINE
  5
263
330
24C
100
AcDbEntity
  8
1
 62
     7
100
AcDbLine
 10
2930.236169694384
 20
1454.917997989959
 30
0.0
 11
2930.236169694384
 21
1469.917997989959
 31
0.0
  0
LINE
  5
264
330
24C
100
AcDbEntity
  8
1
 62
     7
100
AcDbLine
 10
2843.236169694384
 20
1439.917997989959
 30
0.0
 11
2930.236169694384
 21
1439.917997989959
 31
0.0
  0
LINE
  5
265
330
24C
100
AcDbEntity
  8
1
 62
     7
100
AcDbLine
 10
2843.236169694384
 20
1439.917997989959
 30
0.0
 11
2843.236169694384
 21
1424.917997989959
 31
0.0
  0
LINE
  5
266
330
24C
100
AcDbEntity
  8
1
 62
     7
100
AcDbLine
 10
2930.236169694384
 20
1439.917997989959
 30
0.0
 11
2930.236169694384
 21
1454.917997989959
 31
0.0
  0
LINE
  5
267
330
24C
100
AcDbEntity
  8
1
 62
     7
100
AcDbLine
 10
2783.236169694384
 20
1469.917997989959
 30
0.0
 11
2783.236169694384
 21
1462.917997989959
 31
0.0
  0
LINE
  5
268
330
24C
100
AcDbEntity
  8
1
 62
     7
100
AcDbLine
 10
2783.236169694384
 20
1469.917997989959
 30
0.0
 11
2803.236169694384
 21
1469.917997989959
 31
0.0
  0
LINE
  5
269
330
24C
100
AcDbEntity
  8
1
 62
     7
100
AcDbLine
 10
2750.236169694384
 20
1444.917997989959
 30
0.0
 11
2803.236169694384
 21
1444.917997989959
 31
0.0
  0
LINE
  5
26A
330
24C
100
AcDbEntity
  8
1
 62
     7
100
AcDbLine
 10
2750.236169694384
 20
1444.917997989959
 30
0.0
 11
2750.236169694384
 21
1424.917997989959
 31
0.0
  0
LINE
  5
26B
330
24C
100
AcDbEntity
  8
1
 62
     7
100
AcDbLine
 10
2843.236169694384
 20
1444.917997989959
 30
0.0
 11
2843.236169694384
 21
1439.917997989959
 31
0.0
  0
LINE
  5
26C
330
24C
100
AcDbEntity
  8
1
 62
     7
100
AcDbLine
 10
2783.236169694384
 20
1462.917997989959
 30
0.0
 11
2843.236169694384
 21
1462.917997989959
 31
0.0
  0
LINE
  5
26D
330
24C
100
AcDbEntity
  8
1
 62
     7
100
AcDbLine
 10
2783.236169694384
 20
1462.917997989959
 30
0.0
 11
2783.236169694384
 21
1459.917997989959
 31
0.0
  0
LINE
  5
26E
330
24C
100
AcDbEntity
  8
1
 62
     7
100
AcDbLine
 10
2843.236169694384
 20
1462.917997989959
 30
0.0
 11
2843.236169694384
 21
1454.917997989959
 31
0.0
  0
LINE
  5
26F
330
24C
100
AcDbEntity
  8
1
 62
     7
100
AcDbLine
 10
2803.236169694384
 20
1469.917997989959
 30
0.0
 11
2803.236169694384
 21
1444.917997989959
 31
0.0
  0
LINE
  5
270
330
24C
100
AcDbEntity
  8
1
 62
     7
100
AcDbLine
 10
2803.236169694384
 20
1444.917997989959
 30
0.0
 11
2823.236169694384
 21
1444.917997989959
 31
0.0
  0
LINE
  5
271
330
24C
100
AcDbEntity
  8
1
 62
     7
100
AcDbLine
 10
2823.236169694384
 20
1469.917997989959
 30
0.0
 11
2823.236169694384
 21
1444.917997989959
 31
0.0
  0
LINE
  5
272
330
24C
100
AcDbEntity
  8
1
 62
     7
100
AcDbLine
 10
2823.236169694384
 20
1469.917997989959
 30
0.0
 11
2843.236169694384
 21
1469.917997989959
 31
0.0
  0
LINE
  5
273
330
24C
100
AcDbEntity
  8
1
 62
     7
100
AcDbLine
 10
2823.236169694384
 20
1444.917997989959
 30
0.0
 11
2843.236169694384
 21
1444.917997989959
 31
0.0
  0
LINE
  5
274
330
24C
100
AcDbEntity
  8
1
 62
     7
100
AcDbLine
 10
2750.236169694384
 20
1459.917997989959
 30
0.0
 11
2783.236169694384
 21
1459.917997989959
 31
0.0
  0
LINE
  5
275
330
24C
100
AcDbEntity
  8
1
 62
     7
100
AcDbLine
 10
2750.236169694384
 20
1459.917997989959
 30
0.0
 11
2750.236169694384
 21
1444.917997989959
 31
0.0
  0
LINE
  5
276
330
24C
100
AcDbEntity
  8
1
 62
     7
100
AcDbLine
 10
2783.236169694384
 20
1459.917997989959
 30
0.0
 11
2783.236169694384
 21
1451.917997989959
 31
0.0
  0
LINE
  5
277
330
24C
100
AcDbEntity
  8
1
 62
     7
100
AcDbLine
 10
2850.236169694384
 20
1469.917997989959
 30
0.0
 11
2930.236169694384
 21
1469.917997989959
 31
0.0
  0
LINE
  5
278
330
24C
100
AcDbEntity
  8
1
 62
     7
100
AcDbLine
 10
2843.236169694384
 20
1469.917997989959
 30
0.0
 11
2850.236169694384
 21
1469.917997989959
 31
0.0
  0
LINE
  5
279
330
24C
100
AcDbEntity
  8
1
 62
     7
100
AcDbLine
 10
2803.236169694384
 20
1469.917997989959
 30
0.0
 11
2823.236169694384
 21
1469.917997989959
 31
0.0
  0
LINE
  5
27A
330
24C
100
AcDbEntity
  8
1
 62
     7
100
AcDbLine
 10
2750.236169694384
 20
1469.917997989959
 30
0.0
 11
2783.236169694384
 21
1469.917997989959
 31
0.0
  0
LINE
  5
27B
330
24C
100
AcDbEntity
  8
1
 62
     5
100
AcDbLine
 10
2783.236169694384
 20
1451.917997989959
 30
0.0
 11
2843.236169694384
 21
1451.917997989959
 31
0.0
  0
LINE
  5
27C
330
24C
100
AcDbEntity
  8
1
 62
     7
100
AcDbLine
 10
2783.236169694384
 20
1451.917997989959
 30
0.0
 11
2783.236169694384
 21
1444.917997989959
 31
0.0
  0
LINE
  5
27D
330
24C
100
AcDbEntity
  8
1
 62
     7
100
AcDbLine
 10
2843.236169694384
 20
1451.917997989959
 30
0.0
 11
2843.236169694384
 21
1444.917997989959
 31
0.0
  0
LINE
  5
27E
330
24C
100
AcDbEntity
  8
1
 62
     7
100
AcDbLine
 10
2754.420803440093
 20
1433.566027124166
 30
0.0
 11
2752.747060952268
 21
1433.566027124166
 31
0.0
  0
LINE
  5
27F
330
24C
100
AcDbEntity
  8
1
 62
     7
100
AcDbLine
 10
2752.747060952268
 20
1433.566027124166
 30
0.0
 11
2752.747060952268
 21
1433.984462746122
 31
0.0
  0
LINE
  5
280
330
24C
100
AcDbEntity
  8
1
 62
     7
100
AcDbLine
 10
2752.851669857757
 20
1434.089071651611
 30
0.0
 11
2753.107992215445
 21
1434.089071651611
 31
0.0
  0
LINE
  5
281
330
24C
100
AcDbEntity
  8
1
 62
     7
100
AcDbLine
 10
2753.358087200033
 20
1434.274132205266
 30
0.0
 11
2755.348366236408
 21
1440.784041602907
 31
0.0
  0
LINE
  5
282
330
24C
100
AcDbEntity
  8
1
 62
     7
100
AcDbLine
 10
2755.348366236408
 20
1440.784041602907
 30
0.0
 11
2757.052606270971
 21
1440.784041602907
 31
0.0
  0
LINE
  5
283
330
24C
100
AcDbEntity
  8
1
 62
     7
100
AcDbLine
 10
2757.052606270971
 20
1440.784041602907
 30
0.0
 11
2759.042885307346
 21
1434.274132205266
 31
0.0
  0
LINE
  5
284
330
24C
100
AcDbEntity
  8
1
 62
     7
100
AcDbLine
 10
2759.292980291935
 20
1434.089071651611
 30
0.0
 11
2759.651248714543
 21
1434.089071651611
 31
0.0
  0
LINE
  5
285
330
24C
100
AcDbEntity
  8
1
 62
     7
100
AcDbLine
 10
2759.755857620032
 20
1433.984462746122
 30
0.0
 11
2759.755857620032
 21
1433.566027124166
 31
0.0
  0
LINE
  5
286
330
24C
100
AcDbEntity
  8
1
 62
     7
100
AcDbLine
 10
2759.755857620032
 20
1433.566027124166
 30
0.0
 11
2756.61759045536
 21
1433.566027124166
 31
0.0
  0
LINE
  5
287
330
24C
100
AcDbEntity
  8
1
 62
     7
100
AcDbLine
 10
2756.61759045536
 20
1433.566027124166
 30
0.0
 11
2756.61759045536
 21
1433.984462746122
 31
0.0
  0
LINE
  5
288
330
24C
100
AcDbEntity
  8
1
 62
     7
100
AcDbLine
 10
2756.722199360849
 20
1434.089071651611
 30
0.0
 11
2757.01180929529
 21
1434.089071651611
 31
0.0
  0
LINE
  5
289
330
24C
100
AcDbEntity
  8
1
 62
     7
100
AcDbLine
 10
2757.211885282961
 20
1434.359458830643
 30
0.0
 11
2756.700170851572
 21
1436.033201318467
 31
0.0
  0
LINE
  5
28A
330
24C
100
AcDbEntity
  8
1
 62
     7
100
AcDbLine
 10
2756.500094863901
 20
1436.181249761391
 30
0.0
 11
2754.604204677959
 21
1436.181249761391
 31
0.0
  0
LINE
  5
28B
330
24C
100
AcDbEntity
  8
1
 62
     7
100
AcDbLine
 10
2754.454147687206
 20
1436.070213429198
 30
0.0
 11
2753.910451103855
 21
1434.291862035885
 31
0.0
  0
LINE
  5
28C
330
24C
100
AcDbEntity
  8
1
 62
     7
100
AcDbLine
 10
2754.060508094608
 20
1434.089071651611
 30
0.0
 11
2754.316194534603
 21
1434.089071651611
 31
0.0
  0
LINE
  5
28D
330
24C
100
AcDbEntity
  8
1
 62
     7
100
AcDbLine
 10
2754.420803440093
 20
1433.984462746122
 30
0.0
 11
2754.420803440093
 21
1433.566027124166
 31
0.0
  0
LINE
  5
28E
330
24C
100
AcDbEntity
  8
1
 62
     7
100
AcDbLine
 10
2755.421444409718
 20
1439.234098446878
 30
0.0
 11
2754.7100049029
 21
1436.90708467311
 31
0.0
  0
LINE
  5
28F
330
24C
100
AcDbEntity
  8
1
 62
     7
100
AcDbLine
 10
2754.860061893653
 20
1436.704294288836
 30
0.0
 11
2756.282940907289
 21
1436.704294288836
 31
0.0
  0
LINE
  5
290
330
24C
100
AcDbEntity
  8
1
 62
     7
100
AcDbLine
 10
2756.432997898042
 20
1436.90708467311
 30
0.0
 11
2755.721558391224
 21
1439.234098446878
 31
0.0
  0
LINE
  5
291
330
24C
100
AcDbEntity
  8
1
 62
     7
100
AcDbLine
 10
2762.214166899023
 20
1440.784041602907
 30
0.0
 11
2765.09091179997
 21
1440.784041602907
 31
0.0
  0
LINE
  5
292
330
24C
100
AcDbEntity
  8
1
 62
     7
100
AcDbLine
 10
2765.09091179997
 20
1440.784041602907
 30
0.0
 11
2765.143079579753
 21
1439.171057405104
 31
0.0
  0
LINE
  5
293
330
24C
100
AcDbEntity
  8
1
 62
     7
100
AcDbLine
 10
2764.632238584719
 20
1439.084080350231
 30
0.0
 11
2764.42306211373
 21
1439.748599746308
 31
0.0
  0
LINE
  5
294
330
24C
100
AcDbEntity
  8
1
 62
     7
100
AcDbLine
 10
2763.724586981766
 20
1440.260997075462
 30
0.0
 11
2763.574082670381
 21
1440.260997075462
 31
0.0
  0
LINE
  5
295
330
24C
100
AcDbEntity
  8
1
 62
     7
100
AcDbLine
 10
2763.207951501168
 20
1439.89486590625
 30
0.0
 11
2763.207951501168
 21
1434.350593915333
 31
0.0
  0
LINE
  5
296
330
24C
100
AcDbEntity
  8
1
 62
     7
100
AcDbLine
 10
2763.469473764891
 20
1434.089071651611
 30
0.0
 11
2763.678691575869
 21
1434.089071651611
 31
0.0
  0
LINE
  5
297
330
24C
100
AcDbEntity
  8
1
 62
     7
100
AcDbLine
 10
2763.783300481357
 20
1433.984462746122
 30
0.0
 11
2763.783300481357
 21
1433.566027124166
 31
0.0
  0
LINE
  5
298
330
24C
100
AcDbEntity
  8
1
 62
     7
100
AcDbLine
 10
2763.783300481357
 20
1433.566027124166
 30
0.0
 11
2762.214166899023
 21
1433.566027124166
 31
0.0
  0
LINE
  5
299
330
24C
100
AcDbEntity
  8
1
 62
     7
100
AcDbLine
 10
2759.337421998074
 20
1440.784041602907
 30
0.0
 11
2762.214166899023
 21
1440.784041602907
 31
0.0
  0
LINE
  5
29A
330
24C
100
AcDbEntity
  8
1
 62
     7
100
AcDbLine
 10
2759.285254218291
 20
1439.171057405104
 30
0.0
 11
2759.337421998074
 21
1440.784041602907
 31
0.0
  0
LINE
  5
29B
330
24C
100
AcDbEntity
  8
1
 62
     7
100
AcDbLine
 10
2760.005271684314
 20
1439.748599746308
 30
0.0
 11
2759.796095213326
 21
1439.084080350231
 31
0.0
  0
LINE
  5
29C
330
24C
100
AcDbEntity
  8
1
 62
     7
100
AcDbLine
 10
2760.854251127666
 20
1440.260997075462
 30
0.0
 11
2760.703746816278
 21
1440.260997075462
 31
0.0
  0
LINE
  5
29D
330
24C
100
AcDbEntity
  8
1
 62
     7
100
AcDbLine
 10
2761.220382296877
 20
1434.350593915333
 30
0.0
 11
2761.220382296877
 21
1439.89486590625
 31
0.0
  0
LINE
  5
29E
330
24C
100
AcDbEntity
  8
1
 62
     7
100
AcDbLine
 10
2760.749642222177
 20
1434.089071651611
 30
0.0
 11
2760.958860033155
 21
1434.089071651611
 31
0.0
  0
LINE
  5
29F
330
24C
100
AcDbEntity
  8
1
 62
     7
100
AcDbLine
 10
2760.645033316687
 20
1433.566027124166
 30
0.0
 11
2760.645033316687
 21
1433.984462746122
 31
0.0
  0
LINE
  5
2A0
330
24C
100
AcDbEntity
  8
1
 62
     7
100
AcDbLine
 10
2762.214166899023
 20
1433.566027124166
 30
0.0
 11
2760.645033316687
 21
1433.566027124166
 31
0.0
  0
LINE
  5
2A1
330
24C
100
AcDbEntity
  8
1
 62
     7
100
AcDbLine
 10
2771.553008059765
 20
1438.321564193415
 30
0.0
 11
2768.076433736907
 21
1434.844989870558
 31
0.0
  0
LINE
  5
2A2
330
24C
100
AcDbEntity
  8
1
 62
     7
100
AcDbLine
 10
2766.892919073806
 20
1436.028504533658
 30
0.0
 11
2770.369493396664
 21
1439.505078856515
 31
0.0
  0
LINE
  5
2A3
330
24C
100
AcDbEntity
  8
1
 62
     7
100
AcDbLine
 10
2776.597891403761
 20
1440.784041602907
 30
0.0
 11
2777.440109340699
 21
1437.640841471208
 31
0.0
  0
LINE
  5
2A4
330
24C
100
AcDbEntity
  8
1
 62
     7
100
AcDbLine
 10
2777.743242671113
 20
1437.640841471208
 30
0.0
 11
2778.585460608051
 21
1440.784041602907
 31
0.0
  0
LINE
  5
2A5
330
24C
100
AcDbEntity
  8
1
 62
     7
100
AcDbLine
 10
2774.767235557702
 20
1434.089071651611
 30
0.0
 11
2774.924148915936
 21
1434.089071651611
 31
0.0
  0
LINE
  5
2A6
330
24C
100
AcDbEntity
  8
1
 62
     7
100
AcDbLine
 10
2775.028757821425
 20
1433.984462746122
 30
0.0
 11
2775.028757821425
 21
1433.566027124166
 31
0.0
  0
LINE
  5
2A7
330
24C
100
AcDbEntity
  8
1
 62
     7
100
AcDbLine
 10
2775.028757821425
 20
1433.566027124166
 30
0.0
 11
2773.564233144579
 21
1433.566027124166
 31
0.0
  0
LINE
  5
2A8
330
24C
100
AcDbEntity
  8
1
 62
     7
100
AcDbLine
 10
2773.564233144579
 20
1433.566027124166
 30
0.0
 11
2773.564233144579
 21
1433.984462746122
 31
0.0
  0
LINE
  5
2A9
330
24C
100
AcDbEntity
  8
1
 62
     7
100
AcDbLine
 10
2773.668842050068
 20
1434.089071651611
 30
0.0
 11
2773.93036431379
 21
1434.089071651611
 31
0.0
  0
LINE
  5
2AA
330
24C
100
AcDbEntity
  8
1
 62
     7
100
AcDbLine
 10
2774.087277672024
 20
1434.245985009844
 30
0.0
 11
2774.087277672024
 21
1440.104083717228
 31
0.0
  0
LINE
  5
2AB
330
24C
100
AcDbEntity
  8
1
 62
     7
100
AcDbLine
 10
2773.93036431379
 20
1440.260997075462
 30
0.0
 11
2773.668842050068
 21
1440.260997075462
 31
0.0
  0
LINE
  5
2AC
330
24C
100
AcDbEntity
  8
1
 62
     7
100
AcDbLine
 10
2773.564233144579
 20
1440.365605980951
 30
0.0
 11
2773.564233144579
 21
1440.784041602907
 31
0.0
  0
LINE
  5
2AD
330
24C
100
AcDbEntity
  8
1
 62
     7
100
AcDbLine
 10
2773.564233144579
 20
1440.784041602907
 30
0.0
 11
2776.597891403761
 21
1440.784041602907
 31
0.0
  0
LINE
  5
2AE
330
24C
100
AcDbEntity
  8
1
 62
     7
100
AcDbLine
 10
2778.585460608051
 20
1440.784041602907
 30
0.0
 11
2781.619118867232
 21
1440.784041602907
 31
0.0
  0
LINE
  5
2AF
330
24C
100
AcDbEntity
  8
1
 62
     7
100
AcDbLine
 10
2781.619118867232
 20
1440.784041602907
 30
0.0
 11
2781.619118867232
 21
1440.365605980951
 31
0.0
  0
LINE
  5
2B0
330
24C
100
AcDbEntity
  8
1
 62
     7
100
AcDbLine
 10
2781.514509961743
 20
1440.260997075462
 30
0.0
 11
2781.305292150765
 21
1440.260997075462
 31
0.0
  0
LINE
  5
2B1
330
24C
100
AcDbEntity
  8
1
 62
     7
100
AcDbLine
 10
2781.043769887042
 20
1439.999474811739
 30
0.0
 11
2781.043769887042
 21
1434.350593915333
 31
0.0
  0
LINE
  5
2B2
330
24C
100
AcDbEntity
  8
1
 62
     7
100
AcDbLine
 10
2781.305292150765
 20
1434.089071651611
 30
0.0
 11
2781.514509961743
 21
1434.089071651611
 31
0.0
  0
LINE
  5
2B3
330
24C
100
AcDbEntity
  8
1
 62
     7
100
AcDbLine
 10
2781.619118867232
 20
1433.984462746122
 30
0.0
 11
2781.619118867232
 21
1433.566027124166
 31
0.0
  0
LINE
  5
2B4
330
24C
100
AcDbEntity
  8
1
 62
     7
100
AcDbLine
 10
2781.619118867232
 20
1433.566027124166
 30
0.0
 11
2778.69006951354
 21
1433.566027124166
 31
0.0
  0
LINE
  5
2B5
330
24C
100
AcDbEntity
  8
1
 62
     7
100
AcDbLine
 10
2778.69006951354
 20
1433.566027124166
 30
0.0
 11
2778.69006951354
 21
1433.984462746122
 31
0.0
  0
LINE
  5
2B6
330
24C
100
AcDbEntity
  8
1
 62
     7
100
AcDbLine
 10
2778.794678419029
 20
1434.089071651611
 30
0.0
 11
2779.003896230007
 21
1434.089071651611
 31
0.0
  0
LINE
  5
2B7
330
24C
100
AcDbEntity
  8
1
 62
     7
100
AcDbLine
 10
2777.192894998074
 20
1433.566027124166
 30
0.0
 11
2776.690867716398
 21
1433.566027124166
 31
0.0
  0
LINE
  5
2B8
330
24C
100
AcDbEntity
  8
1
 62
     7
100
AcDbLine
 10
2774.610322199469
 20
1434.245985009844
 30
0.0
 11
2774.610322199469
 21
1440.138853414664
 31
0.0
  0
LINE
  5
2B9
330
24C
100
AcDbEntity
  8
1
 62
     7
100
AcDbLine
 10
2774.91880222291
 20
1440.179465580206
 30
0.0
 11
2776.690867716398
 21
1433.566027124166
 31
0.0
  0
LINE
  5
2BA
330
24C
100
AcDbEntity
  8
1
 62
     7
100
AcDbLine
 10
2777.192894998074
 20
1433.566027124166
 30
0.0
 11
2778.956938470289
 21
1440.149526989231
 31
0.0
  0
LINE
  5
2BB
330
24C
100
AcDbEntity
  8
1
 62
     7
100
AcDbLine
 10
2779.265418493729
 20
1440.108914823689
 30
0.0
 11
2779.265418493729
 21
1434.350593915333
 31
0.0
  0
LINE
  5
2BC
330
24C
100
AcDbEntity
  8
1
 62
     5
100
AcDbLine
 10
2768.286496099781
 20
1450.417997989959
 30
0.0
 11
2768.286496099781
 21
1454.417997989959
 31
0.0
  0
LINE
  5
2BD
330
24C
100
AcDbEntity
  8
1
 62
     5
100
AcDbLine
 10
2768.286496099781
 20
1454.417997989959
 30
0.0
 11
2778.11785259143
 21
1456.417997989959
 31
0.0
  0
LINE
  5
2BE
330
24C
100
AcDbEntity
  8
1
 62
     5
100
AcDbLine
 10
2778.11785259143
 20
1456.417997989959
 30
0.0
 11
2778.11785259143
 21
1448.417997989959
 31
0.0
  0
LINE
  5
2BF
330
24C
100
AcDbEntity
  8
1
 62
     5
100
AcDbLine
 10
2778.11785259143
 20
1448.417997989959
 30
0.0
 11
2768.286496099781
 21
1450.417997989959
 31
0.0
  0
LINE
  5
2C0
330
24C
100
AcDbEntity
  8
1
 62
     5
100
AcDbLine
 10
2752.830454101576
 20
1452.417997989959
 30
0.0
 11
2756.877787345891
 21
1452.417997989959
 31
0.0
  0
LINE
  5
2C1
330
24C
100
AcDbEntity
  8
1
 62
     5
100
AcDbLine
 10
2757.426578294273
 20
1452.417997989959
 30
0.0
 11
2759.381646047883
 21
1452.417997989959
 31
0.0
  0
LINE
  5
2C2
330
24C
100
AcDbEntity
  8
1
 62
     5
100
AcDbLine
 10
2759.861838127717
 20
1452.417997989959
 30
0.0
 11
2771.935238992115
 21
1452.417997989959
 31
0.0
  0
LINE
  5
2C3
330
24C
100
AcDbEntity
  8
1
 62
     5
100
AcDbLine
 10
2772.449730506223
 20
1452.417997989959
 30
0.0
 11
2773.30721636307
 21
1452.417997989959
 31
0.0
  0
LINE
  5
2C4
330
24C
100
AcDbEntity
  8
1
 62
     5
100
AcDbLine
 10
2774.061803917094
 20
1452.417997989959
 30
0.0
 11
2780.51009756058
 21
1452.417997989959
 31
0.0
  0
LINE
  5
2C5
330
24C
100
AcDbEntity
  8
1
 62
     5
100
AcDbLine
 10
2758.3116161557
 20
1458.014036628632
 30
0.0
 11
2758.3116161557
 21
1453.658008475852
 31
0.0
  0
LINE
  5
2C6
330
24C
100
AcDbEntity
  8
1
 62
     5
100
AcDbLine
 10
2758.3116161557
 20
1453.212115830292
 30
0.0
 11
2758.3116161557
 21
1451.702940722242
 31
0.0
  0
LINE
  5
2C7
330
24C
100
AcDbEntity
  8
1
 62
     5
100
AcDbLine
 10
2758.3116161557
 20
1451.222748642408
 30
0.0
 11
2758.3116161557
 21
1446.420827844068
 31
0.0
  0
LINE
  5
2C8
330
24C
100
AcDbEntity
  8
1
 62
     5
100
AcDbLine
 10
2765.236169694385
 20
1483.917997989959
 30
0.0
 11
2815.236169694384
 21
1483.917997989959
 31
0.0
  0
LINE
  5
2C9
330
24C
100
AcDbEntity
  8
1
 62
     5
100
AcDbLine
 10
2765.236169694385
 20
1483.917997989959
 30
0.0
 11
2765.236169694385
 21
1476.917997989959
 31
0.0
  0
LINE
  5
2CA
330
24C
100
AcDbEntity
  8
1
 62
     5
100
AcDbLine
 10
2815.236169694384
 20
1483.917997989959
 30
0.0
 11
2815.236169694384
 21
1476.917997989959
 31
0.0
  0
LINE
  5
2CB
330
24C
100
AcDbEntity
  8
1
 62
     5
100
AcDbLine
 10
2845.236169694384
 20
1483.917997989959
 30
0.0
 11
2845.236169694384
 21
1476.917997989959
 31
0.0
  0
LINE
  5
2CC
330
24C
100
AcDbEntity
  8
1
 62
     5
100
AcDbLine
 10
2860.236169694384
 20
1483.917997989959
 30
0.0
 11
2860.236169694384
 21
1476.917997989959
 31
0.0
  0
LINE
  5
2CD
330
24C
100
AcDbEntity
  8
1
 62
     5
100
AcDbLine
 10
2900.236169694384
 20
1483.917997989959
 30
0.0
 11
2930.236169694384
 21
1483.917997989959
 31
0.0
  0
LINE
  5
2CE
330
24C
100
AcDbEntity
  8
1
 62
     5
100
AcDbLine
 10
2900.236169694384
 20
1483.917997989959
 30
0.0
 11
2900.236169694384
 21
1476.917997989959
 31
0.0
  0
LINE
  5
2CF
330
24C
100
AcDbEntity
  8
1
 62
     5
100
AcDbLine
 10
2750.236169694384
 20
1476.917997989959
 30
0.0
 11
2750.236169694384
 21
1483.917997989959
 31
0.0
  0
LINE
  5
2D0
330
24C
100
AcDbEntity
  8
1
 62
     7
100
AcDbLine
 10
2765.236169694385
 20
1469.917997989959
 30
0.0
 11
2783.236169694384
 21
1469.917997989959
 31
0.0
  0
LINE
  5
2D1
330
24C
100
AcDbEntity
  8
1
 62
     7
100
AcDbLine
 10
2765.236169694385
 20
1476.917997989959
 30
0.0
 11
2750.236169694384
 21
1476.917997989959
 31
0.0
  0
LINE
  5
2D2
330
24C
100
AcDbEntity
  8
1
 62
     7
100
AcDbLine
 10
2765.236169694385
 20
1476.917997989959
 30
0.0
 11
2765.236169694385
 21
1469.917997989959
 31
0.0
  0
LINE
  5
2D3
330
24C
100
AcDbEntity
  8
1
 62
     7
100
AcDbLine
 10
2815.236169694384
 20
1469.917997989959
 30
0.0
 11
2823.236169694384
 21
1469.917997989959
 31
0.0
  0
LINE
  5
2D4
330
24C
100
AcDbEntity
  8
1
 62
     7
100
AcDbLine
 10
2815.236169694384
 20
1476.917997989959
 30
0.0
 11
2765.236169694385
 21
1476.917997989959
 31
0.0
  0
LINE
  5
2D5
330
24C
100
AcDbEntity
  8
1
 62
     7
100
AcDbLine
 10
2815.236169694384
 20
1476.917997989959
 30
0.0
 11
2815.236169694384
 21
1469.917997989959
 31
0.0
  0
LINE
  5
2D6
330
24C
100
AcDbEntity
  8
1
 62
     7
100
AcDbLine
 10
2845.236169694384
 20
1469.917997989959
 30
0.0
 11
2850.236169694384
 21
1469.917997989959
 31
0.0
  0
LINE
  5
2D7
330
24C
100
AcDbEntity
  8
1
 62
     7
100
AcDbLine
 10
2845.236169694384
 20
1476.917997989959
 30
0.0
 11
2815.236169694384
 21
1476.917997989959
 31
0.0
  0
LINE
  5
2D8
330
24C
100
AcDbEntity
  8
1
 62
     7
100
AcDbLine
 10
2845.236169694384
 20
1476.917997989959
 30
0.0
 11
2845.236169694384
 21
1469.917997989959
 31
0.0
  0
LINE
  5
2D9
330
24C
100
AcDbEntity
  8
1
 62
     7
100
AcDbLine
 10
2860.236169694384
 20
1476.917997989959
 30
0.0
 11
2845.236169694384
 21
1476.917997989959
 31
0.0
  0
LINE
  5
2DA
330
24C
100
AcDbEntity
  8
1
 62
     7
100
AcDbLine
 10
2860.236169694384
 20
1476.917997989959
 30
0.0
 11
2860.236169694384
 21
1469.917997989959
 31
0.0
  0
LINE
  5
2DB
330
24C
100
AcDbEntity
  8
1
 62
     7
100
AcDbLine
 10
2900.236169694384
 20
1476.917997989959
 30
0.0
 11
2860.236169694384
 21
1476.917997989959
 31
0.0
  0
LINE
  5
2DC
330
24C
100
AcDbEntity
  8
1
 62
     7
100
AcDbLine
 10
2900.236169694384
 20
1476.917997989959
 30
0.0
 11
2900.236169694384
 21
1469.917997989959
 31
0.0
  0
LINE
  5
2DD
330
24C
100
AcDbEntity
  8
1
 62
     7
100
AcDbLine
 10
2823.236169694384
 20
1469.917997989959
 30
0.0
 11
2843.236169694384
 21
1469.917997989959
 31
0.0
  0
LINE
  5
2DE
330
24C
100
AcDbEntity
  8
1
 62
     7
100
AcDbLine
 10
2803.236169694384
 20
1469.917997989959
 30
0.0
 11
2815.236169694384
 21
1469.917997989959
 31
0.0
  0
LINE
  5
2DF
330
24C
100
AcDbEntity
  8
1
 62
     7
100
AcDbLine
 10
2783.236169694384
 20
1469.917997989959
 30
0.0
 11
2803.236169694384
 21
1469.917997989959
 31
0.0
  0
LINE
  5
2E0
330
24C
100
AcDbEntity
  8
1
 62
     7
100
AcDbLine
 10
2843.236169694384
 20
1469.917997989959
 30
0.0
 11
2845.236169694384
 21
1469.917997989959
 31
0.0
  0
LINE
  5
2E1
330
24C
100
AcDbEntity
  8
1
 62
     7
100
AcDbLine
 10
2930.236169694384
 20
1469.917997989959
 30
0.0
 11
2930.236169694384
 21
1476.917997989959
 31
0.0
  0
LINE
  5
2E2
330
24C
100
AcDbEntity
  8
1
 62
     7
100
AcDbLine
 10
2750.236169694384
 20
1469.917997989959
 30
0.0
 11
2765.236169694385
 21
1469.917997989959
 31
0.0
  0
LINE
  5
2E3
330
24C
100
AcDbEntity
  8
1
 62
     7
100
AcDbLine
 10
2750.236169694384
 20
1476.917997989959
 30
0.0
 11
2750.236169694384
 21
1469.917997989959
 31
0.0
  0
LINE
  5
2E4
330
24C
100
AcDbEntity
  8
1
 62
     7
100
AcDbLine
 10
2930.236169694384
 20
1476.917997989959
 30
0.0
 11
2900.236169694384
 21
1476.917997989959
 31
0.0
  0
LINE
  5
2E5
330
24C
100
AcDbEntity
  8
1
 62
     5
100
AcDbLine
 10
2900.236169694384
 20
1490.917997989959
 30
0.0
 11
2930.236169694384
 21
1490.917997989959
 31
0.0
  0
LINE
  5
2E6
330
24C
100
AcDbEntity
  8
1
 62
     5
100
AcDbLine
 10
2815.236169694384
 20
1490.917997989959
 30
0.0
 11
2765.236169694385
 21
1490.917997989959
 31
0.0
  0
LINE
  5
2E7
330
24C
100
AcDbEntity
  8
1
 62
     5
100
AcDbLine
 10
2765.236169694385
 20
1490.917997989959
 30
0.0
 11
2765.236169694385
 21
1483.917997989959
 31
0.0
  0
LINE
  5
2E8
330
24C
100
AcDbEntity
  8
1
 62
     5
100
AcDbLine
 10
2845.236169694384
 20
1490.917997989959
 30
0.0
 11
2815.236169694384
 21
1490.917997989959
 31
0.0
  0
LINE
  5
2E9
330
24C
100
AcDbEntity
  8
1
 62
     5
100
AcDbLine
 10
2815.236169694384
 20
1490.917997989959
 30
0.0
 11
2815.236169694384
 21
1483.917997989959
 31
0.0
  0
LINE
  5
2EA
330
24C
100
AcDbEntity
  8
1
 62
     5
100
AcDbLine
 10
2860.236169694384
 20
1490.917997989959
 30
0.0
 11
2845.236169694384
 21
1490.917997989959
 31
0.0
  0
LINE
  5
2EB
330
24C
100
AcDbEntity
  8
1
 62
     5
100
AcDbLine
 10
2845.236169694384
 20
1490.917997989959
 30
0.0
 11
2845.236169694384
 21
1483.917997989959
 31
0.0
  0
LINE
  5
2EC
330
24C
100
AcDbEntity
  8
1
 62
     5
100
AcDbLine
 10
2900.236169694384
 20
1490.917997989959
 30
0.0
 11
2860.236169694384
 21
1490.917997989959
 31
0.0
  0
LINE
  5
2ED
330
24C
100
AcDbEntity
  8
1
 62
     5
100
AcDbLine
 10
2860.236169694384
 20
1490.917997989959
 30
0.0
 11
2860.236169694384
 21
1483.917997989959
 31
0.0
  0
LINE
  5
2EE
330
24C
100
AcDbEntity
  8
1
 62
     5
100
AcDbLine
 10
2900.236169694384
 20
1490.917997989959
 30
0.0
 11
2930.236169694384
 21
1490.917997989959
 31
0.0
  0
LINE
  5
2EF
330
24C
100
AcDbEntity
  8
1
 62
     5
100
AcDbLine
 10
2900.236169694384
 20
1490.917997989959
 30
0.0
 11
2900.236169694384
 21
1483.917997989959
 31
0.0
  0
LINE
  5
2F0
330
24C
100
AcDbEntity
  8
1
 62
     5
100
AcDbLine
 10
2750.236169694384
 20
1490.917997989959
 30
0.0
 11
2765.236169694385
 21
1490.917997989959
 31
0.0
  0
LINE
  5
2F1
330
24C
100
AcDbEntity
  8
1
 62
     5
100
AcDbLine
 10
2750.236169694384
 20
1483.917997989959
 30
0.0
 11
2750.236169694384
 21
1490.917997989959
 31
0.0
  0
LINE
  5
2F2
330
24C
100
AcDbEntity
  8
1
 62
     5
100
AcDbLine
 10
2765.236169694385
 20
1483.917997989959
 30
0.0
 11
2750.236169694384
 21
1483.917997989959
 31
0.0
  0
LINE
  5
2F3
330
24C
100
AcDbEntity
  8
1
 62
     5
100
AcDbLine
 10
2845.236169694384
 20
1483.917997989959
 30
0.0
 11
2815.236169694384
 21
1483.917997989959
 31
0.0
  0
LINE
  5
2F4
330
24C
100
AcDbEntity
  8
1
 62
     5
100
AcDbLine
 10
2860.236169694384
 20
1483.917997989959
 30
0.0
 11
2845.236169694384
 21
1483.917997989959
 31
0.0
  0
LINE
  5
2F5
330
24C
100
AcDbEntity
  8
1
 62
     5
100
AcDbLine
 10
2900.236169694384
 20
1483.917997989959
 30
0.0
 11
2860.236169694384
 21
1483.917997989959
 31
0.0
  0
LINE
  5
2F6
330
24C
100
AcDbEntity
  8
1
 62
     5
100
AcDbLine
 10
2900.236169694384
 20
1490.917997989959
 30
0.0
 11
2930.236169694384
 21
1490.917997989959
 31
0.0
  0
LINE
  5
2F7
330
24C
100
AcDbEntity
  8
1
 62
     5
100
AcDbLine
 10
2815.236169694384
 20
1490.917997989959
 30
0.0
 11
2765.236169694385
 21
1490.917997989959
 31
0.0
  0
LINE
  5
2F8
330
24C
100
AcDbEntity
  8
1
 62
     5
100
AcDbLine
 10
2845.236169694384
 20
1490.917997989959
 30
0.0
 11
2815.236169694384
 21
1490.917997989959
 31
0.0
  0
LINE
  5
2F9
330
24C
100
AcDbEntity
  8
1
 62
     5
100
AcDbLine
 10
2860.236169694384
 20
1490.917997989959
 30
0.0
 11
2845.236169694384
 21
1490.917997989959
 31
0.0
  0
LINE
  5
2FA
330
24C
100
AcDbEntity
  8
1
 62
     5
100
AcDbLine
 10
2900.236169694384
 20
1490.917997989959
 30
0.0
 11
2860.236169694384
 21
1490.917997989959
 31
0.0
  0
LINE
  5
2FB
330
24C
100
AcDbEntity
  8
1
 62
     5
100
AcDbLine
 10
2900.236169694384
 20
1490.917997989959
 30
0.0
 11
2930.236169694384
 21
1490.917997989959
 31
0.0
  0
LINE
  5
2FC
330
24C
100
AcDbEntity
  8
1
 62
     5
100
AcDbLine
 10
2750.236169694384
 20
1490.917997989959
 30
0.0
 11
2765.236169694385
 21
1490.917997989959
 31
0.0
  0
LINE
  5
2FD
330
24C
100
AcDbEntity
  8
1
 62
     5
100
AcDbLine
 10
2750.236169694384
 20
1497.917997989959
 30
0.0
 11
2750.236169694384
 21
1504.917997989959
 31
0.0
  0
LINE
  5
2FE
330
24C
100
AcDbEntity
  8
1
 62
     5
100
AcDbLine
 10
2765.236169694385
 20
1504.917997989959
 30
0.0
 11
2765.236169694385
 21
1497.917997989959
 31
0.0
  0
LINE
  5
2FF
330
24C
100
AcDbEntity
  8
1
 62
     5
100
AcDbLine
 10
2765.236169694385
 20
1504.917997989959
 30
0.0
 11
2815.236169694384
 21
1504.917997989959
 31
0.0
  0
LINE
  5
300
330
24C
100
AcDbEntity
  8
1
 62
     5
100
AcDbLine
 10
2765.236169694385
 20
1511.917997989959
 30
0.0
 11
2815.236169694384
 21
1511.917997989959
 31
0.0
  0
LINE
  5
301
330
24C
100
AcDbEntity
  8
1
 62
     5
100
AcDbLine
 10
2815.236169694384
 20
1504.917997989959
 30
0.0
 11
2815.236169694384
 21
1497.917997989959
 31
0.0
  0
LINE
  5
302
330
24C
100
AcDbEntity
  8
1
 62
     5
100
AcDbLine
 10
2815.236169694384
 20
1511.917997989959
 30
0.0
 11
2815.236169694384
 21
1504.917997989959
 31
0.0
  0
LINE
  5
303
330
24C
100
AcDbEntity
  8
1
 62
     5
100
AcDbLine
 10
2845.236169694384
 20
1504.917997989959
 30
0.0
 11
2815.236169694384
 21
1504.917997989959
 31
0.0
  0
LINE
  5
304
330
24C
100
AcDbEntity
  8
1
 62
     5
100
AcDbLine
 10
2845.236169694384
 20
1504.917997989959
 30
0.0
 11
2845.236169694384
 21
1497.917997989959
 31
0.0
  0
LINE
  5
305
330
24C
100
AcDbEntity
  8
1
 62
     5
100
AcDbLine
 10
2860.236169694384
 20
1504.917997989959
 30
0.0
 11
2845.236169694384
 21
1504.917997989959
 31
0.0
  0
LINE
  5
306
330
24C
100
AcDbEntity
  8
1
 62
     5
100
AcDbLine
 10
2845.236169694384
 20
1511.917997989959
 30
0.0
 11
2815.236169694384
 21
1511.917997989959
 31
0.0
  0
LINE
  5
307
330
24C
100
AcDbEntity
  8
1
 62
     5
100
AcDbLine
 10
2845.236169694384
 20
1511.917997989959
 30
0.0
 11
2845.236169694384
 21
1504.917997989959
 31
0.0
  0
LINE
  5
308
330
24C
100
AcDbEntity
  8
1
 62
     5
100
AcDbLine
 10
2860.236169694384
 20
1511.917997989959
 30
0.0
 11
2845.236169694384
 21
1511.917997989959
 31
0.0
  0
LINE
  5
309
330
24C
100
AcDbEntity
  8
1
 62
     5
100
AcDbLine
 10
2860.236169694384
 20
1504.917997989959
 30
0.0
 11
2860.236169694384
 21
1497.917997989959
 31
0.0
  0
LINE
  5
30A
330
24C
100
AcDbEntity
  8
1
 62
     5
100
AcDbLine
 10
2900.236169694384
 20
1504.917997989959
 30
0.0
 11
2860.236169694384
 21
1504.917997989959
 31
0.0
  0
LINE
  5
30B
330
24C
100
AcDbEntity
  8
1
 62
     5
100
AcDbLine
 10
2900.236169694384
 20
1511.917997989959
 30
0.0
 11
2860.236169694384
 21
1511.917997989959
 31
0.0
  0
LINE
  5
30C
330
24C
100
AcDbEntity
  8
1
 62
     5
100
AcDbLine
 10
2860.236169694384
 20
1511.917997989959
 30
0.0
 11
2860.236169694384
 21
1504.917997989959
 31
0.0
  0
LINE
  5
30D
330
24C
100
AcDbEntity
  8
1
 62
     5
100
AcDbLine
 10
2900.236169694384
 20
1504.917997989959
 30
0.0
 11
2900.236169694384
 21
1497.917997989959
 31
0.0
  0
LINE
  5
30E
330
24C
100
AcDbEntity
  8
1
 62
     5
100
AcDbLine
 10
2900.236169694384
 20
1504.917997989959
 30
0.0
 11
2930.236169694384
 21
1504.917997989959
 31
0.0
  0
LINE
  5
30F
330
24C
100
AcDbEntity
  8
1
 62
     5
100
AcDbLine
 10
2900.236169694384
 20
1504.917997989959
 30
0.0
 11
2900.236169694384
 21
1497.917997989959
 31
0.0
  0
LINE
  5
310
330
24C
100
AcDbEntity
  8
1
 62
     5
100
AcDbLine
 10
2900.236169694384
 20
1504.917997989959
 30
0.0
 11
2860.236169694384
 21
1504.917997989959
 31
0.0
  0
LINE
  5
311
330
24C
100
AcDbEntity
  8
1
 62
     5
100
AcDbLine
 10
2900.236169694384
 20
1511.917997989959
 30
0.0
 11
2900.236169694384
 21
1504.917997989959
 31
0.0
  0
LINE
  5
312
330
24C
100
AcDbEntity
  8
1
 62
     5
100
AcDbLine
 10
2900.236169694384
 20
1511.917997989959
 30
0.0
 11
2930.236169694384
 21
1511.917997989959
 31
0.0
  0
LINE
  5
313
330
24C
100
AcDbEntity
  8
1
 62
     5
100
AcDbLine
 10
2765.236169694385
 20
1518.917997989959
 30
0.0
 11
2815.236169694384
 21
1518.917997989959
 31
0.0
  0
LINE
  5
314
330
24C
100
AcDbEntity
  8
1
 62
     5
100
AcDbLine
 10
2815.236169694384
 20
1518.917997989959
 30
0.0
 11
2815.236169694384
 21
1511.917997989959
 31
0.0
  0
LINE
  5
315
330
24C
100
AcDbEntity
  8
1
 62
     5
100
AcDbLine
 10
2845.236169694384
 20
1518.917997989959
 30
0.0
 11
2815.236169694384
 21
1518.917997989959
 31
0.0
  0
LINE
  5
316
330
24C
100
AcDbEntity
  8
1
 62
     5
100
AcDbLine
 10
2845.236169694384
 20
1518.917997989959
 30
0.0
 11
2845.236169694384
 21
1511.917997989959
 31
0.0
  0
LINE
  5
317
330
24C
100
AcDbEntity
  8
1
 62
     5
100
AcDbLine
 10
2860.236169694384
 20
1518.917997989959
 30
0.0
 11
2845.236169694384
 21
1518.917997989959
 31
0.0
  0
LINE
  5
318
330
24C
100
AcDbEntity
  8
1
 62
     5
100
AcDbLine
 10
2860.236169694384
 20
1518.917997989959
 30
0.0
 11
2860.236169694384
 21
1511.917997989959
 31
0.0
  0
LINE
  5
319
330
24C
100
AcDbEntity
  8
1
 62
     5
100
AcDbLine
 10
2900.236169694384
 20
1518.917997989959
 30
0.0
 11
2860.236169694384
 21
1518.917997989959
 31
0.0
  0
LINE
  5
31A
330
24C
100
AcDbEntity
  8
1
 62
     5
100
AcDbLine
 10
2900.236169694384
 20
1518.917997989959
 30
0.0
 11
2860.236169694384
 21
1518.917997989959
 31
0.0
  0
LINE
  5
31B
330
24C
100
AcDbEntity
  8
1
 62
     5
100
AcDbLine
 10
2900.236169694384
 20
1518.917997989959
 30
0.0
 11
2900.236169694384
 21
1511.917997989959
 31
0.0
  0
LINE
  5
31C
330
24C
100
AcDbEntity
  8
1
 62
     5
100
AcDbLine
 10
2900.236169694384
 20
1518.917997989959
 30
0.0
 11
2930.236169694384
 21
1518.917997989959
 31
0.0
  0
LINE
  5
31D
330
24C
100
AcDbEntity
  8
1
 62
     5
100
AcDbLine
 10
2765.236169694385
 20
1504.917997989959
 30
0.0
 11
2750.236169694384
 21
1504.917997989959
 31
0.0
  0
LINE
  5
31E
330
24C
100
AcDbEntity
  8
1
 62
     5
100
AcDbLine
 10
2765.236169694385
 20
1511.917997989959
 30
0.0
 11
2750.236169694384
 21
1511.917997989959
 31
0.0
  0
LINE
  5
31F
330
24C
100
AcDbEntity
  8
1
 62
     5
100
AcDbLine
 10
2765.236169694385
 20
1518.917997989959
 30
0.0
 11
2750.236169694384
 21
1518.917997989959
 31
0.0
  0
LINE
  5
320
330
24C
100
AcDbEntity
  8
1
 62
     5
100
AcDbLine
 10
2750.236169694384
 20
1504.917997989959
 30
0.0
 11
2750.236169694384
 21
1511.917997989959
 31
0.0
  0
LINE
  5
321
330
24C
100
AcDbEntity
  8
1
 62
     5
100
AcDbLine
 10
2750.236169694384
 20
1511.917997989959
 30
0.0
 11
2750.236169694384
 21
1518.917997989959
 31
0.0
  0
LINE
  5
322
330
24C
100
AcDbEntity
  8
1
 62
     5
100
AcDbLine
 10
2765.236169694385
 20
1511.917997989959
 30
0.0
 11
2765.236169694385
 21
1504.917997989959
 31
0.0
  0
LINE
  5
323
330
24C
100
AcDbEntity
  8
1
 62
     5
100
AcDbLine
 10
2765.236169694385
 20
1518.917997989959
 30
0.0
 11
2765.236169694385
 21
1511.917997989959
 31
0.0
  0
ARC
  5
324
330
24C
100
AcDbEntity
  8
1
 62
     7
100
AcDbCircle
 10
2764.881693988991
 20
1439.162603567827
 30
0.0
 40
0.2615222637220663
100
AcDbArc
 50
197.472885270319
 51
1.852437285439998
  0
ARC
  5
325
330
24C
100
AcDbEntity
  8
1
 62
     7
100
AcDbCircle
 10
2759.546639809053
 20
1439.162603567827
 30
0.0
 40
0.2615222637228858
100
AcDbArc
 50
178.1475627145631
 51
342.5271147297408
  0
ARC
  5
326
330
24C
100
AcDbEntity
  8
1
 62
     7
100
AcDbCircle
 10
2770.961250728215
 20
1438.913321524965
 30
0.0
 40
0.8368712439118217
100
AcDbArc
 50
315.0
 51
135.000000000055
  0
ARC
  5
327
330
24C
100
AcDbEntity
  8
1
 62
     7
100
AcDbCircle
 10
2767.484676405356
 20
1435.436747202108
 30
0.0
 40
0.8368712439116608
100
AcDbArc
 50
135.000000000011
 51
315.000000000044
  0
CIRCLE
  5
328
330
24C
100
AcDbEntity
  8
1
 62
     7
100
AcDbCircle
 10
2769.222963566785
 20
1437.175034363537
 30
0.0
 40
3.818225050347791
  0
CIRCLE
  5
329
330
24C
100
AcDbEntity
  8
1
 62
     5
100
AcDbCircle
 10
2758.3116161557
 20
1452.417997989959
 30
0.0
 40
2.0
  0
CIRCLE
  5
32A
330
24C
100
AcDbEntity
  8
1
 62
     5
100
AcDbCircle
 10
2758.3116161557
 20
1452.417997989959
 30
0.0
 40
4.0
  0
ARC
  5
32B
330
24C
100
AcDbEntity
  8
1
 62
     7
100
AcDbCircle
 10
2755.571501400472
 20
1439.188221420838
 30
0.0
 40
0.1569133582335167
100
AcDbArc
 50
16.99999999980375
 51
163.0000000001962
  0
ARC
  5
32C
330
24C
100
AcDbEntity
  8
1
 62
     7
100
AcDbCircle
 10
2754.860061893653
 20
1436.86120764707
 30
0.0
 40
0.1569133582335167
100
AcDbArc
 50
163.0000000001962
 51
270.0
  0
ARC
  5
32D
330
24C
100
AcDbEntity
  8
1
 62
     7
100
AcDbCircle
 10
2756.282940907289
 20
1436.86120764707
 30
0.0
 40
0.1569133582338509
100
AcDbArc
 50
270.0
 51
16.99999999980375
  0
ARC
  5
32E
330
24C
100
AcDbEntity
  8
1
 62
     7
100
AcDbCircle
 10
2754.604204677959
 20
1436.024336403157
 30
0.0
 40
0.1569133582340783
100
AcDbArc
 50
90.0
 51
162.9999999997993
  0
ARC
  5
32F
330
24C
100
AcDbEntity
  8
1
 62
     7
100
AcDbCircle
 10
2754.060508094608
 20
1434.245985009844
 30
0.0
 40
0.1569133582338491
100
AcDbArc
 50
162.9999999997993
 51
270.0
  0
ARC
  5
330
330
24C
100
AcDbEntity
  8
1
 62
     7
100
AcDbCircle
 10
2756.500094863901
 20
1435.972031950413
 30
0.0
 40
0.2092178109784895
100
AcDbArc
 50
16.99999999993827
 51
90.0
  0
ARC
  5
331
330
24C
100
AcDbEntity
  8
1
 62
     7
100
AcDbCircle
 10
2757.01180929529
 20
1434.298289462589
 30
0.0
 40
0.2092178109780889
100
AcDbArc
 50
270.0
 51
16.99999999993827
  0
ARC
  5
332
330
24C
100
AcDbEntity
  8
1
 62
     7
100
AcDbCircle
 10
2753.107992215445
 20
1434.350593915333
 30
0.0
 40
0.2615222637220995
100
AcDbArc
 50
270.0
 51
343.0000000000657
  0
ARC
  5
333
330
24C
100
AcDbEntity
  8
1
 62
     7
100
AcDbCircle
 10
2759.292980291935
 20
1434.350593915333
 30
0.0
 40
0.2615222637223931
100
AcDbArc
 50
196.9999999999343
 51
270.0
  0
ARC
  5
334
330
24C
100
AcDbEntity
  8
1
 62
     7
100
AcDbCircle
 10
2752.851669857757
 20
1433.984462746122
 30
0.0
 40
0.1046089054889308
100
AcDbArc
 50
90.0
 51
180.0
  0
ARC
  5
335
330
24C
100
AcDbEntity
  8
1
 62
     7
100
AcDbCircle
 10
2754.316194534603
 20
1433.984462746122
 30
0.0
 40
0.1046089054893855
100
AcDbArc
 50
0.0
 51
90.0
  0
ARC
  5
336
330
24C
100
AcDbEntity
  8
1
 62
     7
100
AcDbCircle
 10
2756.722199360849
 20
1433.984462746122
 30
0.0
 40
0.1046089054889308
100
AcDbArc
 50
90.0
 51
180.0
  0
ARC
  5
337
330
24C
100
AcDbEntity
  8
1
 62
     7
100
AcDbCircle
 10
2759.651248714543
 20
1433.984462746122
 30
0.0
 40
0.1046089054889308
100
AcDbArc
 50
0.0
 51
90.0
  0
ARC
  5
338
330
24C
100
AcDbEntity
  8
1
 62
     7
100
AcDbCircle
 10
2760.854251127666
 20
1439.89486590625
 30
0.0
 40
0.3661311692108029
100
AcDbArc
 50
0.0
 51
90.0
  0
ARC
  5
339
330
24C
100
AcDbEntity
  8
1
 62
     7
100
AcDbCircle
 10
2763.574082670381
 20
1439.89486590625
 30
0.0
 40
0.3661311692119398
100
AcDbArc
 50
90.0
 51
180.0
  0
ARC
  5
33A
330
24C
100
AcDbEntity
  8
1
 62
     7
100
AcDbCircle
 10
2763.724586981766
 20
1439.528734737039
 30
0.0
 40
0.7322623384229
100
AcDbArc
 50
17.4728852702878
 51
90.0
  0
ARC
  5
33B
330
24C
100
AcDbEntity
  8
1
 62
     7
100
AcDbCircle
 10
2760.703746816278
 20
1439.528734737039
 30
0.0
 40
0.7322623384229701
100
AcDbArc
 50
90.0
 51
162.5271147297229
  0
ARC
  5
33C
330
24C
100
AcDbEntity
  8
1
 62
     7
100
AcDbCircle
 10
2760.958860033155
 20
1434.350593915333
 30
0.0
 40
0.2615222637220995
100
AcDbArc
 50
270.0
 51
0.0
  0
ARC
  5
33D
330
24C
100
AcDbEntity
  8
1
 62
     7
100
AcDbCircle
 10
2763.469473764891
 20
1434.350593915333
 30
0.0
 40
0.2615222637232364
100
AcDbArc
 50
180.0
 51
270.0
  0
ARC
  5
33E
330
24C
100
AcDbEntity
  8
1
 62
     7
100
AcDbCircle
 10
2763.678691575869
 20
1433.984462746122
 30
0.0
 40
0.1046089054880213
100
AcDbArc
 50
0.0
 51
90.0
  0
ARC
  5
33F
330
24C
100
AcDbEntity
  8
1
 62
     7
100
AcDbCircle
 10
2760.749642222177
 20
1433.984462746122
 30
0.0
 40
0.1046089054889308
100
AcDbArc
 50
90.0
 51
180.0
  0
ARC
  5
340
330
24C
100
AcDbEntity
  8
1
 62
     7
100
AcDbCircle
 10
2773.668842050068
 20
1440.365605980951
 30
0.0
 40
0.1046089054893855
100
AcDbArc
 50
180.0
 51
270.0
  0
ARC
  5
341
330
24C
100
AcDbEntity
  8
1
 62
     7
100
AcDbCircle
 10
2781.514509961743
 20
1440.365605980951
 30
0.0
 40
0.1046089054889308
100
AcDbArc
 50
270.0
 51
0.0
  0
ARC
  5
342
330
24C
100
AcDbEntity
  8
1
 62
     7
100
AcDbCircle
 10
2781.514509961743
 20
1433.984462746122
 30
0.0
 40
0.1046089054889308
100
AcDbArc
 50
0.0
 51
90.0
  0
ARC
  5
343
330
24C
100
AcDbEntity
  8
1
 62
     7
100
AcDbCircle
 10
2778.794678419029
 20
1433.984462746122
 30
0.0
 40
0.1046089054889308
100
AcDbArc
 50
90.0
 51
180.0
  0
ARC
  5
344
330
24C
100
AcDbEntity
  8
1
 62
     7
100
AcDbCircle
 10
2773.668842050068
 20
1433.984462746122
 30
0.0
 40
0.1046089054889308
100
AcDbArc
 50
90.0
 51
180.0
  0
ARC
  5
345
330
24C
100
AcDbEntity
  8
1
 62
     7
100
AcDbCircle
 10
2774.924148915936
 20
1433.984462746122
 30
0.0
 40
0.1046089054893855
100
AcDbArc
 50
0.0
 51
90.0
  0
ARC
  5
346
330
24C
100
AcDbEntity
  8
1
 62
     7
100
AcDbCircle
 10
2773.93036431379
 20
1440.104083717228
 30
0.0
 40
0.1569133582338509
100
AcDbArc
 50
0.0
 51
90.0
  0
ARC
  5
347
330
24C
100
AcDbEntity
  8
1
 62
     7
100
AcDbCircle
 10
2773.93036431379
 20
1434.245985009844
 30
0.0
 40
0.1569133582329414
100
AcDbArc
 50
270.0
 51
0.0
  0
ARC
  5
348
330
24C
100
AcDbEntity
  8
1
 62
     7
100
AcDbCircle
 10
2774.767235557702
 20
1434.245985009844
 30
0.0
 40
0.1569133582329414
100
AcDbArc
 50
180.0
 51
270.0
  0
ARC
  5
349
330
24C
100
AcDbEntity
  8
1
 62
     7
100
AcDbCircle
 10
2774.767235557702
 20
1440.138853414664
 30
0.0
 40
0.1569133582340832
100
AcDbArc
 50
14.99999999997748
 51
180.0
  0
ARC
  5
34A
330
24C
100
AcDbEntity
  8
1
 62
     7
100
AcDbCircle
 10
2777.591676005906
 20
1437.68145363675
 30
0.0
 40
0.1569133582327655
100
AcDbArc
 50
195.0000000001064
 51
345.0000000000225
  0
ARC
  5
34B
330
24C
100
AcDbEntity
  8
1
 62
     7
100
AcDbCircle
 10
2779.108505135496
 20
1440.108914823689
 30
0.0
 40
0.1569133582329414
100
AcDbArc
 50
0.0
 51
165.0000000000225
  0
ARC
  5
34C
330
24C
100
AcDbEntity
  8
1
 62
     7
100
AcDbCircle
 10
2781.305292150765
 20
1439.999474811739
 30
0.0
 40
0.261522263723009
100
AcDbArc
 50
90.0
 51
180.0
  0
ARC
  5
34D
330
24C
100
AcDbEntity
  8
1
 62
     7
100
AcDbCircle
 10
2779.003896230007
 20
1434.350593915333
 30
0.0
 40
0.2615222637220995
100
AcDbArc
 50
270.0
 51
0.0
  0
ARC
  5
34E
330
24C
100
AcDbEntity
  8
1
 62
     7
100
AcDbCircle
 10
2781.305292150765
 20
1434.350593915333
 30
0.0
 40
0.2615222637223269
100
AcDbArc
 50
180.0
 51
270.0
  0
TEXT
  5
34F
330
24C
100
AcDbEntity
  8
1
 62
     3
100
AcDbText
 10
2902.587635856635
 20
1506.667997989959
 30
0.0
 40
3.5
  1
\U+03C68 穴\U+03C64.5
 41
0.6300000000000001
 11
2902.587635856635
 21
1508.417997989959
 31
0.0
100
AcDbText
 73
     2
  0
TEXT
  5
350
330
24C
100
AcDbEntity
  8
1
 62
     3
100
AcDbText
 10
2757.001169694384
 20
1492.667997989958
 30
0.0
 40
3.5
  1
3
 41
0.6300000000000001
 72
     1
 11
2757.736169694384
 21
1494.417997989958
 31
0.0
100
AcDbText
 73
     2
  0
TEXT
  5
351
330
24C
100
AcDbEntity
  8
1
 62
     3
100
AcDbText
 10
2767.187301918956
 20
1492.667997989959
 30
0.0
 40
3.5
  1
シャフト
 41
0.6300000000000001
 11
2767.187301918956
 21
1494.417997989959
 31
0.0
100
AcDbText
 73
     2
  0
TEXT
  5
352
330
24C
100
AcDbEntity
  8
1
 62
     3
100
AcDbText
 10
2817.651668756719
 20
1492.667997989959
 30
0.0
 40
3.5
  1
SWCH 10 A
 41
0.6300000000000001
 11
2817.651668756719
 21
1494.417997989959
 31
0.0
100
AcDbText
 73
     2
  0
TEXT
  5
353
330
24C
100
AcDbEntity
  8
1
 62
     3
100
AcDbText
 10
2852.368669694384
 20
1492.667997989959
 30
0.0
 40
3.5
  1
1
 41
0.6300000000000001
 72
     1
 11
2852.736169694384
 21
1494.417997989959
 31
0.0
100
AcDbText
 73
     2
  0
TEXT
  5
354
330
24C
100
AcDbEntity
  8
1
 62
     3
100
AcDbText
 10
2862.587635856635
 20
1492.667997989959
 30
0.0
 40
3.5
  1
クロメート
 41
0.6300000000000001
 11
2862.587635856635
 21
1494.417997989959
 31
0.0
100
AcDbText
 73
     2
  0
TEXT
  5
355
330
24C
100
AcDbEntity
  8
1
 62
     3
100
AcDbText
 10
2853.28025374938
 20
1429.417997989958
 30
0.0
 40
6.0
  1
GDFD-HR4-A01
 41
0.6299999999999999
 11
2853.28025374938
 21
1432.417997989958
 31
0.0
100
AcDbText
 73
     2
  0
TEXT
  5
356
330
24C
100
AcDbEntity
  8
1
 62
     3
100
AcDbText
 10
2785.466169694384
 20
1446.417997989958
 30
0.0
 40
4.0
  1
98.10.27.
 41
0.6299999999999998
 72
     1
 11
2793.236169694384
 21
1448.417997989958
 31
0.0
100
AcDbText
 73
     2
  0
TEXT
  5
357
330
24C
100
AcDbEntity
  8
1
 62
     3
100
AcDbText
 10
2805.466169694384
 20
1446.417997989959
 30
0.0
 40
4.0
  1
98.10.27.
 41
0.6299999999999998
 72
     1
 11
2813.236169694384
 21
1448.417997989959
 31
0.0
100
AcDbText
 73
     2
  0
TEXT
  5
358
330
24C
100
AcDbEntity
  8
1
 62
     3
100
AcDbText
 10
2790.716169694384
 20
1454.417997989958
 30
0.0
 40
6.0
  1
逢坂
 41
0.6299999999999999
 72
     1
 11
2793.236169694384
 21
1457.417997989958
 31
0.0
100
AcDbText
 73
     2
  0
TEXT
  5
359
330
24C
100
AcDbEntity
  8
1
 62
     3
100
AcDbText
 10
2810.716169694384
 20
1454.417997989959
 30
0.0
 40
6.0
  1
中島
 41
0.6299999999999999
 72
     1
 11
2813.236169694384
 21
1457.417997989959
 31
0.0
100
AcDbText
 73
     2
  0
TEXT
  5
35A
330
24C
100
AcDbEntity
  8
1
 62
     3
100
AcDbText
 10
2862.587635856635
 20
1485.66799798996
 30
0.0
 40
3.5
  1
DG色
 41
0.6300000000000001
 11
2862.587635856635
 21
1487.41799798996
 31
0.0
100
AcDbText
 73
     2
  0
TEXT
  5
35B
330
24C
100
AcDbEntity
  8
1
 62
     3
100
AcDbText
 10
2852.368669694384
 20
1485.667997989959
 30
0.0
 40
3.5
  1
1
 41
0.6300000000000001
 72
     1
 11
2852.736169694384
 21
1487.417997989959
 31
0.0
100
AcDbText
 73
     2
  0
TEXT
  5
35C
330
24C
100
AcDbEntity
  8
1
 62
     3
100
AcDbText
 10
2852.368669694384
 20
1478.667997989959
 30
0.0
 40
3.5
  1
1
 41
0.6300000000000001
 72
     1
 11
2852.736169694384
 21
1480.417997989959
 31
0.0
100
AcDbText
 73
     2
  0
TEXT
  5
35D
330
24C
100
AcDbEntity
  8
1
 62
     3
100
AcDbText
 10
2767.187301918956
 20
1478.667997989959
 30
0.0
 40
3.5
  1
固定カップ
 41
0.6300000000000001
 11
2767.187301918956
 21
1480.417997989959
 31
0.0
100
AcDbText
 73
     2
  0
TEXT
  5
35E
330
24C
100
AcDbEntity
  8
1
 62
     3
100
AcDbText
 10
2757.368669694384
 20
1478.667997989959
 30
0.0
 40
3.5
  1
1
 41
0.6300000000000001
 72
     1
 11
2757.736169694384
 21
1480.417997989959
 31
0.0
100
AcDbText
 73
     2
  0
TEXT
  5
35F
330
24C
100
AcDbEntity
  8
1
 62
     3
100
AcDbText
 10
2757.001169694384
 20
1485.667997989958
 30
0.0
 40
3.5
  1
2
 41
0.6300000000000001
 72
     1
 11
2757.736169694384
 21
1487.417997989958
 31
0.0
100
AcDbText
 73
     2
  0
TEXT
  5
360
330
24C
100
AcDbEntity
  8
1
 62
     4
100
AcDbText
 10
2843.136169694384
 20
1464.417997989959
 30
0.0
 40
4.0
  1
品
 41
0.9
100
AcDbText
  0
TEXT
  5
361
330
24C
100
AcDbEntity
  8
1
 62
     4
100
AcDbText
 10
2843.136169694384
 20
1456.417997989959
 30
0.0
 40
4.0
  1
名
 41
0.9
100
AcDbText
  0
TEXT
  5
362
330
24C
100
AcDbEntity
  8
1
 62
     4
100
AcDbText
 10
2843.136169694384
 20
1449.417997989959
 30
0.0
 40
4.0
  1
図
 41
0.9
100
AcDbText
  0
TEXT
  5
363
330
24C
100
AcDbEntity
  8
1
 62
     4
100
AcDbText
 10
2843.136169694384
 20
1441.417997989959
 30
0.0
 40
4.0
  1
名
 41
0.9
100
AcDbText
  0
TEXT
  5
364
330
24C
100
AcDbEntity
  8
1
 62
     4
100
AcDbText
 10
2843.136169694384
 20
1434.417997989959
 30
0.0
 40
4.0
  1
図
 41
0.9
100
AcDbText
  0
TEXT
  5
365
330
24C
100
AcDbEntity
  8
1
 62
     4
100
AcDbText
 10
2843.136169694384
 20
1426.417997989959
 30
0.0
 40
4.0
  1
番
 41
0.9
100
AcDbText
  0
TEXT
  5
366
330
24C
100
AcDbEntity
  8
1
 62
     4
100
AcDbText
 10
2783.636169694384
 20
1464.417997989959
 30
0.0
 40
4.0
  1
?%d  認
 41
0.9
 72
     1
 11
2793.236169694384
 21
1466.417997989959
 31
0.0
100
AcDbText
 73
     2
  0
TEXT
  5
367
330
24C
100
AcDbEntity
  8
1
 62
     4
100
AcDbText
 10
2807.236169694384
 20
1464.417997989959
 30
0.0
 40
4.0
  1
検  図
 41
0.9
 72
     1
 11
2813.236169694384
 21
1466.417997989959
 31
0.0
100
AcDbText
 73
     2
  0
TEXT
  5
368
330
24C
100
AcDbEntity
  8
1
 62
     4
100
AcDbText
 10
2827.236169694384
 20
1464.417997989959
 30
0.0
 40
4.0
  1
担  当
 41
0.9
 72
     1
 11
2833.236169694384
 21
1466.417997989959
 31
0.0
100
AcDbText
 73
     2
  0
TEXT
  5
369
330
24C
100
AcDbEntity
  8
1
 62
     4
100
AcDbText
 10
2752.023241192914
 20
1465.411141966452
 30
0.0
 40
4.0
  1
尺度
 41
0.9
 72
     1
 11
2754.423241192914
 21
1467.411141966452
 31
0.0
100
AcDbText
 73
     2
  0
TEXT
  5
36A
330
24C
100
AcDbEntity
  8
1
 62
     4
100
AcDbText
 10
2755.761084523973
 20
1427.324368279492
 30
0.0
 40
4.0
  1
高橋金物株式会社
 41
0.9
 72
     1
 11
2767.161084523973
 21
1429.324368279492
 31
0.0
100
AcDbText
 73
     2
  0
TEXT
  5
36B
330
24C
100
AcDbEntity
  8
1
 62
     4
100
AcDbText
 10
2792.925881821976
 20
1438.094793607169
 30
0.0
 40
3.0
  1
本社
 41
0.9
 72
     1
 11
2794.725881821976
 21
1439.594793607169
 31
0.0
100
AcDbText
 73
     2
  0
TEXT
  5
36C
330
24C
100
AcDbEntity
  8
1
 62
     4
100
AcDbText
 10
2807.747026304014
 20
1433.61588712709
 30
0.0
 40
2.5
  1
東京都台東区入谷
 41
0.9
 72
     1
 11
2814.872026304013
 21
1434.86588712709
 31
0.0
100
AcDbText
 73
     2
  0
TEXT
  5
36D
330
24C
100
AcDbEntity
  8
1
 62
     4
100
AcDbText
 10
2826.348072622224
 20
1433.884304837525
 30
0.0
 40
2.0
  1
1-27-4
 41
0.9
 72
     1
 11
2831.148072622224
 21
1434.884304837525
 31
0.0
100
AcDbText
 73
     2
  0
TEXT
  5
36E
330
24C
100
AcDbEntity
  8
1
 62
     4
100
AcDbText
 10
2800.922374381268
 20
1428.70705972103
 30
0.0
 40
2.0
  1
03 (3876) 0600
 41
0.9
 72
     1
 11
2812.022374381268
 21
1429.70705972103
 31
0.0
100
AcDbText
 73
     2
  0
TEXT
  5
36F
330
24C
100
AcDbEntity
  8
1
 62
     4
100
AcDbText
 10
2792.823458507372
 20
1433.518733427264
 30
0.0
 40
2.5
  1
〒
 41
0.9
 72
     1
 11
2793.385958507372
 21
1434.768733427264
 31
0.0
100
AcDbText
 73
     2
  0
TEXT
  5
370
330
24C
100
AcDbEntity
  8
1
 62
     4
100
AcDbText
 10
2794.471267042132
 20
1428.726997731911
 30
0.0
 40
2.0
  1
TEL
 41
0.7200000000000001
  7
COMPLEX
 72
     1
 11
2796.356981327846
 21
1429.726997731911
 31
0.0
100
AcDbText
 73
     2
  0
TEXT
  5
371
330
24C
100
AcDbEntity
  8
1
 62
     4
100
AcDbText
 10
2795.884879491737
 20
1433.831190512721
 30
0.0
 40
2.0
  1
110
 41
0.9
 72
     1
 11
2797.534879491737
 21
1434.831190512721
 31
0.0
100
AcDbText
 73
     2
  0
TEXT
  5
372
330
24C
100
AcDbEntity
  8
1
 62
     3
100
AcDbText
 10
2853.28025374938
 20
1459.417997989959
 30
0.0
 40
6.0
  1
HR-400（裏面付け下部ガイド）
 41
0.6299999999999999
 11
2853.28025374938
 21
1462.417997989959
 31
0.0
100
AcDbText
 73
     2
  0
TEXT
  5
373
330
24C
100
AcDbEntity
  8
1
 62
     3
100
AcDbText
 10
2830.716169694384
 20
1454.417997989959
 30
0.0
 40
6.0
  1
緒方
 41
0.6299999999999999
 72
     1
 11
2833.236169694384
 21
1457.417997989959
 31
0.0
100
AcDbText
 73
     2
  0
TEXT
  5
374
330
24C
100
AcDbEntity
  8
1
 62
     3
100
AcDbText
 10
2825.466169694384
 20
1446.417997989959
 30
0.0
 40
4.0
  1
98.10.27.
 41
0.6299999999999998
 72
     1
 11
2833.236169694384
 21
1448.417997989959
 31
0.0
100
AcDbText
 73
     2
  0
TEXT
  5
375
330
24C
100
AcDbEntity
  8
1
 62
     3
100
AcDbText
 10
2762.670881053518
 20
1461.108910826634
 30
0.0
 40
6.0
  1
1 : 1
 41
0.6299999999999999
 72
     1
 11
2768.970881053518
 21
1464.108910826634
 31
0.0
100
AcDbText
 73
     2
  0
TEXT
  5
376
330
24C
100
AcDbEntity
  8
1
 62
     3
100
AcDbText
 10
2853.28025374938
 20
1444.417997989959
 30
0.0
 40
6.0
  1
組 立 図
 41
0.6299999999999999
 11
2853.28025374938
 21
1447.417997989959
 31
0.0
100
AcDbText
 73
     2
  0
TEXT
  5
377
330
24C
100
AcDbEntity
  8
1
 62
     4
100
AcDbText
 10
2907.436169694384
 20
1471.417997989959
 30
0.0
 40
4.0
  1
記   事
 41
0.9
 72
     1
 11
2915.236169694384
 21
1473.417997989959
 31
0.0
100
AcDbText
 73
     2
  0
TEXT
  5
378
330
24C
100
AcDbEntity
  8
1
 62
     4
100
AcDbText
 10
2865.536169694384
 20
1471.417997989959
 30
0.0
 40
4.0
  1
仕   上   げ
 41
0.9
 72
     1
 11
2880.236169694384
 21
1473.417997989959
 31
0.0
100
AcDbText
 73
     2
  0
TEXT
  5
379
330
24C
100
AcDbEntity
  8
1
 62
     4
100
AcDbText
 10
2848.536169694384
 20
1471.417997989959
 30
0.0
 40
4.0
  1
数 量
 41
0.9
 72
     1
 11
2852.736169694384
 21
1473.417997989959
 31
0.0
100
AcDbText
 73
     2
  0
TEXT
  5
37A
330
24C
100
AcDbEntity
  8
1
 62
     4
100
AcDbText
 10
2822.436169694384
 20
1471.417997989959
 30
0.0
 40
4.0
  1
坑   質
 41
0.9
 72
     1
 11
2830.236169694384
 21
1473.417997989959
 31
0.0
100
AcDbText
 73
     2
  0
TEXT
  5
37B
330
24C
100
AcDbEntity
  8
1
 62
     4
100
AcDbText
 10
2773.436169694384
 20
1471.417997989959
 30
0.0
 40
4.0
  1
品        名
 41
0.9
 72
     1
 11
2790.236169694384
 21
1473.417997989959
 31
0.0
100
AcDbText
 73
     2
  0
TEXT
  5
37C
330
24C
100
AcDbEntity
  8
1
 62
     4
100
AcDbText
 10
2753.536169694384
 20
1471.417997989959
 30
0.0
 40
4.0
  1
品 番
 41
0.9
 72
     1
 11
2757.736169694384
 21
1473.417997989959
 31
0.0
100
AcDbText
 73
     2
  0
TEXT
  5
37D
330
24C
100
AcDbEntity
  8
1
 62
     3
100
AcDbText
 10
2817.651668756719
 20
1478.667997989959
 30
0.0
 40
3.5
  1
6ナイロン
 41
0.6300000000000001
 11
2817.651668756719
 21
1480.417997989959
 31
0.0
100
AcDbText
 73
     2
  0
TEXT
  5
37E
330
24C
100
AcDbEntity
  8
1
 62
     3
100
AcDbText
 10
2862.587635856635
 20
1478.667997989959
 30
0.0
 40
3.5
  1
DG(ディープグレー)色
 41
0.6300000000000001
 11
2862.587635856635
 21
1480.417997989959
 31
0.0
100
AcDbText
 73
     2
  0
TEXT
  5
37F
330
24C
100
AcDbEntity
  8
1
 62
     3
100
AcDbText
 10
2817.651668756719
 20
1485.667997989959
 30
0.0
 40
3.5
  1
PBT
 41
0.6300000000000001
 11
2817.651668756719
 21
1487.417997989959
 31
0.0
100
AcDbText
 73
     2
  0
TEXT
  5
380
330
24C
100
AcDbEntity
  8
1
 62
     3
100
AcDbText
 10
2767.187301918956
 20
1485.66799798996
 30
0.0
 40
3.5
  1
着脱ホルダー
 41
0.6300000000000001
 11
2767.187301918956
 21
1487.41799798996
 31
0.0
100
AcDbText
 73
     2
  0
TEXT
  5
381
330
24C
100
AcDbEntity
  8
1
 62
     3
100
AcDbText
 10
2767.187301918956
 20
1506.667997989959
 30
0.0
 40
3.5
  1
ワッシャー
 41
0.6300000000000001
 11
2767.187301918956
 21
1508.417997989959
 31
0.0
100
AcDbText
 73
     2
  0
TEXT
  5
382
330
24C
100
AcDbEntity
  8
1
 62
     3
100
AcDbText
 10
2767.187301918956
 20
1499.667997989959
 30
0.0
 40
3.5
  1
ローラーガイド
 41
0.6300000000000001
 11
2767.187301918956
 21
1501.417997989959
 31
0.0
100
AcDbText
 73
     2
  0
TEXT
  5
383
330
24C
100
AcDbEntity
  8
1
 62
     3
100
AcDbText
 10
2817.651668756719
 20
1499.667997989959
 30
0.0
 40
3.5
  1
6ナイロン
 41
0.6300000000000001
 11
2817.651668756719
 21
1501.417997989959
 31
0.0
100
AcDbText
 73
     2
  0
TEXT
  5
384
330
24C
100
AcDbEntity
  8
1
 62
     3
100
AcDbText
 10
2817.651668756719
 20
1506.667997989959
 30
0.0
 40
3.5
  1
SPCC ｔ＝0.5
 41
0.6300000000000001
 11
2817.651668756719
 21
1508.417997989959
 31
0.0
100
AcDbText
 73
     2
  0
TEXT
  5
385
330
24C
100
AcDbEntity
  8
1
 62
     3
100
AcDbText
 10
2852.368669694384
 20
1499.667997989959
 30
0.0
 40
3.5
  1
1
 41
0.6300000000000001
 72
     1
 11
2852.736169694384
 21
1501.417997989959
 31
0.0
100
AcDbText
 73
     2
  0
TEXT
  5
386
330
24C
100
AcDbEntity
  8
1
 62
     3
100
AcDbText
 10
2852.368669694384
 20
1506.667997989959
 30
0.0
 40
3.5
  1
1
 41
0.6300000000000001
 72
     1
 11
2852.736169694384
 21
1508.417997989959
 31
0.0
100
AcDbText
 73
     2
  0
TEXT
  5
387
330
24C
100
AcDbEntity
  8
1
 62
     3
100
AcDbText
 10
2862.587635856635
 20
1499.667997989959
 30
0.0
 40
3.5
  1
DG色
 41
0.6300000000000001
 11
2862.587635856635
 21
1501.417997989959
 31
0.0
100
AcDbText
 73
     2
  0
TEXT
  5
388
330
24C
100
AcDbEntity
  8
1
 62
     3
100
AcDbText
 10
2862.587635856635
 20
1506.667997989959
 30
0.0
 40
3.5
  1
クロメート
 41
0.6300000000000001
 11
2862.587635856635
 21
1508.417997989959
 31
0.0
100
AcDbText
 73
     2
  0
TEXT
  5
389
330
24C
100
AcDbEntity
  8
1
 62
     3
100
AcDbText
 10
2767.187301918956
 20
1513.667997989959
 30
0.0
 40
3.5
  1
取付けねじ
 41
0.6300000000000001
 11
2767.187301918956
 21
1515.417997989959
 31
0.0
100
AcDbText
 73
     2
  0
TEXT
  5
38A
330
24C
100
AcDbEntity
  8
1
 62
     3
100
AcDbText
 10
2817.651668756719
 20
1513.667997989959
 30
0.0
 40
3.5
  1
SWCH
 41
0.6300000000000001
 11
2817.651668756719
 21
1515.417997989959
 31
0.0
100
AcDbText
 73
     2
  0
TEXT
  5
38B
330
24C
100
AcDbEntity
  8
1
 62
     3
100
AcDbText
 10
2852.001169694384
 20
1513.667997989959
 30
0.0
 40
3.5
  1
3
 41
0.6300000000000001
 72
     1
 11
2852.736169694384
 21
1515.417997989959
 31
0.0
100
AcDbText
 73
     2
  0
TEXT
  5
38C
330
24C
100
AcDbEntity
  8
1
 62
     3
100
AcDbText
 10
2862.587635856635
 20
1513.667997989959
 30
0.0
 40
3.5
  1
ABMメッキ
 41
0.6300000000000001
 11
2862.587635856635
 21
1515.417997989959
 31
0.0
100
AcDbText
 73
     2
  0
TEXT
  5
38D
330
24C
100
AcDbEntity
  8
1
 62
     3
100
AcDbText
 10
2902.587635856635
 20
1513.667997989959
 30
0.0
 40
3.5
  1
皿3.5\U+00D720タッピンネジ
 41
0.5130000000000001
 11
2902.587635856635
 21
1515.417997989959
 31
0.0
100
AcDbText
 73
     2
  0
TEXT
  5
38E
330
24C
100
AcDbEntity
  8
1
 62
     3
100
AcDbText
 10
2757.001169694384
 20
1499.667997989958
 30
0.0
 40
3.5
  1
4
 41
0.6300000000000001
 72
     1
 11
2757.736169694384
 21
1501.417997989958
 31
0.0
100
AcDbText
 73
     2
  0
TEXT
  5
38F
330
24C
100
AcDbEntity
  8
1
 62
     3
100
AcDbText
 10
2757.001169694384
 20
1506.667997989958
 30
0.0
 40
3.5
  1
5
 41
0.6300000000000001
 72
     1
 11
2757.736169694384
 21
1508.417997989958
 31
0.0
100
AcDbText
 73
     2
  0
TEXT
  5
390
330
24C
100
AcDbEntity
  8
1
 62
     3
100
AcDbText
 10
2757.001169694384
 20
1513.667997989958
 30
0.0
 40
3.5
  1
6
 41
0.6300000000000001
 72
     1
 11
2757.736169694384
 21
1515.417997989958
 31
0.0
100
AcDbText
 73
     2
  0
ENDBLK
  5
391
330
24C
100
AcDbEntity
  8
0
100
AcDbBlockEnd
  0
BLOCK
  5
393
330
392
100
AcDbEntity
  8
0
100
AcDbBlockBegin
  2
FORMAT_A3
 70
     0
 10
2582.618972687722
 20
1510.375010010685
 30
0.0
  3
FORMAT_A3
  1

  0
LINE
  5
394
330
392
100
AcDbEntity
  8
1
 62
     7
100
AcDbLine
 10
2750.236169694384
 20
1424.917997989959
 30
0.0
 11
2555.236169694384
 21
1424.917997989959
 31
0.0
  0
LINE
  5
395
330
392
100
AcDbEntity
  8
1
 62
     7
100
AcDbLine
 10
2555.236169694384
 20
1694.917997989958
 30
0.0
 11
2555.236169694384
 21
1424.917997989959
 31
0.0
  0
LINE
  5
396
330
392
100
AcDbEntity
  8
1
 62
     7
100
AcDbLine
 10
2930.236169694384
 20
1469.917997989958
 30
0.0
 11
2930.236169694385
 21
1694.917997989958
 31
0.0
  0
LINE
  5
397
330
392
100
AcDbEntity
  8
1
 62
     7
100
AcDbLine
 10
2930.236169694385
 20
1694.917997989958
 30
0.0
 11
2555.236169694384
 21
1694.917997989958
 31
0.0
  0
INSERT
  5
398
330
392
100
AcDbEntity
  8
0
100
AcDbBlockReference
  2
______
 10
2977.656133403442
 20
1488.503465444209
 30
0.0
  0
ENDBLK
  5
399
330
392
100
AcDbEntity
  8
0
100
AcDbBlockEnd
  0
BLOCK
  5
39B
330
39A
100
AcDbEntity
  8
0
100
AcDbBlockBegin
  2
_3
 70
     0
 10
1453.983765657445
 20
1257.30321333417
 30
0.0
  3
_3
  1

  0
INSERT
  5
39C
330
39A
100
AcDbEntity
  8
0
100
AcDbBlockReference
  2
FORMAT_A3
 10
1439.257578114242
 20
1249.754704484148
 30
0.0
  0
ENDBLK
  5
39D
330
39A
100
AcDbEntity
  8
0
100
AcDbBlockEnd
  0
BLOCK
  5
39F
330
39E
100
AcDbEntity
  8
0
100
AcDbBlockBegin
  2
TOP__1
 70
     0
 10
341.699953811624
 20
995.7317950340099
 30
0.0
  3
TOP__1
  1

  0
INSERT
  5
3A0
330
39E
100
AcDbEntity
  8
0
100
AcDbBlockReference
  2
_3
 10
1453.983765657445
 20
1257.30321333417
 30
0.0
  0
ENDBLK
  5
3A1
330
39E
100
AcDbEntity
  8
0
100
AcDbBlockEnd
  0
BLOCK
  5
3A3
330
3A2
100
AcDbEntity
  8
0
100
AcDbBlockBegin
  2
_1
 70
     0
 10
1486.03537108553
 20
1604.98256440742
 30
0.0
  3
_1
  1

  0
LINE
  5
3A4
330
3A2
100
AcDbEntity
  8
1
 62
     7
100
AcDbLine
 10
1619.874775120904
 20
1308.093058803334
 30
0.0
 11
1602.874775120904
 21
1308.093058803334
 31
0.0
  0
LINE
  5
3A5
330
3A2
100
AcDbEntity
  8
1
 62
     7
100
AcDbLine
 10
1619.874775120904
 20
1308.093058803334
 30
0.0
 11
1619.874775120904
 21
1305.073381338805
 31
0.0
  0
LINE
  5
3A6
330
3A2
100
AcDbEntity
  8
1
 62
     7
100
AcDbLine
 10
1602.874775120904
 20
1305.073381338805
 30
0.0
 11
1602.874775120904
 21
1308.093058803334
 31
0.0
  0
LINE
  5
3A7
330
3A2
100
AcDbEntity
  8
1
 62
     7
100
AcDbLine
 10
1617.859210683829
 20
1303.493058803334
 30
0.0
 11
1604.890339557978
 21
1303.493058803334
 31
0.0
  0
LINE
  5
3A8
330
3A2
100
AcDbEntity
  8
1
 62
     7
100
AcDbLine
 10
1618.355349622186
 20
1303.62481566121
 30
0.0
 11
1619.370914059261
 21
1304.205138196681
 31
0.0
  0
LINE
  5
3A9
330
3A2
100
AcDbEntity
  8
1
 62
     7
100
AcDbLine
 10
1604.394200619622
 20
1303.62481566121
 30
0.0
 11
1603.378636182547
 21
1304.205138196681
 31
0.0
  0
LINE
  5
3AA
330
3A2
100
AcDbEntity
  8
1
 62
     7
100
AcDbLine
 10
1506.124775120904
 20
1308.093058803334
 30
0.0
 11
1489.124775120904
 21
1308.093058803334
 31
0.0
  0
LINE
  5
3AB
330
3A2
100
AcDbEntity
  8
1
 62
     7
100
AcDbLine
 10
1489.124775120904
 20
1305.073381338805
 30
0.0
 11
1489.124775120904
 21
1308.093058803334
 31
0.0
  0
LINE
  5
3AC
330
3A2
100
AcDbEntity
  8
1
 62
     7
100
AcDbLine
 10
1506.124775120904
 20
1308.093058803334
 30
0.0
 11
1506.124775120904
 21
1305.073381338805
 31
0.0
  0
LINE
  5
3AD
330
3A2
100
AcDbEntity
  8
1
 62
     7
100
AcDbLine
 10
1504.10921068383
 20
1303.493058803334
 30
0.0
 11
1491.140339557979
 21
1303.493058803334
 31
0.0
  0
LINE
  5
3AE
330
3A2
100
AcDbEntity
  8
1
 62
     7
100
AcDbLine
 10
1489.628636182547
 20
1304.205138196681
 30
0.0
 11
1490.644200619622
 21
1303.62481566121
 31
0.0
  0
LINE
  5
3AF
330
3A2
100
AcDbEntity
  8
1
 62
     7
100
AcDbLine
 10
1505.620914059261
 20
1304.205138196681
 30
0.0
 11
1504.605349622186
 21
1303.62481566121
 31
0.0
  0
LINE
  5
3B0
330
3A2
100
AcDbEntity
  8
1
 62
     7
100
AcDbLine
 10
1709.624775120904
 20
1308.093058803334
 30
0.0
 11
1692.624775120904
 21
1308.093058803334
 31
0.0
  0
LINE
  5
3B1
330
3A2
100
AcDbEntity
  8
1
 62
     7
100
AcDbLine
 10
1709.624775120904
 20
1308.093058803334
 30
0.0
 11
1709.624775120904
 21
1305.073381338805
 31
0.0
  0
LINE
  5
3B2
330
3A2
100
AcDbEntity
  8
1
 62
     7
100
AcDbLine
 10
1692.624775120904
 20
1305.073381338805
 30
0.0
 11
1692.624775120904
 21
1308.093058803334
 31
0.0
  0
LINE
  5
3B3
330
3A2
100
AcDbEntity
  8
1
 62
     7
100
AcDbLine
 10
1707.609210683829
 20
1303.493058803334
 30
0.0
 11
1694.640339557978
 21
1303.493058803334
 31
0.0
  0
LINE
  5
3B4
330
3A2
100
AcDbEntity
  8
1
 62
     7
100
AcDbLine
 10
1708.105349622186
 20
1303.62481566121
 30
0.0
 11
1709.120914059261
 21
1304.205138196681
 31
0.0
  0
LINE
  5
3B5
330
3A2
100
AcDbEntity
  8
1
 62
     7
100
AcDbLine
 10
1694.144200619622
 20
1303.62481566121
 30
0.0
 11
1693.128636182547
 21
1304.205138196681
 31
0.0
  0
ARC
  5
3B6
330
3A2
100
AcDbEntity
  8
1
 62
     7
100
AcDbCircle
 10
1618.874775120904
 20
1305.073381338805
 30
0.0
 40
0.9999999999996157
100
AcDbArc
 50
299.7448812969681
 51
0.0
  0
ARC
  5
3B7
330
3A2
100
AcDbEntity
  8
1
 62
     7
100
AcDbCircle
 10
1617.859210683829
 20
1304.493058803334
 30
0.0
 40
1.0
100
AcDbArc
 50
270.0
 51
299.7448812969681
  0
ARC
  5
3B8
330
3A2
100
AcDbEntity
  8
1
 62
     7
100
AcDbCircle
 10
1604.890339557979
 20
1304.493058803334
 30
0.0
 40
0.9999999999995027
100
AcDbArc
 50
240.2551187030433
 51
270.0
  0
ARC
  5
3B9
330
3A2
100
AcDbEntity
  8
1
 62
     7
100
AcDbCircle
 10
1603.874775120904
 20
1305.073381338805
 30
0.0
 40
1.0
100
AcDbArc
 50
180.0
 51
240.2551187030433
  0
ARC
  5
3BA
330
3A2
100
AcDbEntity
  8
1
 62
     7
100
AcDbCircle
 10
1490.124775120904
 20
1305.073381338805
 30
0.0
 40
1.0
100
AcDbArc
 50
180.0
 51
240.2551187030433
  0
ARC
  5
3BB
330
3A2
100
AcDbEntity
  8
1
 62
     7
100
AcDbCircle
 10
1491.140339557979
 20
1304.493058803334
 30
0.0
 40
0.9999999999995027
100
AcDbArc
 50
240.2551187030433
 51
270.0
  0
ARC
  5
3BC
330
3A2
100
AcDbEntity
  8
1
 62
     7
100
AcDbCircle
 10
1504.109210683829
 20
1304.493058803334
 30
0.0
 40
1.0
100
AcDbArc
 50
270.0
 51
299.7448812969681
  0
ARC
  5
3BD
330
3A2
100
AcDbEntity
  8
1
 62
     7
100
AcDbCircle
 10
1505.124775120904
 20
1305.073381338805
 30
0.0
 40
0.9999999999996157
100
AcDbArc
 50
299.7448812969681
 51
0.0
  0
ARC
  5
3BE
330
3A2
100
AcDbEntity
  8
1
 62
     7
100
AcDbCircle
 10
1708.624775120904
 20
1305.073381338805
 30
0.0
 40
0.9999999999996157
100
AcDbArc
 50
299.7448812969681
 51
0.0
  0
ARC
  5
3BF
330
3A2
100
AcDbEntity
  8
1
 62
     7
100
AcDbCircle
 10
1707.609210683829
 20
1304.493058803334
 30
0.0
 40
1.0
100
AcDbArc
 50
270.0
 51
299.7448812969681
  0
ARC
  5
3C0
330
3A2
100
AcDbEntity
  8
1
 62
     7
100
AcDbCircle
 10
1694.640339557979
 20
1304.493058803334
 30
0.0
 40
0.9999999999995027
100
AcDbArc
 50
240.2551187030433
 51
270.0
  0
ARC
  5
3C1
330
3A2
100
AcDbEntity
  8
1
 62
     7
100
AcDbCircle
 10
1693.624775120904
 20
1305.073381338805
 30
0.0
 40
1.0
100
AcDbArc
 50
180.0
 51
240.2551187030433
  0
ENDBLK
  5
3C2
330
3A2
100
AcDbEntity
  8
0
100
AcDbBlockEnd
  0
BLOCK
  5
3C4
330
3C3
100
AcDbEntity
  8
0
100
AcDbBlockBegin
  2
_2
 70
     0
 10
1488.53537108553
 20
1635.76612514078
 30
0.0
  3
_2
  1

  0
LINE
  5
3C5
330
3C3
100
AcDbEntity
  8
1
 62
     7
100
AcDbLine
 10
1607.374775120904
 20
1308.093058803334
 30
0.0
 11
1615.374775120904
 21
1308.093058803334
 31
0.0
  0
LINE
  5
3C6
330
3C3
100
AcDbEntity
  8
1
 62
     7
100
AcDbLine
 10
1615.374775120904
 20
1308.093058803334
 30
0.0
 11
1615.374775120904
 21
1308.593058803334
 31
0.0
  0
LINE
  5
3C7
330
3C3
100
AcDbEntity
  8
1
 62
     7
100
AcDbLine
 10
1615.374775120904
 20
1308.593058803334
 30
0.0
 11
1607.374775120904
 21
1308.593058803334
 31
0.0
  0
LINE
  5
3C8
330
3C3
100
AcDbEntity
  8
1
 62
     7
100
AcDbLine
 10
1607.374775120904
 20
1308.593058803334
 30
0.0
 11
1607.374775120904
 21
1308.093058803334
 31
0.0
  0
LINE
  5
3C9
330
3C3
100
AcDbEntity
  8
1
 62
     7
100
AcDbLine
 10
1493.624775120904
 20
1308.093058803334
 30
0.0
 11
1501.624775120904
 21
1308.093058803334
 31
0.0
  0
LINE
  5
3CA
330
3C3
100
AcDbEntity
  8
1
 62
     7
100
AcDbLine
 10
1493.624775120904
 20
1308.593058803334
 30
0.0
 11
1493.624775120904
 21
1308.093058803334
 31
0.0
  0
LINE
  5
3CB
330
3C3
100
AcDbEntity
  8
1
 62
     7
100
AcDbLine
 10
1501.624775120904
 20
1308.593058803334
 30
0.0
 11
1493.624775120904
 21
1308.593058803334
 31
0.0
  0
LINE
  5
3CC
330
3C3
100
AcDbEntity
  8
1
 62
     7
100
AcDbLine
 10
1501.624775120904
 20
1308.093058803334
 30
0.0
 11
1501.624775120904
 21
1308.593058803334
 31
0.0
  0
LINE
  5
3CD
330
3C3
100
AcDbEntity
  8
1
 62
     7
100
AcDbLine
 10
1697.124775120904
 20
1308.093058803334
 30
0.0
 11
1705.124775120904
 21
1308.093058803334
 31
0.0
  0
LINE
  5
3CE
330
3C3
100
AcDbEntity
  8
1
 62
     7
100
AcDbLine
 10
1705.124775120904
 20
1308.093058803334
 30
0.0
 11
1705.124775120904
 21
1308.593058803334
 31
0.0
  0
LINE
  5
3CF
330
3C3
100
AcDbEntity
  8
1
 62
     7
100
AcDbLine
 10
1705.124775120904
 20
1308.593058803334
 30
0.0
 11
1697.124775120904
 21
1308.593058803334
 31
0.0
  0
LINE
  5
3D0
330
3C3
100
AcDbEntity
  8
1
 62
     7
100
AcDbLine
 10
1697.124775120904
 20
1308.593058803334
 30
0.0
 11
1697.124775120904
 21
1308.093058803334
 31
0.0
  0
ENDBLK
  5
3D1
330
3C3
100
AcDbEntity
  8
0
100
AcDbBlockEnd
  0
BLOCK
  5
3D3
330
3D2
100
AcDbEntity
  8
1
100
AcDbBlockBegin
  2
*D9
 70
     1
 10
0.0
 20
0.0
 30
0.0
  3
*D9
  1

  0
LINE
  5
3D4
330
3D2
100
AcDbEntity
  8
1
 62
     2
100
AcDbLine
 10
1640.874775120904
 20
1312.993058803334
 30
0.0
 11
1640.874775120904
 21
1308.093058803334
 31
0.0
  0
LINE
  5
3D5
330
3D2
100
AcDbEntity
  8
1
 62
     2
100
AcDbLine
 10
1640.874775120904
 20
1303.493058803334
 30
0.0
 11
1640.874775120904
 21
1308.093058803334
 31
0.0
  0
LINE
  5
3D6
330
3D2
100
AcDbEntity
  8
1
 62
     2
100
AcDbLine
 10
1640.874775120904
 20
1303.493058803334
 30
0.0
 11
1640.874775120904
 21
1296.0720220103
 31
0.0
  0
LINE
  5
3D7
330
3D2
100
AcDbEntity
  8
1
 62
     2
100
AcDbLine
 10
1618.859210683829
 20
1303.493058803334
 30
0.0
 11
1641.874775120904
 21
1303.493058803334
 31
0.0
  0
LINE
  5
3D8
330
3D2
100
AcDbEntity
  8
1
 62
     2
100
AcDbLine
 10
1620.874775120904
 20
1308.093058803334
 30
0.0
 11
1641.874775120904
 21
1308.093058803334
 31
0.0
  0
LINE
  5
3D9
330
3D2
100
AcDbEntity
  8
1
 62
     2
100
AcDbLine
 10
1640.874775120904
 20
1308.093058803334
 30
0.0
 11
1640.213275120904
 21
1310.543058803334
 31
0.0
  0
LINE
  5
3DA
330
3D2
100
AcDbEntity
  8
1
 62
     2
100
AcDbLine
 10
1640.874775120904
 20
1308.093058803334
 30
0.0
 11
1641.536275120904
 21
1310.543058803334
 31
0.0
  0
LINE
  5
3DB
330
3D2
100
AcDbEntity
  8
1
 62
     2
100
AcDbLine
 10
1640.874775120904
 20
1303.493058803334
 30
0.0
 11
1641.536275120904
 21
1301.043058803334
 31
0.0
  0
LINE
  5
3DC
330
3D2
100
AcDbEntity
  8
1
 62
     2
100
AcDbLine
 10
1640.874775120904
 20
1303.493058803334
 30
0.0
 11
1640.213275120904
 21
1301.043058803334
 31
0.0
  0
TEXT
  5
3DD
330
3D2
100
AcDbEntity
  8
1
 62
     3
100
AcDbText
 10
1639.874775120904
 20
1296.0720220103
 30
0.0
 40
3.5
  1
4.6
 50
90.0
 41
0.63
  7
SIMPLEX
100
AcDbText
  0
ENDBLK
  5
3DE
330
3D2
100
AcDbEntity
  8
0
100
AcDbBlockEnd
  0
BLOCK
  5
3E0
330
3DF
100
AcDbEntity
  8
1
100
AcDbBlockBegin
  2
*D10
 70
     1
 10
0.0
 20
0.0
 30
0.0
  3
*D10
  1

  0
LINE
  5
3E1
330
3DF
100
AcDbEntity
  8
1
 62
     2
100
AcDbLine
 10
1596.374775120904
 20
1396.593058803334
 30
0.0
 11
1618.374775120904
 21
1396.593058803334
 31
0.0
  0
LINE
  5
3E2
330
3DF
100
AcDbEntity
  8
1
 62
     2
100
AcDbLine
 10
1618.374775120904
 20
1354.593058803334
 30
0.0
 11
1618.374775120904
 21
1397.593058803334
 31
0.0
  0
LINE
  5
3E3
330
3DF
100
AcDbEntity
  8
1
 62
     2
100
AcDbLine
 10
1596.374775120904
 20
1369.593058803334
 30
0.0
 11
1596.374775120904
 21
1397.593058803334
 31
0.0
  0
LINE
  5
3E4
330
3DF
100
AcDbEntity
  8
1
 62
     2
100
AcDbLine
 10
1618.374775120904
 20
1396.593058803334
 30
0.0
 11
1615.924775120904
 21
1395.931558803334
 31
0.0
  0
LINE
  5
3E5
330
3DF
100
AcDbEntity
  8
1
 62
     2
100
AcDbLine
 10
1618.374775120904
 20
1396.593058803334
 30
0.0
 11
1615.924775120904
 21
1397.254558803334
 31
0.0
  0
LINE
  5
3E6
330
3DF
100
AcDbEntity
  8
1
 62
     2
100
AcDbLine
 10
1596.374775120904
 20
1396.593058803334
 30
0.0
 11
1598.824775120904
 21
1397.254558803334
 31
0.0
  0
LINE
  5
3E7
330
3DF
100
AcDbEntity
  8
1
 62
     2
100
AcDbLine
 10
1596.374775120904
 20
1396.593058803334
 30
0.0
 11
1598.824775120904
 21
1395.931558803334
 31
0.0
  0
TEXT
  5
3E8
330
3DF
100
AcDbEntity
  8
1
 62
     3
100
AcDbText
 10
1605.537275120904
 20
1397.593058803334
 30
0.0
 40
3.5
  1
22
 41
0.63
  7
SIMPLEX
100
AcDbText
  0
ENDBLK
  5
3E9
330
3DF
100
AcDbEntity
  8
0
100
AcDbBlockEnd
  0
BLOCK
  5
3EB
330
3EA
100
AcDbEntity
  8
1
100
AcDbBlockBegin
  2
*D11
 70
     1
 10
0.0
 20
0.0
 30
0.0
  3
*D11
  1

  0
LINE
  5
3EC
330
3EA
100
AcDbEntity
  8
1
 62
     2
100
AcDbLine
 10
1611.374775120904
 20
1389.593058803334
 30
0.0
 11
1618.374775120904
 21
1389.593058803334
 31
0.0
  0
LINE
  5
3ED
330
3EA
100
AcDbEntity
  8
1
 62
     2
100
AcDbLine
 10
1611.374775120904
 20
1374.593058803334
 30
0.0
 11
1611.374775120904
 21
1390.593058803334
 31
0.0
  0
LINE
  5
3EE
330
3EA
100
AcDbEntity
  8
1
 62
     2
100
AcDbLine
 10
1618.374775120904
 20
1354.593058803334
 30
0.0
 11
1618.374775120904
 21
1390.593058803334
 31
0.0
  0
LINE
  5
3EF
330
3EA
100
AcDbEntity
  8
1
 62
     2
100
AcDbLine
 10
1611.374775120904
 20
1389.593058803334
 30
0.0
 11
1613.824775120904
 21
1390.254558803334
 31
0.0
  0
LINE
  5
3F0
330
3EA
100
AcDbEntity
  8
1
 62
     2
100
AcDbLine
 10
1611.374775120904
 20
1389.593058803334
 30
0.0
 11
1613.824775120904
 21
1388.931558803334
 31
0.0
  0
LINE
  5
3F1
330
3EA
100
AcDbEntity
  8
1
 62
     2
100
AcDbLine
 10
1618.374775120904
 20
1389.593058803334
 30
0.0
 11
1615.924775120904
 21
1388.931558803334
 31
0.0
  0
LINE
  5
3F2
330
3EA
100
AcDbEntity
  8
1
 62
     2
100
AcDbLine
 10
1618.374775120904
 20
1389.593058803334
 30
0.0
 11
1615.924775120904
 21
1390.254558803334
 31
0.0
  0
TEXT
  5
3F3
330
3EA
100
AcDbEntity
  8
1
 62
     3
100
AcDbText
 10
1614.139775120904
 20
1390.593058803334
 30
0.0
 40
3.5
  1
7
 41
0.63
  7
SIMPLEX
100
AcDbText
  0
ENDBLK
  5
3F4
330
3EA
100
AcDbEntity
  8
0
100
AcDbBlockEnd
  0
BLOCK
  5
3F6
330
3F5
100
AcDbEntity
  8
1
100
AcDbBlockBegin
  2
*D12
 70
     1
 10
0.0
 20
0.0
 30
0.0
  3
*D12
  1

  0
LINE
  5
3F7
330
3F5
100
AcDbEntity
  8
1
 62
     2
100
AcDbLine
 10
1596.374775120904
 20
1389.593058803334
 30
0.0
 11
1611.374775120904
 21
1389.593058803334
 31
0.0
  0
LINE
  5
3F8
330
3F5
100
AcDbEntity
  8
1
 62
     2
100
AcDbLine
 10
1596.374775120904
 20
1369.593058803334
 30
0.0
 11
1596.374775120904
 21
1390.593058803334
 31
0.0
  0
LINE
  5
3F9
330
3F5
100
AcDbEntity
  8
1
 62
     2
100
AcDbLine
 10
1611.374775120904
 20
1374.593058803334
 30
0.0
 11
1611.374775120904
 21
1390.593058803334
 31
0.0
  0
LINE
  5
3FA
330
3F5
100
AcDbEntity
  8
1
 62
     2
100
AcDbLine
 10
1596.374775120904
 20
1389.593058803334
 30
0.0
 11
1598.824775120904
 21
1390.254558803334
 31
0.0
  0
LINE
  5
3FB
330
3F5
100
AcDbEntity
  8
1
 62
     2
100
AcDbLine
 10
1596.374775120904
 20
1389.593058803334
 30
0.0
 11
1598.824775120904
 21
1388.931558803334
 31
0.0
  0
LINE
  5
3FC
330
3F5
100
AcDbEntity
  8
1
 62
     2
100
AcDbLine
 10
1611.374775120904
 20
1389.593058803334
 30
0.0
 11
1608.924775120904
 21
1388.931558803334
 31
0.0
  0
LINE
  5
3FD
330
3F5
100
AcDbEntity
  8
1
 62
     2
100
AcDbLine
 10
1611.374775120904
 20
1389.593058803334
 30
0.0
 11
1608.924775120904
 21
1390.254558803334
 31
0.0
  0
TEXT
  5
3FE
330
3F5
100
AcDbEntity
  8
1
 62
     3
100
AcDbText
 10
1602.404775120904
 20
1390.593058803334
 30
0.0
 40
3.5
  1
15
 41
0.63
  7
SIMPLEX
100
AcDbText
  0
ENDBLK
  5
3FF
330
3F5
100
AcDbEntity
  8
0
100
AcDbBlockEnd
  0
BLOCK
  5
401
330
400
100
AcDbEntity
  8
1
100
AcDbBlockBegin
  2
*D13
 70
     1
 10
0.0
 20
0.0
 30
0.0
  3
*D13
  1

  0
LINE
  5
402
330
400
100
AcDbEntity
  8
1
 62
     2
100
AcDbLine
 10
1596.374775120904
 20
1396.593058803334
 30
0.0
 11
1601.274775120904
 21
1396.593058803334
 31
0.0
  0
LINE
  5
403
330
400
100
AcDbEntity
  8
1
 62
     2
100
AcDbLine
 10
1592.374775120904
 20
1396.593058803334
 30
0.0
 11
1596.374775120904
 21
1396.593058803334
 31
0.0
  0
LINE
  5
404
330
400
100
AcDbEntity
  8
1
 62
     2
100
AcDbLine
 10
1596.374775120904
 20
1369.593058803334
 30
0.0
 11
1596.374775120904
 21
1397.593058803334
 31
0.0
  0
LINE
  5
405
330
400
100
AcDbEntity
  8
1
 62
     2
100
AcDbLine
 10
1592.374775120904
 20
1369.093058803334
 30
0.0
 11
1592.374775120904
 21
1397.593058803334
 31
0.0
  0
CIRCLE
  5
406
330
400
100
AcDbEntity
  8
1
 62
     2
100
AcDbCircle
 10
1592.374775120904
 20
1396.593058803334
 30
0.0
 40
0.5
  0
LINE
  5
407
330
400
100
AcDbEntity
  8
1
 62
     2
100
AcDbLine
 10
1596.374775120904
 20
1396.593058803334
 30
0.0
 11
1598.824775120904
 21
1397.254558803334
 31
0.0
  0
LINE
  5
408
330
400
100
AcDbEntity
  8
1
 62
     2
100
AcDbLine
 10
1596.374775120904
 20
1396.593058803334
 30
0.0
 11
1598.824775120904
 21
1395.931558803334
 31
0.0
  0
TEXT
  5
409
330
400
100
AcDbEntity
  8
1
 62
     3
100
AcDbText
 10
1593.639775120904
 20
1397.593058803334
 30
0.0
 40
3.5
  1
4
 41
0.63
  7
SIMPLEX
100
AcDbText
  0
ENDBLK
  5
40A
330
400
100
AcDbEntity
  8
0
100
AcDbBlockEnd
  0
BLOCK
  5
40C
330
40B
100
AcDbEntity
  8
1
100
AcDbBlockBegin
  2
*D14
 70
     1
 10
0.0
 20
0.0
 30
0.0
  3
*D14
  1

  0
LINE
  5
40D
330
40B
100
AcDbEntity
  8
1
 62
     2
100
AcDbLine
 10
1592.374775120904
 20
1396.593058803334
 30
0.0
 11
1592.374775120904
 21
1396.593058803334
 31
0.0
  0
LINE
  5
40E
330
40B
100
AcDbEntity
  8
1
 62
     2
100
AcDbLine
 10
1588.374775120904
 20
1396.593058803334
 30
0.0
 11
1583.474775120904
 21
1396.593058803334
 31
0.0
  0
LINE
  5
40F
330
40B
100
AcDbEntity
  8
1
 62
     2
100
AcDbLine
 10
1588.374775120904
 20
1396.593058803334
 30
0.0
 11
1592.374775120904
 21
1396.593058803334
 31
0.0
  0
LINE
  5
410
330
40B
100
AcDbEntity
  8
1
 62
     2
100
AcDbLine
 10
1592.374775120904
 20
1369.093058803334
 30
0.0
 11
1592.374775120904
 21
1397.593058803334
 31
0.0
  0
LINE
  5
411
330
40B
100
AcDbEntity
  8
1
 62
     2
100
AcDbLine
 10
1588.374775120904
 20
1347.093058803334
 30
0.0
 11
1588.374775120904
 21
1397.593058803334
 31
0.0
  0
LINE
  5
412
330
40B
100
AcDbEntity
  8
1
 62
     2
100
AcDbLine
 10
1588.374775120904
 20
1396.593058803334
 30
0.0
 11
1585.924775120904
 21
1395.931558803334
 31
0.0
  0
LINE
  5
413
330
40B
100
AcDbEntity
  8
1
 62
     2
100
AcDbLine
 10
1588.374775120904
 20
1396.593058803334
 30
0.0
 11
1585.924775120904
 21
1397.254558803334
 31
0.0
  0
TEXT
  5
414
330
40B
100
AcDbEntity
  8
1
 62
     3
100
AcDbText
 10
1589.639775120904
 20
1397.593058803334
 30
0.0
 40
3.5
  1
4
 41
0.63
  7
SIMPLEX
100
AcDbText
  0
ENDBLK
  5
415
330
40B
100
AcDbEntity
  8
0
100
AcDbBlockEnd
  0
BLOCK
  5
417
330
416
100
AcDbEntity
  8
1
100
AcDbBlockBegin
  2
*D15
 70
     1
 10
0.0
 20
0.0
 30
0.0
  3
*D15
  1

  0
LINE
  5
418
330
416
100
AcDbEntity
  8
1
 62
     2
100
AcDbLine
 10
1602.874775120904
 20
1282.493058803334
 30
0.0
 11
1619.874775120904
 21
1282.493058803334
 31
0.0
  0
LINE
  5
419
330
416
100
AcDbEntity
  8
1
 62
     2
100
AcDbLine
 10
1602.874775120904
 20
1304.073381338805
 30
0.0
 11
1602.874775120904
 21
1281.493058803334
 31
0.0
  0
LINE
  5
41A
330
416
100
AcDbEntity
  8
1
 62
     2
100
AcDbLine
 10
1619.874775120904
 20
1304.073381338805
 30
0.0
 11
1619.874775120904
 21
1281.493058803334
 31
0.0
  0
LINE
  5
41B
330
416
100
AcDbEntity
  8
1
 62
     2
100
AcDbLine
 10
1602.874775120904
 20
1282.493058803334
 30
0.0
 11
1605.324775120904
 21
1283.154558803334
 31
0.0
  0
LINE
  5
41C
330
416
100
AcDbEntity
  8
1
 62
     2
100
AcDbLine
 10
1602.874775120904
 20
1282.493058803334
 30
0.0
 11
1605.324775120904
 21
1281.831558803334
 31
0.0
  0
LINE
  5
41D
330
416
100
AcDbEntity
  8
1
 62
     2
100
AcDbLine
 10
1619.874775120904
 20
1282.493058803334
 30
0.0
 11
1617.424775120904
 21
1281.831558803334
 31
0.0
  0
LINE
  5
41E
330
416
100
AcDbEntity
  8
1
 62
     2
100
AcDbLine
 10
1619.874775120904
 20
1282.493058803334
 30
0.0
 11
1617.424775120904
 21
1283.154558803334
 31
0.0
  0
TEXT
  5
41F
330
416
100
AcDbEntity
  8
1
 62
     3
100
AcDbText
 10
1611.637275120904
 20
1283.493058803334
 30
0.0
 40
3.5
  1
17
 41
0.63
  7
SIMPLEX
100
AcDbText
  0
TEXT
  5
420
330
416
100
AcDbEntity
  8
1
 62
     3
100
AcDbText
 10
1608.172275120904
 20
1283.493058803334
 30
0.0
 40
3.5
  1
%%c
 41
0.63
  7
SIMPLEX
100
AcDbText
  0
ENDBLK
  5
421
330
416
100
AcDbEntity
  8
0
100
AcDbBlockEnd
  0
BLOCK
  5
423
330
422
100
AcDbEntity
  8
1
100
AcDbBlockBegin
  2
*D16
 70
     1
 10
0.0
 20
0.0
 30
0.0
  3
*D16
  1

  0
LINE
  5
424
330
422
100
AcDbEntity
  8
1
 62
     2
100
AcDbLine
 10
1540.624775120904
 20
1319.493058803334
 30
0.0
 11
1540.624775120904
 21
1314.593058803334
 31
0.0
  0
LINE
  5
425
330
422
100
AcDbEntity
  8
1
 62
     2
100
AcDbLine
 10
1540.624775120904
 20
1308.593058803334
 30
0.0
 11
1540.624775120904
 21
1314.593058803334
 31
0.0
  0
LINE
  5
426
330
422
100
AcDbEntity
  8
1
 62
     2
100
AcDbLine
 10
1540.624775120904
 20
1308.593058803334
 30
0.0
 11
1540.624775120904
 21
1285.048552932959
 31
0.0
  0
LINE
  5
427
330
422
100
AcDbEntity
  8
1
 62
     2
100
AcDbLine
 10
1502.624775120904
 20
1308.593058803334
 30
0.0
 11
1541.624775120904
 21
1308.593058803334
 31
0.0
  0
LINE
  5
428
330
422
100
AcDbEntity
  8
1
 62
     2
100
AcDbLine
 10
1519.624775120904
 20
1314.593058803334
 30
0.0
 11
1541.624775120904
 21
1314.593058803334
 31
0.0
  0
LINE
  5
429
330
422
100
AcDbEntity
  8
1
 62
     2
100
AcDbLine
 10
1540.624775120904
 20
1308.593058803334
 30
0.0
 11
1541.286275120904
 21
1306.143058803334
 31
0.0
  0
LINE
  5
42A
330
422
100
AcDbEntity
  8
1
 62
     2
100
AcDbLine
 10
1540.624775120904
 20
1308.593058803334
 30
0.0
 11
1539.963275120904
 21
1306.143058803334
 31
0.0
  0
LINE
  5
42B
330
422
100
AcDbEntity
  8
1
 62
     2
100
AcDbLine
 10
1540.624775120904
 20
1314.593058803334
 30
0.0
 11
1539.963275120904
 21
1317.043058803334
 31
0.0
  0
LINE
  5
42C
330
422
100
AcDbEntity
  8
1
 62
     2
100
AcDbLine
 10
1540.624775120904
 20
1314.593058803334
 30
0.0
 11
1541.286275120904
 21
1317.043058803334
 31
0.0
  0
TEXT
  5
42D
330
422
100
AcDbEntity
  8
1
 62
     3
100
AcDbText
 10
1539.508108454238
 20
1285.048552932959
 30
0.0
 40
3.5
  1
調整範囲 0～13
 50
90.0
 41
0.63
  7
SIMPLEX
100
AcDbText
  0
ENDBLK
  5
42E
330
422
100
AcDbEntity
  8
0
100
AcDbBlockEnd
  0
BLOCK
  5
430
330
42F
100
AcDbEntity
  8
1
100
AcDbBlockBegin
  2
*D17
 70
     1
 10
0.0
 20
0.0
 30
0.0
  3
*D17
  1

  0
LINE
  5
431
330
42F
100
AcDbEntity
  8
1
 62
     2
100
AcDbLine
 10
1540.624775120904
 20
1314.593058803334
 30
0.0
 11
1540.624775120904
 21
1325.593058803334
 31
0.0
  0
LINE
  5
432
330
42F
100
AcDbEntity
  8
1
 62
     2
100
AcDbLine
 10
1519.624775120904
 20
1325.593058803334
 30
0.0
 11
1541.624775120904
 21
1325.593058803334
 31
0.0
  0
LINE
  5
433
330
42F
100
AcDbEntity
  8
1
 62
     2
100
AcDbLine
 10
1519.624775120904
 20
1314.593058803334
 30
0.0
 11
1541.624775120904
 21
1314.593058803334
 31
0.0
  0
LINE
  5
434
330
42F
100
AcDbEntity
  8
1
 62
     2
100
AcDbLine
 10
1540.624775120904
 20
1325.593058803334
 30
0.0
 11
1541.286275120904
 21
1323.143058803334
 31
0.0
  0
LINE
  5
435
330
42F
100
AcDbEntity
  8
1
 62
     2
100
AcDbLine
 10
1540.624775120904
 20
1325.593058803334
 30
0.0
 11
1539.963275120904
 21
1323.143058803334
 31
0.0
  0
LINE
  5
436
330
42F
100
AcDbEntity
  8
1
 62
     2
100
AcDbLine
 10
1540.624775120904
 20
1314.593058803334
 30
0.0
 11
1539.963275120904
 21
1317.043058803334
 31
0.0
  0
LINE
  5
437
330
42F
100
AcDbEntity
  8
1
 62
     2
100
AcDbLine
 10
1540.624775120904
 20
1314.593058803334
 30
0.0
 11
1541.286275120904
 21
1317.043058803334
 31
0.0
  0
TEXT
  5
438
330
42F
100
AcDbEntity
  8
1
 62
     3
100
AcDbText
 10
1539.624775120904
 20
1318.990558803334
 30
0.0
 40
3.5
  1
11
 50
90.0
 41
0.63
  7
SIMPLEX
100
AcDbText
  0
ENDBLK
  5
439
330
42F
100
AcDbEntity
  8
0
100
AcDbBlockEnd
  0
BLOCK
  5
43B
330
43A
100
AcDbEntity
  8
1
100
AcDbBlockBegin
  2
*D18
 70
     1
 10
0.0
 20
0.0
 30
0.0
  3
*D18
  1

  0
LINE
  5
43C
330
43A
100
AcDbEntity
  8
1
 62
     2
100
AcDbLine
 10
1540.624775120904
 20
1368.593058803334
 30
0.0
 11
1540.624775120904
 21
1373.493058803334
 31
0.0
  0
LINE
  5
43D
330
43A
100
AcDbEntity
  8
1
 62
     2
100
AcDbLine
 10
1540.624775120904
 20
1362.593058803334
 30
0.0
 11
1540.624775120904
 21
1357.693058803334
 31
0.0
  0
LINE
  5
43E
330
43A
100
AcDbEntity
  8
1
 62
     2
100
AcDbLine
 10
1540.624775120904
 20
1362.593058803334
 30
0.0
 11
1540.624775120904
 21
1368.593058803334
 31
0.0
  0
LINE
  5
43F
330
43A
100
AcDbEntity
  8
1
 62
     2
100
AcDbLine
 10
1514.624775120904
 20
1368.593058803334
 30
0.0
 11
1541.624775120904
 21
1368.593058803334
 31
0.0
  0
LINE
  5
440
330
43A
100
AcDbEntity
  8
1
 62
     2
100
AcDbLine
 10
1503.624775120904
 20
1362.593058803334
 30
0.0
 11
1541.624775120904
 21
1362.593058803334
 31
0.0
  0
LINE
  5
441
330
43A
100
AcDbEntity
  8
1
 62
     2
100
AcDbLine
 10
1540.624775120904
 20
1362.593058803334
 30
0.0
 11
1541.286275120904
 21
1360.143058803334
 31
0.0
  0
LINE
  5
442
330
43A
100
AcDbEntity
  8
1
 62
     2
100
AcDbLine
 10
1540.624775120904
 20
1362.593058803334
 30
0.0
 11
1539.963275120904
 21
1360.143058803334
 31
0.0
  0
LINE
  5
443
330
43A
100
AcDbEntity
  8
1
 62
     2
100
AcDbLine
 10
1540.624775120904
 20
1368.593058803334
 30
0.0
 11
1539.963275120904
 21
1371.043058803334
 31
0.0
  0
LINE
  5
444
330
43A
100
AcDbEntity
  8
1
 62
     2
100
AcDbLine
 10
1540.624775120904
 20
1368.593058803334
 30
0.0
 11
1541.286275120904
 21
1371.043058803334
 31
0.0
  0
TEXT
  5
445
330
43A
100
AcDbEntity
  8
1
 62
     3
100
AcDbText
 10
1539.624775120904
 20
1364.858058803334
 30
0.0
 40
3.5
  1
6
 50
90.0
 41
0.63
  7
SIMPLEX
100
AcDbText
  0
ENDBLK
  5
446
330
43A
100
AcDbEntity
  8
0
100
AcDbBlockEnd
  0
BLOCK
  5
448
330
447
100
AcDbEntity
  8
1
100
AcDbBlockBegin
  2
*D19
 70
     1
 10
0.0
 20
0.0
 30
0.0
  3
*D19
  1

  0
LINE
  5
449
330
447
100
AcDbEntity
  8
1
 62
     2
100
AcDbLine
 10
1519.624775120904
 20
1389.593058803334
 30
0.0
 11
1524.524775120904
 21
1389.593058803334
 31
0.0
  0
LINE
  5
44A
330
447
100
AcDbEntity
  8
1
 62
     2
100
AcDbLine
 10
1513.624775120904
 20
1389.593058803334
 30
0.0
 11
1508.724775120904
 21
1389.593058803334
 31
0.0
  0
LINE
  5
44B
330
447
100
AcDbEntity
  8
1
 62
     2
100
AcDbLine
 10
1513.624775120904
 20
1389.593058803334
 30
0.0
 11
1519.624775120904
 21
1389.593058803334
 31
0.0
  0
LINE
  5
44C
330
447
100
AcDbEntity
  8
1
 62
     2
100
AcDbLine
 10
1519.624775120904
 20
1363.593058803334
 30
0.0
 11
1519.624775120904
 21
1390.593058803334
 31
0.0
  0
LINE
  5
44D
330
447
100
AcDbEntity
  8
1
 62
     2
100
AcDbLine
 10
1513.624775120904
 20
1331.593058803334
 30
0.0
 11
1513.624775120904
 21
1390.593058803334
 31
0.0
  0
LINE
  5
44E
330
447
100
AcDbEntity
  8
1
 62
     2
100
AcDbLine
 10
1513.624775120904
 20
1389.593058803334
 30
0.0
 11
1511.174775120904
 21
1388.931558803334
 31
0.0
  0
LINE
  5
44F
330
447
100
AcDbEntity
  8
1
 62
     2
100
AcDbLine
 10
1513.624775120904
 20
1389.593058803334
 30
0.0
 11
1511.174775120904
 21
1390.254558803334
 31
0.0
  0
LINE
  5
450
330
447
100
AcDbEntity
  8
1
 62
     2
100
AcDbLine
 10
1519.624775120904
 20
1389.593058803334
 30
0.0
 11
1522.074775120904
 21
1390.254558803334
 31
0.0
  0
LINE
  5
451
330
447
100
AcDbEntity
  8
1
 62
     2
100
AcDbLine
 10
1519.624775120904
 20
1389.593058803334
 30
0.0
 11
1522.074775120904
 21
1388.931558803334
 31
0.0
  0
TEXT
  5
452
330
447
100
AcDbEntity
  8
1
 62
     3
100
AcDbText
 10
1515.889775120904
 20
1390.593058803334
 30
0.0
 40
3.5
  1
6
 41
0.63
  7
SIMPLEX
100
AcDbText
  0
ENDBLK
  5
453
330
447
100
AcDbEntity
  8
0
100
AcDbBlockEnd
  0
BLOCK
  5
455
330
454
100
AcDbEntity
  8
1
100
AcDbBlockBegin
  2
*D20
 70
     1
 10
0.0
 20
0.0
 30
0.0
  3
*D20
  1

  0
LINE
  5
456
330
454
100
AcDbEntity
  8
1
 62
     2
100
AcDbLine
 10
1481.624775120904
 20
1389.593058803334
 30
0.0
 11
1513.624775120904
 21
1389.593058803334
 31
0.0
  0
LINE
  5
457
330
454
100
AcDbEntity
  8
1
 62
     2
100
AcDbLine
 10
1513.624775120904
 20
1331.593058803334
 30
0.0
 11
1513.624775120904
 21
1390.593058803334
 31
0.0
  0
LINE
  5
458
330
454
100
AcDbEntity
  8
1
 62
     2
100
AcDbLine
 10
1481.624775120904
 20
1331.593058803334
 30
0.0
 11
1481.624775120904
 21
1390.593058803334
 31
0.0
  0
LINE
  5
459
330
454
100
AcDbEntity
  8
1
 62
     2
100
AcDbLine
 10
1481.624775120904
 20
1389.593058803334
 30
0.0
 11
1484.074775120904
 21
1390.254558803334
 31
0.0
  0
LINE
  5
45A
330
454
100
AcDbEntity
  8
1
 62
     2
100
AcDbLine
 10
1481.624775120904
 20
1389.593058803334
 30
0.0
 11
1484.074775120904
 21
1388.931558803334
 31
0.0
  0
LINE
  5
45B
330
454
100
AcDbEntity
  8
1
 62
     2
100
AcDbLine
 10
1513.624775120904
 20
1389.593058803334
 30
0.0
 11
1511.174775120904
 21
1388.931558803334
 31
0.0
  0
LINE
  5
45C
330
454
100
AcDbEntity
  8
1
 62
     2
100
AcDbLine
 10
1513.624775120904
 20
1389.593058803334
 30
0.0
 11
1511.174775120904
 21
1390.254558803334
 31
0.0
  0
TEXT
  5
45D
330
454
100
AcDbEntity
  8
1
 62
     3
100
AcDbText
 10
1495.787275120904
 20
1390.593058803334
 30
0.0
 40
3.5
  1
32
 41
0.63
  7
SIMPLEX
100
AcDbText
  0
ENDBLK
  5
45E
330
454
100
AcDbEntity
  8
0
100
AcDbBlockEnd
  0
BLOCK
  5
460
330
45F
100
AcDbEntity
  8
1
100
AcDbBlockBegin
  2
*D21
 70
     1
 10
0.0
 20
0.0
 30
0.0
  3
*D21
  1

  0
LINE
  5
461
330
45F
100
AcDbEntity
  8
1
 62
     2
100
AcDbLine
 10
1481.624775120904
 20
1389.593058803334
 30
0.0
 11
1486.524775120904
 21
1389.593058803334
 31
0.0
  0
LINE
  5
462
330
45F
100
AcDbEntity
  8
1
 62
     2
100
AcDbLine
 10
1475.624775120904
 20
1389.593058803334
 30
0.0
 11
1470.724775120904
 21
1389.593058803334
 31
0.0
  0
LINE
  5
463
330
45F
100
AcDbEntity
  8
1
 62
     2
100
AcDbLine
 10
1475.624775120904
 20
1389.593058803334
 30
0.0
 11
1481.624775120904
 21
1389.593058803334
 31
0.0
  0
LINE
  5
464
330
45F
100
AcDbEntity
  8
1
 62
     2
100
AcDbLine
 10
1481.624775120904
 20
1331.593058803334
 30
0.0
 11
1481.624775120904
 21
1390.593058803334
 31
0.0
  0
LINE
  5
465
330
45F
100
AcDbEntity
  8
1
 62
     2
100
AcDbLine
 10
1475.624775120904
 20
1363.593058803334
 30
0.0
 11
1475.624775120904
 21
1390.593058803334
 31
0.0
  0
LINE
  5
466
330
45F
100
AcDbEntity
  8
1
 62
     2
100
AcDbLine
 10
1475.624775120904
 20
1389.593058803334
 30
0.0
 11
1473.174775120904
 21
1388.931558803334
 31
0.0
  0
LINE
  5
467
330
45F
100
AcDbEntity
  8
1
 62
     2
100
AcDbLine
 10
1475.624775120904
 20
1389.593058803334
 30
0.0
 11
1473.174775120904
 21
1390.254558803334
 31
0.0
  0
LINE
  5
468
330
45F
100
AcDbEntity
  8
1
 62
     2
100
AcDbLine
 10
1481.624775120904
 20
1389.593058803334
 30
0.0
 11
1484.074775120904
 21
1390.254558803334
 31
0.0
  0
LINE
  5
469
330
45F
100
AcDbEntity
  8
1
 62
     2
100
AcDbLine
 10
1481.624775120904
 20
1389.593058803334
 30
0.0
 11
1484.074775120904
 21
1388.931558803334
 31
0.0
  0
TEXT
  5
46A
330
45F
100
AcDbEntity
  8
1
 62
     3
100
AcDbText
 10
1477.889775120904
 20
1390.593058803334
 30
0.0
 40
3.5
  1
6
 41
0.63
  7
SIMPLEX
100
AcDbText
  0
ENDBLK
  5
46B
330
45F
100
AcDbEntity
  8
0
100
AcDbBlockEnd
  0
BLOCK
  5
46D
330
46C
100
AcDbEntity
  8
1
100
AcDbBlockBegin
  2
*D22
 70
     1
 10
0.0
 20
0.0
 30
0.0
  3
*D22
  1

  0
LINE
  5
46E
330
46C
100
AcDbEntity
  8
1
 62
     2
100
AcDbLine
 10
1744.124775120904
 20
1314.593058803334
 30
0.0
 11
1744.124775120904
 21
1354.593058803334
 31
0.0
  0
LINE
  5
46F
330
46C
100
AcDbEntity
  8
1
 62
     2
100
AcDbLine
 10
1702.124775120904
 20
1354.593058803334
 30
0.0
 11
1745.124775120904
 21
1354.593058803334
 31
0.0
  0
LINE
  5
470
330
46C
100
AcDbEntity
  8
1
 62
     2
100
AcDbLine
 10
1723.124775120904
 20
1314.593058803334
 30
0.0
 11
1745.124775120904
 21
1314.593058803334
 31
0.0
  0
LINE
  5
471
330
46C
100
AcDbEntity
  8
1
 62
     2
100
AcDbLine
 10
1744.124775120904
 20
1354.593058803334
 30
0.0
 11
1744.786275120904
 21
1352.143058803334
 31
0.0
  0
LINE
  5
472
330
46C
100
AcDbEntity
  8
1
 62
     2
100
AcDbLine
 10
1744.124775120904
 20
1354.593058803334
 30
0.0
 11
1743.463275120904
 21
1352.143058803334
 31
0.0
  0
LINE
  5
473
330
46C
100
AcDbEntity
  8
1
 62
     2
100
AcDbLine
 10
1744.124775120904
 20
1314.593058803334
 30
0.0
 11
1743.463275120904
 21
1317.043058803334
 31
0.0
  0
LINE
  5
474
330
46C
100
AcDbEntity
  8
1
 62
     2
100
AcDbLine
 10
1744.124775120904
 20
1314.593058803334
 30
0.0
 11
1744.786275120904
 21
1317.043058803334
 31
0.0
  0
TEXT
  5
475
330
46C
100
AcDbEntity
  8
1
 62
     3
100
AcDbText
 10
1743.124775120904
 20
1332.755558803334
 30
0.0
 40
3.5
  1
40
 50
90.0
 41
0.63
  7
SIMPLEX
100
AcDbText
  0
ENDBLK
  5
476
330
46C
100
AcDbEntity
  8
0
100
AcDbBlockEnd
  0
BLOCK
  5
478
330
477
100
AcDbEntity
  8
1
100
AcDbBlockBegin
  2
*D23
 70
     1
 10
0.0
 20
0.0
 30
0.0
  3
*D23
  1

  0
LINE
  5
479
330
477
100
AcDbEntity
  8
1
 62
     2
100
AcDbLine
 10
1751.124775120904
 20
1314.593058803334
 30
0.0
 11
1751.124775120904
 21
1368.593058803334
 31
0.0
  0
LINE
  5
47A
330
477
100
AcDbEntity
  8
1
 62
     2
100
AcDbLine
 10
1718.124775120904
 20
1368.593058803334
 30
0.0
 11
1752.124775120904
 21
1368.593058803334
 31
0.0
  0
LINE
  5
47B
330
477
100
AcDbEntity
  8
1
 62
     2
100
AcDbLine
 10
1723.124775120904
 20
1314.593058803334
 30
0.0
 11
1752.124775120904
 21
1314.593058803334
 31
0.0
  0
LINE
  5
47C
330
477
100
AcDbEntity
  8
1
 62
     2
100
AcDbLine
 10
1751.124775120904
 20
1314.593058803334
 30
0.0
 11
1750.463275120904
 21
1317.043058803334
 31
0.0
  0
LINE
  5
47D
330
477
100
AcDbEntity
  8
1
 62
     2
100
AcDbLine
 10
1751.124775120904
 20
1314.593058803334
 30
0.0
 11
1751.786275120904
 21
1317.043058803334
 31
0.0
  0
LINE
  5
47E
330
477
100
AcDbEntity
  8
1
 62
     2
100
AcDbLine
 10
1751.124775120904
 20
1368.593058803334
 30
0.0
 11
1751.786275120904
 21
1366.143058803334
 31
0.0
  0
LINE
  5
47F
330
477
100
AcDbEntity
  8
1
 62
     2
100
AcDbLine
 10
1751.124775120904
 20
1368.593058803334
 30
0.0
 11
1750.463275120904
 21
1366.143058803334
 31
0.0
  0
TEXT
  5
480
330
477
100
AcDbEntity
  8
1
 62
     3
100
AcDbText
 10
1750.124775120904
 20
1339.755558803334
 30
0.0
 40
3.5
  1
54
 50
90.0
 41
0.63
  7
SIMPLEX
100
AcDbText
  0
ENDBLK
  5
481
330
477
100
AcDbEntity
  8
0
100
AcDbBlockEnd
  0
BLOCK
  5
483
330
482
100
AcDbEntity
  8
1
100
AcDbBlockBegin
  2
*D24
 70
     1
 10
0.0
 20
0.0
 30
0.0
  3
*D24
  1

  0
LINE
  5
484
330
482
100
AcDbEntity
  8
1
 62
     2
100
AcDbLine
 10
1692.224775120904
 20
1389.593058803334
 30
0.0
 11
1710.024775120904
 21
1389.593058803334
 31
0.0
  0
LINE
  5
485
330
482
100
AcDbEntity
  8
1
 62
     2
100
AcDbLine
 10
1710.024775120904
 20
1346.693058803334
 30
0.0
 11
1710.024775120904
 21
1390.593058803334
 31
0.0
  0
LINE
  5
486
330
482
100
AcDbEntity
  8
1
 62
     2
100
AcDbLine
 10
1692.224775120904
 20
1346.693058803334
 30
0.0
 11
1692.224775120904
 21
1390.593058803334
 31
0.0
  0
LINE
  5
487
330
482
100
AcDbEntity
  8
1
 62
     2
100
AcDbLine
 10
1710.024775120904
 20
1389.593058803334
 30
0.0
 11
1707.574775120904
 21
1388.931558803334
 31
0.0
  0
LINE
  5
488
330
482
100
AcDbEntity
  8
1
 62
     2
100
AcDbLine
 10
1710.024775120904
 20
1389.593058803334
 30
0.0
 11
1707.574775120904
 21
1390.254558803334
 31
0.0
  0
LINE
  5
489
330
482
100
AcDbEntity
  8
1
 62
     2
100
AcDbLine
 10
1692.224775120904
 20
1389.593058803334
 30
0.0
 11
1694.674775120904
 21
1390.254558803334
 31
0.0
  0
LINE
  5
48A
330
482
100
AcDbEntity
  8
1
 62
     2
100
AcDbLine
 10
1692.224775120904
 20
1389.593058803334
 30
0.0
 11
1694.674775120904
 21
1388.931558803334
 31
0.0
  0
TEXT
  5
48B
330
482
100
AcDbEntity
  8
1
 62
     3
100
AcDbText
 10
1698.123525120904
 20
1390.593058803334
 30
0.0
 40
3.5
  1
17.8
 41
0.63
  7
SIMPLEX
100
AcDbText
  0
ENDBLK
  5
48C
330
482
100
AcDbEntity
  8
0
100
AcDbBlockEnd
  0
BLOCK
  5
48E
330
48D
100
AcDbEntity
  8
1
100
AcDbBlockBegin
  2
*D25
 70
     1
 10
0.0
 20
0.0
 30
0.0
  3
*D25
  1

  0
LINE
  5
48F
330
48D
100
AcDbEntity
  8
1
 62
     2
100
AcDbLine
 10
1679.124775120904
 20
1396.593058803334
 30
0.0
 11
1723.124775120904
 21
1396.593058803334
 31
0.0
  0
LINE
  5
490
330
48D
100
AcDbEntity
  8
1
 62
     2
100
AcDbLine
 10
1723.124775120904
 20
1363.593058803334
 30
0.0
 11
1723.124775120904
 21
1397.593058803334
 31
0.0
  0
LINE
  5
491
330
48D
100
AcDbEntity
  8
1
 62
     2
100
AcDbLine
 10
1679.124775120904
 20
1363.593058803334
 30
0.0
 11
1679.124775120904
 21
1397.593058803334
 31
0.0
  0
LINE
  5
492
330
48D
100
AcDbEntity
  8
1
 62
     2
100
AcDbLine
 10
1723.124775120904
 20
1396.593058803334
 30
0.0
 11
1720.674775120904
 21
1395.931558803334
 31
0.0
  0
LINE
  5
493
330
48D
100
AcDbEntity
  8
1
 62
     2
100
AcDbLine
 10
1723.124775120904
 20
1396.593058803334
 30
0.0
 11
1720.674775120904
 21
1397.254558803334
 31
0.0
  0
LINE
  5
494
330
48D
100
AcDbEntity
  8
1
 62
     2
100
AcDbLine
 10
1679.124775120904
 20
1396.593058803334
 30
0.0
 11
1681.574775120903
 21
1397.254558803334
 31
0.0
  0
LINE
  5
495
330
48D
100
AcDbEntity
  8
1
 62
     2
100
AcDbLine
 10
1679.124775120904
 20
1396.593058803334
 30
0.0
 11
1681.574775120903
 21
1395.931558803334
 31
0.0
  0
TEXT
  5
496
330
48D
100
AcDbEntity
  8
1
 62
     3
100
AcDbText
 10
1699.287275120904
 20
1397.593058803334
 30
0.0
 40
3.5
  1
44
 41
0.63
  7
SIMPLEX
100
AcDbText
  0
ENDBLK
  5
497
330
48D
100
AcDbEntity
  8
0
100
AcDbBlockEnd
  0
BLOCK
  5
499
330
498
100
AcDbEntity
  8
1
100
AcDbBlockBegin
  2
*D26
 70
     1
 10
0.0
 20
0.0
 30
0.0
  3
*D26
  1

  0
LINE
  5
49A
330
498
100
AcDbEntity
  8
1
 62
     2
100
AcDbLine
 10
1651.763345136153
 20
1369.480879941691
 30
0.0
 11
1693.107207100208
 21
1349.556813846489
 31
0.0
  0
LINE
  5
49B
330
498
100
AcDbEntity
  8
1
 62
     2
100
AcDbLine
 10
1693.107207100208
 20
1349.556813846489
 30
0.0
 11
1690.612946919111
 21
1350.024519308291
 31
0.0
  0
LINE
  5
49C
330
498
100
AcDbEntity
  8
1
 62
     2
100
AcDbLine
 10
1693.107207100208
 20
1349.556813846489
 30
0.0
 11
1691.187300618224
 21
1351.216344307323
 31
0.0
  0
TEXT
  5
49D
330
498
100
AcDbEntity
  8
1
 62
     3
100
AcDbText
 10
1655.318921342318
 20
1368.877470592945
 30
0.0
 40
3.5
  1
8.9
 50
334.2700666431055
 41
0.63
  7
SIMPLEX
100
AcDbText
  0
TEXT
  5
49E
330
498
100
AcDbEntity
  8
1
 62
     3
100
AcDbText
 10
1652.197474916283
 20
1370.381730281095
 30
0.0
 40
3.5
  1
R
 50
334.2700666431055
 41
0.63
  7
SIMPLEX
100
AcDbText
  0
ENDBLK
  5
49F
330
498
100
AcDbEntity
  8
0
100
AcDbBlockEnd
  0
ENDSEC
  0
SECTION
  2
ENTITIES
  0
LINE
  5
4B3
330
6B
100
AcDbEntity
  8
1
 62
     2
100
AcDbLine
 10
1484.6562507909
 20
1335.234603467067
 30
0.0
 11
1487.224775120904
 21
1335.55305688117
 31
0.0
  0
LINE
  5
4B4
330
6B
100
AcDbEntity
  8
1
 62
     2
100
AcDbLine
 10
1484.84114109383
 20
1336.561530299638
 30
0.0
 11
1487.224775120904
 21
1335.55305688117
 31
0.0
  0
LINE
  5
4E1
330
6B
100
AcDbEntity
  8
1
 62
     7
100
AcDbLine
 10
1607.374775120904
 20
1308.093058803334
 30
0.0
 11
1615.374775120904
 21
1308.093058803334
 31
0.0
  0
LINE
  5
4E2
330
6B
100
AcDbEntity
  8
1
 62
     7
100
AcDbLine
 10
1615.374775120904
 20
1308.093058803334
 30
0.0
 11
1615.374775120904
 21
1308.593058803334
 31
0.0
  0
LINE
  5
4E3
330
6B
100
AcDbEntity
  8
1
 62
     7
100
AcDbLine
 10
1615.374775120904
 20
1308.593058803334
 30
0.0
 11
1607.374775120904
 21
1308.593058803334
 31
0.0
  0
LINE
  5
4E4
330
6B
100
AcDbEntity
  8
1
 62
     7
100
AcDbLine
 10
1607.374775120904
 20
1308.593058803334
 30
0.0
 11
1607.374775120904
 21
1308.093058803334
 31
0.0
  0
LINE
  5
4E5
330
6B
100
AcDbEntity
  8
1
 62
     7
100
AcDbLine
 10
1493.624775120904
 20
1308.093058803334
 30
0.0
 11
1501.624775120904
 21
1308.093058803334
 31
0.0
  0
LINE
  5
4E6
330
6B
100
AcDbEntity
  8
1
 62
     7
100
AcDbLine
 10
1493.624775120904
 20
1308.593058803334
 30
0.0
 11
1493.624775120904
 21
1308.093058803334
 31
0.0
  0
LINE
  5
4E7
330
6B
100
AcDbEntity
  8
1
 62
     7
100
AcDbLine
 10
1501.624775120904
 20
1308.593058803334
 30
0.0
 11
1493.624775120904
 21
1308.593058803334
 31
0.0
  0
LINE
  5
4E8
330
6B
100
AcDbEntity
  8
1
 62
     7
100
AcDbLine
 10
1501.624775120904
 20
1308.093058803334
 30
0.0
 11
1501.624775120904
 21
1308.593058803334
 31
0.0
  0
LINE
  5
4ED
330
6B
100
AcDbEntity
  8
1
 62
     7
100
AcDbLine
 10
1619.874775120904
 20
1308.093058803334
 30
0.0
 11
1602.874775120904
 21
1308.093058803334
 31
0.0
  0
LINE
  5
4EE
330
6B
100
AcDbEntity
  8
1
 62
     7
100
AcDbLine
 10
1619.874775120904
 20
1308.093058803334
 30
0.0
 11
1619.874775120904
 21
1305.073381338805
 31
0.0
  0
LINE
  5
4EF
330
6B
100
AcDbEntity
  8
1
 62
     7
100
AcDbLine
 10
1602.874775120904
 20
1305.073381338805
 30
0.0
 11
1602.874775120904
 21
1308.093058803334
 31
0.0
  0
LINE
  5
4F0
330
6B
100
AcDbEntity
  8
1
 62
     7
100
AcDbLine
 10
1617.859210683829
 20
1303.493058803334
 30
0.0
 11
1604.890339557978
 21
1303.493058803334
 31
0.0
  0
LINE
  5
4F1
330
6B
100
AcDbEntity
  8
1
 62
     7
100
AcDbLine
 10
1618.355349622186
 20
1303.62481566121
 30
0.0
 11
1619.370914059261
 21
1304.205138196681
 31
0.0
  0
LINE
  5
4F2
330
6B
100
AcDbEntity
  8
1
 62
     7
100
AcDbLine
 10
1604.394200619622
 20
1303.62481566121
 30
0.0
 11
1603.378636182547
 21
1304.205138196681
 31
0.0
  0
LINE
  5
4F3
330
6B
100
AcDbEntity
  8
1
 62
     7
100
AcDbLine
 10
1506.124775120904
 20
1308.093058803334
 30
0.0
 11
1489.124775120904
 21
1308.093058803334
 31
0.0
  0
LINE
  5
4F4
330
6B
100
AcDbEntity
  8
1
 62
     7
100
AcDbLine
 10
1489.124775120904
 20
1305.073381338805
 30
0.0
 11
1489.124775120904
 21
1308.093058803334
 31
0.0
  0
LINE
  5
4F5
330
6B
100
AcDbEntity
  8
1
 62
     7
100
AcDbLine
 10
1506.124775120904
 20
1308.093058803334
 30
0.0
 11
1506.124775120904
 21
1305.073381338805
 31
0.0
  0
LINE
  5
4F6
330
6B
100
AcDbEntity
  8
1
 62
     7
100
AcDbLine
 10
1504.10921068383
 20
1303.493058803334
 30
0.0
 11
1491.140339557979
 21
1303.493058803334
 31
0.0
  0
LINE
  5
4F7
330
6B
100
AcDbEntity
  8
1
 62
     7
100
AcDbLine
 10
1489.628636182547
 20
1304.205138196681
 30
0.0
 11
1490.644200619622
 21
1303.62481566121
 31
0.0
  0
LINE
  5
4F8
330
6B
100
AcDbEntity
  8
1
 62
     7
100
AcDbLine
 10
1505.620914059261
 20
1304.205138196681
 30
0.0
 11
1504.605349622186
 21
1303.62481566121
 31
0.0
  0
ARC
  5
4FF
330
6B
100
AcDbEntity
  8
1
 62
     7
100
AcDbCircle
 10
1618.874775120904
 20
1305.073381338805
 30
0.0
 40
0.9999999999996157
100
AcDbArc
 50
299.7448812969681
 51
0.0
  0
ARC
  5
500
330
6B
100
AcDbEntity
  8
1
 62
     7
100
AcDbCircle
 10
1617.859210683829
 20
1304.493058803334
 30
0.0
 40
1.0
100
AcDbArc
 50
270.0
 51
299.7448812969681
  0
ARC
  5
501
330
6B
100
AcDbEntity
  8
1
 62
     7
100
AcDbCircle
 10
1604.890339557979
 20
1304.493058803334
 30
0.0
 40
0.9999999999995027
100
AcDbArc
 50
240.2551187030433
 51
270.0
  0
ARC
  5
502
330
6B
100
AcDbEntity
  8
1
 62
     7
100
AcDbCircle
 10
1603.874775120904
 20
1305.073381338805
 30
0.0
 40
1.0
100
AcDbArc
 50
180.0
 51
240.2551187030433
  0
ARC
  5
503
330
6B
100
AcDbEntity
  8
1
 62
     7
100
AcDbCircle
 10
1490.124775120904
 20
1305.073381338805
 30
0.0
 40
1.0
100
AcDbArc
 50
180.0
 51
240.2551187030433
  0
ARC
  5
504
330
6B
100
AcDbEntity
  8
1
 62
     7
100
AcDbCircle
 10
1491.140339557979
 20
1304.493058803334
 30
0.0
 40
0.9999999999995027
100
AcDbArc
 50
240.2551187030433
 51
270.0
  0
ARC
  5
505
330
6B
100
AcDbEntity
  8
1
 62
     7
100
AcDbCircle
 10
1504.109210683829
 20
1304.493058803334
 30
0.0
 40
1.0
100
AcDbArc
 50
270.0
 51
299.7448812969681
  0
ARC
  5
506
330
6B
100
AcDbEntity
  8
1
 62
     7
100
AcDbCircle
 10
1505.124775120904
 20
1305.073381338805
 30
0.0
 40
0.9999999999996157
100
AcDbArc
 50
299.7448812969681
 51
0.0
  0
LINE
  5
50B
330
6B
100
AcDbEntity
  8
1
 62
     7
100
AcDbLine
 10
1614.074775120904
 20
1308.593058803334
 30
0.0
 11
1608.674775120904
 21
1308.593058803334
 31
0.0
  0
LINE
  5
50C
330
6B
100
AcDbEntity
  8
1
 62
     7
100
AcDbLine
 10
1614.374775120904
 20
1314.593058803334
 30
0.0
 11
1614.374775120904
 21
1308.893058803334
 31
0.0
  0
LINE
  5
50D
330
6B
100
AcDbEntity
  8
1
 62
     7
100
AcDbLine
 10
1614.074775120904
 20
1308.593058803334
 30
0.0
 11
1608.674775120904
 21
1308.593058803334
 31
0.0
  0
LINE
  5
50E
330
6B
100
AcDbEntity
  8
1
 62
     7
100
AcDbLine
 10
1608.374775120904
 20
1308.893058803334
 30
0.0
 11
1608.374775120904
 21
1314.593058803334
 31
0.0
  0
LINE
  5
50F
330
6B
100
AcDbEntity
  8
1
 62
     7
100
AcDbLine
 10
1494.624775120904
 20
1308.893058803334
 30
0.0
 11
1494.624775120904
 21
1314.593058803334
 31
0.0
  0
LINE
  5
510
330
6B
100
AcDbEntity
  8
1
 62
     7
100
AcDbLine
 10
1500.324775120904
 20
1308.593058803334
 30
0.0
 11
1494.924775120904
 21
1308.593058803334
 31
0.0
  0
LINE
  5
511
330
6B
100
AcDbEntity
  8
1
 62
     7
100
AcDbLine
 10
1500.624775120904
 20
1314.593058803334
 30
0.0
 11
1500.624775120904
 21
1308.893058803334
 31
0.0
  0
LINE
  5
512
330
6B
100
AcDbEntity
  8
1
 62
     7
100
AcDbLine
 10
1500.324775120904
 20
1308.593058803334
 30
0.0
 11
1494.924775120904
 21
1308.593058803334
 31
0.0
  0
ARC
  5
516
330
6B
100
AcDbEntity
  8
1
 62
     7
100
AcDbCircle
 10
1614.074775120904
 20
1308.893058803334
 30
0.0
 40
0.2999999999999545
100
AcDbArc
 50
270.0
 51
0.0
  0
ARC
  5
517
330
6B
100
AcDbEntity
  8
1
 62
     7
100
AcDbCircle
 10
1608.674775120904
 20
1308.893058803334
 30
0.0
 40
0.3000000000001819
100
AcDbArc
 50
180.0
 51
270.0
  0
ARC
  5
518
330
6B
100
AcDbEntity
  8
1
 62
     7
100
AcDbCircle
 10
1614.074775120904
 20
1308.893058803334
 30
0.0
 40
0.2999999999999545
100
AcDbArc
 50
270.0
 51
0.0
  0
ARC
  5
519
330
6B
100
AcDbEntity
  8
1
 62
     7
100
AcDbCircle
 10
1608.674775120904
 20
1308.893058803334
 30
0.0
 40
0.3000000000001819
100
AcDbArc
 50
180.0
 51
270.0
  0
ARC
  5
51A
330
6B
100
AcDbEntity
  8
1
 62
     7
100
AcDbCircle
 10
1494.924775120904
 20
1308.893058803334
 30
0.0
 40
0.3000000000001819
100
AcDbArc
 50
180.0
 51
270.0
  0
ARC
  5
51B
330
6B
100
AcDbEntity
  8
1
 62
     7
100
AcDbCircle
 10
1500.324775120904
 20
1308.893058803334
 30
0.0
 40
0.2999999999999545
100
AcDbArc
 50
270.0
 51
0.0
  0
ARC
  5
51C
330
6B
100
AcDbEntity
  8
1
 62
     7
100
AcDbCircle
 10
1494.924775120904
 20
1308.893058803334
 30
0.0
 40
0.3000000000001819
100
AcDbArc
 50
180.0
 51
270.0
  0
ARC
  5
51D
330
6B
100
AcDbEntity
  8
1
 62
     7
100
AcDbCircle
 10
1500.324775120904
 20
1308.893058803334
 30
0.0
 40
0.2999999999999545
100
AcDbArc
 50
270.0
 51
0.0
  0
LINE
  5
520
330
6B
100
AcDbEntity
  8
1
 62
     7
100
AcDbLine
 10
1592.374775120904
 20
1348.093058803334
 30
0.0
 11
1590.374775120904
 21
1348.093058803334
 31
0.0
  0
LINE
  5
521
330
6B
100
AcDbEntity
  8
1
 62
     7
100
AcDbLine
 10
1507.274775120904
 20
1331.593058803334
 30
0.0
 11
1487.974775120904
 21
1331.593058803334
 31
0.0
  0
LINE
  5
522
330
6B
100
AcDbEntity
  8
1
 62
     7
100
AcDbLine
 10
1507.274775120904
 20
1340.593058803334
 30
0.0
 11
1487.974775120904
 21
1340.593058803334
 31
0.0
  0
LINE
  5
523
330
6B
100
AcDbEntity
  8
1
 62
     7
100
AcDbLine
 10
1502.124775120904
 20
1316.593058803334
 30
0.0
 11
1493.124775120904
 21
1316.593058803334
 31
0.0
  0
LINE
  5
524
330
6B
100
AcDbEntity
  8
1
 62
     7
100
AcDbLine
 10
1505.024775120904
 20
1317.593058803334
 30
0.0
 11
1505.024775120904
 21
1328.593058803334
 31
0.0
  0
LINE
  5
525
330
6B
100
AcDbEntity
  8
1
 62
     7
100
AcDbLine
 10
1493.524775120904
 20
1316.593058803334
 30
0.0
 11
1493.524775120904
 21
1314.593058803334
 31
0.0
  0
LINE
  5
526
330
6B
100
AcDbEntity
  8
1
 62
     7
100
AcDbLine
 10
1501.724775120904
 20
1314.593058803334
 30
0.0
 11
1493.524775120904
 21
1314.593058803334
 31
0.0
  0
LINE
  5
527
330
6B
100
AcDbEntity
  8
1
 62
     7
100
AcDbLine
 10
1501.724775120904
 20
1316.593058803334
 30
0.0
 11
1501.724775120904
 21
1314.593058803334
 31
0.0
  0
LINE
  5
528
330
6B
100
AcDbEntity
  8
1
 62
     7
100
AcDbLine
 10
1488.724775120904
 20
1331.593058803334
 30
0.0
 11
1488.724775120904
 21
1318.843058803334
 31
0.0
  0
LINE
  5
529
330
6B
100
AcDbEntity
  8
1
 62
     7
100
AcDbLine
 10
1487.224775120904
 20
1318.843058803334
 30
0.0
 11
1487.224775120904
 21
1347.343058803334
 31
0.0
  0
LINE
  5
52A
330
6B
100
AcDbEntity
  8
1
 62
     7
100
AcDbLine
 10
1508.024775120904
 20
1347.343058803334
 30
0.0
 11
1508.024775120904
 21
1318.843058803334
 31
0.0
  0
LINE
  5
52B
330
6B
100
AcDbEntity
  8
1
 62
     7
100
AcDbLine
 10
1506.524775120904
 20
1340.593058803334
 30
0.0
 11
1506.524775120904
 21
1347.343058803334
 31
0.0
  0
LINE
  5
52C
330
6B
100
AcDbEntity
  8
1
 62
     7
100
AcDbLine
 10
1506.524775120904
 20
1318.843058803334
 30
0.0
 11
1506.524775120904
 21
1331.593058803334
 31
0.0
  0
LINE
  5
52D
330
6B
100
AcDbEntity
  8
1
 62
     7
100
AcDbLine
 10
1488.724775120904
 20
1347.343058803334
 30
0.0
 11
1488.724775120904
 21
1340.593058803334
 31
0.0
  0
LINE
  5
52E
330
6B
100
AcDbEntity
  8
1
 62
     7
100
AcDbLine
 10
1490.224775120904
 20
1328.593058803334
 30
0.0
 11
1490.224775120904
 21
1317.593058803334
 31
0.0
  0
LINE
  5
52F
330
6B
100
AcDbEntity
  8
1
 62
     7
100
AcDbLine
 10
1492.124775120904
 20
1324.593058803334
 30
0.0
 11
1492.124775120904
 21
1328.593058803334
 31
0.0
  0
LINE
  5
530
330
6B
100
AcDbEntity
  8
1
 62
     7
100
AcDbLine
 10
1503.124775120904
 20
1326.593058803334
 30
0.0
 11
1492.124775120904
 21
1326.593058803334
 31
0.0
  0
LINE
  5
531
330
6B
100
AcDbEntity
  8
1
 62
     7
100
AcDbLine
 10
1503.124775120904
 20
1328.593058803334
 30
0.0
 11
1503.124775120904
 21
1324.593058803334
 31
0.0
  0
LINE
  5
532
330
6B
100
AcDbEntity
  8
1
 62
     7
100
AcDbLine
 10
1503.124775120904
 20
1324.593058803334
 30
0.0
 11
1492.124775120904
 21
1324.593058803334
 31
0.0
  0
LINE
  5
533
330
6B
100
AcDbEntity
  8
1
 62
     7
100
AcDbLine
 10
1503.124775120904
 20
1343.593058803334
 30
0.0
 11
1503.124775120904
 21
1347.593058803334
 31
0.0
  0
LINE
  5
534
330
6B
100
AcDbEntity
  8
1
 62
     7
100
AcDbLine
 10
1503.124775120904
 20
1347.593058803334
 30
0.0
 11
1492.124775120904
 21
1347.593058803334
 31
0.0
  0
LINE
  5
535
330
6B
100
AcDbEntity
  8
1
 62
     7
100
AcDbLine
 10
1492.124775120904
 20
1345.593058803334
 30
0.0
 11
1503.124775120904
 21
1345.593058803334
 31
0.0
  0
LINE
  5
536
330
6B
100
AcDbEntity
  8
1
 62
     7
100
AcDbLine
 10
1490.724775120904
 20
1348.593058803334
 30
0.0
 11
1490.224775120904
 21
1348.093058803334
 31
0.0
  0
LINE
  5
537
330
6B
100
AcDbEntity
  8
1
 62
     7
100
AcDbLine
 10
1504.524775120904
 20
1348.593058803334
 30
0.0
 11
1490.724775120904
 21
1348.593058803334
 31
0.0
  0
LINE
  5
538
330
6B
100
AcDbEntity
  8
1
 62
     7
100
AcDbLine
 10
1504.524775120904
 20
1348.593058803334
 30
0.0
 11
1505.024775120904
 21
1348.093058803334
 31
0.0
  0
LINE
  5
539
330
6B
100
AcDbEntity
  8
1
 62
     7
100
AcDbLine
 10
1505.024775120904
 20
1343.593058803334
 30
0.0
 11
1505.024775120904
 21
1348.093058803334
 31
0.0
  0
LINE
  5
53A
330
6B
100
AcDbEntity
  8
1
 62
     7
100
AcDbLine
 10
1510.024775120904
 20
1333.593058803334
 30
0.0
 11
1508.024775120904
 21
1333.593058803334
 31
0.0
  0
LINE
  5
53B
330
6B
100
AcDbEntity
  8
1
 62
     7
100
AcDbLine
 10
1510.524775120904
 20
1336.893058803334
 30
0.0
 11
1510.524775120904
 21
1334.093058803334
 31
0.0
  0
LINE
  5
53C
330
6B
100
AcDbEntity
  8
1
 62
     7
100
AcDbLine
 10
1508.024775120904
 20
1337.393058803334
 30
0.0
 11
1510.024775120904
 21
1337.393058803334
 31
0.0
  0
LINE
  5
53D
330
6B
100
AcDbEntity
  8
1
 62
     7
100
AcDbLine
 10
1510.024775120904
 20
1333.593058803334
 30
0.0
 11
1510.524775120904
 21
1334.093058803334
 31
0.0
  0
LINE
  5
53E
330
6B
100
AcDbEntity
  8
1
 62
     7
100
AcDbLine
 10
1510.524775120904
 20
1336.893058803334
 30
0.0
 11
1510.024775120904
 21
1337.393058803334
 31
0.0
  0
LINE
  5
53F
330
6B
100
AcDbEntity
  8
1
 62
     7
100
AcDbLine
 10
1484.724775120904
 20
1334.093058803334
 30
0.0
 11
1484.724775120904
 21
1336.893058803334
 31
0.0
  0
LINE
  5
540
330
6B
100
AcDbEntity
  8
1
 62
     7
100
AcDbLine
 10
1484.724775120904
 20
1334.093058803334
 30
0.0
 11
1485.224775120904
 21
1333.593058803334
 31
0.0
  0
LINE
  5
541
330
6B
100
AcDbEntity
  8
1
 62
     7
100
AcDbLine
 10
1485.224775120904
 20
1337.393058803334
 30
0.0
 11
1484.724775120904
 21
1336.893058803334
 31
0.0
  0
LINE
  5
542
330
6B
100
AcDbEntity
  8
1
 62
     7
100
AcDbLine
 10
1487.224775120904
 20
1333.593058803334
 30
0.0
 11
1485.224775120904
 21
1333.593058803334
 31
0.0
  0
LINE
  5
543
330
6B
100
AcDbEntity
  8
1
 62
     7
100
AcDbLine
 10
1485.224775120904
 20
1337.393058803334
 30
0.0
 11
1487.224775120904
 21
1337.393058803334
 31
0.0
  0
LINE
  5
544
330
6B
100
AcDbEntity
  8
1
 62
     7
100
AcDbLine
 10
1504.524775120904
 20
1317.593058803334
 30
0.0
 11
1490.724775120904
 21
1317.593058803334
 31
0.0
  0
LINE
  5
545
330
6B
100
AcDbEntity
  8
1
 62
     7
100
AcDbLine
 10
1505.024775120904
 20
1318.093058803334
 30
0.0
 11
1504.524775120904
 21
1317.593058803334
 31
0.0
  0
LINE
  5
546
330
6B
100
AcDbEntity
  8
1
 62
     7
100
AcDbLine
 10
1490.724775120904
 20
1317.593058803334
 30
0.0
 11
1490.224775120904
 21
1318.093058803334
 31
0.0
  0
LINE
  5
547
330
6B
100
AcDbEntity
  8
1
 62
     7
100
AcDbLine
 10
1490.224775120904
 20
1343.593058803334
 30
0.0
 11
1505.024775120904
 21
1343.593058803334
 31
0.0
  0
LINE
  5
548
330
6B
100
AcDbEntity
  8
1
 62
     7
100
AcDbLine
 10
1490.224775120904
 20
1348.093058803334
 30
0.0
 11
1490.224775120904
 21
1343.593058803334
 31
0.0
  0
LINE
  5
549
330
6B
100
AcDbEntity
  8
1
 62
     7
100
AcDbLine
 10
1492.124775120904
 20
1347.593058803334
 30
0.0
 11
1492.124775120904
 21
1343.593058803334
 31
0.0
  0
LINE
  5
54A
330
6B
100
AcDbEntity
  8
1
 62
     7
100
AcDbLine
 10
1505.024775120904
 20
1328.593058803334
 30
0.0
 11
1490.224775120904
 21
1328.593058803334
 31
0.0
  0
LINE
  5
54B
330
6B
100
AcDbEntity
  8
1
 62
   133
100
AcDbLine
 10
1498.374775120904
 20
1331.593058803334
 30
0.0
 11
1498.374775120904
 21
1328.593058803334
 31
0.0
  0
LINE
  5
54C
330
6B
100
AcDbEntity
  8
1
 62
   133
100
AcDbLine
 10
1496.874775120904
 20
1328.593058803334
 30
0.0
 11
1496.874775120904
 21
1331.593058803334
 31
0.0
  0
LINE
  5
54D
330
6B
100
AcDbEntity
  8
1
 62
   133
100
AcDbLine
 10
1503.124775120904
 20
1330.593058803334
 30
0.0
 11
1503.124775120904
 21
1328.593058803334
 31
0.0
  0
LINE
  5
54E
330
6B
100
AcDbEntity
  8
1
 62
   133
100
AcDbLine
 10
1490.589864991048
 20
1331.593058803334
 30
0.0
 11
1490.589864991048
 21
1328.593058803334
 31
0.0
  0
LINE
  5
54F
330
6B
100
AcDbEntity
  8
1
 62
   133
100
AcDbLine
 10
1490.589864991048
 20
1340.593058803334
 30
0.0
 11
1490.589864991048
 21
1343.593058803334
 31
0.0
  0
LINE
  5
550
330
6B
100
AcDbEntity
  8
1
 62
   133
100
AcDbLine
 10
1492.124775120904
 20
1341.593058803334
 30
0.0
 11
1492.124775120904
 21
1343.593058803334
 31
0.0
  0
LINE
  5
554
330
6B
100
AcDbEntity
  8
1
 62
     7
100
AcDbLine
 10
1590.374775120904
 20
1318.093058803334
 30
0.0
 11
1592.374775120904
 21
1318.093058803334
 31
0.0
  0
LINE
  5
555
330
6B
100
AcDbEntity
  8
1
 62
     7
100
AcDbLine
 10
1588.374775120904
 20
1346.093058803334
 30
0.0
 11
1588.374775120904
 21
1320.093058803334
 31
0.0
  0
LINE
  5
556
330
6B
100
AcDbEntity
  8
1
 62
   133
100
AcDbLine
 10
1503.124775120904
 20
1343.593058803334
 30
0.0
 11
1503.124775120904
 21
1341.593058803334
 31
0.0
  0
LINE
  5
557
330
6B
100
AcDbEntity
  8
1
 62
   133
100
AcDbLine
 10
1504.65968525076
 20
1343.593058803334
 30
0.0
 11
1504.65968525076
 21
1340.593058803334
 31
0.0
  0
LINE
  5
558
330
6B
100
AcDbEntity
  8
1
 62
   133
100
AcDbLine
 10
1492.124775120904
 20
1328.593058803334
 30
0.0
 11
1492.124775120904
 21
1330.593058803334
 31
0.0
  0
LINE
  5
559
330
6B
100
AcDbEntity
  8
1
 62
   133
100
AcDbLine
 10
1504.65968525076
 20
1328.593058803334
 30
0.0
 11
1504.65968525076
 21
1331.593058803334
 31
0.0
  0
LINE
  5
55A
330
6B
100
AcDbEntity
  8
1
 62
     7
100
AcDbLine
 10
1487.974775120904
 20
1332.593058803334
 30
0.0
 11
1507.274775120904
 21
1332.593058803334
 31
0.0
  0
LINE
  5
55B
330
6B
100
AcDbEntity
  8
1
 62
     7
100
AcDbLine
 10
1498.374775120904
 20
1332.593058803334
 30
0.0
 11
1498.374775120904
 21
1339.593058803334
 31
0.0
  0
LINE
  5
55C
330
6B
100
AcDbEntity
  8
1
 62
     7
100
AcDbLine
 10
1507.274775120904
 20
1339.593058803335
 30
0.0
 11
1487.974775120904
 21
1339.593058803335
 31
0.0
  0
LINE
  5
55D
330
6B
100
AcDbEntity
  8
1
 62
     7
100
AcDbLine
 10
1506.524775120904
 20
1338.593058803335
 30
0.0
 11
1506.524775120904
 21
1333.593058803334
 31
0.0
  0
LINE
  5
55E
330
6B
100
AcDbEntity
  8
1
 62
   133
100
AcDbLine
 10
1503.535045287539
 20
1338.593058803335
 30
0.0
 11
1503.535045287539
 21
1333.593058803334
 31
0.0
  0
LINE
  5
55F
330
6B
100
AcDbEntity
  8
1
 62
     7
100
AcDbLine
 10
1496.874775120904
 20
1339.593058803334
 30
0.0
 11
1496.874775120904
 21
1332.593058803334
 31
0.0
  0
LINE
  5
560
330
6B
100
AcDbEntity
  8
1
 62
   133
100
AcDbLine
 10
1491.714504954269
 20
1333.593058803334
 30
0.0
 11
1491.714504954269
 21
1338.593058803335
 31
0.0
  0
LINE
  5
561
330
6B
100
AcDbEntity
  8
1
 62
     7
100
AcDbLine
 10
1488.724775120904
 20
1333.593058803334
 30
0.0
 11
1488.724775120904
 21
1338.593058803335
 31
0.0
  0
ARC
  5
562
330
6B
100
AcDbEntity
  8
1
 62
     7
100
AcDbCircle
 10
1505.524775120904
 20
1333.593058803334
 30
0.0
 40
1.0
100
AcDbArc
 50
270.0
 51
0.0
  0
ARC
  5
563
330
6B
100
AcDbEntity
  8
1
 62
     7
100
AcDbCircle
 10
1505.524775120904
 20
1338.593058803335
 30
0.0
 40
1.0
100
AcDbArc
 50
0.0
 51
90.0
  0
ARC
  5
564
330
6B
100
AcDbEntity
  8
1
 62
   133
100
AcDbCircle
 10
1502.53504528754
 20
1338.593058803335
 30
0.0
 40
0.9999999999990903
100
AcDbArc
 50
0.0
 51
90.0
  0
ARC
  5
565
330
6B
100
AcDbEntity
  8
1
 62
   133
100
AcDbCircle
 10
1502.53504528754
 20
1333.593058803334
 30
0.0
 40
1.0
100
AcDbArc
 50
270.0
 51
0.0
  0
ARC
  5
566
330
6B
100
AcDbEntity
  8
1
 62
   133
100
AcDbCircle
 10
1492.714504954268
 20
1338.593058803335
 30
0.0
 40
1.0
100
AcDbArc
 50
90.0
 51
180.0
  0
ARC
  5
567
330
6B
100
AcDbEntity
  8
1
 62
   133
100
AcDbCircle
 10
1492.714504954268
 20
1333.593058803334
 30
0.0
 40
0.9999999999990903
100
AcDbArc
 50
180.0
 51
270.0
  0
ARC
  5
568
330
6B
100
AcDbEntity
  8
1
 62
     7
100
AcDbCircle
 10
1489.724775120904
 20
1338.593058803335
 30
0.0
 40
1.0
100
AcDbArc
 50
90.0
 51
180.0
  0
ARC
  5
569
330
6B
100
AcDbEntity
  8
1
 62
     7
100
AcDbCircle
 10
1489.724775120904
 20
1333.593058803334
 30
0.0
 40
1.0
100
AcDbArc
 50
180.0
 51
270.0
  0
ARC
  5
56A
330
6B
100
AcDbEntity
  8
1
 62
     7
100
AcDbCircle
 10
1487.974775120904
 20
1318.843058803334
 30
0.0
 40
0.75
100
AcDbArc
 50
180.0
 51
0.0
  0
ARC
  5
56B
330
6B
100
AcDbEntity
  8
1
 62
     7
100
AcDbCircle
 10
1487.974775120904
 20
1347.343058803334
 30
0.0
 40
0.75
100
AcDbArc
 50
0.0
 51
180.0
  0
ARC
  5
56C
330
6B
100
AcDbEntity
  8
1
 62
     7
100
AcDbCircle
 10
1507.274775120904
 20
1347.343058803334
 30
0.0
 40
0.75
100
AcDbArc
 50
0.0
 51
180.0
  0
ARC
  5
56D
330
6B
100
AcDbEntity
  8
1
 62
     7
100
AcDbCircle
 10
1507.274775120904
 20
1318.843058803334
 30
0.0
 40
0.75
100
AcDbArc
 50
180.0
 51
0.0
  0
ARC
  5
56E
330
6B
100
AcDbEntity
  8
1
 62
     7
100
AcDbCircle
 10
1590.374775120904
 20
1346.093058803334
 30
0.0
 40
2.0
100
AcDbArc
 50
90.0
 51
180.0
  0
ARC
  5
56F
330
6B
100
AcDbEntity
  8
1
 62
     7
100
AcDbCircle
 10
1590.374775120904
 20
1320.093058803334
 30
0.0
 40
2.0
100
AcDbArc
 50
180.0
 51
270.0
  0
ARC
  5
570
330
6B
100
AcDbEntity
  8
1
 62
   133
100
AcDbCircle
 10
1504.124775120904
 20
1330.593058803334
 30
0.0
 40
1.0
100
AcDbArc
 50
90.0
 51
180.0
  0
ARC
  5
571
330
6B
100
AcDbEntity
  8
1
 62
   133
100
AcDbCircle
 10
1491.124775120904
 20
1330.593058803334
 30
0.0
 40
1.0
100
AcDbArc
 50
0.0
 51
90.0
  0
ARC
  5
572
330
6B
100
AcDbEntity
  8
1
 62
   133
100
AcDbCircle
 10
1504.124775120904
 20
1341.593058803334
 30
0.0
 40
1.0
100
AcDbArc
 50
180.0
 51
270.0
  0
ARC
  5
573
330
6B
100
AcDbEntity
  8
1
 62
   133
100
AcDbCircle
 10
1491.124775120904
 20
1341.593058803334
 30
0.0
 40
1.0
100
AcDbArc
 50
270.0
 51
0.0
  0
LINE
  5
576
330
6B
100
AcDbEntity
  8
1
 62
     7
100
AcDbLine
 10
1493.524775120904
 20
1314.593058803334
 30
0.0
 11
1476.624775120904
 21
1314.593058803334
 31
0.0
  0
LINE
  5
577
330
6B
100
AcDbEntity
  8
1
 62
     7
100
AcDbLine
 10
1492.624775120904
 20
1317.593058803334
 30
0.0
 11
1487.624775120904
 21
1317.593058803334
 31
0.0
  0
LINE
  5
578
330
6B
100
AcDbEntity
  8
1
 62
     7
100
AcDbLine
 10
1505.624775120904
 20
1331.593058803334
 30
0.0
 11
1505.624775120904
 21
1317.593058803334
 31
0.0
  0
LINE
  5
579
330
6B
100
AcDbEntity
  8
1
 62
     7
100
AcDbLine
 10
1505.124775120904
 20
1331.593058803334
 30
0.0
 11
1505.124775120904
 21
1317.593058803334
 31
0.0
  0
LINE
  5
57A
330
6B
100
AcDbEntity
  8
1
 62
     7
100
AcDbLine
 10
1490.124775120904
 20
1340.593058803334
 30
0.0
 11
1490.124775120904
 21
1348.093058803334
 31
0.0
  0
LINE
  5
57B
330
6B
100
AcDbEntity
  8
1
 62
     7
100
AcDbLine
 10
1489.624775120904
 20
1340.593058803334
 30
0.0
 11
1489.624775120904
 21
1348.093058803334
 31
0.0
  0
LINE
  5
57C
330
6B
100
AcDbEntity
  8
1
  6
DASHDOT
 62
     2
100
AcDbLine
 10
1611.374775120904
 20
1298.493058803334
 30
0.0
 11
1611.374775120904
 21
1373.593058803334
 31
0.0
  0
LINE
  5
57D
330
6B
100
AcDbEntity
  8
1
  6
DASHDOT
 62
     2
100
AcDbLine
 10
1497.624775120904
 20
1373.593058803334
 30
0.0
 11
1497.624775120904
 21
1298.493058803334
 31
0.0
  0
LINE
  5
57E
330
6B
100
AcDbEntity
  8
1
 62
     7
100
AcDbLine
 10
1615.374775120904
 20
1352.266490175152
 30
0.0
 11
1602.374775120904
 21
1352.266490175152
 31
0.0
  0
LINE
  5
57F
330
6B
100
AcDbEntity
  8
1
 62
     7
100
AcDbLine
 10
1596.374775120904
 20
1314.593058803334
 30
0.0
 11
1596.374775120904
 21
1368.593058803334
 31
0.0
  0
LINE
  5
580
330
6B
100
AcDbEntity
  8
1
 62
     7
100
AcDbLine
 10
1596.374775120904
 20
1353.055802857015
 30
0.0
 11
1599.374775120904
 21
1353.055802857015
 31
0.0
  0
LINE
  5
581
330
6B
100
AcDbEntity
  8
1
 62
     7
100
AcDbLine
 10
1599.374775120904
 20
1353.055802857015
 30
0.0
 11
1599.374775120904
 21
1354.593058803334
 31
0.0
  0
LINE
  5
582
330
6B
100
AcDbEntity
  8
1
 62
     7
100
AcDbLine
 10
1592.374775120904
 20
1368.093058803334
 30
0.0
 11
1592.374775120904
 21
1315.093058803334
 31
0.0
  0
LINE
  5
583
330
6B
100
AcDbEntity
  8
1
 62
     7
100
AcDbLine
 10
1617.374775120904
 20
1314.593058803334
 30
0.0
 11
1617.374775120904
 21
1354.593058803334
 31
0.0
  0
LINE
  5
584
330
6B
100
AcDbEntity
  8
1
 62
     7
100
AcDbLine
 10
1601.374775120904
 20
1353.266490175152
 30
0.0
 11
1601.374775120904
 21
1354.593058803334
 31
0.0
  0
LINE
  5
585
330
6B
100
AcDbEntity
  8
1
 62
     7
100
AcDbLine
 10
1616.374775120904
 20
1353.266490175152
 30
0.0
 11
1616.374775120904
 21
1354.593058803334
 31
0.0
  0
LINE
  5
586
330
6B
100
AcDbEntity
  8
1
 62
     7
100
AcDbLine
 10
1592.874775120904
 20
1314.593058803334
 30
0.0
 11
1618.374775120904
 21
1314.593058803334
 31
0.0
  0
LINE
  5
587
330
6B
100
AcDbEntity
  8
1
 62
     7
100
AcDbLine
 10
1617.374775120904
 20
1354.593058803334
 30
0.0
 11
1618.374775120904
 21
1353.593058803334
 31
0.0
  0
LINE
  5
588
330
6B
100
AcDbEntity
  8
1
 62
     7
100
AcDbLine
 10
1618.374775120904
 20
1353.593058803334
 30
0.0
 11
1618.374775120904
 21
1314.593058803334
 31
0.0
  0
LINE
  5
589
330
6B
100
AcDbEntity
  8
1
 62
     7
100
AcDbLine
 10
1617.374775120904
 20
1354.593058803334
 30
0.0
 11
1616.374775120904
 21
1354.593058803334
 31
0.0
  0
LINE
  5
58A
330
6B
100
AcDbEntity
  8
1
 62
     7
100
AcDbLine
 10
1601.374775120904
 20
1354.593058803334
 30
0.0
 11
1599.374775120904
 21
1354.593058803334
 31
0.0
  0
LINE
  5
58B
330
6B
100
AcDbEntity
  8
1
 62
     7
100
AcDbLine
 10
1592.874775120904
 20
1368.593058803334
 30
0.0
 11
1592.874775120904
 21
1314.593058803334
 31
0.0
  0
LINE
  5
58C
330
6B
100
AcDbEntity
  8
1
 62
     7
100
AcDbLine
 10
1592.374775120904
 20
1368.093058803334
 30
0.0
 11
1592.874775120904
 21
1368.593058803334
 31
0.0
  0
LINE
  5
58D
330
6B
100
AcDbEntity
  8
1
 62
     7
100
AcDbLine
 10
1592.874775120904
 20
1314.593058803334
 30
0.0
 11
1592.374775120904
 21
1315.093058803334
 31
0.0
  0
LINE
  5
58E
330
6B
100
AcDbEntity
  8
1
 62
     7
100
AcDbLine
 10
1596.374775120904
 20
1368.593058803334
 30
0.0
 11
1592.874775120904
 21
1368.593058803334
 31
0.0
  0
LINE
  5
5D4
330
6B
100
AcDbEntity
  8
1
 62
     7
100
AcDbLine
 10
1487.624775120904
 20
1349.093058803334
 30
0.0
 11
1487.874775120904
 21
1349.093058803334
 31
0.0
  0
LINE
  5
5D5
330
6B
100
AcDbEntity
  8
1
 62
     7
100
AcDbLine
 10
1507.374775120904
 20
1349.093058803334
 30
0.0
 11
1507.624775120904
 21
1349.093058803334
 31
0.0
  0
LINE
  5
5D6
330
6B
100
AcDbEntity
  8
1
  6
DASHDOT
 62
     2
100
AcDbLine
 10
1492.624775120904
 20
1362.593058803334
 30
0.0
 11
1502.624775120904
 21
1362.593058803334
 31
0.0
  0
LINE
  5
5D7
330
6B
100
AcDbEntity
  8
1
  6
DASHDOT
 62
     2
100
AcDbLine
 10
1508.624775120904
 20
1325.593058803334
 30
0.0
 11
1518.624775120904
 21
1325.593058803334
 31
0.0
  0
LINE
  5
5D8
330
6B
100
AcDbEntity
  8
1
  6
DASHDOT
 62
     2
100
AcDbLine
 10
1513.624775120904
 20
1320.593058803334
 30
0.0
 11
1513.624775120904
 21
1330.593058803334
 31
0.0
  0
LINE
  5
5D9
330
6B
100
AcDbEntity
  8
1
  6
DASHDOT
 62
     2
100
AcDbLine
 10
1476.624775120904
 20
1325.593058803334
 30
0.0
 11
1486.624775120904
 21
1325.593058803334
 31
0.0
  0
LINE
  5
5DA
330
6B
100
AcDbEntity
  8
1
  6
DASHDOT
 62
     2
100
AcDbLine
 10
1481.624775120904
 20
1320.593058803334
 30
0.0
 11
1481.624775120904
 21
1330.593058803334
 31
0.0
  0
LINE
  5
5DB
330
6B
100
AcDbEntity
  8
1
 62
     7
100
AcDbLine
 10
1507.624775120904
 20
1348.593058803334
 30
0.0
 11
1507.124775120904
 21
1348.593058803334
 31
0.0
  0
LINE
  5
5DC
330
6B
100
AcDbEntity
  8
1
 62
     7
100
AcDbLine
 10
1508.124775120904
 20
1338.093058803334
 30
0.0
 11
1508.124775120904
 21
1348.093058803334
 31
0.0
  0
LINE
  5
5DD
330
6B
100
AcDbEntity
  8
1
 62
     7
100
AcDbLine
 10
1488.624775120904
 20
1355.593058803334
 30
0.0
 11
1506.624775120904
 21
1355.593058803334
 31
0.0
  0
LINE
  5
5DE
330
6B
100
AcDbEntity
  8
1
 62
     7
100
AcDbLine
 10
1487.624775120904
 20
1348.593058803334
 30
0.0
 11
1488.124775120904
 21
1348.593058803334
 31
0.0
  0
LINE
  5
5DF
330
6B
100
AcDbEntity
  8
1
 62
     7
100
AcDbLine
 10
1490.624775120904
 20
1349.093058803334
 30
0.0
 11
1504.624775120904
 21
1349.093058803334
 31
0.0
  0
LINE
  5
5E0
330
6B
100
AcDbEntity
  8
1
 62
     7
100
AcDbLine
 10
1489.624775120904
 20
1317.593058803334
 30
0.0
 11
1489.624775120904
 21
1331.593058803334
 31
0.0
  0
LINE
  5
5E1
330
6B
100
AcDbEntity
  8
1
 62
     7
100
AcDbLine
 10
1505.624775120904
 20
1348.093058803334
 30
0.0
 11
1505.624775120904
 21
1340.593058803334
 31
0.0
  0
LINE
  5
5E2
330
6B
100
AcDbEntity
  8
1
 62
     7
100
AcDbLine
 10
1488.124775120904
 20
1349.343058803334
 30
0.0
 11
1488.124775120904
 21
1357.093058803334
 31
0.0
  0
LINE
  5
5E3
330
6B
100
AcDbEntity
  8
1
 62
     7
100
AcDbLine
 10
1507.124775120904
 20
1357.093058803334
 30
0.0
 11
1507.124775120904
 21
1349.343058803334
 31
0.0
  0
LINE
  5
5E4
330
6B
100
AcDbEntity
  8
1
 62
     7
100
AcDbLine
 10
1519.624775120904
 20
1362.593058803334
 30
0.0
 11
1519.624775120904
 21
1315.593058803334
 31
0.0
  0
LINE
  5
5E5
330
6B
100
AcDbEntity
  8
1
 62
     7
100
AcDbLine
 10
1481.624775120904
 20
1368.593058803334
 30
0.0
 11
1513.624775120904
 21
1368.593058803334
 31
0.0
  0
LINE
  5
5E6
330
6B
100
AcDbEntity
  8
1
 62
     7
100
AcDbLine
 10
1475.624775120904
 20
1315.593058803334
 30
0.0
 11
1475.624775120904
 21
1362.593058803334
 31
0.0
  0
LINE
  5
5E7
330
6B
100
AcDbEntity
  8
1
 62
     7
100
AcDbLine
 10
1505.124775120904
 20
1348.093058803334
 30
0.0
 11
1505.124775120904
 21
1340.593058803334
 31
0.0
  0
LINE
  5
5E8
330
6B
100
AcDbEntity
  8
1
 62
     7
100
AcDbLine
 10
1490.124775120904
 20
1317.593058803334
 30
0.0
 11
1490.124775120904
 21
1331.593058803334
 31
0.0
  0
LINE
  5
5E9
330
6B
100
AcDbEntity
  8
1
 62
     7
100
AcDbLine
 10
1490.624775120904
 20
1348.593058803334
 30
0.0
 11
1504.624775120904
 21
1348.593058803334
 31
0.0
  0
LINE
  5
5EA
330
6B
100
AcDbEntity
  8
1
 62
     7
100
AcDbLine
 10
1502.124775120904
 20
1317.093058803334
 30
0.0
 11
1502.124775120904
 21
1315.093058803334
 31
0.0
  0
LINE
  5
5EB
330
6B
100
AcDbEntity
  8
1
 62
     7
100
AcDbLine
 10
1493.124775120904
 20
1317.093058803334
 30
0.0
 11
1493.124775120904
 21
1315.093058803334
 31
0.0
  0
LINE
  5
5EC
330
6B
100
AcDbEntity
  8
1
 62
     7
100
AcDbLine
 10
1518.624775120904
 20
1314.593058803334
 30
0.0
 11
1501.724775120904
 21
1314.593058803334
 31
0.0
  0
LINE
  5
5ED
330
6B
100
AcDbEntity
  8
1
 62
     7
100
AcDbLine
 10
1518.624775120904
 20
1315.093058803334
 30
0.0
 11
1502.874775120904
 21
1315.093058803334
 31
0.0
  0
LINE
  5
5EE
330
6B
100
AcDbEntity
  8
1
 62
     7
100
AcDbLine
 10
1502.624775120904
 20
1316.843058803334
 30
0.0
 11
1502.624775120904
 21
1315.343058803334
 31
0.0
  0
LINE
  5
5EF
330
6B
100
AcDbEntity
  8
1
 62
     7
100
AcDbLine
 10
1492.624775120904
 20
1315.343058803334
 30
0.0
 11
1492.624775120904
 21
1316.843058803334
 31
0.0
  0
LINE
  5
5F0
330
6B
100
AcDbEntity
  8
1
 62
     7
100
AcDbLine
 10
1476.624775120904
 20
1315.093058803334
 30
0.0
 11
1492.374775120904
 21
1315.093058803334
 31
0.0
  0
LINE
  5
5F1
330
6B
100
AcDbEntity
  8
1
 62
     7
100
AcDbLine
 10
1476.124775120904
 20
1362.593058803334
 30
0.0
 11
1476.124775120904
 21
1315.593058803334
 31
0.0
  0
LINE
  5
5F2
330
6B
100
AcDbEntity
  8
1
 62
     7
100
AcDbLine
 10
1513.624775120904
 20
1368.093058803334
 30
0.0
 11
1481.624775120904
 21
1368.093058803334
 31
0.0
  0
LINE
  5
5F3
330
6B
100
AcDbEntity
  8
1
 62
     7
100
AcDbLine
 10
1519.124775120904
 20
1315.593058803334
 30
0.0
 11
1519.124775120904
 21
1362.593058803334
 31
0.0
  0
LINE
  5
5F4
330
6B
100
AcDbEntity
  8
1
 62
     7
100
AcDbLine
 10
1507.624775120904
 20
1317.093058803334
 30
0.0
 11
1502.874775120904
 21
1317.093058803334
 31
0.0
  0
LINE
  5
5F5
330
6B
100
AcDbEntity
  8
1
 62
     7
100
AcDbLine
 10
1487.624775120904
 20
1317.093058803334
 30
0.0
 11
1492.374775120904
 21
1317.093058803334
 31
0.0
  0
LINE
  5
5F6
330
6B
100
AcDbEntity
  8
1
 62
     7
100
AcDbLine
 10
1511.124775120904
 20
1337.093058803334
 30
0.0
 11
1511.124775120904
 21
1334.093058803334
 31
0.0
  0
LINE
  5
5F7
330
6B
100
AcDbEntity
  8
1
 62
     7
100
AcDbLine
 10
1508.874775120904
 20
1333.093058803334
 30
0.0
 11
1510.124775120904
 21
1333.093058803334
 31
0.0
  0
LINE
  5
5F8
330
6B
100
AcDbEntity
  8
1
 62
     7
100
AcDbLine
 10
1508.624775120904
 20
1318.093058803334
 30
0.0
 11
1508.624775120904
 21
1332.843058803334
 31
0.0
  0
LINE
  5
5F9
330
6B
100
AcDbEntity
  8
1
 62
     7
100
AcDbLine
 10
1510.124775120904
 20
1338.093058803334
 30
0.0
 11
1508.874775120904
 21
1338.093058803334
 31
0.0
  0
LINE
  5
5FA
330
6B
100
AcDbEntity
  8
1
 62
     7
100
AcDbLine
 10
1508.624775120904
 20
1348.093058803334
 30
0.0
 11
1508.624775120904
 21
1338.343058803334
 31
0.0
  0
LINE
  5
5FB
330
6B
100
AcDbEntity
  8
1
 62
     7
100
AcDbLine
 10
1508.124775120904
 20
1333.093058803334
 30
0.0
 11
1508.124775120904
 21
1318.093058803334
 31
0.0
  0
LINE
  5
5FC
330
6B
100
AcDbEntity
  8
1
 62
     7
100
AcDbLine
 10
1510.124775120904
 20
1333.593058803334
 30
0.0
 11
1508.624775120904
 21
1333.593058803334
 31
0.0
  0
LINE
  5
5FD
330
6B
100
AcDbEntity
  8
1
 62
     7
100
AcDbLine
 10
1510.624775120904
 20
1337.093058803334
 30
0.0
 11
1510.624775120904
 21
1334.093058803334
 31
0.0
  0
LINE
  5
5FE
330
6B
100
AcDbEntity
  8
1
 62
     7
100
AcDbLine
 10
1508.624775120904
 20
1337.593058803334
 30
0.0
 11
1510.124775120904
 21
1337.593058803334
 31
0.0
  0
LINE
  5
5FF
330
6B
100
AcDbEntity
  8
1
 62
     7
100
AcDbLine
 10
1484.124775120904
 20
1334.093058803334
 30
0.0
 11
1484.124775120904
 21
1337.093058803334
 31
0.0
  0
LINE
  5
600
330
6B
100
AcDbEntity
  8
1
 62
     7
100
AcDbLine
 10
1484.624775120904
 20
1334.093058803334
 30
0.0
 11
1484.624775120904
 21
1337.093058803334
 31
0.0
  0
LINE
  5
601
330
6B
100
AcDbEntity
  8
1
 62
     7
100
AcDbLine
 10
1486.624775120904
 20
1333.593058803334
 30
0.0
 11
1485.124775120904
 21
1333.593058803334
 31
0.0
  0
LINE
  5
602
330
6B
100
AcDbEntity
  8
1
 62
     7
100
AcDbLine
 10
1485.124775120904
 20
1337.593058803334
 30
0.0
 11
1486.624775120904
 21
1337.593058803334
 31
0.0
  0
LINE
  5
603
330
6B
100
AcDbEntity
  8
1
 62
     7
100
AcDbLine
 10
1486.374775120904
 20
1338.093058803334
 30
0.0
 11
1485.124775120904
 21
1338.093058803334
 31
0.0
  0
LINE
  5
604
330
6B
100
AcDbEntity
  8
1
 62
     7
100
AcDbLine
 10
1485.124775120904
 20
1333.093058803334
 30
0.0
 11
1486.374775120904
 21
1333.093058803334
 31
0.0
  0
LINE
  5
605
330
6B
100
AcDbEntity
  8
1
 62
     7
100
AcDbLine
 10
1486.624775120904
 20
1332.843058803334
 30
0.0
 11
1486.624775120904
 21
1318.093058803334
 31
0.0
  0
LINE
  5
606
330
6B
100
AcDbEntity
  8
1
 62
     7
100
AcDbLine
 10
1486.624775120904
 20
1338.343058803334
 30
0.0
 11
1486.624775120904
 21
1348.093058803334
 31
0.0
  0
LINE
  5
607
330
6B
100
AcDbEntity
  8
1
 62
     7
100
AcDbLine
 10
1487.124775120904
 20
1338.093058803334
 30
0.0
 11
1487.124775120904
 21
1348.093058803334
 31
0.0
  0
LINE
  5
608
330
6B
100
AcDbEntity
  8
1
 62
     7
100
AcDbLine
 10
1487.124775120904
 20
1318.093058803334
 30
0.0
 11
1487.124775120904
 21
1333.093058803334
 31
0.0
  0
LINE
  5
609
330
6B
100
AcDbEntity
  8
1
 62
     7
100
AcDbLine
 10
1507.624775120904
 20
1317.593058803334
 30
0.0
 11
1502.624775120904
 21
1317.593058803334
 31
0.0
  0
LINE
  5
60A
330
6B
100
AcDbEntity
  8
1
 62
     7
100
AcDbLine
 10
1488.624775120904
 20
1357.593058803334
 30
0.0
 11
1488.624775120904
 21
1349.093058803334
 31
0.0
  0
LINE
  5
60B
330
6B
100
AcDbEntity
  8
1
 62
     7
100
AcDbLine
 10
1506.624775120904
 20
1357.593058803334
 30
0.0
 11
1488.624775120904
 21
1357.593058803334
 31
0.0
  0
LINE
  5
60C
330
6B
100
AcDbEntity
  8
1
 62
     7
100
AcDbLine
 10
1506.624775120904
 20
1349.093058803334
 30
0.0
 11
1506.624775120904
 21
1357.593058803334
 31
0.0
  0
CIRCLE
  5
637
330
6B
100
AcDbEntity
  8
1
 62
     7
100
AcDbCircle
 10
1497.624775120904
 20
1362.593058803334
 30
0.0
 40
2.0
  0
CIRCLE
  5
638
330
6B
100
AcDbEntity
  8
1
 62
     7
100
AcDbCircle
 10
1497.624775120904
 20
1362.593058803334
 30
0.0
 40
4.0
  0
CIRCLE
  5
639
330
6B
100
AcDbEntity
  8
1
 62
     7
100
AcDbCircle
 10
1513.624775120904
 20
1325.593058803334
 30
0.0
 40
2.0
  0
CIRCLE
  5
63A
330
6B
100
AcDbEntity
  8
1
 62
     7
100
AcDbCircle
 10
1513.624775120904
 20
1325.593058803334
 30
0.0
 40
4.0
  0
CIRCLE
  5
63B
330
6B
100
AcDbEntity
  8
1
 62
     7
100
AcDbCircle
 10
1481.624775120904
 20
1325.593058803334
 30
0.0
 40
2.0
  0
CIRCLE
  5
63C
330
6B
100
AcDbEntity
  8
1
 62
     7
100
AcDbCircle
 10
1481.624775120904
 20
1325.593058803334
 30
0.0
 40
4.0
  0
ARC
  5
63D
330
6B
100
AcDbEntity
  8
1
 62
     7
100
AcDbCircle
 10
1507.124775120904
 20
1349.093058803334
 30
0.0
 40
0.5
100
AcDbArc
 50
180.0
 51
270.0
  0
ARC
  5
651
330
6B
100
AcDbEntity
  8
1
 62
     7
100
AcDbCircle
 10
1602.374775120904
 20
1353.266490175152
 30
0.0
 40
1.0
100
AcDbArc
 50
180.0
 51
270.0
  0
ARC
  5
652
330
6B
100
AcDbEntity
  8
1
 62
     7
100
AcDbCircle
 10
1615.374775120904
 20
1353.266490175152
 30
0.0
 40
1.0
100
AcDbArc
 50
270.0
 51
0.0
  0
ARC
  5
67B
330
6B
100
AcDbEntity
  8
1
 62
     7
100
AcDbCircle
 10
1487.874775120904
 20
1349.343058803334
 30
0.0
 40
0.25
100
AcDbArc
 50
270.0
 51
0.0
  0
ARC
  5
67C
330
6B
100
AcDbEntity
  8
1
 62
     7
100
AcDbCircle
 10
1487.624775120904
 20
1348.093058803334
 30
0.0
 40
1.0
100
AcDbArc
 50
90.0
 51
180.0
  0
ARC
  5
67D
330
6B
100
AcDbEntity
  8
1
 62
     7
100
AcDbCircle
 10
1507.374775120904
 20
1349.343058803334
 30
0.0
 40
0.25
100
AcDbArc
 50
180.0
 51
270.0
  0
ARC
  5
67E
330
6B
100
AcDbEntity
  8
1
 62
     7
100
AcDbCircle
 10
1507.624775120904
 20
1348.093058803334
 30
0.0
 40
0.5
100
AcDbArc
 50
0.0
 51
90.0
  0
ARC
  5
67F
330
6B
100
AcDbEntity
  8
1
 62
     7
100
AcDbCircle
 10
1488.624775120904
 20
1357.093058803334
 30
0.0
 40
0.5
100
AcDbArc
 50
90.0
 51
180.0
  0
ARC
  5
680
330
6B
100
AcDbEntity
  8
1
 62
     7
100
AcDbCircle
 10
1506.624775120904
 20
1357.093058803334
 30
0.0
 40
0.5
100
AcDbArc
 50
0.0
 51
90.0
  0
ARC
  5
681
330
6B
100
AcDbEntity
  8
1
 62
     7
100
AcDbCircle
 10
1488.124775120904
 20
1349.093058803334
 30
0.0
 40
0.5
100
AcDbArc
 50
270.0
 51
0.0
  0
ARC
  5
682
330
6B
100
AcDbEntity
  8
1
 62
     7
100
AcDbCircle
 10
1490.624775120904
 20
1348.093058803334
 30
0.0
 40
0.5
100
AcDbArc
 50
90.0
 51
180.0
  0
ARC
  5
683
330
6B
100
AcDbEntity
  8
1
 62
     7
100
AcDbCircle
 10
1490.624775120904
 20
1348.093058803334
 30
0.0
 40
1.0
100
AcDbArc
 50
90.0
 51
180.0
  0
ARC
  5
684
330
6B
100
AcDbEntity
  8
1
 62
     7
100
AcDbCircle
 10
1504.624775120904
 20
1348.093058803334
 30
0.0
 40
0.5
100
AcDbArc
 50
0.0
 51
90.0
  0
ARC
  5
685
330
6B
100
AcDbEntity
  8
1
 62
     7
100
AcDbCircle
 10
1504.624775120904
 20
1348.093058803334
 30
0.0
 40
1.0
100
AcDbArc
 50
0.0
 51
90.0
  0
ARC
  5
686
330
6B
100
AcDbEntity
  8
1
 62
     7
100
AcDbCircle
 10
1481.624775120904
 20
1362.593058803334
 30
0.0
 40
6.0
100
AcDbArc
 50
90.0
 51
180.0
  0
ARC
  5
687
330
6B
100
AcDbEntity
  8
1
 62
     7
100
AcDbCircle
 10
1513.624775120904
 20
1362.593058803334
 30
0.0
 40
6.0
100
AcDbArc
 50
0.0
 51
90.0
  0
ARC
  5
688
330
6B
100
AcDbEntity
  8
1
 62
     7
100
AcDbCircle
 10
1513.624775120904
 20
1362.593058803334
 30
0.0
 40
6.0
100
AcDbArc
 50
0.0
 51
90.0
  0
ARC
  5
689
330
6B
100
AcDbEntity
  8
1
 62
     7
100
AcDbCircle
 10
1481.624775120904
 20
1362.593058803334
 30
0.0
 40
5.5
100
AcDbArc
 50
90.0
 51
180.0
  0
ARC
  5
68A
330
6B
100
AcDbEntity
  8
1
 62
     7
100
AcDbCircle
 10
1513.624775120904
 20
1362.593058803334
 30
0.0
 40
5.5
100
AcDbArc
 50
0.0
 51
90.0
  0
ARC
  5
68B
330
6B
100
AcDbEntity
  8
1
 62
     7
100
AcDbCircle
 10
1487.624775120904
 20
1318.093058803334
 30
0.0
 40
0.5
100
AcDbArc
 50
180.0
 51
270.0
  0
ARC
  5
68C
330
6B
100
AcDbEntity
  8
1
 62
     7
100
AcDbCircle
 10
1507.624775120904
 20
1318.093058803334
 30
0.0
 40
0.5
100
AcDbArc
 50
270.0
 51
0.0
  0
ARC
  5
68D
330
6B
100
AcDbEntity
  8
1
 62
     7
100
AcDbCircle
 10
1487.624775120904
 20
1348.093058803334
 30
0.0
 40
0.5
100
AcDbArc
 50
90.0
 51
180.0
  0
ARC
  5
68E
330
6B
100
AcDbEntity
  8
1
 62
     7
100
AcDbCircle
 10
1485.124775120904
 20
1334.093058803334
 30
0.0
 40
0.5
100
AcDbArc
 50
180.0
 51
270.0
  0
ARC
  5
68F
330
6B
100
AcDbEntity
  8
1
 62
     7
100
AcDbCircle
 10
1485.124775120904
 20
1337.093058803334
 30
0.0
 40
0.5
100
AcDbArc
 50
90.0
 51
180.0
  0
ARC
  5
690
330
6B
100
AcDbEntity
  8
1
 62
     7
100
AcDbCircle
 10
1510.124775120904
 20
1337.093058803334
 30
0.0
 40
0.5
100
AcDbArc
 50
0.0
 51
90.0
  0
ARC
  5
691
330
6B
100
AcDbEntity
  8
1
 62
     7
100
AcDbCircle
 10
1510.124775120904
 20
1334.093058803334
 30
0.0
 40
0.5
100
AcDbArc
 50
270.0
 51
0.0
  0
ARC
  5
692
330
6B
100
AcDbEntity
  8
1
 62
     7
100
AcDbCircle
 10
1476.624775120904
 20
1315.593058803334
 30
0.0
 40
1.0
100
AcDbArc
 50
180.0
 51
270.0
  0
ARC
  5
693
330
6B
100
AcDbEntity
  8
1
 62
     7
100
AcDbCircle
 10
1476.624775120904
 20
1315.593058803334
 30
0.0
 40
0.5
100
AcDbArc
 50
180.0
 51
270.0
  0
ARC
  5
694
330
6B
100
AcDbEntity
  8
1
 62
     7
100
AcDbCircle
 10
1518.624775120904
 20
1315.593058803334
 30
0.0
 40
1.0
100
AcDbArc
 50
270.0
 51
0.0
  0
ARC
  5
695
330
6B
100
AcDbEntity
  8
1
 62
     7
100
AcDbCircle
 10
1507.624775120904
 20
1318.093058803334
 30
0.0
 40
1.0
100
AcDbArc
 50
270.0
 51
0.0
  0
ARC
  5
696
330
6B
100
AcDbEntity
  8
1
 62
     7
100
AcDbCircle
 10
1518.624775120904
 20
1315.593058803334
 30
0.0
 40
0.5
100
AcDbArc
 50
270.0
 51
0.0
  0
ARC
  5
697
330
6B
100
AcDbEntity
  8
1
 62
     7
100
AcDbCircle
 10
1502.874775120904
 20
1315.343058803334
 30
0.0
 40
0.25
100
AcDbArc
 50
180.0
 51
270.0
  0
ARC
  5
698
330
6B
100
AcDbEntity
  8
1
 62
     7
100
AcDbCircle
 10
1502.624775120904
 20
1315.093058803334
 30
0.0
 40
0.5
100
AcDbArc
 50
180.0
 51
270.0
  0
ARC
  5
699
330
6B
100
AcDbEntity
  8
1
 62
     7
100
AcDbCircle
 10
1502.624775120904
 20
1317.093058803334
 30
0.0
 40
0.5
100
AcDbArc
 50
90.0
 51
180.0
  0
ARC
  5
69A
330
6B
100
AcDbEntity
  8
1
 62
     7
100
AcDbCircle
 10
1492.374775120904
 20
1316.843058803334
 30
0.0
 40
0.25
100
AcDbArc
 50
0.0
 51
90.0
  0
ARC
  5
69B
330
6B
100
AcDbEntity
  8
1
 62
     7
100
AcDbCircle
 10
1492.374775120904
 20
1315.343058803334
 30
0.0
 40
0.25
100
AcDbArc
 50
270.0
 51
0.0
  0
ARC
  5
69C
330
6B
100
AcDbEntity
  8
1
 62
     7
100
AcDbCircle
 10
1492.624775120904
 20
1315.093058803334
 30
0.0
 40
0.5
100
AcDbArc
 50
270.0
 51
0.0
  0
ARC
  5
69D
330
6B
100
AcDbEntity
  8
1
 62
     7
100
AcDbCircle
 10
1492.624775120904
 20
1317.093058803334
 30
0.0
 40
0.5
100
AcDbArc
 50
0.0
 51
90.0
  0
ARC
  5
69E
330
6B
100
AcDbEntity
  8
1
 62
     7
100
AcDbCircle
 10
1487.624775120904
 20
1318.093058803334
 30
0.0
 40
1.0
100
AcDbArc
 50
180.0
 51
270.0
  0
ARC
  5
69F
330
6B
100
AcDbEntity
  8
1
 62
     7
100
AcDbCircle
 10
1502.874775120904
 20
1316.843058803334
 30
0.0
 40
0.25
100
AcDbArc
 50
90.0
 51
180.0
  0
ARC
  5
6A0
330
6B
100
AcDbEntity
  8
1
 62
     7
100
AcDbCircle
 10
1486.624775120904
 20
1333.093058803334
 30
0.0
 40
0.5
100
AcDbArc
 50
0.0
 51
90.0
  0
ARC
  5
6A1
330
6B
100
AcDbEntity
  8
1
 62
     7
100
AcDbCircle
 10
1486.374775120904
 20
1332.843058803334
 30
0.0
 40
0.25
100
AcDbArc
 50
0.0
 51
90.0
  0
ARC
  5
6A2
330
6B
100
AcDbEntity
  8
1
 62
     7
100
AcDbCircle
 10
1486.624775120904
 20
1338.093058803334
 30
0.0
 40
0.5
100
AcDbArc
 50
270.0
 51
0.0
  0
ARC
  5
6A3
330
6B
100
AcDbEntity
  8
1
 62
     7
100
AcDbCircle
 10
1486.374775120904
 20
1338.343058803334
 30
0.0
 40
0.25
100
AcDbArc
 50
270.0
 51
0.0
  0
ARC
  5
6A4
330
6B
100
AcDbEntity
  8
1
 62
     7
100
AcDbCircle
 10
1485.124775120904
 20
1337.093058803334
 30
0.0
 40
1.0
100
AcDbArc
 50
90.0
 51
180.0
  0
ARC
  5
6A5
330
6B
100
AcDbEntity
  8
1
 62
     7
100
AcDbCircle
 10
1485.124775120904
 20
1334.093058803334
 30
0.0
 40
1.0
100
AcDbArc
 50
180.0
 51
270.0
  0
ARC
  5
6A6
330
6B
100
AcDbEntity
  8
1
 62
     7
100
AcDbCircle
 10
1508.624775120904
 20
1338.093058803334
 30
0.0
 40
0.5
100
AcDbArc
 50
180.0
 51
270.0
  0
ARC
  5
6A7
330
6B
100
AcDbEntity
  8
1
 62
     7
100
AcDbCircle
 10
1510.124775120904
 20
1334.093058803334
 30
0.0
 40
1.0
100
AcDbArc
 50
270.0
 51
0.0
  0
ARC
  5
6A8
330
6B
100
AcDbEntity
  8
1
 62
     7
100
AcDbCircle
 10
1510.124775120904
 20
1337.093058803334
 30
0.0
 40
1.0
100
AcDbArc
 50
0.0
 51
90.0
  0
ARC
  5
6A9
330
6B
100
AcDbEntity
  8
1
 62
     7
100
AcDbCircle
 10
1508.624775120904
 20
1333.093058803334
 30
0.0
 40
0.5
100
AcDbArc
 50
90.0
 51
180.0
  0
ARC
  5
6AA
330
6B
100
AcDbEntity
  8
1
 62
     7
100
AcDbCircle
 10
1508.874775120904
 20
1332.843058803334
 30
0.0
 40
0.25
100
AcDbArc
 50
90.0
 51
180.0
  0
ARC
  5
6AB
330
6B
100
AcDbEntity
  8
1
 62
     7
100
AcDbCircle
 10
1508.874775120904
 20
1338.343058803334
 30
0.0
 40
0.25
100
AcDbArc
 50
180.0
 51
270.0
  0
ARC
  5
6AC
330
6B
100
AcDbEntity
  8
1
 62
     7
100
AcDbCircle
 10
1507.624775120904
 20
1348.093058803334
 30
0.0
 40
1.0
100
AcDbArc
 50
0.0
 51
90.0
  0
LINE
  5
73C
330
6B
100
AcDbEntity
  8
1
 62
     2
100
AcDbLine
 10
1611.374775120904
 20
1374.593058803334
 30
0.0
 11
1611.374775120904
 21
1390.593058803334
 31
0.0
  0
LINE
  5
743
330
6B
100
AcDbEntity
  8
1
 62
     2
100
AcDbLine
 10
1611.374775120904
 20
1374.593058803334
 30
0.0
 11
1611.374775120904
 21
1390.593058803334
 31
0.0
  0
ENDSEC
  0
SECTION
  2
OBJECTS
  0
DICTIONARY
  5
C
330
0
100
AcDbDictionary
281
     1
  3
ACAD_CIP_PREVIOUS_PRODUCT_INFO
350
4D6
  3
ACAD_COLOR
350
62
  3
ACAD_GROUP
350
D
  3
ACAD_LAYOUT
350
61
  3
ACAD_MATERIAL
350
10
  3
ACAD_MLEADERSTYLE
350
65
  3
ACAD_MLINESTYLE
350
5E
  3
ACAD_PLOTSETTINGS
350
60
  3
ACAD_PLOTSTYLENAME
350
E
  3
ACAD_SCALELIST
350
42
  3
ACAD_TABLESTYLE
350
63
  3
ACAD_VISUALSTYLE
350
29
  3
ACDB_RECOMPOSE_DATA
350
76B
  3
AcDbVariableDictionary
350
760
  3
DWGPROPS
350
76C
  0
DICTIONARY
  5
75C
330
54
100
AcDbDictionary
280
     1
281
     1
  3
ADSK_XREC_LAYER_RECONCILED
360
75D
  0
DICTIONARY
  5
75E
330
79
100
AcDbDictionary
280
     1
281
     1
  3
ADSK_XREC_LAYER_RECONCILED
360
75F
  0
DICTIONARY
  5
4DF
330
6B
100
AcDbDictionary
280
     1
281
     1
  3
ACAD_SORTENTS
360
4E0
  0
XRECORD
  5
4D6
102
{ACAD_REACTORS
330
C
102
}
330
C
100
AcDbXrecord
280
     1
300
ACD
300
2012
300
ACD_F_S
  0
DICTIONARY
  5
62
102
{ACAD_REACTORS
330
C
102
}
330
C
100
AcDbDictionary
281
     1
  0
DICTIONARY
  5
D
102
{ACAD_REACTORS
330
C
102
}
330
C
100
AcDbDictionary
281
     1
  0
DICTIONARY
  5
61
102
{ACAD_REACTORS
330
C
102
}
330
C
100
AcDbDictionary
281
     1
  3
Model
350
6E
  3
レイアウト1
350
6A
  0
DICTIONARY
  5
10
102
{ACAD_REACTORS
330
C
102
}
330
C
100
AcDbDictionary
281
     1
  3
ByBlock
350
19
  3
ByLayer
350
11
  3
Global
350
21
  0
DICTIONARY
  5
65
102
{ACAD_REACTORS
330
C
102
}
330
C
100
AcDbDictionary
281
     1
  3
Standard
350
66
  0
DICTIONARY
  5
5E
102
{ACAD_REACTORS
330
C
102
}
330
C
100
AcDbDictionary
281
     1
  3
Standard
350
5F
  0
DICTIONARY
  5
60
102
{ACAD_REACTORS
330
C
102
}
330
C
100
AcDbDictionary
281
     1
  0
ACDBDICTIONARYWDFLT
  5
E
102
{ACAD_REACTORS
330
C
102
}
330
C
100
AcDbDictionary
281
     1
  3
Normal
350
F
100
AcDbDictionaryWithDefault
340
F
  0
DICTIONARY
  5
42
102
{ACAD_REACTORS
330
C
102
}
330
C
100
AcDbDictionary
281
     1
  3
A0
350
43
  3
A1
350
44
  3
A2
350
45
  3
A3
350
46
  3
A4
350
47
  3
A5
350
48
  3
A6
350
49
  3
A7
350
4A
  3
A8
350
4B
  3
A9
350
4C
  3
B0
350
4D
  3
B1
350
4E
  3
B2
350
4F
  3
B3
350
50
  3
B4
350
51
  3
B5
350
52
  3
B6
350
53
  0
DICTIONARY
  5
63
102
{ACAD_REACTORS
330
C
102
}
330
C
100
AcDbDictionary
281
     1
  3
Standard
350
64
  0
DICTIONARY
  5
29
102
{ACAD_REACTORS
330
C
102
}
330
C
100
AcDbDictionary
281
     1
  3
2dWireframe
350
2F
  3
Basic
350
2E
  3
Brighten
350
35
  3
ColorChange
350
39
  3
Conceptual
350
32
  3
Dim
350
34
  3
EdgeColorOff
350
41
  3
Facepattern
350
38
  3
Flat
350
2A
  3
FlatWithEdges
350
2B
  3
Gouraud
350
2C
  3
GouraudWithEdges
350
2D
  3
Hidden
350
31
  3
JitterOff
350
3F
  3
Linepattern
350
37
  3
OverhangOff
350
40
  3
Realistic
350
33
  3
Shaded
350
3E
  3
Shaded with edges
350
3D
  3
Shades of Gray
350
3A
  3
Sketchy
350
3B
  3
Thicken
350
36
  3
Wireframe
350
30
  3
X-Ray
350
3C
  0
XRECORD
  5
76B
102
{ACAD_REACTORS
330
C
102
}
330
C
100
AcDbXrecord
280
     1
 90
        1
330
64
  0
DICTIONARY
  5
760
102
{ACAD_REACTORS
330
C
102
}
330
C
100
AcDbDictionary
281
     1
  3
CANNOSCALE
350
763
  3
CMLEADERSTYLE
350
762
  3
CTABLESTYLE
350
761
  3
DIMASSOC
350
766
  3
INDEXCTL
350
765
  3
SORTENTS
350
764
  3
XCLIPFRAME
350
767
  0
XRECORD
  5
76C
102
{ACAD_REACTORS
330
C
102
}
330
C
100
AcDbXrecord
280
     1
  1
DWGPROPS COOKIE
  2

  3

  4

  6

  7

  8
0035sekine
  9

300
=
301
=
302
=
303
=
304
=
305
=
306
=
307
=
308
=
309
=
 40
0.0012920486111111
 41
2457585.374783438
 42
2457585.376075127
  1

 90
        0
  0
XRECORD
  5
75D
102
{ACAD_REACTORS
330
75C
102
}
330
75C
100
AcDbXrecord
280
     1
290
     1
  0
XRECORD
  5
75F
102
{ACAD_REACTORS
330
75E
102
}
330
75E
100
AcDbXrecord
280
     1
290
     1
  0
SORTENTSTABLE
  5
4E0
102
{ACAD_REACTORS
330
4DF
102
}
330
4DF
100
AcDbSortentsTable
330
6B
331
568
  5
706
331
63B
  5
62D
331
58A
  5
57C
331
67F
  5
671
331
699
  5
68B
331
5E8
  5
5DA
331
51B
  5
724
331
60A
  5
5FC
331
535
  5
6D3
331
557
  5
6F5
331
579
  5
56B
331
4E8
  5
74F
331
5D7
  5
5C9
331
6AA
  5
69C
331
5F9
  5
5EB
331
546
  5
6E4
331
639
  5
62B
331
588
  5
57A
331
67D
  5
66F
331
4F7
  5
734
331
697
  5
689
331
5E6
  5
5D8
331
519
  5
722
331
608
  5
5FA
331
533
  5
6D1
331
555
  5
6F3
331
577
  5
569
331
4B3
  5
4B3
331
4E6
  5
74D
331
68E
  5
680
331
5D5
  5
5C7
331
6A8
  5
69A
331
5F7
  5
5E9
331
566
  5
704
331
544
  5
6E2
331
67B
  5
66D
331
4F5
  5
732
331
695
  5
687
331
5E4
  5
5D6
331
517
  5
720
331
606
  5
5F8
331
531
  5
6CF
331
4E4
  5
74B
331
68C
  5
67E
331
506
  5
743
331
6A6
  5
698
331
5F5
  5
5E7
331
564
  5
702
331
542
  5
6E0
331
637
  5
629
331
586
  5
578
331
4F3
  5
730
331
693
  5
685
331
5E2
  5
5D4
331
604
  5
5F6
331
52F
  5
6CD
331
573
  5
711
331
4E2
  5
749
331
68A
  5
67C
331
504
  5
741
331
6A4
  5
696
331
5F3
  5
5E5
331
526
  5
6C4
331
562
  5
700
331
540
  5
6DE
331
584
  5
576
331
4F1
  5
72E
331
691
  5
683
331
5E0
  5
5D2
331
602
  5
5F4
331
52D
  5
6CB
331
54F
  5
6ED
331
571
  5
70F
331
688
  5
67A
331
502
  5
73F
331
6A2
  5
694
331
5F1
  5
5E3
331
524
  5
6C2
331
560
  5
6FE
331
53E
  5
6DC
331
582
  5
574
331
511
  5
71A
331
600
  5
5F2
331
52B
  5
6C9
331
54D
  5
6EB
331
56F
  5
70D
331
686
  5
678
331
500
  5
73D
331
6A0
  5
692
331
5EF
  5
5E1
331
522
  5
6C0
331
53C
  5
6DA
331
55E
  5
6FC
331
580
  5
572
331
4EF
  5
72C
331
5DE
  5
5D0
331
529
  5
6C7
331
54B
  5
6E9
331
56D
  5
70B
331
684
  5
676
331
69E
  5
690
331
5ED
  5
5DF
331
520
  5
6BE
331
53A
  5
6D8
331
55C
  5
6FA
331
57E
  5
570
331
651
  5
643
331
4ED
  5
72A
331
5DC
  5
5CE
331
50F
  5
718
331
5FE
  5
5F0
331
549
  5
6E7
331
56B
  5
709
331
58D
  5
57F
331
682
  5
674
331
69C
  5
68E
331
5EB
  5
5DD
331
538
  5
6D6
331
55A
  5
6F8
331
57C
  5
56E
331
5DA
  5
5CC
331
50D
  5
716
331
5FC
  5
5EE
331
569
  5
707
331
63C
  5
62E
331
58B
  5
57D
331
680
  5
672
331
69A
  5
68C
331
5E9
  5
5DB
331
51C
  5
725
331
60B
  5
5FD
331
536
  5
6D4
331
558
  5
6F6
331
57A
  5
56C
331
73C
  5
4F4
331
5D8
  5
5CA
331
50B
  5
714
331
6AB
  5
69D
331
5FA
  5
5EC
331
547
  5
6E5
331
63A
  5
62C
331
589
  5
57B
331
67E
  5
670
331
4F8
  5
735
331
698
  5
68A
331
5E7
  5
5D9
331
51A
  5
723
331
609
  5
5FB
331
534
  5
6D2
331
556
  5
6F4
331
578
  5
56A
331
4B4
  5
4B4
331
4E7
  5
74E
331
68F
  5
681
331
5D6
  5
5C8
331
6A9
  5
69B
331
5F8
  5
5EA
331
567
  5
705
331
545
  5
6E3
331
638
  5
62A
331
67C
  5
66E
331
4F6
  5
733
331
696
  5
688
331
5E5
  5
5D7
331
518
  5
721
331
607
  5
5F9
331
532
  5
6D0
331
554
  5
6F2
331
576
  5
568
331
4E5
  5
74C
331
68D
  5
67F
331
5D4
  5
5C6
331
6A7
  5
699
331
5F6
  5
5E8
331
565
  5
703
331
543
  5
6E1
331
587
  5
579
331
4F4
  5
731
331
694
  5
686
331
5E3
  5
5D5
331
516
  5
71F
331
605
  5
5F7
331
530
  5
6CE
331
4E3
  5
74A
331
68B
  5
67D
331
505
  5
742
331
6A5
  5
697
331
5F4
  5
5E6
331
527
  5
6C5
331
563
  5
701
331
541
  5
6DF
331
585
  5
577
331
4F2
  5
72F
331
692
  5
684
331
5E1
  5
5D3
331
603
  5
5F5
331
52E
  5
6CC
331
550
  5
6EE
331
572
  5
710
331
4E1
  5
748
331
689
  5
67B
331
503
  5
740
331
6A3
  5
695
331
525
  5
6C3
331
561
  5
6FF
331
53F
  5
6DD
331
583
  5
575
331
5F2
  5
5E4
331
4F0
  5
72D
331
690
  5
682
331
512
  5
71B
331
601
  5
5F3
331
52C
  5
6CA
331
54E
  5
6EC
331
570
  5
70E
331
687
  5
679
331
501
  5
73E
331
6A1
  5
693
331
5F0
  5
5E2
331
523
  5
6C1
331
53D
  5
6DB
331
55F
  5
6FD
331
581
  5
573
331
743
  5
4EB
331
5DF
  5
5D1
331
510
  5
719
331
52A
  5
6C8
331
54C
  5
6EA
331
56E
  5
70C
331
685
  5
677
331
4FF
  5
73C
331
69F
  5
691
331
5EE
  5
5E0
331
521
  5
6BF
331
53B
  5
6D9
331
55D
  5
6FB
331
57F
  5
571
331
652
  5
644
331
4EE
  5
72B
331
5DD
  5
5CF
331
5FF
  5
5F1
331
528
  5
6C6
331
54A
  5
6E8
331
56C
  5
70A
331
58E
  5
580
331
683
  5
675
331
69D
  5
68F
331
5EC
  5
5DE
331
539
  5
6D7
331
55B
  5
6F9
331
57D
  5
56F
331
5DB
  5
5CD
331
50E
  5
717
331
5FD
  5
5EF
331
548
  5
6E6
331
56A
  5
708
331
63D
  5
62F
331
58C
  5
57E
331
681
  5
673
331
69B
  5
68D
331
5EA
  5
5DC
331
51D
  5
726
331
60C
  5
5FE
331
537
  5
6D5
331
559
  5
6F7
331
57B
  5
56D
331
5D9
  5
5CB
331
50C
  5
715
331
6AC
  5
69E
331
5FB
  5
5ED
  0
LAYOUT
  5
6E
102
{ACAD_XDICTIONARY
360
7A4
102
}
102
{ACAD_REACTORS
330
61
102
}
330
61
100
AcDbPlotSettings
  1

  2
\\asrv0030\DocuCentre 230 - 本社９階　開発部
  4

  6

 40
0.0
 41
0.0
 42
0.0
 43
0.0
 44
0.0
 45
0.0
 46
0.0
 47
0.0
 48
0.0
 49
0.0
140
0.0
141
0.0
142
1.0
143
1.0
 70
  1712
 72
     0
 73
     0
 74
     0
  7

 75
     0
147
1.0
148
0.0
149
0.0
100
AcDbLayout
  1
Model
 70
     1
 71
     0
 10
0.0
 20
0.0
 11
12.0
 21
9.0
 12
0.0
 22
0.0
 32
0.0
 14
0.0
 24
0.0
 34
0.0
 15
0.0
 25
0.0
 35
0.0
146
0.0
 13
0.0
 23
0.0
 33
0.0
 16
1.0
 26
0.0
 36
0.0
 17
0.0
 27
1.0
 37
0.0
 76
     0
330
6B
331
81
  0
LAYOUT
  5
6A
102
{ACAD_XDICTIONARY
360
7A2
102
}
102
{ACAD_REACTORS
330
61
102
}
330
61
100
AcDbPlotSettings
  1

  2
\\asrv0030\DocuCentre 230 - 本社９階　開発部
  4

  6

 40
0.0
 41
0.0
 42
0.0
 43
0.0
 44
0.0
 45
0.0
 46
0.0
 47
0.0
 48
0.0
 49
0.0
140
0.0
141
0.0
142
1.0
143
1.0
 70
   688
 72
     0
 73
     0
 74
     5
  7

 75
    16
147
1.0
148
0.0
149
0.0
100
AcDbLayout
  1
レイアウト1
 70
     1
 71
     1
 10
0.0
 20
0.0
 11
12.0
 21
9.0
 12
0.0
 22
0.0
 32
0.0
 14
1.000000000000000E+20
 24
1.000000000000000E+20
 34
1.000000000000000E+20
 15
-1.000000000000000E+20
 25
-1.000000000000000E+20
 35
-1.000000000000000E+20
146
0.0
 13
0.0
 23
0.0
 33
0.0
 16
1.0
 26
0.0
 36
0.0
 17
0.0
 27
1.0
 37
0.0
 76
     0
330
67
  0
MATERIAL
  5
19
102
{ACAD_XDICTIONARY
360
1A
102
}
102
{ACAD_REACTORS
330
10
102
}
330
10
100
AcDbMaterial
  1
ByBlock
 72
     0
 43
0.0208333333333333
 43
0.0
 43
0.0
 43
0.0
 43
0.0
 43
0.0208333333333333
 43
0.0
 43
0.0
 43
0.0
 43
0.0
 43
1.0
 43
0.0
 43
0.0
 43
0.0
 43
0.0
 43
1.0
 77
     0
 47
0.0208333333333333
 47
0.0
 47
0.0
 47
0.0
 47
0.0
 47
0.0208333333333333
 47
0.0
 47
0.0
 47
0.0
 47
0.0
 47
1.0
 47
0.0
 47
0.0
 47
0.0
 47
0.0
 47
1.0
171
     0
 49
0.0208333333333333
 49
0.0
 49
0.0
 49
0.0
 49
0.0
 49
0.0208333333333333
 49
0.0
 49
0.0
 49
0.0
 49
0.0
 49
1.0
 49
0.0
 49
0.0
 49
0.0
 49
0.0
 49
1.0
175
     0
142
0.0208333333333333
142
0.0
142
0.0
142
0.0
142
0.0
142
0.0208333333333333
142
0.0
142
0.0
142
0.0
142
0.0
142
1.0
142
0.0
142
0.0
142
0.0
142
0.0
142
1.0
179
     0
144
0.0208333333333333
144
0.0
144
0.0
144
0.0
144
0.0
144
0.0208333333333333
144
0.0
144
0.0
144
0.0
144
0.0
144
1.0
144
0.0
144
0.0
144
0.0
144
0.0
144
1.0
147
0.0208333333333333
147
0.0
147
0.0
147
0.0
147
0.0
147
0.0208333333333333
147
0.0
147
0.0
147
0.0
147
0.0
147
1.0
147
0.0
147
0.0
147
0.0
147
0.0
147
1.0
  0
MATERIAL
  5
11
102
{ACAD_XDICTIONARY
360
12
102
}
102
{ACAD_REACTORS
330
10
102
}
330
10
100
AcDbMaterial
  1
ByLayer
 72
     0
 43
0.0208333333333333
 43
0.0
 43
0.0
 43
0.0
 43
0.0
 43
0.0208333333333333
 43
0.0
 43
0.0
 43
0.0
 43
0.0
 43
1.0
 43
0.0
 43
0.0
 43
0.0
 43
0.0
 43
1.0
 77
     0
 47
0.0208333333333333
 47
0.0
 47
0.0
 47
0.0
 47
0.0
 47
0.0208333333333333
 47
0.0
 47
0.0
 47
0.0
 47
0.0
 47
1.0
 47
0.0
 47
0.0
 47
0.0
 47
0.0
 47
1.0
171
     0
 49
0.0208333333333333
 49
0.0
 49
0.0
 49
0.0
 49
0.0
 49
0.0208333333333333
 49
0.0
 49
0.0
 49
0.0
 49
0.0
 49
1.0
 49
0.0
 49
0.0
 49
0.0
 49
0.0
 49
1.0
175
     0
142
0.0208333333333333
142
0.0
142
0.0
142
0.0
142
0.0
142
0.0208333333333333
142
0.0
142
0.0
142
0.0
142
0.0
142
1.0
142
0.0
142
0.0
142
0.0
142
0.0
142
1.0
179
     0
144
0.0208333333333333
144
0.0
144
0.0
144
0.0
144
0.0
144
0.0208333333333333
144
0.0
144
0.0
144
0.0
144
0.0
144
1.0
144
0.0
144
0.0
144
0.0
144
0.0
144
1.0
147
0.0208333333333333
147
0.0
147
0.0
147
0.0
147
0.0
147
0.0208333333333333
147
0.0
147
0.0
147
0.0
147
0.0
147
1.0
147
0.0
147
0.0
147
0.0
147
0.0
147
1.0
  0
MATERIAL
  5
21
102
{ACAD_XDICTIONARY
360
22
102
}
102
{ACAD_REACTORS
330
10
102
}
330
10
100
AcDbMaterial
  1
Global
 72
     0
 43
0.0208333333333333
 43
0.0
 43
0.0
 43
0.0
 43
0.0
 43
0.0208333333333333
 43
0.0
 43
0.0
 43
0.0
 43
0.0
 43
1.0
 43
0.0
 43
0.0
 43
0.0
 43
0.0
 43
1.0
 77
     0
 47
0.0208333333333333
 47
0.0
 47
0.0
 47
0.0
 47
0.0
 47
0.0208333333333333
 47
0.0
 47
0.0
 47
0.0
 47
0.0
 47
1.0
 47
0.0
 47
0.0
 47
0.0
 47
0.0
 47
1.0
171
     0
 49
0.0208333333333333
 49
0.0
 49
0.0
 49
0.0
 49
0.0
 49
0.0208333333333333
 49
0.0
 49
0.0
 49
0.0
 49
0.0
 49
1.0
 49
0.0
 49
0.0
 49
0.0
 49
0.0
 49
1.0
175
     0
142
0.0208333333333333
142
0.0
142
0.0
142
0.0
142
0.0
142
0.0208333333333333
142
0.0
142
0.0
142
0.0
142
0.0
142
1.0
142
0.0
142
0.0
142
0.0
142
0.0
142
1.0
179
     0
144
0.0208333333333333
144
0.0
144
0.0
144
0.0
144
0.0
144
0.0208333333333333
144
0.0
144
0.0
144
0.0
144
0.0
144
1.0
144
0.0
144
0.0
144
0.0
144
0.0
144
1.0
147
0.0208333333333333
147
0.0
147
0.0
147
0.0
147
0.0
147
0.0208333333333333
147
0.0
147
0.0
147
0.0
147
0.0
147
1.0
147
0.0
147
0.0
147
0.0
147
0.0
147
1.0
  0
MLEADERSTYLE
  5
66
102
{ACAD_REACTORS
330
65
102
}
330
65
100
AcDbMLeaderStyle
170
     2
171
     1
172
     0
 90
        2
 40
0.0
 41
0.0
173
     1
 91
-1056964608
340
5A
 92
       -2
290
     1
 42
0.09
291
     1
 43
0.36
  3
Standard
 44
0.18
300

342
55
174
     1
178
     6
175
     1
176
     0
 93
-1056964608
 45
0.18
292
     0
297
     0
 46
0.18
 94
-1056964608
 47
1.0
 49
1.0
140
1.0
293
     1
141
0.0
294
     1
177
     0
142
1.0
295
     0
296
     0
143
0.125
1001
ACAD_MLEADERVER
1070
     2
  0
MLINESTYLE
  5
5F
102
{ACAD_REACTORS
330
5E
102
}
330
5E
100
AcDbMlineStyle
  2
STANDARD
 70
     0
  3

 62
   256
 51
90.0
 52
90.0
 71
     2
 49
0.5
 62
   256
  6
BYLAYER
 49
-0.5
 62
   256
  6
BYLAYER
  0
ACDBPLACEHOLDER
  5
F
102
{ACAD_REACTORS
330
E
102
}
330
E
  0
SCALE
  5
43
102
{ACAD_REACTORS
330
42
102
}
330
42
100
AcDbScale
 70
     0
300
1:1
140
1.0
141
1.0
290
     1
  0
SCALE
  5
44
102
{ACAD_REACTORS
330
42
102
}
330
42
100
AcDbScale
 70
     0
300
1/128" = 1'-0"
140
0.0078125
141
12.0
290
     0
  0
SCALE
  5
45
102
{ACAD_REACTORS
330
42
102
}
330
42
100
AcDbScale
 70
     0
300
1/64" = 1'-0"
140
0.015625
141
12.0
290
     0
  0
SCALE
  5
46
102
{ACAD_REACTORS
330
42
102
}
330
42
100
AcDbScale
 70
     0
300
1/32" = 1'-0"
140
0.03125
141
12.0
290
     0
  0
SCALE
  5
47
102
{ACAD_REACTORS
330
42
102
}
330
42
100
AcDbScale
 70
     0
300
1/16" = 1'-0"
140
0.0625
141
12.0
290
     0
  0
SCALE
  5
48
102
{ACAD_REACTORS
330
42
102
}
330
42
100
AcDbScale
 70
     0
300
3/32" = 1'-0"
140
0.09375
141
12.0
290
     0
  0
SCALE
  5
49
102
{ACAD_REACTORS
330
42
102
}
330
42
100
AcDbScale
 70
     0
300
1/8" = 1'-0"
140
0.125
141
12.0
290
     0
  0
SCALE
  5
4A
102
{ACAD_REACTORS
330
42
102
}
330
42
100
AcDbScale
 70
     0
300
3/16" = 1'-0"
140
0.1875
141
12.0
290
     0
  0
SCALE
  5
4B
102
{ACAD_REACTORS
330
42
102
}
330
42
100
AcDbScale
 70
     0
300
1/4" = 1'-0"
140
0.25
141
12.0
290
     0
  0
SCALE
  5
4C
102
{ACAD_REACTORS
330
42
102
}
330
42
100
AcDbScale
 70
     0
300
3/8" = 1'-0"
140
0.375
141
12.0
290
     0
  0
SCALE
  5
4D
102
{ACAD_REACTORS
330
42
102
}
330
42
100
AcDbScale
 70
     0
300
1/2" = 1'-0"
140
0.5
141
12.0
290
     0
  0
SCALE
  5
4E
102
{ACAD_REACTORS
330
42
102
}
330
42
100
AcDbScale
 70
     0
300
3/4" = 1'-0"
140
0.75
141
12.0
290
     0
  0
SCALE
  5
4F
102
{ACAD_REACTORS
330
42
102
}
330
42
100
AcDbScale
 70
     0
300
1" = 1'-0"
140
1.0
141
12.0
290
     0
  0
SCALE
  5
50
102
{ACAD_REACTORS
330
42
102
}
330
42
100
AcDbScale
 70
     0
300
1-1/2" = 1'-0"
140
1.5
141
12.0
290
     0
  0
SCALE
  5
51
102
{ACAD_REACTORS
330
42
102
}
330
42
100
AcDbScale
 70
     0
300
3" = 1'-0"
140
3.0
141
12.0
290
     0
  0
SCALE
  5
52
102
{ACAD_REACTORS
330
42
102
}
330
42
100
AcDbScale
 70
     0
300
6" = 1'-0"
140
6.0
141
12.0
290
     0
  0
SCALE
  5
53
102
{ACAD_REACTORS
330
42
102
}
330
42
100
AcDbScale
 70
     0
300
1'-0" = 1'-0"
140
12.0
141
12.0
290
     0
  0
TABLESTYLE
  5
64
102
{ACAD_XDICTIONARY
360
769
102
}
102
{ACAD_REACTORS
330
63
102
}
330
63
100
AcDbTableStyle
  3
Standard
 70
     0
 71
     0
 40
0.06
 41
0.06
280
     0
281
     0
  7
STANDARD
140
0.18
170
     2
 62
     0
 63
     7
283
     0
274
    -2
284
     1
 64
     0
275
    -2
285
     1
 65
     0
276
    -2
286
     1
 66
     0
277
    -2
287
     1
 67
     0
278
    -2
288
     1
 68
     0
279
    -2
289
     1
 69
     0
  7
STANDARD
140
0.25
170
     5
 62
     0
 63
     7
283
     0
274
    -2
284
     1
 64
     0
275
    -2
285
     1
 65
     0
276
    -2
286
     1
 66
     0
277
    -2
287
     1
 67
     0
278
    -2
288
     1
 68
     0
279
    -2
289
     1
 69
     0
  7
STANDARD
140
0.18
170
     5
 62
     0
 63
     7
283
     0
274
    -2
284
     1
 64
     0
275
    -2
285
     1
 65
     0
276
    -2
286
     1
 66
     0
277
    -2
287
     1
 67
     0
278
    -2
288
     1
 68
     0
279
    -2
289
     1
 69
     0
  0
VISUALSTYLE
  5
2F
102
{ACAD_XDICTIONARY
360
77A
102
}
102
{ACAD_REACTORS
330
29
102
}
330
29
100
AcDbVisualStyle
  2
2dWireframe
 70
     4
 71
     0
 72
     2
 73
     0
 90
        0
 40
-0.6
 41
-30.0
 62
     5
 63
     7
 74
     1
 91
        4
 64
     7
 65
   257
 75
     1
175
     1
 42
1.0
 92
        0
 66
   257
 43
1.0
 76
     1
 77
     6
 78
     2
 67
     7
 79
     5
170
     0
171
     0
290
     0
174
     0
 93
        1
 44
0.0
173
     0
291
     0
 45
0.0
1001
ACAD
1000
AcDbSavedByObjectVersion
1070
     0
  0
VISUALSTYLE
  5
2E
102
{ACAD_XDICTIONARY
360
778
102
}
102
{ACAD_REACTORS
330
29
102
}
330
29
100
AcDbVisualStyle
  2
Basic
 70
     7
 71
     1
 72
     0
 73
     1
 90
        0
 40
-0.6
 41
-30.0
 62
     5
 63
     7
 74
     0
 91
        4
 64
     7
 65
   257
 75
     1
175
     1
 42
1.0
 92
        8
 66
     7
 43
1.0
 76
     1
 77
     6
 78
     2
 67
     7
 79
     5
170
     0
171
     0
290
     0
174
     0
 93
        1
 44
0.0
173
     0
291
     1
 45
0.0
1001
ACAD
1000
AcDbSavedByObjectVersion
1070
     0
  0
VISUALSTYLE
  5
35
102
{ACAD_XDICTIONARY
360
786
102
}
102
{ACAD_REACTORS
330
29
102
}
330
29
100
AcDbVisualStyle
  2
Brighten
 70
    12
 71
     2
 72
     2
 73
     0
 90
        0
 40
-0.6
 41
-30.0
 62
     5
 63
     7
 74
     1
 91
        4
 64
     7
 65
   257
 75
     1
175
     1
 42
1.0
 92
        8
 66
     7
 43
1.0
 76
     1
 77
     6
 78
     2
 67
     7
 79
     5
170
     0
171
     0
290
     0
174
     0
 93
        1
 44
50.0
173
     0
291
     1
 45
0.0
1001
ACAD
1000
AcDbSavedByObjectVersion
1070
     0
  0
VISUALSTYLE
  5
39
102
{ACAD_XDICTIONARY
360
78E
102
}
102
{ACAD_REACTORS
330
29
102
}
330
29
100
AcDbVisualStyle
  2
ColorChange
 70
    16
 71
     2
 72
     2
 73
     3
 90
        0
 40
-0.6
 41
-30.0
 62
     5
 63
     8
 74
     1
 91
        4
 64
     7
 65
   257
 75
     1
175
     1
 42
1.0
 92
        8
 66
     8
 43
1.0
 76
     1
 77
     6
 78
     2
 67
     7
 79
     5
170
     0
171
     0
290
     0
174
     0
 93
        1
 44
0.0
173
     0
291
     1
 45
0.0
1001
ACAD
1000
AcDbSavedByObjectVersion
1070
     0
  0
VISUALSTYLE
  5
32
102
{ACAD_XDICTIONARY
360
780
102
}
102
{ACAD_REACTORS
330
29
102
}
330
29
100
AcDbVisualStyle
  2
Conceptual
 70
     9
 71
     3
 72
     2
 73
     0
 90
        0
 40
-0.6
 41
-30.0
 62
     5
 63
     7
 74
     2
 91
        2
 64
     7
 65
   257
 75
     1
175
     1
 42
179.0
 92
        8
 66
     7
 43
1.0
 76
     1
 77
     6
 78
     2
 67
     7
 79
     3
170
     0
171
     0
290
     0
174
     0
 93
        1
 44
0.0
173
     0
291
     0
 45
0.0
1001
ACAD
1000
AcDbSavedByObjectVersion
1070
     0
  0
VISUALSTYLE
  5
34
102
{ACAD_XDICTIONARY
360
784
102
}
102
{ACAD_REACTORS
330
29
102
}
330
29
100
AcDbVisualStyle
  2
Dim
 70
    11
 71
     2
 72
     2
 73
     0
 90
        0
 40
-0.6
 41
-30.0
 62
     5
 63
     7
 74
     1
 91
        4
 64
     7
 65
   257
 75
     1
175
     1
 42
1.0
 92
        8
 66
     7
 43
1.0
 76
     1
 77
     6
 78
     2
 67
     7
 79
     5
170
     0
171
     0
290
     0
174
     0
 93
        1
 44
-50.0
173
     0
291
     1
 45
0.0
1001
ACAD
1000
AcDbSavedByObjectVersion
1070
     0
  0
VISUALSTYLE
  5
41
102
{ACAD_XDICTIONARY
360
79E
102
}
102
{ACAD_REACTORS
330
29
102
}
330
29
100
AcDbVisualStyle
  2
EdgeColorOff
 70
    22
 71
     2
 72
     2
 73
     0
 90
        0
 40
-0.6
 41
-30.0
 62
     5
 63
     7
 74
     1
 91
        4
 64
     7
 65
   257
 75
     1
175
     1
 42
1.0
 92
        8
 66
     7
 43
1.0
 76
     1
 77
     6
 78
     2
 67
     7
 79
     5
170
     0
171
     0
290
     0
174
     0
 93
        1
 44
0.0
173
     0
291
     1
 45
0.0
1001
ACAD
1000
AcDbSavedByObjectVersion
1070
     0
  0
VISUALSTYLE
  5
38
102
{ACAD_XDICTIONARY
360
78C
102
}
102
{ACAD_REACTORS
330
29
102
}
330
29
100
AcDbVisualStyle
  2
Facepattern
 70
    15
 71
     2
 72
     2
 73
     0
 90
        0
 40
-0.6
 41
-30.0
 62
     5
 63
     7
 74
     1
 91
        4
 64
     7
 65
   257
 75
     1
175
     1
 42
1.0
 92
        8
 66
     7
 43
1.0
 76
     1
 77
     6
 78
     2
 67
     7
 79
     5
170
     0
171
     0
290
     0
174
     0
 93
        1
 44
0.0
173
     0
291
     1
 45
0.0
1001
ACAD
1000
AcDbSavedByObjectVersion
1070
     0
  0
VISUALSTYLE
  5
2A
102
{ACAD_XDICTIONARY
360
770
102
}
102
{ACAD_REACTORS
330
29
102
}
330
29
100
AcDbVisualStyle
  2
Flat
 70
     0
 71
     2
 72
     1
 73
     1
 90
        2
 40
-0.6
 41
30.0
 62
     5
 63
     7
 74
     0
 91
        0
 64
     7
 65
   257
 75
     1
175
     1
 42
1.0
 92
        8
 66
     7
 43
1.0
 76
     1
 77
     6
 78
     2
 67
     7
 79
     5
170
     0
171
     0
290
     0
174
     0
 93
       13
 44
0.0
173
     0
291
     1
 45
0.0
1001
ACAD
1000
AcDbSavedByObjectVersion
1070
     0
  0
VISUALSTYLE
  5
2B
102
{ACAD_XDICTIONARY
360
772
102
}
102
{ACAD_REACTORS
330
29
102
}
330
29
100
AcDbVisualStyle
  2
FlatWithEdges
 70
     1
 71
     2
 72
     1
 73
     1
 90
        2
 40
-0.6
 41
30.0
 62
     5
 63
     7
 74
     1
 91
        0
 64
     7
 65
   257
 75
     1
175
     1
 42
1.0
 92
        0
 66
   257
 43
1.0
 76
     1
 77
     6
 78
     2
 67
     7
 79
     5
170
     0
171
     0
290
     0
174
     0
 93
       13
 44
0.0
173
     0
291
     1
 45
0.0
1001
ACAD
1000
AcDbSavedByObjectVersion
1070
     0
  0
VISUALSTYLE
  5
2C
102
{ACAD_XDICTIONARY
360
774
102
}
102
{ACAD_REACTORS
330
29
102
}
330
29
100
AcDbVisualStyle
  2
Gouraud
 70
     2
 71
     2
 72
     2
 73
     1
 90
        2
 40
-0.6
 41
30.0
 62
     5
 63
     7
 74
     0
 91
        0
 64
     7
 65
   257
 75
     1
175
     1
 42
1.0
 92
        0
 66
     7
 43
1.0
 76
     1
 77
     6
 78
     2
 67
     7
 79
     5
170
     0
171
     0
290
     0
174
     0
 93
       13
 44
0.0
173
     0
291
     1
 45
0.0
1001
ACAD
1000
AcDbSavedByObjectVersion
1070
     0
  0
VISUALSTYLE
  5
2D
102
{ACAD_XDICTIONARY
360
776
102
}
102
{ACAD_REACTORS
330
29
102
}
330
29
100
AcDbVisualStyle
  2
GouraudWithEdges
 70
     3
 71
     2
 72
     2
 73
     1
 90
        2
 40
-0.6
 41
30.0
 62
     5
 63
     7
 74
     1
 91
        0
 64
     7
 65
   257
 75
     1
175
     1
 42
1.0
 92
        0
 66
   257
 43
1.0
 76
     1
 77
     6
 78
     2
 67
     7
 79
     5
170
     0
171
     0
290
     0
174
     0
 93
       13
 44
0.0
173
     0
291
     1
 45
0.0
1001
ACAD
1000
AcDbSavedByObjectVersion
1070
     0
  0
VISUALSTYLE
  5
31
102
{ACAD_XDICTIONARY
360
77E
102
}
102
{ACAD_REACTORS
330
29
102
}
330
29
100
AcDbVisualStyle
  2
Hidden
 70
     6
 71
     1
 72
     2
 73
     2
 90
        0
 40
-0.6
 41
-30.0
 62
     5
 63
     7
 74
     2
 91
        2
 64
     7
 65
   257
 75
     2
175
     1
 42
40.0
 92
        0
 66
   257
 43
1.0
 76
     1
 77
     6
 78
     2
 67
     7
 79
     3
170
     0
171
     0
290
     0
174
     0
 93
        1
 44
0.0
173
     0
291
     0
 45
0.0
1001
ACAD
1000
AcDbSavedByObjectVersion
1070
     0
  0
VISUALSTYLE
  5
3F
102
{ACAD_XDICTIONARY
360
79A
102
}
102
{ACAD_REACTORS
330
29
102
}
330
29
100
AcDbVisualStyle
  2
JitterOff
 70
    20
 71
     2
 72
     2
 73
     0
 90
        0
 40
-0.6
 41
-30.0
 62
     5
 63
     7
 74
     1
 91
        4
 64
     7
 65
   257
 75
     1
175
     1
 42
1.0
 92
       10
 66
     7
 43
1.0
 76
     1
 77
     6
 78
     2
 67
     7
 79
     5
170
     0
171
     0
290
     0
174
     0
 93
        1
 44
0.0
173
     0
291
     1
 45
0.0
1001
ACAD
1000
AcDbSavedByObjectVersion
1070
     0
  0
VISUALSTYLE
  5
37
102
{ACAD_XDICTIONARY
360
78A
102
}
102
{ACAD_REACTORS
330
29
102
}
330
29
100
AcDbVisualStyle
  2
Linepattern
 70
    14
 71
     2
 72
     2
 73
     0
 90
        0
 40
-0.6
 41
-30.0
 62
     5
 63
     7
 74
     1
 91
        4
 64
     7
 65
   257
 75
     7
175
     7
 42
1.0
 92
        8
 66
     7
 43
1.0
 76
     1
 77
     6
 78
     2
 67
     7
 79
     5
170
     0
171
     0
290
     0
174
     0
 93
        1
 44
0.0
173
     0
291
     1
 45
0.0
1001
ACAD
1000
AcDbSavedByObjectVersion
1070
     0
  0
VISUALSTYLE
  5
40
102
{ACAD_XDICTIONARY
360
79C
102
}
102
{ACAD_REACTORS
330
29
102
}
330
29
100
AcDbVisualStyle
  2
OverhangOff
 70
    21
 71
     2
 72
     2
 73
     0
 90
        0
 40
-0.6
 41
-30.0
 62
     5
 63
     7
 74
     1
 91
        4
 64
     7
 65
   257
 75
     1
175
     1
 42
1.0
 92
        9
 66
     7
 43
1.0
 76
     1
 77
     6
 78
     2
 67
     7
 79
     5
170
     0
171
     0
290
     0
174
     0
 93
        1
 44
0.0
173
     0
291
     1
 45
0.0
1001
ACAD
1000
AcDbSavedByObjectVersion
1070
     0
  0
VISUALSTYLE
  5
33
102
{ACAD_XDICTIONARY
360
782
102
}
102
{ACAD_REACTORS
330
29
102
}
330
29
100
AcDbVisualStyle
  2
Realistic
 70
     8
 71
     2
 72
     3
 73
     0
 90
        2
 40
-0.6
 41
30.0
 62
     5
 63
     7
 74
     0
 91
        0
 64
     7
 65
   257
 75
     1
175
     1
 42
1.0
 92
        8
 66
   257
 43
1.0
 76
     1
 77
     6
 78
     2
 67
     7
 79
     3
170
     0
171
     0
290
     0
174
     0
 93
       13
 44
0.0
173
     0
291
     0
 45
0.0
1001
ACAD
1000
AcDbSavedByObjectVersion
1070
     0
  0
VISUALSTYLE
  5
3E
102
{ACAD_XDICTIONARY
360
798
102
}
102
{ACAD_REACTORS
330
29
102
}
330
29
100
AcDbVisualStyle
  2
Shaded
 70
    27
 71
     2
 72
     2
 73
     1
 90
        2
 40
-0.6
 41
30.0
 62
     5
 63
     7
 74
     0
 91
        4
 64
     7
 65
   257
 75
     1
175
     1
 42
1.0
 92
        8
 66
   257
 43
1.0
 76
     1
 77
     6
 78
     2
 67
     8
 79
     3
170
     0
171
     0
290
     0
174
     0
 93
        5
 44
0.0
173
     0
291
     0
 45
0.0
1001
ACAD
1000
AcDbSavedByObjectVersion
1070
     0
  0
VISUALSTYLE
  5
3D
102
{ACAD_XDICTIONARY
360
796
102
}
102
{ACAD_REACTORS
330
29
102
}
330
29
100
AcDbVisualStyle
  2
Shaded with edges
 70
    26
 71
     2
 72
     2
 73
     1
 90
        2
 40
-0.6
 41
30.0
 62
     5
 63
     7
 74
     1
 91
       10
 64
     7
 65
   257
 75
     2
175
     1
 42
1.0
 92
        8
 66
   257
 43
1.0
 76
     1
 77
     6
 78
     2
 67
     7
 79
     3
170
     0
171
     0
290
     0
174
     0
 93
        5
 44
0.0
173
     0
291
     0
 45
0.0
1001
ACAD
1000
AcDbSavedByObjectVersion
1070
     0
  0
VISUALSTYLE
  5
3A
102
{ACAD_XDICTIONARY
360
790
102
}
102
{ACAD_REACTORS
330
29
102
}
330
29
100
AcDbVisualStyle
  2
Shades of Gray
 70
    23
 71
     2
 72
     2
 73
     3
 90
        0
 40
-0.6
 41
-30.0
 62
     5
 63
     7
 74
     2
 91
        2
 64
     7
 65
     7
 75
     1
175
     1
 42
40.0
 92
        8
 66
     7
 43
1.0
 76
     1
 77
     6
 78
     2
 67
     7
 79
     3
170
     0
171
     0
290
     0
174
     0
 93
        1
 44
0.0
173
     0
291
     0
 45
0.0
1001
ACAD
1000
AcDbSavedByObjectVersion
1070
     0
  0
VISUALSTYLE
  5
3B
102
{ACAD_XDICTIONARY
360
792
102
}
102
{ACAD_REACTORS
330
29
102
}
330
29
100
AcDbVisualStyle
  2
Sketchy
 70
    24
 71
     1
 72
     2
 73
     2
 90
        0
 40
-0.6
 41
-30.0
 62
     5
 63
     7
 74
     2
 91
        2
 64
     7
 65
     7
 75
     1
175
     1
 42
40.0
 92
       11
 66
     7
 43
1.0
 76
     1
 77
     6
 78
     2
 67
     7
 79
     6
170
     0
171
     0
290
     0
174
     0
 93
        1
 44
0.0
173
     0
291
     0
 45
0.0
1001
ACAD
1000
AcDbSavedByObjectVersion
1070
     0
  0
VISUALSTYLE
  5
36
102
{ACAD_XDICTIONARY
360
788
102
}
102
{ACAD_REACTORS
330
29
102
}
330
29
100
AcDbVisualStyle
  2
Thicken
 70
    13
 71
     2
 72
     2
 73
     0
 90
        0
 40
-0.6
 41
-30.0
 62
     5
 63
     7
 74
     1
 91
        4
 64
     7
 65
   257
 75
     1
175
     1
 42
1.0
 92
       12
 66
     7
 43
1.0
 76
     1
 77
     6
 78
     2
 67
     7
 79
     5
170
     0
171
     0
290
     0
174
     0
 93
        1
 44
0.0
173
     0
291
     1
 45
0.0
1001
ACAD
1000
AcDbSavedByObjectVersion
1070
     0
  0
VISUALSTYLE
  5
30
102
{ACAD_XDICTIONARY
360
77C
102
}
102
{ACAD_REACTORS
330
29
102
}
330
29
100
AcDbVisualStyle
  2
Wireframe
 70
     5
 71
     0
 72
     2
 73
     0
 90
        0
 40
-0.6
 41
-30.0
 62
     5
 63
     7
 74
     1
 91
        4
 64
     7
 65
   257
 75
     1
175
     1
 42
1.0
 92
        0
 66
   257
 43
1.0
 76
     1
 77
     6
 78
     2
 67
     7
 79
     3
170
     0
171
     0
290
     0
174
     0
 93
        1
 44
0.0
173
     0
291
     0
 45
0.0
1001
ACAD
1000
AcDbSavedByObjectVersion
1070
     0
  0
VISUALSTYLE
  5
3C
102
{ACAD_XDICTIONARY
360
794
102
}
102
{ACAD_REACTORS
330
29
102
}
330
29
100
AcDbVisualStyle
  2
X-Ray
 70
    25
 71
     2
 72
     2
 73
     1
 90
        1
 40
0.5
 41
-30.0
 62
     5
 63
     7
 74
     1
 91
        0
 64
     7
 65
   257
 75
     1
175
     1
 42
1.0
 92
        8
 66
     7
 43
1.0
 76
     1
 77
     6
 78
     2
 67
     7
 79
     3
170
     0
171
     0
290
     0
174
     0
 93
       13
 44
0.0
173
     0
291
     0
 45
0.0
1001
ACAD
1000
AcDbSavedByObjectVersion
1070
     0
  0
DICTIONARYVAR
  5
763
102
{ACAD_REACTORS
330
760
102
}
330
760
100
DictionaryVariables
280
     0
  1
1:1
  0
DICTIONARYVAR
  5
762
102
{ACAD_REACTORS
330
760
102
}
330
760
100
DictionaryVariables
280
     0
  1
STANDARD
  0
DICTIONARYVAR
  5
761
102
{ACAD_REACTORS
330
760
102
}
330
760
100
DictionaryVariables
280
     0
  1
STANDARD
  0
DICTIONARYVAR
  5
766
102
{ACAD_REACTORS
330
760
102
}
330
760
100
DictionaryVariables
280
     0
  1
1
  0
DICTIONARYVAR
  5
765
102
{ACAD_REACTORS
330
760
102
}
330
760
100
DictionaryVariables
280
     0
  1
0
  0
DICTIONARYVAR
  5
764
102
{ACAD_REACTORS
330
760
102
}
330
760
100
DictionaryVariables
280
     0
  1
127
  0
DICTIONARYVAR
  5
767
102
{ACAD_REACTORS
330
760
102
}
330
760
100
DictionaryVariables
280
     0
  1
2
  0
DICTIONARY
  5
7A4
330
6E
100
AcDbDictionary
280
     1
281
     1
  3
ACAD_XREC_ROUNDTRIP
360
7A5
  0
DICTIONARY
  5
7A2
330
6A
100
AcDbDictionary
280
     1
281
     1
  3
ACAD_XREC_ROUNDTRIP
360
7A3
  0
DICTIONARY
  5
1A
330
19
100
AcDbDictionary
280
     1
281
     1
  3
ACAD_XREC_ROUNDTRIP
360
76E
  3
BUMPTILE
360
1C
  3
DIFFUSETILE
360
1B
  3
OPACITYTILE
360
1F
  3
REFLECTIONTILE
360
1E
  3
REFRACTIONTILE
360
20
  3
SPECULARTILE
360
1D
  0
DICTIONARY
  5
12
330
11
100
AcDbDictionary
280
     1
281
     1
  3
ACAD_XREC_ROUNDTRIP
360
76D
  3
BUMPTILE
360
14
  3
DIFFUSETILE
360
13
  3
OPACITYTILE
360
17
  3
REFLECTIONTILE
360
16
  3
REFRACTIONTILE
360
18
  3
SPECULARTILE
360
15
  0
DICTIONARY
  5
22
330
21
100
AcDbDictionary
280
     1
281
     1
  3
ACAD_XREC_ROUNDTRIP
360
76F
  3
BUMPTILE
360
24
  3
DIFFUSETILE
360
23
  3
OPACITYTILE
360
27
  3
REFLECTIONTILE
360
26
  3
REFRACTIONTILE
360
28
  3
SPECULARTILE
360
25
  0
DICTIONARY
  5
769
330
64
100
AcDbDictionary
280
     1
281
     1
  3
ACAD_ROUNDTRIP_2008_TABLESTYLE_CELLSTYLEMAP
360
76A
  3
ACAD_XREC_ROUNDTRIP
360
7A0
  0
DICTIONARY
  5
77A
330
2F
100
AcDbDictionary
280
     1
281
     1
  3
ACAD_XREC_ROUNDTRIP
360
77B
  0
DICTIONARY
  5
778
330
2E
100
AcDbDictionary
280
     1
281
     1
  3
ACAD_XREC_ROUNDTRIP
360
779
  0
DICTIONARY
  5
786
330
35
100
AcDbDictionary
280
     1
281
     1
  3
ACAD_XREC_ROUNDTRIP
360
787
  0
DICTIONARY
  5
78E
330
39
100
AcDbDictionary
280
     1
281
     1
  3
ACAD_XREC_ROUNDTRIP
360
78F
  0
DICTIONARY
  5
780
330
32
100
AcDbDictionary
280
     1
281
     1
  3
ACAD_XREC_ROUNDTRIP
360
781
  0
DICTIONARY
  5
784
330
34
100
AcDbDictionary
280
     1
281
     1
  3
ACAD_XREC_ROUNDTRIP
360
785
  0
DICTIONARY
  5
79E
330
41
100
AcDbDictionary
280
     1
281
     1
  3
ACAD_XREC_ROUNDTRIP
360
79F
  0
DICTIONARY
  5
78C
330
38
100
AcDbDictionary
280
     1
281
     1
  3
ACAD_XREC_ROUNDTRIP
360
78D
  0
DICTIONARY
  5
770
330
2A
100
AcDbDictionary
280
     1
281
     1
  3
ACAD_XREC_ROUNDTRIP
360
771
  0
DICTIONARY
  5
772
330
2B
100
AcDbDictionary
280
     1
281
     1
  3
ACAD_XREC_ROUNDTRIP
360
773
  0
DICTIONARY
  5
774
330
2C
100
AcDbDictionary
280
     1
281
     1
  3
ACAD_XREC_ROUNDTRIP
360
775
  0
DICTIONARY
  5
776
330
2D
100
AcDbDictionary
280
     1
281
     1
  3
ACAD_XREC_ROUNDTRIP
360
777
  0
DICTIONARY
  5
77E
330
31
100
AcDbDictionary
280
     1
281
     1
  3
ACAD_XREC_ROUNDTRIP
360
77F
  0
DICTIONARY
  5
79A
330
3F
100
AcDbDictionary
280
     1
281
     1
  3
ACAD_XREC_ROUNDTRIP
360
79B
  0
DICTIONARY
  5
78A
330
37
100
AcDbDictionary
280
     1
281
     1
  3
ACAD_XREC_ROUNDTRIP
360
78B
  0
DICTIONARY
  5
79C
330
40
100
AcDbDictionary
280
     1
281
     1
  3
ACAD_XREC_ROUNDTRIP
360
79D
  0
DICTIONARY
  5
782
330
33
100
AcDbDictionary
280
     1
281
     1
  3
ACAD_XREC_ROUNDTRIP
360
783
  0
DICTIONARY
  5
798
330
3E
100
AcDbDictionary
280
     1
281
     1
  3
ACAD_XREC_ROUNDTRIP
360
799
  0
DICTIONARY
  5
796
330
3D
100
AcDbDictionary
280
     1
281
     1
  3
ACAD_XREC_ROUNDTRIP
360
797
  0
DICTIONARY
  5
790
330
3A
100
AcDbDictionary
280
     1
281
     1
  3
ACAD_XREC_ROUNDTRIP
360
791
  0
DICTIONARY
  5
792
330
3B
100
AcDbDictionary
280
     1
281
     1
  3
ACAD_XREC_ROUNDTRIP
360
793
  0
DICTIONARY
  5
788
330
36
100
AcDbDictionary
280
     1
281
     1
  3
ACAD_XREC_ROUNDTRIP
360
789
  0
DICTIONARY
  5
77C
330
30
100
AcDbDictionary
280
     1
281
     1
  3
ACAD_XREC_ROUNDTRIP
360
77D
  0
DICTIONARY
  5
794
330
3C
100
AcDbDictionary
280
     1
281
     1
  3
ACAD_XREC_ROUNDTRIP
360
795
  0
XRECORD
  5
7A5
102
{ACAD_REACTORS
330
7A4
102
}
330
7A4
100
AcDbXrecord
280
     1
102
SHADEPLOT
 70
     0
102
SHADEPLOTRESLEVEL
 70
     2
102
SHADEPLOTCUSTOMDPI
 70
   300
  0
XRECORD
  5
7A3
102
{ACAD_REACTORS
330
7A2
102
}
330
7A2
100
AcDbXrecord
280
     1
102
SHADEPLOT
 70
     0
102
SHADEPLOTRESLEVEL
 70
     2
102
SHADEPLOTCUSTOMDPI
 70
   300
  0
XRECORD
  5
76E
102
{ACAD_REACTORS
330
1A
102
}
330
1A
100
AcDbXrecord
280
     1
102
MATERIAL
148
0.0
149
0.0
149
0.0
 93
        0
 94
      127
282
     0
 72
     0
 77
     0
171
     0
175
     0
179
     0
273
     0
  0
XRECORD
  5
1C
102
{ACAD_REACTORS
330
1A
102
}
330
1A
100
AcDbXrecord
280
     1
270
     1
271
     1
  0
XRECORD
  5
1B
102
{ACAD_REACTORS
330
1A
102
}
330
1A
100
AcDbXrecord
280
     1
270
     1
271
     1
  0
XRECORD
  5
1F
102
{ACAD_REACTORS
330
1A
102
}
330
1A
100
AcDbXrecord
280
     1
270
     1
271
     1
  0
XRECORD
  5
1E
102
{ACAD_REACTORS
330
1A
102
}
330
1A
100
AcDbXrecord
280
     1
270
     1
271
     1
  0
XRECORD
  5
20
102
{ACAD_REACTORS
330
1A
102
}
330
1A
100
AcDbXrecord
280
     1
270
     1
271
     1
  0
XRECORD
  5
1D
102
{ACAD_REACTORS
330
1A
102
}
330
1A
100
AcDbXrecord
280
     1
270
     1
271
     1
  0
XRECORD
  5
76D
102
{ACAD_REACTORS
330
12
102
}
330
12
100
AcDbXrecord
280
     1
102
MATERIAL
148
0.0
149
0.0
149
0.0
 93
        0
 94
      127
282
     0
 72
     0
 77
     0
171
     0
175
     0
179
     0
273
     0
  0
XRECORD
  5
14
102
{ACAD_REACTORS
330
12
102
}
330
12
100
AcDbXrecord
280
     1
270
     1
271
     1
  0
XRECORD
  5
13
102
{ACAD_REACTORS
330
12
102
}
330
12
100
AcDbXrecord
280
     1
270
     1
271
     1
  0
XRECORD
  5
17
102
{ACAD_REACTORS
330
12
102
}
330
12
100
AcDbXrecord
280
     1
270
     1
271
     1
  0
XRECORD
  5
16
102
{ACAD_REACTORS
330
12
102
}
330
12
100
AcDbXrecord
280
     1
270
     1
271
     1
  0
XRECORD
  5
18
102
{ACAD_REACTORS
330
12
102
}
330
12
100
AcDbXrecord
280
     1
270
     1
271
     1
  0
XRECORD
  5
15
102
{ACAD_REACTORS
330
12
102
}
330
12
100
AcDbXrecord
280
     1
270
     1
271
     1
  0
XRECORD
  5
76F
102
{ACAD_REACTORS
330
22
102
}
330
22
100
AcDbXrecord
280
     1
102
MATERIAL
148
0.0
149
0.0
149
0.0
 93
        0
 94
      127
282
     0
 72
     0
 77
     0
171
     0
175
     0
179
     0
273
     0
  0
XRECORD
  5
24
102
{ACAD_REACTORS
330
22
102
}
330
22
100
AcDbXrecord
280
     1
270
     1
271
     1
  0
XRECORD
  5
23
102
{ACAD_REACTORS
330
22
102
}
330
22
100
AcDbXrecord
280
     1
270
     1
271
     1
  0
XRECORD
  5
27
102
{ACAD_REACTORS
330
22
102
}
330
22
100
AcDbXrecord
280
     1
270
     1
271
     1
  0
XRECORD
  5
26
102
{ACAD_REACTORS
330
22
102
}
330
22
100
AcDbXrecord
280
     1
270
     1
271
     1
  0
XRECORD
  5
28
102
{ACAD_REACTORS
330
22
102
}
330
22
100
AcDbXrecord
280
     1
270
     1
271
     1
  0
XRECORD
  5
25
102
{ACAD_REACTORS
330
22
102
}
330
22
100
AcDbXrecord
280
     1
270
     1
271
     1
  0
CELLSTYLEMAP
  5
76A
102
{ACAD_REACTORS
330
769
102
}
330
769
100
AcDbCellStyleMap
 90
        3
300
CELLSTYLE
  1
TABLEFORMAT_BEGIN
 90
        5
170
     1
 91
        0
 92
    32768
 62
   257
 93
        1
300
CONTENTFORMAT
  1
CONTENTFORMAT_BEGIN
 90
        0
 91
        0
 92
      512
 93
        0
300

 40
0.0
140
1.0
 94
        5
 62
     0
340
55
144
0.25
309
CONTENTFORMAT_END
171
     0
 94
        0
309
TABLEFORMAT_END
  1
CELLSTYLE_BEGIN
 90
        1
 91
        1
300
_TITLE
309
CELLSTYLE_END
300
CELLSTYLE
  1
TABLEFORMAT_BEGIN
 90
        5
170
     1
 91
        0
 92
        0
 62
   257
 93
        1
300
CONTENTFORMAT
  1
CONTENTFORMAT_BEGIN
 90
        0
 91
        0
 92
      512
 93
        0
300

 40
0.0
140
1.0
 94
        5
 62
     0
340
55
144
0.18
309
CONTENTFORMAT_END
171
     0
 94
        0
309
TABLEFORMAT_END
  1
CELLSTYLE_BEGIN
 90
        2
 91
        1
300
_HEADER
309
CELLSTYLE_END
300
CELLSTYLE
  1
TABLEFORMAT_BEGIN
 90
        5
170
     1
 91
        0
 92
        0
 62
   257
 93
        1
300
CONTENTFORMAT
  1
CONTENTFORMAT_BEGIN
 90
        0
 91
        0
 92
      512
 93
        0
300

 40
0.0
140
1.0
 94
        2
 62
     0
340
55
144
0.18
309
CONTENTFORMAT_END
171
     0
 94
        0
309
TABLEFORMAT_END
  1
CELLSTYLE_BEGIN
 90
        3
 91
        2
300
_DATA
309
CELLSTYLE_END
  0
XRECORD
  5
7A0
102
{ACAD_REACTORS
330
769
102
}
330
769
100
AcDbXrecord
280
     1
102
ACAD_ROUNDTRIP_PRE2007_TABLESTYLE
 90
      512
 91
        0
  1

 92
      512
 93
        0
  2

 94
      512
 95
        0
  3

  0
XRECORD
  5
77B
102
{ACAD_REACTORS
330
77A
102
}
330
77A
100
AcDbXrecord
280
     1
102
RTVSPropertyOp0
 70
     1
102
RTVSPropertyOp1
 70
     1
102
RTVSPropertyOp2
 70
     1
102
RTVSPropertyOp3
 70
     1
102
RTVSPropertyOp4
 70
     1
102
RTVSPropertyOp5
 70
     1
102
RTVSPropertyOp6
 70
     1
102
RTVSPropertyOp7
 70
     1
102
RTVSPropertyOp8
 70
     1
102
RTVSPropertyOp9
 70
     1
102
RTVSPropertyOp10
 70
     1
102
RTVSPropertyOp11
 70
     1
102
RTVSPropertyOp12
 70
     1
102
RTVSPropertyOp13
 70
     1
102
RTVSPropertyOp14
 70
     1
102
RTVSPropertyOp15
 70
     1
102
RTVSPropertyOp16
 70
     1
102
RTVSPropertyOp17
 70
     1
102
RTVSPropertyOp18
 70
     1
102
RTVSPropertyOp19
 70
     1
102
RTVSPropertyOp20
 70
     1
102
RTVSPropertyOp21
 70
     1
102
RTVSPropertyOp22
 70
     1
102
RTVSPropertyOp23
 70
     1
102
RTVSPropertyOp24
 70
     1
102
RTVSPropertyOp25
 70
     1
102
RTVSPropertyOp26
 70
     1
102
RTVSPropertyOp27
 70
     1
102
RTVSPropertyOp28
 70
     1
102
RTVSPropertyOp29
 70
     1
102
RTVSPropertyOp30
 70
     1
102
RTVSPropertyOp31
 70
     1
102
RTVSPropertyOp32
 70
     1
  0
XRECORD
  5
779
102
{ACAD_REACTORS
330
778
102
}
330
778
100
AcDbXrecord
280
     1
102
RTVSPropertyOp0
 70
     1
102
RTVSPropertyOp1
 70
     1
102
RTVSPropertyOp2
 70
     1
102
RTVSPropertyOp3
 70
     1
102
RTVSPropertyOp4
 70
     1
102
RTVSPropertyOp5
 70
     1
102
RTVSPropertyOp6
 70
     1
102
RTVSPropertyOp7
 70
     1
102
RTVSPropertyOp8
 70
     1
102
RTVSPropertyOp9
 70
     1
102
RTVSPropertyOp10
 70
     1
102
RTVSPropertyOp11
 70
     1
102
RTVSPropertyOp12
 70
     1
102
RTVSPropertyOp13
 70
     1
102
RTVSPropertyOp14
 70
     1
102
RTVSPropertyOp15
 70
     1
102
RTVSPropertyOp16
 70
     1
102
RTVSPropertyOp17
 70
     1
102
RTVSPropertyOp18
 70
     1
102
RTVSPropertyOp19
 70
     1
102
RTVSPropertyOp20
 70
     1
102
RTVSPropertyOp21
 70
     1
102
RTVSPropertyOp22
 70
     1
102
RTVSPropertyOp23
 70
     1
102
RTVSPropertyOp24
 70
     1
102
RTVSPropertyOp25
 70
     1
102
RTVSPropertyOp26
 70
     1
102
RTVSPropertyOp27
 70
     1
102
RTVSPropertyOp28
 70
     1
102
RTVSPropertyOp29
 70
     1
102
RTVSPropertyOp30
 70
     1
102
RTVSPropertyOp31
 70
     1
102
RTVSPropertyOp32
 70
     1
  0
XRECORD
  5
787
102
{ACAD_REACTORS
330
786
102
}
330
786
100
AcDbXrecord
280
     1
102
RTVSPropertyOp0
 70
     1
102
RTVSPropertyOp1
 70
     1
102
RTVSPropertyOp2
 70
     1
102
RTVSPropertyOp3
 70
     1
102
RTVSPropertyOp4
 70
     1
102
RTVSPropertyOp5
 70
     1
102
RTVSPropertyOp6
 70
     1
102
RTVSPropertyOp7
 70
     1
102
RTVSPropertyOp8
 70
     1
102
RTVSPropertyOp9
 70
     1
102
RTVSPropertyOp10
 70
     1
102
RTVSPropertyOp11
 70
     1
102
RTVSPropertyOp12
 70
     1
102
RTVSPropertyOp13
 70
     1
102
RTVSPropertyOp14
 70
     1
102
RTVSPropertyOp15
 70
     1
102
RTVSPropertyOp16
 70
     1
102
RTVSPropertyOp17
 70
     1
102
RTVSPropertyOp18
 70
     1
102
RTVSPropertyOp19
 70
     1
102
RTVSPropertyOp20
 70
     1
102
RTVSPropertyOp21
 70
     1
102
RTVSPropertyOp22
 70
     1
102
RTVSPropertyOp23
 70
     1
102
RTVSPropertyOp24
 70
     1
102
RTVSPropertyOp25
 70
     1
102
RTVSPropertyOp26
 70
     1
102
RTVSPropertyOp27
 70
     1
102
RTVSPropertyOp28
 70
     1
102
RTVSPropertyOp29
 70
     1
102
RTVSPropertyOp30
 70
     1
102
RTVSPropertyOp31
 70
     1
102
RTVSPropertyOp32
 70
     1
  0
XRECORD
  5
78F
102
{ACAD_REACTORS
330
78E
102
}
330
78E
100
AcDbXrecord
280
     1
102
RTVSPropertyOp0
 70
     1
102
RTVSPropertyOp1
 70
     1
102
RTVSPropertyOp2
 70
     1
102
RTVSPropertyOp3
 70
     1
102
RTVSPropertyOp4
 70
     1
102
RTVSPropertyOp5
 70
     1
102
RTVSPropertyOp6
 70
     1
102
RTVSPropertyOp7
 70
     1
102
RTVSPropertyOp8
 70
     1
102
RTVSPropertyOp9
 70
     1
102
RTVSPropertyOp10
 70
     1
102
RTVSPropertyOp11
 70
     1
102
RTVSPropertyOp12
 70
     1
102
RTVSPropertyOp13
 70
     1
102
RTVSPropertyOp14
 70
     1
102
RTVSPropertyOp15
 70
     1
102
RTVSPropertyOp16
 70
     1
102
RTVSPropertyOp17
 70
     1
102
RTVSPropertyOp18
 70
     1
102
RTVSPropertyOp19
 70
     1
102
RTVSPropertyOp20
 70
     1
102
RTVSPropertyOp21
 70
     1
102
RTVSPropertyOp22
 70
     1
102
RTVSPropertyOp23
 70
     1
102
RTVSPropertyOp24
 70
     1
102
RTVSPropertyOp25
 70
     1
102
RTVSPropertyOp26
 70
     1
102
RTVSPropertyOp27
 70
     1
102
RTVSPropertyOp28
 70
     1
102
RTVSPropertyOp29
 70
     1
102
RTVSPropertyOp30
 70
     1
102
RTVSPropertyOp31
 70
     1
102
RTVSPropertyOp32
 70
     1
  0
XRECORD
  5
781
102
{ACAD_REACTORS
330
780
102
}
330
780
100
AcDbXrecord
280
     1
102
RTVSPropertyOp0
 70
     1
102
RTVSPropertyOp1
 70
     1
102
RTVSPropertyOp2
 70
     1
102
RTVSPropertyOp3
 70
     1
102
RTVSPropertyOp4
 70
     1
102
RTVSPropertyOp5
 70
     1
102
RTVSPropertyOp6
 70
     1
102
RTVSPropertyOp7
 70
     1
102
RTVSPropertyOp8
 70
     1
102
RTVSPropertyOp9
 70
     1
102
RTVSPropertyOp10
 70
     1
102
RTVSPropertyOp11
 70
     1
102
RTVSPropertyOp12
 70
     1
102
RTVSPropertyOp13
 70
     1
102
RTVSPropertyOp14
 70
     1
102
RTVSPropertyOp15
 70
     1
102
RTVSPropertyOp16
 70
     1
102
RTVSPropertyOp17
 70
     1
102
RTVSPropertyOp18
 70
     1
102
RTVSPropertyOp19
 70
     1
102
RTVSPropertyOp20
 70
     1
102
RTVSPropertyOp21
 70
     1
102
RTVSPropertyOp22
 70
     1
102
RTVSPropertyOp23
 70
     1
102
RTVSPropertyOp24
 70
     1
102
RTVSPropertyOp25
 70
     1
102
RTVSPropertyOp26
 70
     1
102
RTVSPropertyOp27
 70
     1
102
RTVSPropertyOp28
 70
     1
102
RTVSPropertyOp29
 70
     1
102
RTVSPropertyOp30
 70
     1
102
RTVSPropertyOp31
 70
     1
102
RTVSPropertyOp32
 70
     1
  0
XRECORD
  5
785
102
{ACAD_REACTORS
330
784
102
}
330
784
100
AcDbXrecord
280
     1
102
RTVSPropertyOp0
 70
     1
102
RTVSPropertyOp1
 70
     1
102
RTVSPropertyOp2
 70
     1
102
RTVSPropertyOp3
 70
     1
102
RTVSPropertyOp4
 70
     1
102
RTVSPropertyOp5
 70
     1
102
RTVSPropertyOp6
 70
     1
102
RTVSPropertyOp7
 70
     1
102
RTVSPropertyOp8
 70
     1
102
RTVSPropertyOp9
 70
     1
102
RTVSPropertyOp10
 70
     1
102
RTVSPropertyOp11
 70
     1
102
RTVSPropertyOp12
 70
     1
102
RTVSPropertyOp13
 70
     1
102
RTVSPropertyOp14
 70
     1
102
RTVSPropertyOp15
 70
     1
102
RTVSPropertyOp16
 70
     1
102
RTVSPropertyOp17
 70
     1
102
RTVSPropertyOp18
 70
     1
102
RTVSPropertyOp19
 70
     1
102
RTVSPropertyOp20
 70
     1
102
RTVSPropertyOp21
 70
     1
102
RTVSPropertyOp22
 70
     1
102
RTVSPropertyOp23
 70
     1
102
RTVSPropertyOp24
 70
     1
102
RTVSPropertyOp25
 70
     1
102
RTVSPropertyOp26
 70
     1
102
RTVSPropertyOp27
 70
     1
102
RTVSPropertyOp28
 70
     1
102
RTVSPropertyOp29
 70
     1
102
RTVSPropertyOp30
 70
     1
102
RTVSPropertyOp31
 70
     1
102
RTVSPropertyOp32
 70
     1
  0
XRECORD
  5
79F
102
{ACAD_REACTORS
330
79E
102
}
330
79E
100
AcDbXrecord
280
     1
102
RTVSPropertyOp0
 70
     0
102
RTVSPropertyOp1
 70
     0
102
RTVSPropertyOp2
 70
     0
102
RTVSPropertyOp3
 70
     0
102
RTVSPropertyOp4
 70
     0
102
RTVSPropertyOp5
 70
     0
102
RTVSPropertyOp6
 70
     0
102
RTVSPropertyOp7
 70
     0
102
RTVSPropertyOp8
 70
     0
102
RTVSPropertyOp9
 70
     0
102
RTVSPropertyOp10
 70
     0
102
RTVSPropertyOp11
 70
     0
102
RTVSPropertyOp12
 70
     0
102
RTVSPropertyOp13
 70
     0
102
RTVSPropertyOp14
 70
     2
102
RTVSPropertyOp15
 70
     0
102
RTVSPropertyOp16
 70
     0
102
RTVSPropertyOp17
 70
     0
102
RTVSPropertyOp18
 70
     0
102
RTVSPropertyOp19
 70
     0
102
RTVSPropertyOp20
 70
     0
102
RTVSPropertyOp21
 70
     0
102
RTVSPropertyOp22
 70
     0
102
RTVSPropertyOp23
 70
     0
102
RTVSPropertyOp24
 70
     0
102
RTVSPropertyOp25
 70
     0
102
RTVSPropertyOp26
 70
     0
102
RTVSPropertyOp27
 70
     0
102
RTVSPropertyOp28
 70
     0
102
RTVSPropertyOp29
 70
     0
102
RTVSPropertyOp30
 70
     0
102
RTVSPropertyOp31
 70
     0
102
RTVSPropertyOp32
 70
     0
  0
XRECORD
  5
78D
102
{ACAD_REACTORS
330
78C
102
}
330
78C
100
AcDbXrecord
280
     1
102
RTVSPropertyOp0
 70
     1
102
RTVSPropertyOp1
 70
     1
102
RTVSPropertyOp2
 70
     1
102
RTVSPropertyOp3
 70
     1
102
RTVSPropertyOp4
 70
     1
102
RTVSPropertyOp5
 70
     1
102
RTVSPropertyOp6
 70
     1
102
RTVSPropertyOp7
 70
     1
102
RTVSPropertyOp8
 70
     1
102
RTVSPropertyOp9
 70
     1
102
RTVSPropertyOp10
 70
     1
102
RTVSPropertyOp11
 70
     1
102
RTVSPropertyOp12
 70
     1
102
RTVSPropertyOp13
 70
     1
102
RTVSPropertyOp14
 70
     1
102
RTVSPropertyOp15
 70
     1
102
RTVSPropertyOp16
 70
     1
102
RTVSPropertyOp17
 70
     1
102
RTVSPropertyOp18
 70
     1
102
RTVSPropertyOp19
 70
     1
102
RTVSPropertyOp20
 70
     1
102
RTVSPropertyOp21
 70
     1
102
RTVSPropertyOp22
 70
     1
102
RTVSPropertyOp23
 70
     1
102
RTVSPropertyOp24
 70
     1
102
RTVSPropertyOp25
 70
     1
102
RTVSPropertyOp26
 70
     1
102
RTVSPropertyOp27
 70
     1
102
RTVSPropertyOp28
 70
     1
102
RTVSPropertyOp29
 70
     1
102
RTVSPropertyOp30
 70
     1
102
RTVSPropertyOp31
 70
     1
102
RTVSPropertyOp32
 70
     1
  0
XRECORD
  5
771
102
{ACAD_REACTORS
330
770
102
}
330
770
100
AcDbXrecord
280
     1
102
RTVSPropertyOp0
 70
     1
102
RTVSPropertyOp1
 70
     1
102
RTVSPropertyOp2
 70
     1
102
RTVSPropertyOp3
 70
     1
102
RTVSPropertyOp4
 70
     1
102
RTVSPropertyOp5
 70
     1
102
RTVSPropertyOp6
 70
     1
102
RTVSPropertyOp7
 70
     1
102
RTVSPropertyOp8
 70
     1
102
RTVSPropertyOp9
 70
     1
102
RTVSPropertyOp10
 70
     1
102
RTVSPropertyOp11
 70
     1
102
RTVSPropertyOp12
 70
     1
102
RTVSPropertyOp13
 70
     1
102
RTVSPropertyOp14
 70
     1
102
RTVSPropertyOp15
 70
     1
102
RTVSPropertyOp16
 70
     1
102
RTVSPropertyOp17
 70
     1
102
RTVSPropertyOp18
 70
     1
102
RTVSPropertyOp19
 70
     1
102
RTVSPropertyOp20
 70
     1
102
RTVSPropertyOp21
 70
     1
102
RTVSPropertyOp22
 70
     1
102
RTVSPropertyOp23
 70
     1
102
RTVSPropertyOp24
 70
     1
102
RTVSPropertyOp25
 70
     1
102
RTVSPropertyOp26
 70
     1
102
RTVSPropertyOp27
 70
     1
102
RTVSPropertyOp28
 70
     1
102
RTVSPropertyOp29
 70
     1
102
RTVSPropertyOp30
 70
     1
102
RTVSPropertyOp31
 70
     1
102
RTVSPropertyOp32
 70
     1
  0
XRECORD
  5
773
102
{ACAD_REACTORS
330
772
102
}
330
772
100
AcDbXrecord
280
     1
102
RTVSPropertyOp0
 70
     1
102
RTVSPropertyOp1
 70
     1
102
RTVSPropertyOp2
 70
     1
102
RTVSPropertyOp3
 70
     1
102
RTVSPropertyOp4
 70
     1
102
RTVSPropertyOp5
 70
     1
102
RTVSPropertyOp6
 70
     1
102
RTVSPropertyOp7
 70
     1
102
RTVSPropertyOp8
 70
     1
102
RTVSPropertyOp9
 70
     1
102
RTVSPropertyOp10
 70
     1
102
RTVSPropertyOp11
 70
     1
102
RTVSPropertyOp12
 70
     1
102
RTVSPropertyOp13
 70
     1
102
RTVSPropertyOp14
 70
     1
102
RTVSPropertyOp15
 70
     1
102
RTVSPropertyOp16
 70
     1
102
RTVSPropertyOp17
 70
     1
102
RTVSPropertyOp18
 70
     1
102
RTVSPropertyOp19
 70
     1
102
RTVSPropertyOp20
 70
     1
102
RTVSPropertyOp21
 70
     1
102
RTVSPropertyOp22
 70
     1
102
RTVSPropertyOp23
 70
     1
102
RTVSPropertyOp24
 70
     1
102
RTVSPropertyOp25
 70
     1
102
RTVSPropertyOp26
 70
     1
102
RTVSPropertyOp27
 70
     1
102
RTVSPropertyOp28
 70
     1
102
RTVSPropertyOp29
 70
     1
102
RTVSPropertyOp30
 70
     1
102
RTVSPropertyOp31
 70
     1
102
RTVSPropertyOp32
 70
     1
  0
XRECORD
  5
775
102
{ACAD_REACTORS
330
774
102
}
330
774
100
AcDbXrecord
280
     1
102
RTVSPropertyOp0
 70
     1
102
RTVSPropertyOp1
 70
     1
102
RTVSPropertyOp2
 70
     1
102
RTVSPropertyOp3
 70
     1
102
RTVSPropertyOp4
 70
     1
102
RTVSPropertyOp5
 70
     1
102
RTVSPropertyOp6
 70
     1
102
RTVSPropertyOp7
 70
     1
102
RTVSPropertyOp8
 70
     1
102
RTVSPropertyOp9
 70
     1
102
RTVSPropertyOp10
 70
     1
102
RTVSPropertyOp11
 70
     1
102
RTVSPropertyOp12
 70
     1
102
RTVSPropertyOp13
 70
     1
102
RTVSPropertyOp14
 70
     1
102
RTVSPropertyOp15
 70
     1
102
RTVSPropertyOp16
 70
     1
102
RTVSPropertyOp17
 70
     1
102
RTVSPropertyOp18
 70
     1
102
RTVSPropertyOp19
 70
     1
102
RTVSPropertyOp20
 70
     1
102
RTVSPropertyOp21
 70
     1
102
RTVSPropertyOp22
 70
     1
102
RTVSPropertyOp23
 70
     1
102
RTVSPropertyOp24
 70
     1
102
RTVSPropertyOp25
 70
     1
102
RTVSPropertyOp26
 70
     1
102
RTVSPropertyOp27
 70
     1
102
RTVSPropertyOp28
 70
     1
102
RTVSPropertyOp29
 70
     1
102
RTVSPropertyOp30
 70
     1
102
RTVSPropertyOp31
 70
     1
102
RTVSPropertyOp32
 70
     1
  0
XRECORD
  5
777
102
{ACAD_REACTORS
330
776
102
}
330
776
100
AcDbXrecord
280
     1
102
RTVSPropertyOp0
 70
     1
102
RTVSPropertyOp1
 70
     1
102
RTVSPropertyOp2
 70
     1
102
RTVSPropertyOp3
 70
     1
102
RTVSPropertyOp4
 70
     1
102
RTVSPropertyOp5
 70
     1
102
RTVSPropertyOp6
 70
     1
102
RTVSPropertyOp7
 70
     1
102
RTVSPropertyOp8
 70
     1
102
RTVSPropertyOp9
 70
     1
102
RTVSPropertyOp10
 70
     1
102
RTVSPropertyOp11
 70
     1
102
RTVSPropertyOp12
 70
     1
102
RTVSPropertyOp13
 70
     1
102
RTVSPropertyOp14
 70
     1
102
RTVSPropertyOp15
 70
     1
102
RTVSPropertyOp16
 70
     1
102
RTVSPropertyOp17
 70
     1
102
RTVSPropertyOp18
 70
     1
102
RTVSPropertyOp19
 70
     1
102
RTVSPropertyOp20
 70
     1
102
RTVSPropertyOp21
 70
     1
102
RTVSPropertyOp22
 70
     1
102
RTVSPropertyOp23
 70
     1
102
RTVSPropertyOp24
 70
     1
102
RTVSPropertyOp25
 70
     1
102
RTVSPropertyOp26
 70
     1
102
RTVSPropertyOp27
 70
     1
102
RTVSPropertyOp28
 70
     1
102
RTVSPropertyOp29
 70
     1
102
RTVSPropertyOp30
 70
     1
102
RTVSPropertyOp31
 70
     1
102
RTVSPropertyOp32
 70
     1
  0
XRECORD
  5
77F
102
{ACAD_REACTORS
330
77E
102
}
330
77E
100
AcDbXrecord
280
     1
102
RTVSPropertyOp0
 70
     1
102
RTVSPropertyOp1
 70
     1
102
RTVSPropertyOp2
 70
     1
102
RTVSPropertyOp3
 70
     1
102
RTVSPropertyOp4
 70
     1
102
RTVSPropertyOp5
 70
     1
102
RTVSPropertyOp6
 70
     1
102
RTVSPropertyOp7
 70
     1
102
RTVSPropertyOp8
 70
     1
102
RTVSPropertyOp9
 70
     1
102
RTVSPropertyOp10
 70
     1
102
RTVSPropertyOp11
 70
     1
102
RTVSPropertyOp12
 70
     1
102
RTVSPropertyOp13
 70
     1
102
RTVSPropertyOp14
 70
     1
102
RTVSPropertyOp15
 70
     1
102
RTVSPropertyOp16
 70
     1
102
RTVSPropertyOp17
 70
     1
102
RTVSPropertyOp18
 70
     1
102
RTVSPropertyOp19
 70
     1
102
RTVSPropertyOp20
 70
     1
102
RTVSPropertyOp21
 70
     1
102
RTVSPropertyOp22
 70
     1
102
RTVSPropertyOp23
 70
     1
102
RTVSPropertyOp24
 70
     1
102
RTVSPropertyOp25
 70
     1
102
RTVSPropertyOp26
 70
     1
102
RTVSPropertyOp27
 70
     1
102
RTVSPropertyOp28
 70
     1
102
RTVSPropertyOp29
 70
     1
102
RTVSPropertyOp30
 70
     1
102
RTVSPropertyOp31
 70
     1
102
RTVSPropertyOp32
 70
     1
  0
XRECORD
  5
79B
102
{ACAD_REACTORS
330
79A
102
}
330
79A
100
AcDbXrecord
280
     1
102
RTVSPropertyOp0
 70
     0
102
RTVSPropertyOp1
 70
     0
102
RTVSPropertyOp2
 70
     0
102
RTVSPropertyOp3
 70
     0
102
RTVSPropertyOp4
 70
     0
102
RTVSPropertyOp5
 70
     0
102
RTVSPropertyOp6
 70
     0
102
RTVSPropertyOp7
 70
     0
102
RTVSPropertyOp8
 70
     0
102
RTVSPropertyOp9
 70
     0
102
RTVSPropertyOp10
 70
     0
102
RTVSPropertyOp11
 70
     0
102
RTVSPropertyOp12
 70
     0
102
RTVSPropertyOp13
 70
     0
102
RTVSPropertyOp14
 70
     2
102
RTVSPropertyOp15
 70
     0
102
RTVSPropertyOp16
 70
     0
102
RTVSPropertyOp17
 70
     0
102
RTVSPropertyOp18
 70
     0
102
RTVSPropertyOp19
 70
     0
102
RTVSPropertyOp20
 70
     0
102
RTVSPropertyOp21
 70
     0
102
RTVSPropertyOp22
 70
     0
102
RTVSPropertyOp23
 70
     0
102
RTVSPropertyOp24
 70
     0
102
RTVSPropertyOp25
 70
     0
102
RTVSPropertyOp26
 70
     0
102
RTVSPropertyOp27
 70
     0
102
RTVSPropertyOp28
 70
     0
102
RTVSPropertyOp29
 70
     0
102
RTVSPropertyOp30
 70
     0
102
RTVSPropertyOp31
 70
     0
102
RTVSPropertyOp32
 70
     0
  0
XRECORD
  5
78B
102
{ACAD_REACTORS
330
78A
102
}
330
78A
100
AcDbXrecord
280
     1
102
RTVSPropertyOp0
 70
     1
102
RTVSPropertyOp1
 70
     1
102
RTVSPropertyOp2
 70
     1
102
RTVSPropertyOp3
 70
     1
102
RTVSPropertyOp4
 70
     1
102
RTVSPropertyOp5
 70
     1
102
RTVSPropertyOp6
 70
     1
102
RTVSPropertyOp7
 70
     1
102
RTVSPropertyOp8
 70
     1
102
RTVSPropertyOp9
 70
     1
102
RTVSPropertyOp10
 70
     1
102
RTVSPropertyOp11
 70
     1
102
RTVSPropertyOp12
 70
     1
102
RTVSPropertyOp13
 70
     1
102
RTVSPropertyOp14
 70
     1
102
RTVSPropertyOp15
 70
     1
102
RTVSPropertyOp16
 70
     1
102
RTVSPropertyOp17
 70
     1
102
RTVSPropertyOp18
 70
     1
102
RTVSPropertyOp19
 70
     1
102
RTVSPropertyOp20
 70
     1
102
RTVSPropertyOp21
 70
     1
102
RTVSPropertyOp22
 70
     1
102
RTVSPropertyOp23
 70
     1
102
RTVSPropertyOp24
 70
     1
102
RTVSPropertyOp25
 70
     1
102
RTVSPropertyOp26
 70
     1
102
RTVSPropertyOp27
 70
     1
102
RTVSPropertyOp28
 70
     1
102
RTVSPropertyOp29
 70
     1
102
RTVSPropertyOp30
 70
     1
102
RTVSPropertyOp31
 70
     1
102
RTVSPropertyOp32
 70
     1
  0
XRECORD
  5
79D
102
{ACAD_REACTORS
330
79C
102
}
330
79C
100
AcDbXrecord
280
     1
102
RTVSPropertyOp0
 70
     0
102
RTVSPropertyOp1
 70
     0
102
RTVSPropertyOp2
 70
     0
102
RTVSPropertyOp3
 70
     0
102
RTVSPropertyOp4
 70
     0
102
RTVSPropertyOp5
 70
     0
102
RTVSPropertyOp6
 70
     0
102
RTVSPropertyOp7
 70
     0
102
RTVSPropertyOp8
 70
     0
102
RTVSPropertyOp9
 70
     0
102
RTVSPropertyOp10
 70
     0
102
RTVSPropertyOp11
 70
     0
102
RTVSPropertyOp12
 70
     0
102
RTVSPropertyOp13
 70
     0
102
RTVSPropertyOp14
 70
     2
102
RTVSPropertyOp15
 70
     0
102
RTVSPropertyOp16
 70
     0
102
RTVSPropertyOp17
 70
     0
102
RTVSPropertyOp18
 70
     0
102
RTVSPropertyOp19
 70
     0
102
RTVSPropertyOp20
 70
     0
102
RTVSPropertyOp21
 70
     0
102
RTVSPropertyOp22
 70
     0
102
RTVSPropertyOp23
 70
     0
102
RTVSPropertyOp24
 70
     0
102
RTVSPropertyOp25
 70
     0
102
RTVSPropertyOp26
 70
     0
102
RTVSPropertyOp27
 70
     0
102
RTVSPropertyOp28
 70
     0
102
RTVSPropertyOp29
 70
     0
102
RTVSPropertyOp30
 70
     0
102
RTVSPropertyOp31
 70
     0
102
RTVSPropertyOp32
 70
     0
  0
XRECORD
  5
783
102
{ACAD_REACTORS
330
782
102
}
330
782
100
AcDbXrecord
280
     1
102
RTVSPropertyOp0
 70
     1
102
RTVSPropertyOp1
 70
     1
102
RTVSPropertyOp2
 70
     1
102
RTVSPropertyOp3
 70
     1
102
RTVSPropertyOp4
 70
     1
102
RTVSPropertyOp5
 70
     1
102
RTVSPropertyOp6
 70
     1
102
RTVSPropertyOp7
 70
     1
102
RTVSPropertyOp8
 70
     1
102
RTVSPropertyOp9
 70
     1
102
RTVSPropertyOp10
 70
     1
102
RTVSPropertyOp11
 70
     1
102
RTVSPropertyOp12
 70
     1
102
RTVSPropertyOp13
 70
     1
102
RTVSPropertyOp14
 70
     1
102
RTVSPropertyOp15
 70
     1
102
RTVSPropertyOp16
 70
     1
102
RTVSPropertyOp17
 70
     1
102
RTVSPropertyOp18
 70
     1
102
RTVSPropertyOp19
 70
     1
102
RTVSPropertyOp20
 70
     1
102
RTVSPropertyOp21
 70
     1
102
RTVSPropertyOp22
 70
     1
102
RTVSPropertyOp23
 70
     1
102
RTVSPropertyOp24
 70
     1
102
RTVSPropertyOp25
 70
     1
102
RTVSPropertyOp26
 70
     1
102
RTVSPropertyOp27
 70
     1
102
RTVSPropertyOp28
 70
     1
102
RTVSPropertyOp29
 70
     1
102
RTVSPropertyOp30
 70
     1
102
RTVSPropertyOp31
 70
     1
102
RTVSPropertyOp32
 70
     1
  0
XRECORD
  5
799
102
{ACAD_REACTORS
330
798
102
}
330
798
100
AcDbXrecord
280
     1
102
RTVSPropertyOp0
 70
     1
102
RTVSPropertyOp1
 70
     1
102
RTVSPropertyOp2
 70
     1
102
RTVSPropertyOp3
 70
     1
102
RTVSPropertyOp4
 70
     1
102
RTVSPropertyOp5
 70
     1
102
RTVSPropertyOp6
 70
     1
102
RTVSPropertyOp7
 70
     1
102
RTVSPropertyOp8
 70
     1
102
RTVSPropertyOp9
 70
     1
102
RTVSPropertyOp10
 70
     1
102
RTVSPropertyOp11
 70
     1
102
RTVSPropertyOp12
 70
     1
102
RTVSPropertyOp13
 70
     1
102
RTVSPropertyOp14
 70
     1
102
RTVSPropertyOp15
 70
     1
102
RTVSPropertyOp16
 70
     1
102
RTVSPropertyOp17
 70
     1
102
RTVSPropertyOp18
 70
     1
102
RTVSPropertyOp19
 70
     1
102
RTVSPropertyOp20
 70
     1
102
RTVSPropertyOp21
 70
     1
102
RTVSPropertyOp22
 70
     1
102
RTVSPropertyOp23
 70
     1
102
RTVSPropertyOp24
 70
     1
102
RTVSPropertyOp25
 70
     1
102
RTVSPropertyOp26
 70
     1
102
RTVSPropertyOp27
 70
     1
102
RTVSPropertyOp28
 70
     1
102
RTVSPropertyOp29
 70
     1
102
RTVSPropertyOp30
 70
     1
102
RTVSPropertyOp31
 70
     1
102
RTVSPropertyOp32
 70
     1
  0
XRECORD
  5
797
102
{ACAD_REACTORS
330
796
102
}
330
796
100
AcDbXrecord
280
     1
102
RTVSPropertyOp0
 70
     1
102
RTVSPropertyOp1
 70
     1
102
RTVSPropertyOp2
 70
     1
102
RTVSPropertyOp3
 70
     1
102
RTVSPropertyOp4
 70
     1
102
RTVSPropertyOp5
 70
     1
102
RTVSPropertyOp6
 70
     1
102
RTVSPropertyOp7
 70
     1
102
RTVSPropertyOp8
 70
     1
102
RTVSPropertyOp9
 70
     1
102
RTVSPropertyOp10
 70
     1
102
RTVSPropertyOp11
 70
     1
102
RTVSPropertyOp12
 70
     1
102
RTVSPropertyOp13
 70
     1
102
RTVSPropertyOp14
 70
     1
102
RTVSPropertyOp15
 70
     1
102
RTVSPropertyOp16
 70
     1
102
RTVSPropertyOp17
 70
     1
102
RTVSPropertyOp18
 70
     1
102
RTVSPropertyOp19
 70
     1
102
RTVSPropertyOp20
 70
     1
102
RTVSPropertyOp21
 70
     1
102
RTVSPropertyOp22
 70
     1
102
RTVSPropertyOp23
 70
     1
102
RTVSPropertyOp24
 70
     1
102
RTVSPropertyOp25
 70
     1
102
RTVSPropertyOp26
 70
     1
102
RTVSPropertyOp27
 70
     1
102
RTVSPropertyOp28
 70
     1
102
RTVSPropertyOp29
 70
     1
102
RTVSPropertyOp30
 70
     1
102
RTVSPropertyOp31
 70
     1
102
RTVSPropertyOp32
 70
     1
  0
XRECORD
  5
791
102
{ACAD_REACTORS
330
790
102
}
330
790
100
AcDbXrecord
280
     1
102
RTVSPropertyOp0
 70
     1
102
RTVSPropertyOp1
 70
     1
102
RTVSPropertyOp2
 70
     1
102
RTVSPropertyOp3
 70
     1
102
RTVSPropertyOp4
 70
     1
102
RTVSPropertyOp5
 70
     1
102
RTVSPropertyOp6
 70
     1
102
RTVSPropertyOp7
 70
     1
102
RTVSPropertyOp8
 70
     1
102
RTVSPropertyOp9
 70
     1
102
RTVSPropertyOp10
 70
     1
102
RTVSPropertyOp11
 70
     1
102
RTVSPropertyOp12
 70
     1
102
RTVSPropertyOp13
 70
     1
102
RTVSPropertyOp14
 70
     1
102
RTVSPropertyOp15
 70
     1
102
RTVSPropertyOp16
 70
     1
102
RTVSPropertyOp17
 70
     1
102
RTVSPropertyOp18
 70
     1
102
RTVSPropertyOp19
 70
     1
102
RTVSPropertyOp20
 70
     1
102
RTVSPropertyOp21
 70
     1
102
RTVSPropertyOp22
 70
     1
102
RTVSPropertyOp23
 70
     1
102
RTVSPropertyOp24
 70
     1
102
RTVSPropertyOp25
 70
     1
102
RTVSPropertyOp26
 70
     1
102
RTVSPropertyOp27
 70
     1
102
RTVSPropertyOp28
 70
     1
102
RTVSPropertyOp29
 70
     1
102
RTVSPropertyOp30
 70
     1
102
RTVSPropertyOp31
 70
     1
102
RTVSPropertyOp32
 70
     1
  0
XRECORD
  5
793
102
{ACAD_REACTORS
330
792
102
}
330
792
100
AcDbXrecord
280
     1
102
RTVSPropertyOp0
 70
     1
102
RTVSPropertyOp1
 70
     1
102
RTVSPropertyOp2
 70
     1
102
RTVSPropertyOp3
 70
     1
102
RTVSPropertyOp4
 70
     1
102
RTVSPropertyOp5
 70
     1
102
RTVSPropertyOp6
 70
     1
102
RTVSPropertyOp7
 70
     1
102
RTVSPropertyOp8
 70
     1
102
RTVSPropertyOp9
 70
     1
102
RTVSPropertyOp10
 70
     1
102
RTVSPropertyOp11
 70
     1
102
RTVSPropertyOp12
 70
     1
102
RTVSPropertyOp13
 70
     1
102
RTVSPropertyOp14
 70
     1
102
RTVSPropertyOp15
 70
     1
102
RTVSPropertyOp16
 70
     1
102
RTVSPropertyOp17
 70
     1
102
RTVSPropertyOp18
 70
     1
102
RTVSPropertyOp19
 70
     1
102
RTVSPropertyOp20
 70
     1
102
RTVSPropertyOp21
 70
     1
102
RTVSPropertyOp22
 70
     1
102
RTVSPropertyOp23
 70
     1
102
RTVSPropertyOp24
 70
     1
102
RTVSPropertyOp25
 70
     1
102
RTVSPropertyOp26
 70
     1
102
RTVSPropertyOp27
 70
     1
102
RTVSPropertyOp28
 70
     1
102
RTVSPropertyOp29
 70
     1
102
RTVSPropertyOp30
 70
     1
102
RTVSPropertyOp31
 70
     1
102
RTVSPropertyOp32
 70
     1
  0
XRECORD
  5
789
102
{ACAD_REACTORS
330
788
102
}
330
788
100
AcDbXrecord
280
     1
102
RTVSPropertyOp0
 70
     1
102
RTVSPropertyOp1
 70
     1
102
RTVSPropertyOp2
 70
     1
102
RTVSPropertyOp3
 70
     1
102
RTVSPropertyOp4
 70
     1
102
RTVSPropertyOp5
 70
     1
102
RTVSPropertyOp6
 70
     1
102
RTVSPropertyOp7
 70
     1
102
RTVSPropertyOp8
 70
     1
102
RTVSPropertyOp9
 70
     1
102
RTVSPropertyOp10
 70
     1
102
RTVSPropertyOp11
 70
     1
102
RTVSPropertyOp12
 70
     1
102
RTVSPropertyOp13
 70
     1
102
RTVSPropertyOp14
 70
     1
102
RTVSPropertyOp15
 70
     1
102
RTVSPropertyOp16
 70
     1
102
RTVSPropertyOp17
 70
     1
102
RTVSPropertyOp18
 70
     1
102
RTVSPropertyOp19
 70
     1
102
RTVSPropertyOp20
 70
     1
102
RTVSPropertyOp21
 70
     1
102
RTVSPropertyOp22
 70
     1
102
RTVSPropertyOp23
 70
     1
102
RTVSPropertyOp24
 70
     1
102
RTVSPropertyOp25
 70
     1
102
RTVSPropertyOp26
 70
     1
102
RTVSPropertyOp27
 70
     1
102
RTVSPropertyOp28
 70
     1
102
RTVSPropertyOp29
 70
     1
102
RTVSPropertyOp30
 70
     1
102
RTVSPropertyOp31
 70
     1
102
RTVSPropertyOp32
 70
     1
  0
XRECORD
  5
77D
102
{ACAD_REACTORS
330
77C
102
}
330
77C
100
AcDbXrecord
280
     1
102
RTVSPropertyOp0
 70
     1
102
RTVSPropertyOp1
 70
     1
102
RTVSPropertyOp2
 70
     1
102
RTVSPropertyOp3
 70
     1
102
RTVSPropertyOp4
 70
     1
102
RTVSPropertyOp5
 70
     1
102
RTVSPropertyOp6
 70
     1
102
RTVSPropertyOp7
 70
     1
102
RTVSPropertyOp8
 70
     1
102
RTVSPropertyOp9
 70
     1
102
RTVSPropertyOp10
 70
     1
102
RTVSPropertyOp11
 70
     1
102
RTVSPropertyOp12
 70
     1
102
RTVSPropertyOp13
 70
     1
102
RTVSPropertyOp14
 70
     1
102
RTVSPropertyOp15
 70
     1
102
RTVSPropertyOp16
 70
     1
102
RTVSPropertyOp17
 70
     1
102
RTVSPropertyOp18
 70
     1
102
RTVSPropertyOp19
 70
     1
102
RTVSPropertyOp20
 70
     1
102
RTVSPropertyOp21
 70
     1
102
RTVSPropertyOp22
 70
     1
102
RTVSPropertyOp23
 70
     1
102
RTVSPropertyOp24
 70
     1
102
RTVSPropertyOp25
 70
     1
102
RTVSPropertyOp26
 70
     1
102
RTVSPropertyOp27
 70
     1
102
RTVSPropertyOp28
 70
     1
102
RTVSPropertyOp29
 70
     1
102
RTVSPropertyOp30
 70
     1
102
RTVSPropertyOp31
 70
     1
102
RTVSPropertyOp32
 70
     1
  0
XRECORD
  5
795
102
{ACAD_REACTORS
330
794
102
}
330
794
100
AcDbXrecord
280
     1
102
RTVSPropertyOp0
 70
     1
102
RTVSPropertyOp1
 70
     1
102
RTVSPropertyOp2
 70
     1
102
RTVSPropertyOp3
 70
     1
102
RTVSPropertyOp4
 70
     1
102
RTVSPropertyOp5
 70
     1
102
RTVSPropertyOp6
 70
     1
102
RTVSPropertyOp7
 70
     1
102
RTVSPropertyOp8
 70
     1
102
RTVSPropertyOp9
 70
     1
102
RTVSPropertyOp10
 70
     1
102
RTVSPropertyOp11
 70
     1
102
RTVSPropertyOp12
 70
     1
102
RTVSPropertyOp13
 70
     1
102
RTVSPropertyOp14
 70
     1
102
RTVSPropertyOp15
 70
     1
102
RTVSPropertyOp16
 70
     1
102
RTVSPropertyOp17
 70
     1
102
RTVSPropertyOp18
 70
     1
102
RTVSPropertyOp19
 70
     1
102
RTVSPropertyOp20
 70
     1
102
RTVSPropertyOp21
 70
     1
102
RTVSPropertyOp22
 70
     1
102
RTVSPropertyOp23
 70
     1
102
RTVSPropertyOp24
 70
     1
102
RTVSPropertyOp25
 70
     1
102
RTVSPropertyOp26
 70
     1
102
RTVSPropertyOp27
 70
     1
102
RTVSPropertyOp28
 70
     1
102
RTVSPropertyOp29
 70
     1
102
RTVSPropertyOp30
 70
     1
102
RTVSPropertyOp31
 70
     1
102
RTVSPropertyOp32
 70
     1
  0
ENDSEC
  0
EOF
