  0
SECTION
  2
HEADER
  9
$ACADVER
  1
AC1015
  9
$ACADMAINTVER
 70
    20
  9
$DWGCODEPAGE
  3
ANSI_932
  9
$INSBASE
 10
0.0
 20
0.0
 30
0.0
  9
$EXTMIN
 10
3.273132178690959
 20
-763.5039456429212
 30
0.0
  9
$EXTMAX
 10
187.2731321786921
 20
-486.50394564292
 30
0.0
  9
$LIMMIN
 10
0.0
 20
0.0
  9
$LIMMAX
 10
12.0
 20
9.0
  9
$ORTHOMODE
 70
     0
  9
$REGENMODE
 70
     1
  9
$FILLMODE
 70
     1
  9
$QTEXTMODE
 70
     0
  9
$MIRRTEXT
 70
     1
  9
$LTSCALE
 40
1.0
  9
$ATTMODE
 70
     1
  9
$TEXTSIZE
 40
0.2
  9
$TRACEWID
 40
0.05
  9
$TEXTSTYLE
  7
Standard
  9
$CLAYER
  8
0
  9
$CELTYPE
  6
ByLayer
  9
$CECOLOR
 62
   256
  9
$CELTSCALE
 40
1.0
  9
$DISPSILH
 70
     0
  9
$DIMSCALE
 40
1.0
  9
$DIMASZ
 40
0.18
  9
$DIMEXO
 40
0.0625
  9
$DIMDLI
 40
0.38
  9
$DIMRND
 40
0.0
  9
$DIMDLE
 40
0.0
  9
$DIMEXE
 40
0.18
  9
$DIMTP
 40
0.0
  9
$DIMTM
 40
0.0
  9
$DIMTXT
 40
0.18
  9
$DIMCEN
 40
0.09
  9
$DIMTSZ
 40
0.0
  9
$DIMTOL
 70
     0
  9
$DIMLIM
 70
     0
  9
$DIMTIH
 70
     1
  9
$DIMTOH
 70
     1
  9
$DIMSE1
 70
     0
  9
$DIMSE2
 70
     0
  9
$DIMTAD
 70
     0
  9
$DIMZIN
 70
     0
  9
$DIMBLK
  1

  9
$DIMASO
 70
     1
  9
$DIMSHO
 70
     1
  9
$DIMPOST
  1

  9
$DIMAPOST
  1

  9
$DIMALT
 70
     0
  9
$DIMALTD
 70
     2
  9
$DIMALTF
 40
25.4
  9
$DIMLFAC
 40
1.0
  9
$DIMTOFL
 70
     0
  9
$DIMTVP
 40
0.0
  9
$DIMTIX
 70
     0
  9
$DIMSOXD
 70
     0
  9
$DIMSAH
 70
     0
  9
$DIMBLK1
  1

  9
$DIMBLK2
  1

  9
$DIMSTYLE
  2
Standard
  9
$DIMCLRD
 70
     0
  9
$DIMCLRE
 70
     0
  9
$DIMCLRT
 70
     0
  9
$DIMTFAC
 40
1.0
  9
$DIMGAP
 40
0.09
  9
$DIMJUST
 70
     0
  9
$DIMSD1
 70
     0
  9
$DIMSD2
 70
     0
  9
$DIMTOLJ
 70
     1
  9
$DIMTZIN
 70
     0
  9
$DIMALTZ
 70
     0
  9
$DIMALTTZ
 70
     0
  9
$DIMUPT
 70
     0
  9
$DIMDEC
 70
     4
  9
$DIMTDEC
 70
     4
  9
$DIMALTU
 70
     2
  9
$DIMALTTD
 70
     2
  9
$DIMTXSTY
  7
Standard
  9
$DIMAUNIT
 70
     0
  9
$DIMADEC
 70
     0
  9
$DIMALTRND
 40
0.0
  9
$DIMAZIN
 70
     0
  9
$DIMDSEP
 70
    46
  9
$DIMATFIT
 70
     3
  9
$DIMFRAC
 70
     0
  9
$DIMLDRBLK
  1

  9
$DIMLUNIT
 70
     2
  9
$DIMLWD
 70
    -2
  9
$DIMLWE
 70
    -2
  9
$DIMTMOVE
 70
     0
  9
$LUNITS
 70
     2
  9
$LUPREC
 70
     4
  9
$SKETCHINC
 40
0.1
  9
$FILLETRAD
 40
0.5
  9
$AUNITS
 70
     0
  9
$AUPREC
 70
     0
  9
$MENU
  1
.
  9
$ELEVATION
 40
0.0
  9
$PELEVATION
 40
0.0
  9
$THICKNESS
 40
0.0
  9
$LIMCHECK
 70
     0
  9
$CHAMFERA
 40
0.5
  9
$CHAMFERB
 40
0.5
  9
$CHAMFERC
 40
1.0
  9
$CHAMFERD
 40
0.0
  9
$SKPOLY
 70
     0
  9
$TDCREATE
 40
2454445.809723842
  9
$TDUCREATE
 40
2454445.434723842
  9
$TDUPDATE
 40
2457585.391187663
  9
$TDUUPDATE
 40
2457585.016187663
  9
$TDINDWG
 40
0.0012930903
  9
$TDUSRTIMER
 40
0.0012930903
  9
$USRTIMER
 70
     1
  9
$ANGBASE
 50
0.0
  9
$ANGDIR
 70
     0
  9
$PDMODE
 70
     0
  9
$PDSIZE
 40
0.0
  9
$PLINEWID
 40
0.0
  9
$SPLFRAME
 70
     0
  9
$SPLINETYPE
 70
     6
  9
$SPLINESEGS
 70
     8
  9
$HANDSEED
  5
398
  9
$SURFTAB1
 70
     6
  9
$SURFTAB2
 70
     6
  9
$SURFTYPE
 70
     6
  9
$SURFU
 70
     6
  9
$SURFV
 70
     6
  9
$UCSBASE
  2

  9
$UCSNAME
  2

  9
$UCSORG
 10
0.0
 20
0.0
 30
0.0
  9
$UCSXDIR
 10
1.0
 20
0.0
 30
0.0
  9
$UCSYDIR
 10
0.0
 20
1.0
 30
0.0
  9
$UCSORTHOREF
  2

  9
$UCSORTHOVIEW
 70
     0
  9
$UCSORGTOP
 10
0.0
 20
0.0
 30
0.0
  9
$UCSORGBOTTOM
 10
0.0
 20
0.0
 30
0.0
  9
$UCSORGLEFT
 10
0.0
 20
0.0
 30
0.0
  9
$UCSORGRIGHT
 10
0.0
 20
0.0
 30
0.0
  9
$UCSORGFRONT
 10
0.0
 20
0.0
 30
0.0
  9
$UCSORGBACK
 10
0.0
 20
0.0
 30
0.0
  9
$PUCSBASE
  2

  9
$PUCSNAME
  2

  9
$PUCSORG
 10
0.0
 20
0.0
 30
0.0
  9
$PUCSXDIR
 10
1.0
 20
0.0
 30
0.0
  9
$PUCSYDIR
 10
0.0
 20
1.0
 30
0.0
  9
$PUCSORTHOREF
  2

  9
$PUCSORTHOVIEW
 70
     0
  9
$PUCSORGTOP
 10
0.0
 20
0.0
 30
0.0
  9
$PUCSORGBOTTOM
 10
0.0
 20
0.0
 30
0.0
  9
$PUCSORGLEFT
 10
0.0
 20
0.0
 30
0.0
  9
$PUCSORGRIGHT
 10
0.0
 20
0.0
 30
0.0
  9
$PUCSORGFRONT
 10
0.0
 20
0.0
 30
0.0
  9
$PUCSORGBACK
 10
0.0
 20
0.0
 30
0.0
  9
$USERI1
 70
     0
  9
$USERI2
 70
     0
  9
$USERI3
 70
     0
  9
$USERI4
 70
     0
  9
$USERI5
 70
     0
  9
$USERR1
 40
14.5
  9
$USERR2
 40
0.0
  9
$USERR3
 40
0.0
  9
$USERR4
 40
0.0
  9
$USERR5
 40
0.0
  9
$WORLDVIEW
 70
     1
  9
$SHADEDGE
 70
     3
  9
$SHADEDIF
 70
    70
  9
$TILEMODE
 70
     1
  9
$MAXACTVP
 70
    64
  9
$PINSBASE
 10
0.0
 20
0.0
 30
0.0
  9
$PLIMCHECK
 70
     0
  9
$PEXTMIN
 10
1.000000000000000E+20
 20
1.000000000000000E+20
 30
1.000000000000000E+20
  9
$PEXTMAX
 10
-1.000000000000000E+20
 20
-1.000000000000000E+20
 30
-1.000000000000000E+20
  9
$PLIMMIN
 10
0.0
 20
0.0
  9
$PLIMMAX
 10
12.0
 20
9.0
  9
$UNITMODE
 70
     0
  9
$VISRETAIN
 70
     1
  9
$PLINEGEN
 70
     0
  9
$PSLTSCALE
 70
     1
  9
$TREEDEPTH
 70
  3020
  9
$CMLSTYLE
  2
Standard
  9
$CMLJUST
 70
     0
  9
$CMLSCALE
 40
1.0
  9
$PROXYGRAPHICS
 70
     1
  9
$MEASUREMENT
 70
     0
  9
$CELWEIGHT
370
    -1
  9
$ENDCAPS
280
     0
  9
$JOINSTYLE
280
     0
  9
$LWDISPLAY
290
     0
  9
$INSUNITS
 70
     1
  9
$HYPERLINKBASE
  1

  9
$STYLESHEET
  1

  9
$XEDIT
290
     1
  9
$CEPSNTYPE
380
     0
  9
$PSTYLEMODE
290
     1
  9
$FINGERPRINTGUID
  2
{2096F430-9E52-48A1-89B7-C1D75B432BFA}
  9
$VERSIONGUID
  2
{4A2130CE-5DC2-454C-AF07-7379B6AD9AE0}
  9
$EXTNAMES
290
     1
  9
$PSVPSCALE
 40
0.0
  9
$OLESTARTUP
290
     0
  0
ENDSEC
  0
SECTION
  2
CLASSES
  0
CLASS
  1
ACDBDICTIONARYWDFLT
  2
AcDbDictionaryWithDefault
  3
ObjectDBX Classes
 90
        0
280
     0
281
     0
  0
CLASS
  1

  2
exOdDbCircle
  3

 90
    32768
280
     1
281
     1
  0
CLASS
  1

  2
exOdDbPolyline
  3

 90
    32768
280
     1
281
     1
  0
CLASS
  1
MATERIAL
  2
AcDbMaterial
  3
ObjectDBX Classes
 90
     1153
280
     0
281
     0
  0
CLASS
  1
VISUALSTYLE
  2
AcDbVisualStyle
  3
ObjectDBX Classes
 90
     4095
280
     0
281
     0
  0
CLASS
  1
TABLESTYLE
  2
AcDbTableStyle
  3
ObjectDBX Classes
 90
     4095
280
     0
281
     0
  0
CLASS
  1
SCALE
  2
AcDbScale
  3
ObjectDBX Classes
 90
     1153
280
     0
281
     0
  0
CLASS
  1
MLEADERSTYLE
  2
AcDbMLeaderStyle
  3
ACDB_MLEADERSTYLE_CLASS
 90
     4095
280
     0
281
     0
  0
CLASS
  1
DICTIONARYVAR
  2
AcDbDictionaryVar
  3
ObjectDBX Classes
 90
        0
280
     0
281
     0
  0
CLASS
  1
CELLSTYLEMAP
  2
AcDbCellStyleMap
  3
ObjectDBX Classes
 90
     1152
280
     0
281
     0
  0
CLASS
  1
SORTENTSTABLE
  2
AcDbSortentsTable
  3
ObjectDBX Classes
 90
        0
280
     0
281
     0
  0
CLASS
  1
ACDBPLACEHOLDER
  2
AcDbPlaceHolder
  3
ObjectDBX Classes
 90
        0
280
     0
281
     0
  0
CLASS
  1
LAYOUT
  2
AcDbLayout
  3
ObjectDBX Classes
 90
        0
280
     0
281
     0
  0
ENDSEC
  0
SECTION
  2
TABLES
  0
TABLE
  2
VPORT
  5
8
330
0
100
AcDbSymbolTable
 70
     1
  0
VPORT
  5
29
330
8
100
AcDbSymbolTableRecord
100
AcDbViewportTableRecord
  2
*Active
 70
     0
 10
0.0
 20
0.0
 11
1.0
 21
1.0
 12
94.28607069929194
 22
-622.3845358736808
 13
0.0
 23
0.0
 14
0.5
 24
0.5
 15
0.5
 25
0.5
 16
0.0
 26
0.0
 36
1.0
 17
0.0
 27
0.0
 37
0.0
 40
159.6213198015347
 41
2.023923444976076
 42
50.0
 43
0.0
 44
0.0
 50
0.0
 51
0.0
 71
     8
 72
   100
 73
     1
 74
     3
 75
     0
 76
     0
 77
     0
 78
     0
281
     0
 65
     1
110
0.0
120
0.0
130
0.0
111
1.0
121
0.0
131
0.0
112
0.0
122
1.0
132
0.0
 79
     0
146
0.0
1001
ACAD_NAV_VCDISPLAY
1070
     3
  0
ENDTAB
  0
TABLE
  2
LTYPE
  5
5
330
0
100
AcDbSymbolTable
 70
     8
  0
LTYPE
  5
14
330
5
100
AcDbSymbolTableRecord
100
AcDbLinetypeTableRecord
  2
ByBlock
 70
     0
  3

 72
    65
 73
     0
 40
0.0
  0
LTYPE
  5
15
330
5
100
AcDbSymbolTableRecord
100
AcDbLinetypeTableRecord
  2
ByLayer
 70
     0
  3

 72
    65
 73
     0
 40
0.0
  0
LTYPE
  5
16
330
5
100
AcDbSymbolTableRecord
100
AcDbLinetypeTableRecord
  2
Continuous
 70
     0
  3
Solid line
 72
    65
 73
     0
 40
0.0
  0
LTYPE
  5
2A
330
5
100
AcDbSymbolTableRecord
100
AcDbLinetypeTableRecord
  2
DASHED
 70
     0
  3
Dashed
 72
    65
 73
     2
 40
15.0
 49
7.0
 74
     0
 49
-8.0
 74
     0
  0
LTYPE
  5
2B
330
5
100
AcDbSymbolTableRecord
100
AcDbLinetypeTableRecord
  2
DASHED_NEW
 70
     0
  3
 _ _ _ _ _ _ _ _
 72
    65
 73
     2
 40
1.6
 49
0.8
 74
     0
 49
-0.8
 74
     0
  0
LTYPE
  5
2C
330
5
100
AcDbSymbolTableRecord
100
AcDbLinetypeTableRecord
  2
CENTER_NEW
 70
     0
  3
－ － － － － －
 72
    65
 73
     4
 40
7.5
 49
6.0
 74
     0
 49
-0.5
 74
     0
 49
0.5
 74
     0
 49
-0.5
 74
     0
  0
LTYPE
  5
2D
330
5
100
AcDbSymbolTableRecord
100
AcDbLinetypeTableRecord
  2
LONG_DASHED
 70
     0
  3
Long_Dashed
 72
    65
 73
     2
 40
15.0
 49
10.0
 74
     0
 49
-5.0
 74
     0
  0
LTYPE
  5
2E
330
5
100
AcDbSymbolTableRecord
100
AcDbLinetypeTableRecord
  2
DASH_CENTER
 70
     0
  3
Dash_Center
 72
    65
 73
     4
 40
14.0
 49
11.0
 74
     0
 49
-1.0
 74
     0
 49
1.0
 74
     0
 49
-1.0
 74
     0
  0
LTYPE
  5
2F
330
5
100
AcDbSymbolTableRecord
100
AcDbLinetypeTableRecord
  2
PHANTOM_NEW
 70
     0
  3
－ － － － － －
 72
    65
 73
     6
 40
7.5
 49
5.0
 74
     0
 49
-0.5
 74
     0
 49
0.5
 74
     0
 49
-0.5
 74
     0
 49
0.5
 74
     0
 49
-0.5
 74
     0
  0
LTYPE
  5
30
330
5
100
AcDbSymbolTableRecord
100
AcDbLinetypeTableRecord
  2
CENTER_DASH_DASH_NEW
 70
     0
  3
－ － － － － －
 72
    65
 73
     6
 40
7.5
 49
4.0
 74
     0
 49
-0.5
 74
     0
 49
1.0
 74
     0
 49
-0.5
 74
     0
 49
1.0
 74
     0
 49
-0.5
 74
     0
  0
ENDTAB
  0
TABLE
  2
LAYER
  5
2
330
0
100
AcDbSymbolTable
 70
     2
  0
LAYER
  5
10
102
{ACAD_XDICTIONARY
360
2ED
102
}
330
2
100
AcDbSymbolTableRecord
100
AcDbLayerTableRecord
  2
0
 70
     0
 62
     7
  6
Continuous
370
    -3
390
F
  0
LAYER
  5
31
102
{ACAD_XDICTIONARY
360
2EF
102
}
330
2
100
AcDbSymbolTableRecord
100
AcDbLayerTableRecord
  2
1
 70
     0
 62
     7
  6
Continuous
370
    -3
390
F
  0
ENDTAB
  0
TABLE
  2
STYLE
  5
3
330
0
100
AcDbSymbolTable
 70
     6
  0
STYLE
  5
11
330
3
100
AcDbSymbolTableRecord
100
AcDbTextStyleTableRecord
  2
Standard
 70
     0
 40
0.0
 41
0.9
 50
0.0
 71
     0
 42
0.2
  3
txt
  4

  0
STYLE
  5
13A
330
3
100
AcDbSymbolTableRecord
100
AcDbTextStyleTableRecord
  2
CONVERTER_11
 70
     0
 40
0.0
 41
0.5670000000000001
 50
0.0
 71
     0
 42
0.2
  3
simplex.shx
  4

  0
STYLE
  5
13D
330
3
100
AcDbSymbolTableRecord
100
AcDbTextStyleTableRecord
  2
CONVERTER_12
 70
     0
 40
0.0
 41
0.5607
 50
0.0
 71
     0
 42
0.2
  3
simplex.shx
  4
extfont2.shx
  0
STYLE
  5
142
330
3
100
AcDbSymbolTableRecord
100
AcDbTextStyleTableRecord
  2
CONVERTER_13
 70
     0
 40
0.0
 41
0.8009999999999999
 50
0.0
 71
     0
 42
0.2
  3
simplex.shx
  4
extfont2.shx
  0
STYLE
  5
172
330
3
100
AcDbSymbolTableRecord
100
AcDbTextStyleTableRecord
  2
CONVERTER_14
 70
     0
 40
0.0
 41
0.4806
 50
0.0
 71
     0
 42
0.2
  3
simplex.shx
  4
extfont2.shx
  0
STYLE
  5
17D
330
3
100
AcDbSymbolTableRecord
100
AcDbTextStyleTableRecord
  2
CONVERTER_15
 70
     0
 40
0.0
 41
0.8100000000000001
 50
0.0
 71
     0
 42
0.2
  3
simplex.shx
  4

  0
ENDTAB
  0
TABLE
  2
VIEW
  5
6
330
0
100
AcDbSymbolTable
 70
     0
  0
ENDTAB
  0
TABLE
  2
UCS
  5
7
330
0
100
AcDbSymbolTable
 70
     0
  0
ENDTAB
  0
TABLE
  2
APPID
  5
9
330
0
100
AcDbSymbolTable
 70
     4
  0
APPID
  5
12
330
9
100
AcDbSymbolTableRecord
100
AcDbRegAppTableRecord
  2
ACAD
 70
     0
  0
APPID
  5
2F5
330
9
100
AcDbSymbolTableRecord
100
AcDbRegAppTableRecord
  2
ACAD_NAV_VCDISPLAY
 70
     0
  0
APPID
  5
32F
330
9
100
AcDbSymbolTableRecord
100
AcDbRegAppTableRecord
  2
ACAD_MLEADERVER
 70
     0
  0
APPID
  5
355
330
9
100
AcDbSymbolTableRecord
100
AcDbRegAppTableRecord
  2
DCO15
 70
     0
  0
ENDTAB
  0
TABLE
  2
DIMSTYLE
  5
A
330
0
100
AcDbSymbolTable
 70
     8
100
AcDbDimStyleTable
 71
     0
  0
DIMSTYLE
105
27
330
A
100
AcDbSymbolTableRecord
100
AcDbDimStyleTableRecord
  2
Standard
 70
     0
340
11
  0
DIMSTYLE
105
246
330
A
100
AcDbSymbolTableRecord
100
AcDbDimStyleTableRecord
  2
ME10_DIM_10
 70
     0
 41
3.5
 42
1.0
 44
1.0
 73
     0
 74
     0
 77
     1
 78
     8
140
3.5
147
0.5
172
     1
173
     1
176
     2
177
     2
178
     3
271
     3
340
13A
343
240
344
240
  0
DIMSTYLE
105
255
330
A
100
AcDbSymbolTableRecord
100
AcDbDimStyleTableRecord
  2
ME10_DIM_11
 70
     0
 41
3.5
 42
1.0
 44
1.0
 73
     0
 74
     0
 77
     1
 78
     8
140
3.5
147
0.5
172
     1
173
     1
176
     2
177
     2
178
     3
271
     3
340
13A
343
240
344
240
  0
DIMSTYLE
105
264
330
A
100
AcDbSymbolTableRecord
100
AcDbDimStyleTableRecord
  2
ME10_DIM_12
 70
     0
 41
3.5
 42
1.0
 44
1.0
 73
     0
 74
     0
 77
     1
 78
     8
140
3.5
147
0.5
172
     1
173
     1
176
     2
177
     2
178
     3
271
     3
340
13A
343
240
344
240
  0
DIMSTYLE
105
273
330
A
100
AcDbSymbolTableRecord
100
AcDbDimStyleTableRecord
  2
ME10_DIM_13
 70
     0
 41
3.5
 42
1.0
 44
1.0
 73
     0
 74
     0
 77
     1
 78
     8
140
3.5
147
0.5
172
     1
173
     1
176
     2
177
     2
178
     3
271
     3
340
13A
343
240
344
240
  0
DIMSTYLE
105
280
330
A
100
AcDbSymbolTableRecord
100
AcDbDimStyleTableRecord
  2
ME10_DIM_14
 70
     0
 41
3.5
 42
1.0
 44
1.0
 73
     0
 74
     0
 77
     1
 78
     8
140
3.5
147
0.5
172
     1
173
     1
176
     2
177
     2
178
     3
271
     3
340
13A
343
240
344
240
  0
DIMSTYLE
105
28F
330
A
100
AcDbSymbolTableRecord
100
AcDbDimStyleTableRecord
  2
ME10_DIM_15
 70
     0
 41
3.5
 42
1.0
 44
1.0
 73
     0
 74
     0
 77
     1
 78
     8
140
3.5
147
0.5
172
     1
173
     1
176
     2
177
     2
178
     3
271
     3
340
13A
343
240
344
240
  0
DIMSTYLE
105
29C
330
A
100
AcDbSymbolTableRecord
100
AcDbDimStyleTableRecord
  2
ME10_DIM_16
 70
     0
 41
3.5
 42
1.0
 44
1.0
 73
     0
 74
     0
 77
     1
 78
     8
140
3.5
147
0.5
172
     1
173
     1
176
     2
177
     2
178
     3
271
     3
340
13A
343
240
344
240
  0
ENDTAB
  0
TABLE
  2
BLOCK_RECORD
  5
1
330
0
100
AcDbSymbolTable
 70
    13
  0
BLOCK_RECORD
  5
1F
102
{ACAD_XDICTIONARY
360
33D
102
}
330
1
100
AcDbSymbolTableRecord
100
AcDbBlockTableRecord
  2
*Model_Space
340
22
  0
BLOCK_RECORD
  5
1B
330
1
100
AcDbSymbolTableRecord
100
AcDbBlockTableRecord
  2
*Paper_Space
340
1E
  0
BLOCK_RECORD
  5
23
330
1
100
AcDbSymbolTableRecord
100
AcDbBlockTableRecord
  2
*Paper_Space0
340
26
  0
BLOCK_RECORD
  5
32
330
1
100
AcDbSymbolTableRecord
100
AcDbBlockTableRecord
  2
________1
340
0
102
{BLKREFS
331
36
102
}
  0
BLOCK_RECORD
  5
35
330
1
100
AcDbSymbolTableRecord
100
AcDbBlockTableRecord
  2
format_A4
340
0
102
{BLKREFS
331
3A
102
}
  0
BLOCK_RECORD
  5
39
330
1
100
AcDbSymbolTableRecord
100
AcDbBlockTableRecord
  2
________2
340
0
102
{BLKREFS
331
3E
102
}
  0
BLOCK_RECORD
  5
3D
330
1
100
AcDbSymbolTableRecord
100
AcDbBlockTableRecord
  2
format_A3
340
0
  0
BLOCK_RECORD
  5
235
330
1
100
AcDbSymbolTableRecord
100
AcDbBlockTableRecord
  2
*D5
340
0
  0
BLOCK_RECORD
  5
240
330
1
100
AcDbSymbolTableRecord
100
AcDbBlockTableRecord
  2
_Open30
340
0
  0
BLOCK_RECORD
  5
248
330
1
100
AcDbSymbolTableRecord
100
AcDbBlockTableRecord
  2
*D7
340
0
  0
BLOCK_RECORD
  5
257
330
1
100
AcDbSymbolTableRecord
100
AcDbBlockTableRecord
  2
*D8
340
0
  0
BLOCK_RECORD
  5
266
330
1
100
AcDbSymbolTableRecord
100
AcDbBlockTableRecord
  2
*D9
340
0
  0
BLOCK_RECORD
  5
275
330
1
100
AcDbSymbolTableRecord
100
AcDbBlockTableRecord
  2
*D10
340
0
  0
BLOCK_RECORD
  5
282
330
1
100
AcDbSymbolTableRecord
100
AcDbBlockTableRecord
  2
*D11
340
0
  0
BLOCK_RECORD
  5
291
330
1
100
AcDbSymbolTableRecord
100
AcDbBlockTableRecord
  2
*D12
340
0
  0
ENDTAB
  0
ENDSEC
  0
SECTION
  2
BLOCKS
  0
BLOCK
  5
20
330
1F
100
AcDbEntity
  8
0
100
AcDbBlockBegin
  2
*Model_Space
 70
     0
 10
0.0
 20
0.0
 30
0.0
  3
*Model_Space
  1

  0
ENDBLK
  5
21
330
1F
100
AcDbEntity
  8
0
100
AcDbBlockEnd
  0
BLOCK
  5
1C
330
1B
100
AcDbEntity
 67
     1
  8
0
100
AcDbBlockBegin
  2
*Paper_Space
 70
     0
 10
0.0
 20
0.0
 30
0.0
  3
*Paper_Space
  1

  0
ENDBLK
  5
1D
330
1B
100
AcDbEntity
 67
     1
  8
0
100
AcDbBlockEnd
  0
BLOCK
  5
24
330
23
100
AcDbEntity
 67
     1
  8
0
100
AcDbBlockBegin
  2
*Paper_Space0
 70
     0
 10
0.0
 20
0.0
 30
0.0
  3
*Paper_Space0
  1

  0
ENDBLK
  5
25
330
23
100
AcDbEntity
 67
     1
  8
0
100
AcDbBlockEnd
  0
BLOCK
  5
33
330
32
100
AcDbEntity
  8
0
100
AcDbBlockBegin
  2
________1
 70
     0
 10
1657.195150811217
 20
344.0770186850414
 30
0.0
  3
________1
  1

  0
LINE
  5
42
330
32
100
AcDbEntity
  8
1
  6
Continuous
 62
     7
100
AcDbLine
 10
1480.773560130529
 20
586.0446200047712
 30
0.0
 11
1480.773560130529
 21
578.0669123882012
 31
0.0
  0
LINE
  5
43
330
32
100
AcDbEntity
  8
1
  6
Continuous
 62
     7
100
AcDbLine
 10
1477.902239351442
 20
576.9799558664622
 30
0.0
 11
1480.3461849509
 21
586.1008850145763
 31
0.0
  0
LINE
  5
44
330
32
100
AcDbEntity
  8
1
  6
Continuous
 62
     7
100
AcDbLine
 10
1474.751659947838
 20
586.1423626135232
 30
0.0
 11
1477.206719436439
 21
576.9799558664622
 31
0.0
  0
LINE
  5
45
330
32
100
AcDbEntity
  8
1
  6
Continuous
 62
     7
100
AcDbLine
 10
1474.32428476821
 20
577.9219848519701
 30
0.0
 11
1474.32428476821
 21
586.0860976037184
 31
0.0
  0
LINE
  5
46
330
32
100
AcDbEntity
  8
1
  6
Continuous
 62
     7
100
AcDbLine
 10
1477.902239351442
 20
576.9799558664622
 30
0.0
 11
1477.206719436439
 21
576.9799558664622
 31
0.0
  0
LINE
  5
47
330
32
100
AcDbEntity
  8
1
  6
Continuous
 62
     7
100
AcDbLine
 10
1480.121386217486
 20
577.7045935476222
 30
0.0
 11
1480.41124128995
 21
577.7045935476222
 31
0.0
  0
LINE
  5
48
330
32
100
AcDbEntity
  8
1
  6
Continuous
 62
     7
100
AcDbLine
 10
1479.976458681254
 20
576.9799558664622
 30
0.0
 11
1479.976458681254
 21
577.5596660113901
 31
0.0
  0
LINE
  5
49
330
32
100
AcDbEntity
  8
1
  6
Continuous
 62
     7
100
AcDbLine
 10
1484.034429695746
 20
576.9799558664622
 30
0.0
 11
1479.976458681254
 21
576.9799558664622
 31
0.0
  0
LINE
  5
4A
330
32
100
AcDbEntity
  8
1
  6
Continuous
 62
     7
100
AcDbLine
 10
1484.034429695746
 20
577.5596660113901
 30
0.0
 11
1484.034429695746
 21
576.9799558664622
 31
0.0
  0
LINE
  5
4B
330
32
100
AcDbEntity
  8
1
  6
Continuous
 62
     7
100
AcDbLine
 10
1483.599647087051
 20
577.7045935476222
 30
0.0
 11
1483.889502159515
 21
577.7045935476222
 31
0.0
  0
LINE
  5
4C
330
32
100
AcDbEntity
  8
1
  6
Continuous
 62
     7
100
AcDbLine
 10
1483.237328246471
 20
585.892999344723
 30
0.0
 11
1483.237328246471
 21
578.0669123882012
 31
0.0
  0
LINE
  5
4D
330
32
100
AcDbEntity
  8
1
  6
Continuous
 62
     7
100
AcDbLine
 10
1483.889502159515
 20
586.2553181853031
 30
0.0
 11
1483.599647087051
 21
586.2553181853031
 31
0.0
  0
LINE
  5
4E
330
32
100
AcDbEntity
  8
1
  6
Continuous
 62
     7
100
AcDbLine
 10
1484.034429695746
 20
586.9799558664622
 30
0.0
 11
1484.034429695746
 21
586.4002457215351
 31
0.0
  0
LINE
  5
4F
330
32
100
AcDbEntity
  8
1
  6
Continuous
 62
     7
100
AcDbLine
 10
1479.831531145022
 20
586.9799558664622
 30
0.0
 11
1484.034429695746
 21
586.9799558664622
 31
0.0
  0
LINE
  5
50
330
32
100
AcDbEntity
  8
1
  6
Continuous
 62
     7
100
AcDbLine
 10
1472.875009405891
 20
586.9799558664622
 30
0.0
 11
1477.077907956616
 21
586.9799558664622
 31
0.0
  0
LINE
  5
51
330
32
100
AcDbEntity
  8
1
  6
Continuous
 62
     7
100
AcDbLine
 10
1472.875009405891
 20
586.4002457215351
 30
0.0
 11
1472.875009405891
 21
586.9799558664622
 31
0.0
  0
LINE
  5
52
330
32
100
AcDbEntity
  8
1
  6
Continuous
 62
     7
100
AcDbLine
 10
1473.382255782703
 20
586.2553181853031
 30
0.0
 11
1473.019936942123
 21
586.2553181853031
 31
0.0
  0
LINE
  5
53
330
32
100
AcDbEntity
  8
1
  6
Continuous
 62
     7
100
AcDbLine
 10
1473.599647087051
 20
577.9219848519701
 30
0.0
 11
1473.599647087051
 21
586.037926880955
 31
0.0
  0
LINE
  5
54
330
32
100
AcDbEntity
  8
1
  6
Continuous
 62
     7
100
AcDbLine
 10
1473.019936942123
 20
577.7045935476222
 30
0.0
 11
1473.382255782703
 21
577.7045935476222
 31
0.0
  0
LINE
  5
55
330
32
100
AcDbEntity
  8
1
  6
Continuous
 62
     7
100
AcDbLine
 10
1472.875009405891
 20
576.9799558664622
 30
0.0
 11
1472.875009405892
 21
577.5596660113901
 31
0.0
  0
LINE
  5
56
330
32
100
AcDbEntity
  8
1
  6
Continuous
 62
     7
100
AcDbLine
 10
1474.903994913138
 20
576.9799558664622
 30
0.0
 11
1472.875009405891
 21
576.9799558664622
 31
0.0
  0
LINE
  5
57
330
32
100
AcDbEntity
  8
1
  6
Continuous
 62
     7
100
AcDbLine
 10
1474.903994913138
 20
577.5596660113901
 30
0.0
 11
1474.903994913138
 21
576.9799558664622
 31
0.0
  0
LINE
  5
58
330
32
100
AcDbEntity
  8
1
  6
Continuous
 62
     7
100
AcDbLine
 10
1474.541676072558
 20
577.7045935476222
 30
0.0
 11
1474.759067376906
 21
577.7045935476222
 31
0.0
  0
LINE
  5
59
330
32
100
AcDbEntity
  8
1
  6
Continuous
 62
     7
100
AcDbLine
 10
1478.664703426099
 20
582.6252955357631
 30
0.0
 11
1479.831531145022
 21
586.9799558664622
 31
0.0
  0
LINE
  5
5A
330
32
100
AcDbEntity
  8
1
  6
Continuous
 62
     7
100
AcDbLine
 10
1477.077907956616
 20
586.9799558664622
 30
0.0
 11
1478.244735675539
 21
582.6252955357631
 31
0.0
  0
LINE
  5
5B
330
32
100
AcDbEntity
  8
1
  6
Continuous
 62
     7
100
AcDbLine
 10
1463.632420477286
 20
580.3915275898844
 30
0.0
 11
1468.448944928847
 21
585.2080520414443
 31
0.0
  0
LINE
  5
5C
330
32
100
AcDbEntity
  8
1
  6
Continuous
 62
     7
100
AcDbLine
 10
1470.08861282725
 20
583.5683841430412
 30
0.0
 11
1465.27208837569
 21
578.7518596914801
 31
0.0
  0
LINE
  5
5D
330
32
100
AcDbEntity
  8
1
  6
Continuous
 62
     7
100
AcDbLine
 10
1457.150371724732
 20
576.9799558664622
 30
0.0
 11
1454.976458681254
 21
576.9799558664622
 31
0.0
  0
LINE
  5
5E
330
32
100
AcDbEntity
  8
1
  6
Continuous
 62
     7
100
AcDbLine
 10
1454.976458681254
 20
576.9799558664622
 30
0.0
 11
1454.976458681254
 21
577.5596660113901
 31
0.0
  0
LINE
  5
5F
330
32
100
AcDbEntity
  8
1
  6
Continuous
 62
     7
100
AcDbLine
 10
1455.121386217486
 20
577.7045935476222
 30
0.0
 11
1455.411241289949
 21
577.7045935476222
 31
0.0
  0
LINE
  5
60
330
32
100
AcDbEntity
  8
1
  6
Continuous
 62
     7
100
AcDbLine
 10
1455.773560130529
 20
578.0669123882012
 30
0.0
 11
1455.773560130529
 21
585.7480718084913
 31
0.0
  0
LINE
  5
61
330
32
100
AcDbEntity
  8
1
  6
Continuous
 62
     7
100
AcDbLine
 10
1455.266313753717
 20
586.2553181853031
 30
0.0
 11
1455.057801687373
 21
586.2553181853031
 31
0.0
  0
LINE
  5
62
330
32
100
AcDbEntity
  8
1
  6
Continuous
 62
     7
100
AcDbLine
 10
1454.090118491362
 20
585.5454313727132
 30
0.0
 11
1453.800320692251
 21
584.624791218785
 31
0.0
  0
LINE
  5
63
330
32
100
AcDbEntity
  8
1
  6
Continuous
 62
     7
100
AcDbLine
 10
1453.09259006004
 20
584.7452911916361
 30
0.0
 11
1453.164864478355
 21
586.9799558664622
 31
0.0
  0
LINE
  5
64
330
32
100
AcDbEntity
  8
1
  6
Continuous
 62
     7
100
AcDbLine
 10
1453.164864478355
 20
586.9799558664622
 30
0.0
 11
1457.150371724732
 21
586.9799558664622
 31
0.0
  0
LINE
  5
65
330
32
100
AcDbEntity
  8
1
  6
Continuous
 62
     7
100
AcDbLine
 10
1459.324284768209
 20
576.9799558664622
 30
0.0
 11
1457.150371724732
 21
576.9799558664622
 31
0.0
  0
LINE
  5
66
330
32
100
AcDbEntity
  8
1
  6
Continuous
 62
     7
100
AcDbLine
 10
1459.324284768209
 20
577.5596660113901
 30
0.0
 11
1459.324284768209
 21
576.9799558664622
 31
0.0
  0
LINE
  5
67
330
32
100
AcDbEntity
  8
1
  6
Continuous
 62
     7
100
AcDbLine
 10
1458.889502159515
 20
577.7045935476222
 30
0.0
 11
1459.179357231979
 21
577.7045935476222
 31
0.0
  0
LINE
  5
68
330
32
100
AcDbEntity
  8
1
  6
Continuous
 62
     7
100
AcDbLine
 10
1458.527183318935
 20
585.7480718084913
 30
0.0
 11
1458.527183318935
 21
578.0669123882012
 31
0.0
  0
LINE
  5
69
330
32
100
AcDbEntity
  8
1
  6
Continuous
 62
     7
100
AcDbLine
 10
1459.242941762091
 20
586.2553181853031
 30
0.0
 11
1459.034429695747
 21
586.2553181853031
 31
0.0
  0
LINE
  5
6A
330
32
100
AcDbEntity
  8
1
  6
Continuous
 62
     7
100
AcDbLine
 10
1460.500422757213
 20
584.624791218785
 30
0.0
 11
1460.210624958102
 21
585.5454313727132
 31
0.0
  0
LINE
  5
6B
330
32
100
AcDbEntity
  8
1
  6
Continuous
 62
     7
100
AcDbLine
 10
1461.135878971109
 20
586.9799558664622
 30
0.0
 11
1461.208153389423
 21
584.7452911916361
 31
0.0
  0
LINE
  5
6C
330
32
100
AcDbEntity
  8
1
  6
Continuous
 62
     7
100
AcDbLine
 10
1457.150371724732
 20
586.9799558664622
 30
0.0
 11
1461.135878971109
 21
586.9799558664622
 31
0.0
  0
LINE
  5
6D
330
32
100
AcDbEntity
  8
1
  6
Continuous
 62
     7
100
AcDbLine
 10
1449.141009845495
 20
581.6087323240112
 30
0.0
 11
1448.15536551226
 21
584.8326296722671
 31
0.0
  0
LINE
  5
6E
330
32
100
AcDbEntity
  8
1
  6
Continuous
 62
     7
100
AcDbLine
 10
1446.961828840772
 20
581.3277819534191
 30
0.0
 11
1448.933117507242
 21
581.3277819534191
 31
0.0
  0
LINE
  5
6F
330
32
100
AcDbEntity
  8
1
  6
Continuous
 62
     7
100
AcDbLine
 10
1447.739580835754
 20
584.8326296722671
 30
0.0
 11
1446.75393650252
 21
581.6087323240112
 31
0.0
  0
LINE
  5
70
330
32
100
AcDbEntity
  8
1
  6
Continuous
 62
     7
100
AcDbLine
 10
1446.353270275456
 20
577.5596660113901
 30
0.0
 11
1446.353270275456
 21
576.9799558664622
 31
0.0
  0
LINE
  5
71
330
32
100
AcDbEntity
  8
1
  6
Continuous
 62
     7
100
AcDbLine
 10
1445.854108980415
 20
577.7045935476222
 30
0.0
 11
1446.208342739225
 21
577.7045935476222
 31
0.0
  0
LINE
  5
72
330
32
100
AcDbEntity
  8
1
  6
Continuous
 62
     7
100
AcDbLine
 10
1446.399466147205
 20
580.4493120341562
 30
0.0
 11
1445.646216642162
 21
577.9855439182142
 31
0.0
  0
LINE
  5
73
330
32
100
AcDbEntity
  8
1
  6
Continuous
 62
     7
100
AcDbLine
 10
1449.233967494801
 20
580.603144272259
 30
0.0
 11
1446.607358485458
 21
580.603144272259
 31
0.0
  0
LINE
  5
74
330
32
100
AcDbEntity
  8
1
  6
Continuous
 62
     7
100
AcDbLine
 10
1450.220097989767
 20
578.0791940417453
 30
0.0
 11
1449.511157279138
 21
580.3980346214553
 31
0.0
  0
LINE
  5
75
330
32
100
AcDbEntity
  8
1
  6
Continuous
 62
     7
100
AcDbLine
 10
1449.541676072558
 20
577.7045935476222
 30
0.0
 11
1449.94290820543
 21
577.7045935476222
 31
0.0
  0
LINE
  5
76
330
32
100
AcDbEntity
  8
1
  6
Continuous
 62
     7
100
AcDbLine
 10
1449.396748536326
 20
576.9799558664622
 30
0.0
 11
1449.396748536326
 21
577.5596660113901
 31
0.0
  0
LINE
  5
77
330
32
100
AcDbEntity
  8
1
  6
Continuous
 62
     7
100
AcDbLine
 10
1453.744574623283
 20
576.9799558664622
 30
0.0
 11
1449.396748536326
 21
576.9799558664622
 31
0.0
  0
LINE
  5
78
330
32
100
AcDbEntity
  8
1
  6
Continuous
 62
     7
100
AcDbLine
 10
1453.744574623283
 20
577.5596660113901
 30
0.0
 11
1453.744574623283
 21
576.9799558664622
 31
0.0
  0
LINE
  5
79
330
32
100
AcDbEntity
  8
1
  6
Continuous
 62
     7
100
AcDbLine
 10
1453.103293936662
 20
577.7045935476222
 30
0.0
 11
1453.599647087051
 21
577.7045935476222
 31
0.0
  0
LINE
  5
7A
330
32
100
AcDbEntity
  8
1
  6
Continuous
 62
     7
100
AcDbLine
 10
1449.999429255368
 20
586.9799558664622
 30
0.0
 11
1452.75680670624
 21
577.9609806111284
 31
0.0
  0
LINE
  5
7B
330
32
100
AcDbEntity
  8
1
  6
Continuous
 62
     7
100
AcDbLine
 10
1447.638336686792
 20
586.9799558664622
 30
0.0
 11
1449.999429255368
 21
586.9799558664622
 31
0.0
  0
LINE
  5
7C
330
32
100
AcDbEntity
  8
1
  6
Continuous
 62
     7
100
AcDbLine
 10
1444.88095923592
 20
577.9609806111284
 30
0.0
 11
1447.638336686792
 21
586.9799558664622
 31
0.0
  0
LINE
  5
7D
330
32
100
AcDbEntity
  8
1
  6
Continuous
 62
     7
100
AcDbLine
 10
1444.179357231978
 20
577.7045935476222
 30
0.0
 11
1444.534472005498
 21
577.7045935476222
 31
0.0
  0
LINE
  5
7E
330
32
100
AcDbEntity
  8
1
  6
Continuous
 62
     7
100
AcDbLine
 10
1444.034429695747
 20
576.9799558664622
 30
0.0
 11
1444.034429695747
 21
577.5596660113901
 31
0.0
  0
LINE
  5
7F
330
32
100
AcDbEntity
  8
1
  6
Continuous
 62
     7
100
AcDbLine
 10
1446.353270275456
 20
576.9799558664622
 30
0.0
 11
1444.034429695747
 21
576.9799558664622
 31
0.0
  0
LINE
  5
80
330
32
100
AcDbEntity
  8
1
  6
Continuous
 62
     5
100
AcDbLine
 10
1580.275187102159
 20
610.4485632515184
 30
0.0
 11
1622.275187102159
 21
610.4485632515184
 31
0.0
  0
LINE
  5
81
330
32
100
AcDbEntity
  8
1
  6
Continuous
 62
     7
100
AcDbLine
 10
1580.275187102159
 20
603.4485632515184
 30
0.0
 11
1622.275187102159
 21
603.4485632515184
 31
0.0
  0
LINE
  5
82
330
32
100
AcDbEntity
  8
1
  6
Continuous
 62
     7
100
AcDbLine
 10
1622.275187102159
 20
575.4485632515184
 30
0.0
 11
1622.275187102159
 21
568.448563251517
 31
0.0
  0
LINE
  5
83
330
32
100
AcDbEntity
  8
1
  6
Continuous
 62
     5
100
AcDbLine
 10
1445.275187102159
 20
610.4485632515184
 30
0.0
 11
1495.275187102159
 21
610.4485632515184
 31
0.0
  0
LINE
  5
84
330
32
100
AcDbEntity
  8
1
  6
Continuous
 62
     5
100
AcDbLine
 10
1445.275187102159
 20
610.4485632515184
 30
0.0
 11
1445.275187102159
 21
603.4485632515184
 31
0.0
  0
LINE
  5
85
330
32
100
AcDbEntity
  8
1
  6
Continuous
 62
     5
100
AcDbLine
 10
1495.275187102159
 20
610.4485632515184
 30
0.0
 11
1523.275187102159
 21
610.4485632515184
 31
0.0
  0
LINE
  5
86
330
32
100
AcDbEntity
  8
1
  6
Continuous
 62
     5
100
AcDbLine
 10
1495.275187102159
 20
610.4485632515184
 30
0.0
 11
1495.275187102159
 21
603.4485632515184
 31
0.0
  0
LINE
  5
87
330
32
100
AcDbEntity
  8
1
  6
Continuous
 62
     5
100
AcDbLine
 10
1523.275187102159
 20
610.4485632515184
 30
0.0
 11
1530.275187102159
 21
610.4485632515184
 31
0.0
  0
LINE
  5
88
330
32
100
AcDbEntity
  8
1
  6
Continuous
 62
     5
100
AcDbLine
 10
1523.275187102159
 20
610.4485632515184
 30
0.0
 11
1523.275187102159
 21
603.4485632515184
 31
0.0
  0
LINE
  5
89
330
32
100
AcDbEntity
  8
1
  6
Continuous
 62
     5
100
AcDbLine
 10
1530.275187102159
 20
610.4485632515184
 30
0.0
 11
1580.275187102159
 21
610.4485632515184
 31
0.0
  0
LINE
  5
8A
330
32
100
AcDbEntity
  8
1
  6
Continuous
 62
     5
100
AcDbLine
 10
1530.275187102159
 20
610.4485632515184
 30
0.0
 11
1530.275187102159
 21
603.4485632515184
 31
0.0
  0
LINE
  5
8B
330
32
100
AcDbEntity
  8
1
  6
Continuous
 62
     5
100
AcDbLine
 10
1580.275187102159
 20
610.4485632515184
 30
0.0
 11
1580.275187102159
 21
603.4485632515184
 31
0.0
  0
LINE
  5
8C
330
32
100
AcDbEntity
  8
1
  6
Continuous
 62
     5
100
AcDbLine
 10
1438.275187102159
 20
610.4485632515184
 30
0.0
 11
1445.275187102159
 21
610.4485632515184
 31
0.0
  0
LINE
  5
8D
330
32
100
AcDbEntity
  8
1
  6
Continuous
 62
     5
100
AcDbLine
 10
1438.275187102159
 20
603.4485632515184
 30
0.0
 11
1438.275187102159
 21
610.4485632515184
 31
0.0
  0
LINE
  5
8E
330
32
100
AcDbEntity
  8
1
  6
Continuous
 62
     7
100
AcDbLine
 10
1445.275187102159
 20
603.4485632515184
 30
0.0
 11
1438.275187102159
 21
603.4485632515184
 31
0.0
  0
LINE
  5
8F
330
32
100
AcDbEntity
  8
1
  6
Continuous
 62
     7
100
AcDbLine
 10
1445.275187102159
 20
603.4485632515184
 30
0.0
 11
1445.275187102159
 21
596.4485632515184
 31
0.0
  0
LINE
  5
90
330
32
100
AcDbEntity
  8
1
  6
Continuous
 62
     7
100
AcDbLine
 10
1495.275187102159
 20
603.4485632515184
 30
0.0
 11
1445.275187102159
 21
603.4485632515184
 31
0.0
  0
LINE
  5
91
330
32
100
AcDbEntity
  8
1
  6
Continuous
 62
     7
100
AcDbLine
 10
1523.275187102159
 20
603.4485632515184
 30
0.0
 11
1495.275187102159
 21
603.4485632515184
 31
0.0
  0
LINE
  5
92
330
32
100
AcDbEntity
  8
1
  6
Continuous
 62
     7
100
AcDbLine
 10
1523.275187102159
 20
603.4485632515184
 30
0.0
 11
1523.275187102159
 21
596.4485632515184
 31
0.0
  0
LINE
  5
93
330
32
100
AcDbEntity
  8
1
  6
Continuous
 62
     7
100
AcDbLine
 10
1530.275187102159
 20
603.4485632515184
 30
0.0
 11
1523.275187102159
 21
603.4485632515184
 31
0.0
  0
LINE
  5
94
330
32
100
AcDbEntity
  8
1
  6
Continuous
 62
     7
100
AcDbLine
 10
1530.275187102159
 20
603.4485632515184
 30
0.0
 11
1530.275187102159
 21
596.4485632515184
 31
0.0
  0
LINE
  5
95
330
32
100
AcDbEntity
  8
1
  6
Continuous
 62
     7
100
AcDbLine
 10
1580.275187102159
 20
603.4485632515184
 30
0.0
 11
1530.275187102159
 21
603.4485632515184
 31
0.0
  0
LINE
  5
96
330
32
100
AcDbEntity
  8
1
  6
Continuous
 62
     7
100
AcDbLine
 10
1580.275187102159
 20
603.4485632515184
 30
0.0
 11
1580.275187102159
 21
596.4485632515184
 31
0.0
  0
LINE
  5
97
330
32
100
AcDbEntity
  8
1
  6
Continuous
 62
     7
100
AcDbLine
 10
1438.275187102159
 20
603.4485632515184
 30
0.0
 11
1438.275187102159
 21
596.4485632515184
 31
0.0
  0
LINE
  5
98
330
32
100
AcDbEntity
  8
1
  6
Continuous
 62
     7
100
AcDbLine
 10
1569.275187102159
 20
568.4485632515182
 30
0.0
 11
1569.275187102159
 21
575.4485632515184
 31
0.0
  0
LINE
  5
99
330
32
100
AcDbEntity
  8
1
  6
Continuous
 62
     7
100
AcDbLine
 10
1566.275187102159
 20
568.4485632515182
 30
0.0
 11
1566.275187102159
 21
575.4485632515184
 31
0.0
  0
LINE
  5
9A
330
32
100
AcDbEntity
  8
1
  6
Continuous
 62
     7
100
AcDbLine
 10
1569.275187102159
 20
575.4485632515184
 30
0.0
 11
1569.275187102159
 21
582.4485632515184
 31
0.0
  0
LINE
  5
9B
330
32
100
AcDbEntity
  8
1
  6
Continuous
 62
     7
100
AcDbLine
 10
1569.275187102159
 20
582.4485632515184
 30
0.0
 11
1569.275187102159
 21
589.4485632515182
 31
0.0
  0
LINE
  5
9C
330
32
100
AcDbEntity
  8
1
  6
Continuous
 62
     7
100
AcDbLine
 10
1566.275187102159
 20
582.4485632515184
 30
0.0
 11
1566.275187102159
 21
589.4485632515182
 31
0.0
  0
LINE
  5
9D
330
32
100
AcDbEntity
  8
1
  6
Continuous
 62
     4
100
AcDbLine
 10
1611.775187102159
 20
568.4485632515182
 30
0.0
 11
1611.775187102159
 21
575.4485632515184
 31
0.0
  0
LINE
  5
9E
330
32
100
AcDbEntity
  8
1
  6
Continuous
 62
     7
100
AcDbLine
 10
1611.775187102159
 20
575.4485632515184
 30
0.0
 11
1622.275187102159
 21
575.4485632515184
 31
0.0
  0
LINE
  5
9F
330
32
100
AcDbEntity
  8
1
  6
Continuous
 62
     7
100
AcDbLine
 10
1611.775187102159
 20
568.4485632515182
 30
0.0
 11
1622.275187102159
 21
568.448563251517
 31
0.0
  0
LINE
  5
A0
330
32
100
AcDbEntity
  8
1
  6
Continuous
 62
     7
100
AcDbLine
 10
1566.275187102159
 20
575.4485632515184
 30
0.0
 11
1566.275187102159
 21
582.4485632515184
 31
0.0
  0
LINE
  5
A1
330
32
100
AcDbEntity
  8
1
  6
Continuous
 62
     7
100
AcDbLine
 10
1566.275187102159
 20
596.4485632515184
 30
0.0
 11
1566.275187102159
 21
589.4485632515182
 31
0.0
  0
LINE
  5
A2
330
32
100
AcDbEntity
  8
1
  6
Continuous
 62
     7
100
AcDbLine
 10
1565.775187102159
 20
596.4485632515184
 30
0.0
 11
1566.275187102159
 21
596.4485632515184
 31
0.0
  0
LINE
  5
A3
330
32
100
AcDbEntity
  8
1
  6
Continuous
 62
     7
100
AcDbLine
 10
1476.275187102159
 20
596.4485632515184
 30
0.0
 11
1476.275187102159
 21
589.4485632515182
 31
0.0
  0
LINE
  5
A4
330
32
100
AcDbEntity
  8
1
  6
Continuous
 62
     7
100
AcDbLine
 10
1473.275187102159
 20
596.4485632515184
 30
0.0
 11
1473.275187102159
 21
589.4485632515182
 31
0.0
  0
LINE
  5
A5
330
32
100
AcDbEntity
  8
1
  6
Continuous
 62
     7
100
AcDbLine
 10
1569.275187102159
 20
596.4485632515184
 30
0.0
 11
1569.275187102159
 21
589.4485632515182
 31
0.0
  0
LINE
  5
A6
330
32
100
AcDbEntity
  8
1
  6
Continuous
 62
     7
100
AcDbLine
 10
1527.775187102159
 20
582.4485632515184
 30
0.0
 11
1527.775187102159
 21
575.4485632515184
 31
0.0
  0
LINE
  5
A7
330
32
100
AcDbEntity
  8
1
  6
Continuous
 62
     7
100
AcDbLine
 10
1527.775187102159
 20
568.4485632515182
 30
0.0
 11
1530.775187102159
 21
568.4485632515182
 31
0.0
  0
LINE
  5
A8
330
32
100
AcDbEntity
  8
1
  6
Continuous
 62
     7
100
AcDbLine
 10
1527.775187102159
 20
575.4485632515184
 30
0.0
 11
1527.775187102159
 21
568.4485632515182
 31
0.0
  0
LINE
  5
A9
330
32
100
AcDbEntity
  8
1
  6
Continuous
 62
     4
100
AcDbLine
 10
1544.275187102159
 20
596.4485632515184
 30
0.0
 11
1544.275187102159
 21
568.4485632515182
 31
0.0
  0
LINE
  5
AA
330
32
100
AcDbEntity
  8
1
  6
Continuous
 62
     7
100
AcDbLine
 10
1530.775187102159
 20
596.4485632515184
 30
0.0
 11
1530.775187102159
 21
589.4485632515182
 31
0.0
  0
LINE
  5
AB
330
32
100
AcDbEntity
  8
1
  6
Continuous
 62
     7
100
AcDbLine
 10
1527.775187102159
 20
589.4485632515182
 30
0.0
 11
1527.775187102159
 21
582.4485632515184
 31
0.0
  0
LINE
  5
AC
330
32
100
AcDbEntity
  8
1
  6
Continuous
 62
     7
100
AcDbLine
 10
1527.775187102159
 20
596.4485632515184
 30
0.0
 11
1527.775187102159
 21
589.4485632515182
 31
0.0
  0
LINE
  5
AD
330
32
100
AcDbEntity
  8
1
  6
Continuous
 62
     7
100
AcDbLine
 10
1527.775187102159
 20
589.4485632515182
 30
0.0
 11
1530.775187102159
 21
589.4485632515182
 31
0.0
  0
LINE
  5
AE
330
32
100
AcDbEntity
  8
1
  6
Continuous
 62
     7
100
AcDbLine
 10
1451.275187102159
 20
596.4485632515184
 30
0.0
 11
1451.275187102159
 21
589.4485632515182
 31
0.0
  0
LINE
  5
AF
330
32
100
AcDbEntity
  8
1
  6
Continuous
 62
     7
100
AcDbLine
 10
1451.275187102159
 20
589.4485632515182
 30
0.0
 11
1454.275187102159
 21
589.4485632515182
 31
0.0
  0
LINE
  5
B0
330
32
100
AcDbEntity
  8
1
  6
Continuous
 62
     7
100
AcDbLine
 10
1454.275187102159
 20
589.4485632515182
 30
0.0
 11
1454.275187102159
 21
596.4485632515184
 31
0.0
  0
LINE
  5
B1
330
32
100
AcDbEntity
  8
1
  6
Continuous
 62
     7
100
AcDbLine
 10
1445.869400127124
 20
591.6598489724232
 30
0.0
 11
1445.869400127124
 21
593.9078042041923
 31
0.0
  0
LINE
  5
B2
330
32
100
AcDbEntity
  8
1
  6
Continuous
 62
     7
100
AcDbLine
 10
1445.869400127124
 20
593.9078042041923
 30
0.0
 11
1449.875187102158
 21
595.0945546738221
 31
0.0
  0
LINE
  5
B3
330
32
100
AcDbEntity
  8
1
  6
Continuous
 62
     7
100
AcDbLine
 10
1449.875187102158
 20
595.0945546738221
 30
0.0
 11
1449.875187102158
 21
590.473098502794
 31
0.0
  0
LINE
  5
B4
330
32
100
AcDbEntity
  8
1
  6
Continuous
 62
     7
100
AcDbLine
 10
1449.875187102158
 20
590.473098502794
 30
0.0
 11
1446.052065063339
 21
591.6237541692379
 31
0.0
  0
LINE
  5
B5
330
32
100
AcDbEntity
  8
1
  6
DASH_CENTER
 62
     2
100
AcDbLine
 10
1439.075187102159
 20
592.7838265883082
 30
0.0
 11
1450.475187102159
 21
592.7838265883082
 31
0.0
  0
LINE
  5
B6
330
32
100
AcDbEntity
  8
1
  6
DASH_CENTER
 62
     2
100
AcDbLine
 10
1441.973762715948
 20
595.610533138878
 30
0.0
 11
1441.973762715948
 21
589.8057754069932
 31
0.0
  0
LINE
  5
B7
330
32
100
AcDbEntity
  8
1
  6
Continuous
 62
     7
100
AcDbLine
 10
1495.275187102159
 20
596.4485632515184
 30
0.0
 11
1495.275187102159
 21
603.4485632515184
 31
0.0
  0
LINE
  5
B8
330
32
100
AcDbEntity
  8
1
  6
Continuous
 62
     7
100
AcDbLine
 10
1565.775187102159
 20
596.4485632515184
 30
0.0
 11
1566.275187102159
 21
596.4485632515184
 31
0.0
  0
LINE
  5
B9
330
32
100
AcDbEntity
  8
1
  6
Continuous
 62
     7
100
AcDbLine
 10
1622.275187102159
 20
603.4485632515184
 30
0.0
 11
1622.275187102159
 21
596.4485632515184
 31
0.0
  0
LINE
  5
BA
330
32
100
AcDbEntity
  8
1
  6
Continuous
 62
     7
100
AcDbLine
 10
1438.275187102159
 20
589.4485632515182
 30
0.0
 11
1451.275187102159
 21
589.4485632515182
 31
0.0
  0
LINE
  5
BB
330
32
100
AcDbEntity
  8
1
  6
Continuous
 62
     7
100
AcDbLine
 10
1566.275187102159
 20
596.4485632515184
 30
0.0
 11
1622.275187102159
 21
596.4485632515184
 31
0.0
  0
LINE
  5
BC
330
32
100
AcDbEntity
  8
1
  6
Continuous
 62
     7
100
AcDbLine
 10
1622.275187102159
 20
596.4485632515184
 30
0.0
 11
1622.275187102159
 21
589.4485632515182
 31
0.0
  0
LINE
  5
BD
330
32
100
AcDbEntity
  8
1
  6
Continuous
 62
     7
100
AcDbLine
 10
1566.275187102159
 20
589.4485632515182
 30
0.0
 11
1622.275187102159
 21
589.4485632515182
 31
0.0
  0
LINE
  5
BE
330
32
100
AcDbEntity
  8
1
  6
Continuous
 62
     7
100
AcDbLine
 10
1622.275187102159
 20
589.4485632515182
 30
0.0
 11
1622.275187102159
 21
582.4485632515184
 31
0.0
  0
LINE
  5
BF
330
32
100
AcDbEntity
  8
1
  6
Continuous
 62
     7
100
AcDbLine
 10
1566.275187102159
 20
582.4485632515184
 30
0.0
 11
1622.275187102159
 21
582.4485632515184
 31
0.0
  0
LINE
  5
C0
330
32
100
AcDbEntity
  8
1
  6
Continuous
 62
     7
100
AcDbLine
 10
1622.275187102159
 20
582.4485632515184
 30
0.0
 11
1622.275187102159
 21
575.4485632515184
 31
0.0
  0
LINE
  5
C1
330
32
100
AcDbEntity
  8
1
  6
Continuous
 62
     7
100
AcDbLine
 10
1566.275187102159
 20
575.4485632515184
 30
0.0
 11
1611.775187102159
 21
575.4485632515184
 31
0.0
  0
LINE
  5
C2
330
32
100
AcDbEntity
  8
1
  6
Continuous
 62
     7
100
AcDbLine
 10
1566.275187102159
 20
575.4485632515184
 30
0.0
 11
1611.775187102159
 21
575.4485632515184
 31
0.0
  0
LINE
  5
C3
330
32
100
AcDbEntity
  8
1
  6
Continuous
 62
     7
100
AcDbLine
 10
1566.275187102159
 20
568.4485632515182
 30
0.0
 11
1611.775187102159
 21
568.4485632515182
 31
0.0
  0
LINE
  5
C4
330
32
100
AcDbEntity
  8
1
  6
Continuous
 62
     7
100
AcDbLine
 10
1622.275187102159
 20
603.4485632515184
 30
0.0
 11
1622.275187102159
 21
610.4485632515184
 31
0.0
  0
LINE
  5
C5
330
32
100
AcDbEntity
  8
1
  6
Continuous
 62
     7
100
AcDbLine
 10
1438.275187102159
 20
568.448563251517
 30
0.0
 11
1527.775187102159
 21
568.4485632515182
 31
0.0
  0
LINE
  5
C6
330
32
100
AcDbEntity
  8
1
  6
Continuous
 62
     7
100
AcDbLine
 10
1438.275187102159
 20
596.4485632515184
 30
0.0
 11
1565.775187102159
 21
596.4485632515184
 31
0.0
  0
LINE
  5
C7
330
32
100
AcDbEntity
  8
1
  6
Continuous
 62
     7
100
AcDbLine
 10
1438.275187102159
 20
596.4485632515184
 30
0.0
 11
1438.275187102159
 21
568.448563251517
 31
0.0
  0
LINE
  5
C8
330
32
100
AcDbEntity
  8
1
  6
Continuous
 62
     7
100
AcDbLine
 10
1530.775187102159
 20
589.4485632515182
 30
0.0
 11
1566.275187102159
 21
589.4485632515182
 31
0.0
  0
LINE
  5
C9
330
32
100
AcDbEntity
  8
1
  6
Continuous
 62
     7
100
AcDbLine
 10
1530.775187102159
 20
589.4485632515182
 30
0.0
 11
1530.775187102159
 21
582.4485632515184
 31
0.0
  0
LINE
  5
CA
330
32
100
AcDbEntity
  8
1
  6
Continuous
 62
     7
100
AcDbLine
 10
1527.775187102159
 20
582.4485632515184
 30
0.0
 11
1530.775187102159
 21
582.4485632515184
 31
0.0
  0
LINE
  5
CB
330
32
100
AcDbEntity
  8
1
  6
Continuous
 62
     7
100
AcDbLine
 10
1530.775187102159
 20
582.4485632515184
 30
0.0
 11
1530.775187102159
 21
575.4485632515184
 31
0.0
  0
LINE
  5
CC
330
32
100
AcDbEntity
  8
1
  6
Continuous
 62
     7
100
AcDbLine
 10
1530.775187102159
 20
582.4485632515184
 30
0.0
 11
1566.275187102159
 21
582.4485632515184
 31
0.0
  0
LINE
  5
CD
330
32
100
AcDbEntity
  8
1
  6
Continuous
 62
     7
100
AcDbLine
 10
1527.775187102159
 20
575.4485632515184
 30
0.0
 11
1530.775187102159
 21
575.4485632515184
 31
0.0
  0
LINE
  5
CE
330
32
100
AcDbEntity
  8
1
  6
Continuous
 62
     7
100
AcDbLine
 10
1530.775187102159
 20
575.4485632515184
 30
0.0
 11
1530.775187102159
 21
568.4485632515182
 31
0.0
  0
LINE
  5
CF
330
32
100
AcDbEntity
  8
1
  6
Continuous
 62
     7
100
AcDbLine
 10
1530.775187102159
 20
575.4485632515184
 30
0.0
 11
1566.275187102159
 21
575.4485632515184
 31
0.0
  0
LINE
  5
D0
330
32
100
AcDbEntity
  8
1
  6
Continuous
 62
     7
100
AcDbLine
 10
1530.775187102159
 20
568.4485632515182
 30
0.0
 11
1566.275187102159
 21
568.4485632515182
 31
0.0
  0
LINE
  5
D1
330
32
100
AcDbEntity
  8
1
  6
Continuous
 62
     7
100
AcDbLine
 10
1454.275187102159
 20
589.4485632515182
 30
0.0
 11
1473.275187102159
 21
589.4485632515182
 31
0.0
  0
LINE
  5
D2
330
32
100
AcDbEntity
  8
1
  6
Continuous
 62
     7
100
AcDbLine
 10
1473.275187102159
 20
589.4485632515182
 30
0.0
 11
1476.275187102159
 21
589.4485632515182
 31
0.0
  0
LINE
  5
D3
330
32
100
AcDbEntity
  8
1
  6
Continuous
 62
     7
100
AcDbLine
 10
1476.275187102159
 20
589.4485632515182
 30
0.0
 11
1527.775187102159
 21
589.4485632515182
 31
0.0
  0
LINE
  5
D4
330
32
100
AcDbEntity
  8
1
  6
Continuous
 62
     7
100
AcDbLine
 10
1466.275187102159
 20
596.4485632515184
 30
0.0
 11
1466.275187102159
 21
589.4485632515182
 31
0.0
  0
LINE
  5
D5
330
32
100
AcDbEntity
  8
1
  6
Continuous
 62
     5
100
AcDbLine
 10
1445.275187102159
 20
831.4485632515184
 30
0.0
 11
1542.275187102159
 21
831.4485632515184
 31
0.0
  0
LINE
  5
D6
330
32
100
AcDbEntity
  8
1
  6
Continuous
 62
     5
100
AcDbLine
 10
1445.275187102159
 20
838.4485632515184
 30
0.0
 11
1445.275187102159
 21
831.4485632515184
 31
0.0
  0
LINE
  5
D7
330
32
100
AcDbEntity
  8
1
  6
Continuous
 62
     5
100
AcDbLine
 10
1542.275187102159
 20
831.4485632515184
 30
0.0
 11
1557.275187102159
 21
831.4485632515184
 31
0.0
  0
LINE
  5
D8
330
32
100
AcDbEntity
  8
1
  6
Continuous
 62
     7
100
AcDbLine
 10
1542.275187102159
 20
838.4485632515184
 30
0.0
 11
1557.275187102159
 21
838.4485632515184
 31
0.0
  0
LINE
  5
D9
330
32
100
AcDbEntity
  8
1
  6
Continuous
 62
     5
100
AcDbLine
 10
1542.275187102159
 20
838.4485632515184
 30
0.0
 11
1542.275187102159
 21
831.4485632515184
 31
0.0
  0
LINE
  5
DA
330
32
100
AcDbEntity
  8
1
  6
Continuous
 62
     5
100
AcDbLine
 10
1557.275187102159
 20
831.4485632515184
 30
0.0
 11
1582.275187102159
 21
831.4485632515184
 31
0.0
  0
LINE
  5
DB
330
32
100
AcDbEntity
  8
1
  6
Continuous
 62
     5
100
AcDbLine
 10
1557.275187102159
 20
838.4485632515184
 30
0.0
 11
1557.275187102159
 21
831.4485632515184
 31
0.0
  0
LINE
  5
DC
330
32
100
AcDbEntity
  8
1
  6
Continuous
 62
     5
100
AcDbLine
 10
1582.275187102159
 20
831.4485632515184
 30
0.0
 11
1597.275187102159
 21
831.4485632515184
 31
0.0
  0
LINE
  5
DD
330
32
100
AcDbEntity
  8
1
  6
Continuous
 62
     5
100
AcDbLine
 10
1582.275187102159
 20
838.4485632515184
 30
0.0
 11
1582.275187102159
 21
831.4485632515184
 31
0.0
  0
LINE
  5
DE
330
32
100
AcDbEntity
  8
1
  6
Continuous
 62
     5
100
AcDbLine
 10
1438.275187102159
 20
831.4485632515184
 30
0.0
 11
1445.275187102159
 21
831.4485632515184
 31
0.0
  0
LINE
  5
DF
330
32
100
AcDbEntity
  8
1
  6
Continuous
 62
     5
100
AcDbLine
 10
1438.275187102159
 20
838.4485632515184
 30
0.0
 11
1438.275187102159
 21
831.4485632515184
 31
0.0
  0
LINE
  5
E0
330
32
100
AcDbEntity
  8
1
  6
Continuous
 62
     7
100
AcDbLine
 10
1542.275187102159
 20
845.4485632515183
 30
0.0
 11
1542.275187102159
 21
838.4485632515184
 31
0.0
  0
LINE
  5
E1
330
32
100
AcDbEntity
  8
1
  6
Continuous
 62
     7
100
AcDbLine
 10
1557.275187102159
 20
838.4485632515184
 30
0.0
 11
1582.275187102159
 21
838.4485632515184
 31
0.0
  0
LINE
  5
E2
330
32
100
AcDbEntity
  8
1
  6
Continuous
 62
     7
100
AcDbLine
 10
1557.275187102159
 20
845.4485632515183
 30
0.0
 11
1557.275187102159
 21
838.4485632515184
 31
0.0
  0
LINE
  5
E3
330
32
100
AcDbEntity
  8
1
  6
Continuous
 62
     7
100
AcDbLine
 10
1582.275187102159
 20
838.4485632515184
 30
0.0
 11
1597.275187102159
 21
838.4485632515184
 31
0.0
  0
LINE
  5
E4
330
32
100
AcDbEntity
  8
1
  6
Continuous
 62
     7
100
AcDbLine
 10
1582.275187102159
 20
845.4485632515183
 30
0.0
 11
1582.275187102159
 21
838.4485632515184
 31
0.0
  0
LINE
  5
E5
330
32
100
AcDbEntity
  8
1
  6
Continuous
 62
     7
100
AcDbLine
 10
1445.275187102159
 20
845.4485632515183
 30
0.0
 11
1445.275187102159
 21
838.4485632515184
 31
0.0
  0
LINE
  5
E6
330
32
100
AcDbEntity
  8
1
  6
Continuous
 62
     7
100
AcDbLine
 10
1445.275187102159
 20
838.4485632515184
 30
0.0
 11
1542.275187102159
 21
838.4485632515184
 31
0.0
  0
LINE
  5
E7
330
32
100
AcDbEntity
  8
1
  6
Continuous
 62
     7
100
AcDbLine
 10
1438.275187102159
 20
838.4485632515184
 30
0.0
 11
1445.275187102159
 21
838.4485632515184
 31
0.0
  0
LINE
  5
E8
330
32
100
AcDbEntity
  8
1
  6
Continuous
 62
     7
100
AcDbLine
 10
1438.275187102159
 20
845.4485632515183
 30
0.0
 11
1438.275187102159
 21
838.4485632515184
 31
0.0
  0
LINE
  5
E9
330
32
100
AcDbEntity
  8
1
  6
Continuous
 62
     7
100
AcDbLine
 10
1597.275187102159
 20
845.4485632515183
 30
0.0
 11
1597.275187102159
 21
838.4485632515184
 31
0.0
  0
LINE
  5
EA
330
32
100
AcDbEntity
  8
1
  6
Continuous
 62
     5
100
AcDbLine
 10
1597.275187102159
 20
838.4485632515184
 30
0.0
 11
1597.275187102159
 21
831.4485632515184
 31
0.0
  0
LINE
  5
EB
330
32
100
AcDbEntity
  8
1
  6
Continuous
 62
     7
100
AcDbLine
 10
1597.275187102159
 20
838.4485632515184
 30
0.0
 11
1622.275187102159
 21
838.4485632515184
 31
0.0
  0
LINE
  5
EC
330
32
100
AcDbEntity
  8
1
  6
Continuous
 62
     5
100
AcDbLine
 10
1597.275187102159
 20
831.4485632515184
 30
0.0
 11
1622.275187102159
 21
831.4485632515184
 31
0.0
  0
LINE
  5
ED
330
32
100
AcDbEntity
  8
1
  6
Continuous
 62
     5
100
AcDbLine
 10
1580.275187102159
 20
617.4485632515184
 30
0.0
 11
1622.275187102159
 21
617.4485632515184
 31
0.0
  0
LINE
  5
EE
330
32
100
AcDbEntity
  8
1
  6
Continuous
 62
     5
100
AcDbLine
 10
1580.275187102159
 20
624.4485632515184
 30
0.0
 11
1622.275187102159
 21
624.4485632515184
 31
0.0
  0
LINE
  5
EF
330
32
100
AcDbEntity
  8
1
  6
Continuous
 62
     5
100
AcDbLine
 10
1580.275187102159
 20
617.4485632515184
 30
0.0
 11
1580.275187102159
 21
610.4485632515184
 31
0.0
  0
LINE
  5
F0
330
32
100
AcDbEntity
  8
1
  6
Continuous
 62
     5
100
AcDbLine
 10
1580.275187102159
 20
624.4485632515184
 30
0.0
 11
1580.275187102159
 21
617.4485632515184
 31
0.0
  0
LINE
  5
F1
330
32
100
AcDbEntity
  8
1
  6
Continuous
 62
     5
100
AcDbLine
 10
1530.275187102159
 20
617.4485632515184
 30
0.0
 11
1580.275187102159
 21
617.4485632515184
 31
0.0
  0
LINE
  5
F2
330
32
100
AcDbEntity
  8
1
  6
Continuous
 62
     5
100
AcDbLine
 10
1530.275187102159
 20
624.4485632515184
 30
0.0
 11
1580.275187102159
 21
624.4485632515184
 31
0.0
  0
LINE
  5
F3
330
32
100
AcDbEntity
  8
1
  6
Continuous
 62
     5
100
AcDbLine
 10
1530.275187102159
 20
617.4485632515184
 30
0.0
 11
1530.275187102159
 21
610.4485632515184
 31
0.0
  0
LINE
  5
F4
330
32
100
AcDbEntity
  8
1
  6
Continuous
 62
     5
100
AcDbLine
 10
1523.275187102159
 20
617.4485632515184
 30
0.0
 11
1530.275187102159
 21
617.4485632515184
 31
0.0
  0
LINE
  5
F5
330
32
100
AcDbEntity
  8
1
  6
Continuous
 62
     5
100
AcDbLine
 10
1530.275187102159
 20
624.4485632515184
 30
0.0
 11
1530.275187102159
 21
617.4485632515184
 31
0.0
  0
LINE
  5
F6
330
32
100
AcDbEntity
  8
1
  6
Continuous
 62
     5
100
AcDbLine
 10
1523.275187102159
 20
624.4485632515184
 30
0.0
 11
1530.275187102159
 21
624.4485632515184
 31
0.0
  0
LINE
  5
F7
330
32
100
AcDbEntity
  8
1
  6
Continuous
 62
     5
100
AcDbLine
 10
1523.275187102159
 20
617.4485632515184
 30
0.0
 11
1523.275187102159
 21
610.4485632515184
 31
0.0
  0
LINE
  5
F8
330
32
100
AcDbEntity
  8
1
  6
Continuous
 62
     5
100
AcDbLine
 10
1523.275187102159
 20
624.4485632515184
 30
0.0
 11
1523.275187102159
 21
617.4485632515184
 31
0.0
  0
LINE
  5
F9
330
32
100
AcDbEntity
  8
1
  6
Continuous
 62
     5
100
AcDbLine
 10
1495.275187102159
 20
617.4485632515184
 30
0.0
 11
1523.275187102159
 21
617.4485632515184
 31
0.0
  0
LINE
  5
FA
330
32
100
AcDbEntity
  8
1
  6
Continuous
 62
     5
100
AcDbLine
 10
1495.275187102159
 20
624.4485632515184
 30
0.0
 11
1523.275187102159
 21
624.4485632515184
 31
0.0
  0
LINE
  5
FB
330
32
100
AcDbEntity
  8
1
  6
Continuous
 62
     5
100
AcDbLine
 10
1495.275187102159
 20
617.4485632515184
 30
0.0
 11
1495.275187102159
 21
610.4485632515184
 31
0.0
  0
LINE
  5
FC
330
32
100
AcDbEntity
  8
1
  6
Continuous
 62
     5
100
AcDbLine
 10
1495.275187102159
 20
624.4485632515184
 30
0.0
 11
1495.275187102159
 21
617.4485632515184
 31
0.0
  0
LINE
  5
FD
330
32
100
AcDbEntity
  8
1
  6
Continuous
 62
     5
100
AcDbLine
 10
1445.275187102159
 20
617.4485632515184
 30
0.0
 11
1495.275187102159
 21
617.4485632515184
 31
0.0
  0
LINE
  5
FE
330
32
100
AcDbEntity
  8
1
  6
Continuous
 62
     5
100
AcDbLine
 10
1445.275187102159
 20
624.4485632515184
 30
0.0
 11
1495.275187102159
 21
624.4485632515184
 31
0.0
  0
LINE
  5
FF
330
32
100
AcDbEntity
  8
1
  6
Continuous
 62
     5
100
AcDbLine
 10
1445.275187102159
 20
617.4485632515184
 30
0.0
 11
1445.275187102159
 21
610.4485632515184
 31
0.0
  0
LINE
  5
100
330
32
100
AcDbEntity
  8
1
  6
Continuous
 62
     5
100
AcDbLine
 10
1445.275187102159
 20
624.4485632515184
 30
0.0
 11
1445.275187102159
 21
617.4485632515184
 31
0.0
  0
LINE
  5
101
330
32
100
AcDbEntity
  8
1
  6
Continuous
 62
     5
100
AcDbLine
 10
1438.275187102159
 20
617.4485632515184
 30
0.0
 11
1445.275187102159
 21
617.4485632515184
 31
0.0
  0
LINE
  5
102
330
32
100
AcDbEntity
  8
1
  6
Continuous
 62
     5
100
AcDbLine
 10
1438.275187102159
 20
624.4485632515184
 30
0.0
 11
1445.275187102159
 21
624.4485632515184
 31
0.0
  0
ARC
  5
103
330
32
100
AcDbEntity
  8
1
  6
Continuous
 62
     7
100
AcDbCircle
 10
1464.452254426488
 20
579.571693640682
 30
0.0
 40
1.159420289855694
100
AcDbArc
 50
134.9999999999921
 51
-45.0
  0
ARC
  5
104
330
32
100
AcDbEntity
  8
1
  6
Continuous
 62
     7
100
AcDbCircle
 10
1469.268778878048
 20
584.3882180922433
 30
0.0
 40
1.159420289855372
100
AcDbArc
 50
-44.99999999999206
 51
135.0
  0
ARC
  5
105
330
32
100
AcDbEntity
  8
1
  6
Continuous
 62
     7
100
AcDbCircle
 10
1453.454719550819
 20
584.733579054868
 30
0.0
 40
0.3623188405803042
100
AcDbArc
 50
178.1475627145735
 51
-17.47288527026686
  0
ARC
  5
106
330
32
100
AcDbEntity
  8
1
  6
Continuous
 62
     7
100
AcDbCircle
 10
1460.846023898645
 20
584.733579054868
 30
0.0
 40
0.3623188405792112
100
AcDbArc
 50
-162.5271147297223
 51
1.852437285431209
  0
CIRCLE
  5
107
330
32
100
AcDbEntity
  8
1
  6
Continuous
 62
     7
100
AcDbCircle
 10
1466.860516652268
 20
582.0799558664621
 30
0.0
 40
5.289855072463978
  0
CIRCLE
  5
108
330
32
100
AcDbEntity
  8
1
  6
Continuous
 62
     7
100
AcDbCircle
 10
1441.973762715948
 20
592.7838265883082
 30
0.0
 40
1.123977615884086
  0
CIRCLE
  5
109
330
32
100
AcDbEntity
  8
1
  6
Continuous
 62
     7
100
AcDbCircle
 10
1441.973762715948
 20
592.7838265883082
 30
0.0
 40
2.3107280855138
  0
CIRCLE
  5
10A
330
32
100
AcDbEntity
  8
1
  6
Continuous
 62
     2
100
AcDbCircle
 10
1562.508513518605
 20
758.0
 30
0.0
 40
4.000000000000031
  0
CIRCLE
  5
10B
330
32
100
AcDbEntity
  8
1
  6
Continuous
 62
     2
100
AcDbCircle
 10
1527.880605326508
 20
651.1192896289882
 30
0.0
 40
4.000000000000031
  0
CIRCLE
  5
10C
330
32
100
AcDbEntity
  8
1
  6
Continuous
 62
     2
100
AcDbCircle
 10
1485.7806618249
 20
758.0
 30
0.0
 40
4.00000000000003
  0
ARC
  5
10D
330
32
100
AcDbEntity
  8
1
  6
Continuous
 62
     7
100
AcDbCircle
 10
1483.599647087051
 20
578.0669123882012
 30
0.0
 40
0.3623188405799738
100
AcDbArc
 50
180.0
 51
-90.0
  0
ARC
  5
10E
330
32
100
AcDbEntity
  8
1
  6
Continuous
 62
     7
100
AcDbCircle
 10
1480.41124128995
 20
578.0669123882012
 30
0.0
 40
0.3623188405790643
100
AcDbArc
 50
-90.0
 51
0.0
  0
ARC
  5
10F
330
32
100
AcDbEntity
  8
1
  6
Continuous
 62
     7
100
AcDbCircle
 10
1483.599647087051
 20
585.892999344723
 30
0.0
 40
0.3623188405799738
100
AcDbArc
 50
90.0
 51
180.0
  0
ARC
  5
110
330
32
100
AcDbEntity
  8
1
  6
Continuous
 62
     7
100
AcDbCircle
 10
1480.556168826181
 20
586.0446200047712
 30
0.0
 40
0.2173913043479843
100
AcDbArc
 50
0.0
 51
164.9999999999595
  0
ARC
  5
111
330
32
100
AcDbEntity
  8
1
  6
Continuous
 62
     7
100
AcDbCircle
 10
1478.454719550819
 20
582.6815605455681
 30
0.0
 40
0.2173913043475559
100
AcDbArc
 50
-164.9999999999595
 51
-15.00000000002501
  0
ARC
  5
112
330
32
100
AcDbEntity
  8
1
  6
Continuous
 62
     7
100
AcDbCircle
 10
1474.541676072558
 20
586.0860976037184
 30
0.0
 40
0.2173913043477755
100
AcDbArc
 50
15.00000000002501
 51
180.0
  0
ARC
  5
113
330
32
100
AcDbEntity
  8
1
  6
Continuous
 62
     7
100
AcDbCircle
 10
1474.541676072558
 20
577.9219848519701
 30
0.0
 40
0.2173913043479843
100
AcDbArc
 50
180.0
 51
-90.0
  0
ARC
  5
114
330
32
100
AcDbEntity
  8
1
  6
Continuous
 62
     7
100
AcDbCircle
 10
1473.382255782703
 20
577.9219848519701
 30
0.0
 40
0.2173913043479843
100
AcDbArc
 50
-90.0
 51
0.0
  0
ARC
  5
115
330
32
100
AcDbEntity
  8
1
  6
Continuous
 62
     7
100
AcDbCircle
 10
1473.382255782703
 20
586.037926880955
 30
0.0
 40
0.2173913043479843
100
AcDbArc
 50
0.0
 51
90.0
  0
ARC
  5
116
330
32
100
AcDbEntity
  8
1
  6
Continuous
 62
     7
100
AcDbCircle
 10
1474.759067376906
 20
577.5596660113901
 30
0.0
 40
0.1449275362319895
100
AcDbArc
 50
0.0
 51
90.0
  0
ARC
  5
117
330
32
100
AcDbEntity
  8
1
  6
Continuous
 62
     7
100
AcDbCircle
 10
1473.019936942123
 20
577.5596660113901
 30
0.0
 40
0.1449275362319895
100
AcDbArc
 50
90.0
 51
180.0
  0
ARC
  5
118
330
32
100
AcDbEntity
  8
1
  6
Continuous
 62
     7
100
AcDbCircle
 10
1480.121386217486
 20
577.5596660113901
 30
0.0
 40
0.1449275362319895
100
AcDbArc
 50
90.0
 51
180.0
  0
ARC
  5
119
330
32
100
AcDbEntity
  8
1
  6
Continuous
 62
     7
100
AcDbCircle
 10
1483.889502159515
 20
577.5596660113901
 30
0.0
 40
0.14492753623108
100
AcDbArc
 50
0.0
 51
90.0
  0
ARC
  5
11A
330
32
100
AcDbEntity
  8
1
  6
Continuous
 62
     7
100
AcDbCircle
 10
1483.889502159515
 20
586.4002457215351
 30
0.0
 40
0.1449275362319895
100
AcDbArc
 50
-90.0
 51
0.0
  0
ARC
  5
11B
330
32
100
AcDbEntity
  8
1
  6
Continuous
 62
     7
100
AcDbCircle
 10
1473.019936942123
 20
586.4002457215351
 30
0.0
 40
0.1449275362319895
100
AcDbArc
 50
180.0
 51
-90.0
  0
ARC
  5
11C
330
32
100
AcDbEntity
  8
1
  6
Continuous
 62
     7
100
AcDbCircle
 10
1455.121386217486
 20
577.5596660113901
 30
0.0
 40
0.1449275362319895
100
AcDbArc
 50
90.0
 51
180.0
  0
ARC
  5
11D
330
32
100
AcDbEntity
  8
1
  6
Continuous
 62
     7
100
AcDbCircle
 10
1459.179357231979
 20
577.5596660113901
 30
0.0
 40
0.1449275362308526
100
AcDbArc
 50
0.0
 51
90.0
  0
ARC
  5
11E
330
32
100
AcDbEntity
  8
1
  6
Continuous
 62
     7
100
AcDbCircle
 10
1458.889502159515
 20
578.0669123882012
 30
0.0
 40
0.3623188405799738
100
AcDbArc
 50
180.0
 51
-90.0
  0
ARC
  5
11F
330
32
100
AcDbEntity
  8
1
  6
Continuous
 62
     7
100
AcDbCircle
 10
1455.411241289949
 20
578.0669123882012
 30
0.0
 40
0.3623188405790643
100
AcDbArc
 50
-90.0
 51
0.0
  0
ARC
  5
120
330
32
100
AcDbEntity
  8
1
  6
Continuous
 62
     7
100
AcDbCircle
 10
1455.057801687373
 20
585.2408254316801
 30
0.0
 40
1.014492753623017
100
AcDbArc
 50
90.0
 51
162.527114729737
  0
ARC
  5
121
330
32
100
AcDbEntity
  8
1
  6
Continuous
 62
     7
100
AcDbCircle
 10
1459.242941762091
 20
585.2408254316801
 30
0.0
 40
1.014492753623521
100
AcDbArc
 50
17.47288527026305
 51
90.0
  0
ARC
  5
122
330
32
100
AcDbEntity
  8
1
  6
Continuous
 62
     7
100
AcDbCircle
 10
1459.034429695747
 20
585.7480718084913
 30
0.0
 40
0.5072463768119633
100
AcDbArc
 50
90.0
 51
180.0
  0
ARC
  5
123
330
32
100
AcDbEntity
  8
1
  6
Continuous
 62
     7
100
AcDbCircle
 10
1455.266313753717
 20
585.7480718084913
 30
0.0
 40
0.5072463768119633
100
AcDbArc
 50
0.0
 51
90.0
  0
ARC
  5
124
330
32
100
AcDbEntity
  8
1
  6
Continuous
 62
     7
100
AcDbCircle
 10
1453.599647087051
 20
577.5596660113901
 30
0.0
 40
0.1449275362319895
100
AcDbArc
 50
0.0
 51
90.0
  0
ARC
  5
125
330
32
100
AcDbEntity
  8
1
  6
Continuous
 62
     7
100
AcDbCircle
 10
1449.541676072558
 20
577.5596660113901
 30
0.0
 40
0.1449275362319895
100
AcDbArc
 50
90.0
 51
180.0
  0
ARC
  5
126
330
32
100
AcDbEntity
  8
1
  6
Continuous
 62
     7
100
AcDbCircle
 10
1446.208342739225
 20
577.5596660113901
 30
0.0
 40
0.14492753623108
100
AcDbArc
 50
0.0
 51
90.0
  0
ARC
  5
127
330
32
100
AcDbEntity
  8
1
  6
Continuous
 62
     7
100
AcDbCircle
 10
1444.179357231978
 20
577.5596660113901
 30
0.0
 40
0.1449275362319895
100
AcDbArc
 50
90.0
 51
180.0
  0
ARC
  5
128
330
32
100
AcDbEntity
  8
1
  6
Continuous
 62
     7
100
AcDbCircle
 10
1453.103293936662
 20
578.0669123882012
 30
0.0
 40
0.3623188405801918
100
AcDbArc
 50
-163.0000000001345
 51
-90.0
  0
ARC
  5
129
330
32
100
AcDbEntity
  8
1
  6
Continuous
 62
     7
100
AcDbCircle
 10
1444.534472005498
 20
578.0669123882012
 30
0.0
 40
0.3623188405790643
100
AcDbArc
 50
-90.0
 51
-16.99999999986553
  0
ARC
  5
12A
330
32
100
AcDbEntity
  8
1
  6
Continuous
 62
     7
100
AcDbCircle
 10
1449.94290820543
 20
577.9944486200852
 30
0.0
 40
0.2898550724630695
100
AcDbArc
 50
-90.0
 51
17.0000000002488
  0
ARC
  5
12B
330
32
100
AcDbEntity
  8
1
  6
Continuous
 62
     7
100
AcDbCircle
 10
1449.233967494801
 20
580.3132891997961
 30
0.0
 40
0.2898550724637671
100
AcDbArc
 50
17.00000000007688
 51
90.0
  0
ARC
  5
12C
330
32
100
AcDbEntity
  8
1
  6
Continuous
 62
     7
100
AcDbCircle
 10
1445.854108980415
 20
577.9219848519701
 30
0.0
 40
0.2173913043480306
100
AcDbArc
 50
163.0000000000023
 51
-90.0
  0
ARC
  5
12D
330
32
100
AcDbEntity
  8
1
  6
Continuous
 62
     7
100
AcDbCircle
 10
1446.607358485458
 20
580.3857529679112
 30
0.0
 40
0.2173913043479843
100
AcDbArc
 50
90.0
 51
162.9999999997731
  0
ARC
  5
12E
330
32
100
AcDbEntity
  8
1
  6
Continuous
 62
     7
100
AcDbCircle
 10
1448.933117507242
 20
581.5451732577671
 30
0.0
 40
0.2173913043479843
100
AcDbArc
 50
-90.0
 51
16.99999999999767
  0
ARC
  5
12F
330
32
100
AcDbEntity
  8
1
  6
Continuous
 62
     7
100
AcDbCircle
 10
1446.961828840772
 20
581.5451732577671
 30
0.0
 40
0.2173913043469434
100
AcDbArc
 50
162.9999999999147
 51
-90.0
  0
ARC
  5
130
330
32
100
AcDbEntity
  8
1
  6
Continuous
 62
     7
100
AcDbCircle
 10
1447.947473174007
 20
584.7690706060234
 30
0.0
 40
0.2173913043478977
100
AcDbArc
 50
16.99999999988305
 51
163.000000000117
  0
LINE
  5
131
330
32
100
AcDbEntity
  8
1
 62
     2
100
AcDbLine
 10
1550.5275528148
 20
737.2483673375239
 30
0.0
 11
1551.331400392093
 21
740.2483673375238
 31
0.0
  0
LINE
  5
132
330
32
100
AcDbEntity
  8
1
 62
     2
100
AcDbLine
 10
1550.5275528148
 20
737.2483673375239
 30
0.0
 11
1552.723705237507
 21
739.4445197602306
 31
0.0
  0
LEADER
  5
133
330
32
100
AcDbEntity
  8
1
  6
Continuous
 62
     2
100
AcDbLeader
  3
Standard
 71
     0
 76
     2
 10
1550.5275528148
 20
737.2483673375239
 30
0.0
 10
1560.508513518605
 20
754.5358983848622
 30
0.0
  0
LINE
  5
134
330
32
100
AcDbEntity
  8
1
 62
     2
100
AcDbLine
 10
1512.602661968906
 20
677.5814637595154
 30
0.0
 11
1514.798814391613
 21
675.3853113368087
 31
0.0
  0
LINE
  5
135
330
32
100
AcDbEntity
  8
1
 62
     2
100
AcDbLine
 10
1512.602661968906
 20
677.5814637595154
 30
0.0
 11
1513.406509546199
 21
674.5814637595152
 31
0.0
  0
LEADER
  5
136
330
32
100
AcDbEntity
  8
1
  6
Continuous
 62
     2
100
AcDbLeader
  3
Standard
 71
     0
 76
     2
 10
1512.602661968906
 20
677.5814637595154
 30
0.0
 10
1525.880605326508
 20
654.5833912441261
 30
0.0
  0
LINE
  5
137
330
32
100
AcDbEntity
  8
1
 62
     2
100
AcDbLine
 10
1508.95641609215
 20
736.419727641253
 30
0.0
 11
1506.213073306669
 21
737.8758324756899
 31
0.0
  0
LINE
  5
138
330
32
100
AcDbEntity
  8
1
 62
     2
100
AcDbLine
 10
1508.95641609215
 20
736.419727641253
 30
0.0
 11
1507.308663965853
 21
739.0524228111891
 31
0.0
  0
LEADER
  5
139
330
32
100
AcDbEntity
  8
1
  6
Continuous
 62
     2
100
AcDbLeader
  3
Standard
 71
     0
 76
     2
 10
1508.95641609215
 20
736.419727641253
 30
0.0
 10
1488.708058432752
 20
755.274133330418
 30
0.0
  0
TEXT
  5
13B
330
32
100
AcDbEntity
  8
1
 62
     3
100
AcDbText
 10
1457.78941733083
 20
590.955225106494
 30
0.0
 40
4.0
  1
1:1
 41
0.63
  7
CONVERTER_11
100
AcDbText
  0
TEXT
  5
13C
330
32
100
AcDbEntity
  8
1
 62
     3
100
AcDbText
 10
1496.42917528097
 20
611.639779345733
 30
0.0
 40
4.0
  1
SPCC t=2
 41
0.63
  7
CONVERTER_11
100
AcDbText
  0
MTEXT
  5
13E
330
32
100
AcDbEntity
  8
1
 62
     3
100
AcDbMText
 10
1441.683752958594
 20
572.6158928151102
 30
0.0
 40
5.0
 41
0.0
 71
     4
 72
     1
  1
アトムリビンテック株式会社
  7
CONVERTER_12
 73
     1
 44
1.32052821128451
1001
ACAD
1000
MTEXTBEGIN
1070
    73
1070
     1
1070
    44
1040
1.32052821128451
1070
    74
1070
     0
1000
MTEXTEND
  0
MTEXT
  5
13F
330
32
100
AcDbEntity
  8
1
 62
     3
100
AcDbMText
 10
1498.145134766477
 20
575.9323425352472
 30
0.0
 40
2.5
 41
0.0
 71
     4
 72
     1
  1
〒110-8680
  7
CONVERTER_12
 73
     1
 44
1.32052821128451
1001
ACAD
1000
MTEXTBEGIN
1070
    73
1070
     1
1070
    44
1040
1.32052821128451
1070
    74
1070
     0
1000
MTEXTEND
  0
MTEXT
  5
140
330
32
100
AcDbEntity
  8
1
 62
     3
100
AcDbMText
 10
1498.128485063442
 20
572.0888497437754
 30
0.0
 40
2.5
 41
0.0
 71
     4
 72
     1
  1
東京都 台東区 入谷 1-27-4
  7
CONVERTER_12
 73
     1
 44
1.32052821128451
1001
ACAD
1000
MTEXTBEGIN
1070
    73
1070
     1
1070
    44
1040
1.32052821128451
1070
    74
1070
     0
1000
MTEXTEND
  0
MTEXT
  5
141
330
32
100
AcDbEntity
  8
1
 62
     3
100
AcDbMText
 10
1498.191702873413
 20
580.4874165235831
 30
0.0
 40
3.5
 41
0.0
 71
     4
 72
     1
  1
開  発  部
  7
CONVERTER_12
 73
     1
 44
1.32052821128451
1001
ACAD
1000
MTEXTBEGIN
1070
    73
1070
     1
1070
    44
1040
1.32052821128451
1070
    74
1070
     0
1000
MTEXTEND
  0
MTEXT
  5
143
330
32
100
AcDbEntity
  8
1
 62
     4
100
AcDbMText
 10
1601.034353231373
 20
600.2118345541621
 30
0.0
 40
3.0
 41
0.0
 71
     5
 72
     1
  1
備    考
  7
CONVERTER_13
 73
     1
 44
1.200480192076829
1001
ACAD
1000
MTEXTBEGIN
1070
    73
1070
     1
1070
    44
1040
1.200480192076829
1070
    74
1070
     0
1000
MTEXTEND
  0
MTEXT
  5
144
330
32
100
AcDbEntity
  8
1
 62
     4
100
AcDbMText
 10
1555.351671084273
 20
599.9485632515184
 30
0.0
 40
3.0
 41
0.0
 71
     5
 72
     1
  1
表   面   処   理
  7
CONVERTER_13
 73
     1
 44
1.200480192076829
1001
ACAD
1000
MTEXTBEGIN
1070
    73
1070
     1
1070
    44
1040
1.200480192076829
1070
    74
1070
     0
1000
MTEXTEND
  0
MTEXT
  5
145
330
32
100
AcDbEntity
  8
1
 62
     4
100
AcDbMText
 10
1526.775187102159
 20
599.9485632515184
 30
0.0
 40
3.0
 41
0.0
 71
     5
 72
     1
  1
数量
  7
CONVERTER_13
 73
     1
 44
1.200480192076829
1001
ACAD
1000
MTEXTBEGIN
1070
    73
1070
     1
1070
    44
1040
1.200480192076829
1070
    74
1070
     0
1000
MTEXTEND
  0
MTEXT
  5
146
330
32
100
AcDbEntity
  8
1
 62
     4
100
AcDbMText
 10
1509.207688107248
 20
599.9485632515184
 30
0.0
 40
3.0
 41
0.0
 71
     5
 72
     1
  1
材   質
  7
CONVERTER_13
 73
     1
 44
1.200480192076829
1001
ACAD
1000
MTEXTBEGIN
1070
    73
1070
     1
1070
    44
1040
1.200480192076829
1070
    74
1070
     0
1000
MTEXTEND
  0
MTEXT
  5
147
330
32
100
AcDbEntity
  8
1
 62
     4
100
AcDbMText
 10
1470.075187102159
 20
599.9485632515184
 30
0.0
 40
3.0
 41
0.0
 71
     5
 72
     1
  1
部     品     名
  7
CONVERTER_13
 73
     1
 44
1.200480192076829
1001
ACAD
1000
MTEXTBEGIN
1070
    73
1070
     1
1070
    44
1040
1.200480192076829
1070
    74
1070
     0
1000
MTEXTEND
  0
MTEXT
  5
148
330
32
100
AcDbEntity
  8
1
 62
     4
100
AcDbMText
 10
1441.575187102159
 20
599.9485632515184
 30
0.0
 40
3.0
 41
0.0
 71
     5
 72
     1
  1
部番
  7
CONVERTER_13
 73
     1
 44
1.200480192076829
1001
ACAD
1000
MTEXTBEGIN
1070
    73
1070
     1
1070
    44
1040
1.200480192076829
1070
    74
1070
     0
1000
MTEXTEND
  0
MTEXT
  5
149
330
32
100
AcDbEntity
  8
1
 62
     4
100
AcDbMText
 10
1566.872137459546
 20
573.4679162518331
 30
0.0
 40
3.0
 41
0.0
 71
     4
 72
     1
  1
図
  7
CONVERTER_12
 73
     1
 44
1.32052821128451
1001
ACAD
1000
MTEXTBEGIN
1070
    73
1070
     1
1070
    44
1040
1.32052821128451
1070
    74
1070
     0
1000
MTEXTEND
  0
MTEXT
  5
14A
330
32
100
AcDbEntity
  8
1
 62
     4
100
AcDbMText
 10
1566.874589591756
 20
570.3175131863704
 30
0.0
 40
3.0
 41
0.0
 71
     4
 72
     1
  1
番
  7
CONVERTER_12
 73
     1
 44
1.32052821128451
1001
ACAD
1000
MTEXTBEGIN
1070
    73
1070
     1
1070
    44
1040
1.32052821128451
1070
    74
1070
     0
1000
MTEXTEND
  0
MTEXT
  5
14B
330
32
100
AcDbEntity
  8
1
 62
     4
100
AcDbMText
 10
1566.872137459546
 20
587.4679162518332
 30
0.0
 40
3.0
 41
0.0
 71
     4
 72
     1
  1
品
  7
CONVERTER_12
 73
     1
 44
1.32052821128451
1001
ACAD
1000
MTEXTBEGIN
1070
    73
1070
     1
1070
    44
1040
1.32052821128451
1070
    74
1070
     0
1000
MTEXTEND
  0
MTEXT
  5
14C
330
32
100
AcDbEntity
  8
1
 62
     4
100
AcDbMText
 10
1566.874589591756
 20
584.3175131863704
 30
0.0
 40
3.0
 41
0.0
 71
     4
 72
     1
  1
番
  7
CONVERTER_12
 73
     1
 44
1.32052821128451
1001
ACAD
1000
MTEXTBEGIN
1070
    73
1070
     1
1070
    44
1040
1.32052821128451
1070
    74
1070
     0
1000
MTEXTEND
  0
MTEXT
  5
14D
330
32
100
AcDbEntity
  8
1
 62
     4
100
AcDbMText
 10
1566.872137459546
 20
580.4679162518332
 30
0.0
 40
3.0
 41
0.0
 71
     4
 72
     1
  1
図
  7
CONVERTER_12
 73
     1
 44
1.32052821128451
1001
ACAD
1000
MTEXTBEGIN
1070
    73
1070
     1
1070
    44
1040
1.32052821128451
1070
    74
1070
     0
1000
MTEXTEND
  0
MTEXT
  5
14E
330
32
100
AcDbEntity
  8
1
 62
     4
100
AcDbMText
 10
1566.874589591756
 20
577.3175131863704
 30
0.0
 40
3.0
 41
0.0
 71
     4
 72
     1
  1
名
  7
CONVERTER_12
 73
     1
 44
1.32052821128451
1001
ACAD
1000
MTEXTBEGIN
1070
    73
1070
     1
1070
    44
1040
1.32052821128451
1070
    74
1070
     0
1000
MTEXTEND
  0
MTEXT
  5
14F
330
32
100
AcDbEntity
  8
1
 62
     4
100
AcDbMText
 10
1473.872137459545
 20
594.4679162518332
 30
0.0
 40
3.0
 41
0.0
 71
     4
 72
     1
  1
名
  7
CONVERTER_12
 73
     1
 44
1.32052821128451
1001
ACAD
1000
MTEXTBEGIN
1070
    73
1070
     1
1070
    44
1040
1.32052821128451
1070
    74
1070
     0
1000
MTEXTEND
  0
MTEXT
  5
150
330
32
100
AcDbEntity
  8
1
 62
     4
100
AcDbMText
 10
1473.874589591756
 20
591.3175131863704
 30
0.0
 40
3.0
 41
0.0
 71
     4
 72
     1
  1
称
  7
CONVERTER_12
 73
     1
 44
1.32052821128451
1001
ACAD
1000
MTEXTBEGIN
1070
    73
1070
     1
1070
    44
1040
1.32052821128451
1070
    74
1070
     0
1000
MTEXTEND
  0
MTEXT
  5
151
330
32
100
AcDbEntity
  8
1
 62
     4
100
AcDbMText
 10
1566.872137459546
 20
594.4679162518332
 30
0.0
 40
3.0
 41
0.0
 71
     4
 72
     1
  1
品
  7
CONVERTER_12
 73
     1
 44
1.32052821128451
1001
ACAD
1000
MTEXTBEGIN
1070
    73
1070
     1
1070
    44
1040
1.32052821128451
1070
    74
1070
     0
1000
MTEXTEND
  0
MTEXT
  5
152
330
32
100
AcDbEntity
  8
1
 62
     4
100
AcDbMText
 10
1566.874589591756
 20
591.3175131863704
 30
0.0
 40
3.0
 41
0.0
 71
     4
 72
     1
  1
名
  7
CONVERTER_12
 73
     1
 44
1.32052821128451
1001
ACAD
1000
MTEXTBEGIN
1070
    73
1070
     1
1070
    44
1040
1.32052821128451
1070
    74
1070
     0
1000
MTEXTEND
  0
MTEXT
  5
153
330
32
100
AcDbEntity
  8
1
 62
     4
100
AcDbMText
 10
1528.374589591756
 20
577.3175131863704
 30
0.0
 40
3.0
 41
0.0
 71
     4
 72
     1
  1
計
  7
CONVERTER_12
 73
     1
 44
1.32052821128451
1001
ACAD
1000
MTEXTBEGIN
1070
    73
1070
     1
1070
    44
1040
1.32052821128451
1070
    74
1070
     0
1000
MTEXTEND
  0
MTEXT
  5
154
330
32
100
AcDbEntity
  8
1
 62
     4
100
AcDbMText
 10
1528.372137459546
 20
580.4679162518332
 30
0.0
 40
3.0
 41
0.0
 71
     4
 72
     1
  1
設
  7
CONVERTER_12
 73
     1
 44
1.32052821128451
1001
ACAD
1000
MTEXTBEGIN
1070
    73
1070
     1
1070
    44
1040
1.32052821128451
1070
    74
1070
     0
1000
MTEXTEND
  0
MTEXT
  5
155
330
32
100
AcDbEntity
  8
1
 62
     4
100
AcDbMText
 10
1528.374589591756
 20
570.3175131863704
 30
0.0
 40
3.0
 41
0.0
 71
     4
 72
     1
  1
図
  7
CONVERTER_12
 73
     1
 44
1.32052821128451
1001
ACAD
1000
MTEXTBEGIN
1070
    73
1070
     1
1070
    44
1040
1.32052821128451
1070
    74
1070
     0
1000
MTEXTEND
  0
MTEXT
  5
156
330
32
100
AcDbEntity
  8
1
 62
     4
100
AcDbMText
 10
1528.372137459546
 20
573.4679162518331
 30
0.0
 40
3.0
 41
0.0
 71
     4
 72
     1
  1
作
  7
CONVERTER_12
 73
     1
 44
1.32052821128451
1001
ACAD
1000
MTEXTBEGIN
1070
    73
1070
     1
1070
    44
1040
1.32052821128451
1070
    74
1070
     0
1000
MTEXTEND
  0
MTEXT
  5
157
330
32
100
AcDbEntity
  8
1
 62
     4
100
AcDbMText
 10
1528.374589591755
 20
584.3175131863704
 30
0.0
 40
3.0
 41
0.0
 71
     4
 72
     1
  1
図
  7
CONVERTER_12
 73
     1
 44
1.32052821128451
1001
ACAD
1000
MTEXTBEGIN
1070
    73
1070
     1
1070
    44
1040
1.32052821128451
1070
    74
1070
     0
1000
MTEXTEND
  0
MTEXT
  5
158
330
32
100
AcDbEntity
  8
1
 62
     4
100
AcDbMText
 10
1528.372137459545
 20
587.4679162518332
 30
0.0
 40
3.0
 41
0.0
 71
     4
 72
     1
  1
検
  7
CONVERTER_12
 73
     1
 44
1.32052821128451
1001
ACAD
1000
MTEXTBEGIN
1070
    73
1070
     1
1070
    44
1040
1.32052821128451
1070
    74
1070
     0
1000
MTEXTEND
  0
MTEXT
  5
159
330
32
100
AcDbEntity
  8
1
 62
     4
100
AcDbMText
 10
1528.374589591755
 20
591.3175131863704
 30
0.0
 40
3.0
 41
0.0
 71
     4
 72
     1
  1
認
  7
CONVERTER_12
 73
     1
 44
1.32052821128451
1001
ACAD
1000
MTEXTBEGIN
1070
    73
1070
     1
1070
    44
1040
1.32052821128451
1070
    74
1070
     0
1000
MTEXTEND
  0
MTEXT
  5
15A
330
32
100
AcDbEntity
  8
1
 62
     4
100
AcDbMText
 10
1528.372137459545
 20
594.4679162518332
 30
0.0
 40
3.0
 41
0.0
 71
     4
 72
     1
  1
承
  7
CONVERTER_12
 73
     1
 44
1.32052821128451
1001
ACAD
1000
MTEXTBEGIN
1070
    73
1070
     1
1070
    44
1040
1.32052821128451
1070
    74
1070
     0
1000
MTEXTEND
  0
MTEXT
  5
15B
330
32
100
AcDbEntity
  8
1
 62
     4
100
AcDbMText
 10
1451.874589591755
 20
591.3175131863704
 30
0.0
 40
3.0
 41
0.0
 71
     4
 72
     1
  1
度
  7
CONVERTER_12
 73
     1
 44
1.32052821128451
1001
ACAD
1000
MTEXTBEGIN
1070
    73
1070
     1
1070
    44
1040
1.32052821128451
1070
    74
1070
     0
1000
MTEXTEND
  0
MTEXT
  5
15C
330
32
100
AcDbEntity
  8
1
 62
     4
100
AcDbMText
 10
1451.872137459545
 20
594.4679162518332
 30
0.0
 40
3.0
 41
0.0
 71
     4
 72
     1
  1
尺
  7
CONVERTER_12
 73
     1
 44
1.32052821128451
1001
ACAD
1000
MTEXTBEGIN
1070
    73
1070
     1
1070
    44
1040
1.32052821128451
1070
    74
1070
     0
1000
MTEXTEND
  0
MTEXT
  5
15D
330
32
100
AcDbEntity
  8
1
 62
     3
100
AcDbMText
 10
1466.53853847756
 20
592.984895979524
 30
0.0
 40
3.5
 41
0.0
 71
     4
 72
     1
  1
A4T
  7
CONVERTER_11
 73
     1
 44
1.32052821128451
1001
ACAD
1000
MTEXTBEGIN
1070
    73
1070
     1
1070
    44
1040
1.32052821128451
1070
    74
1070
     0
1000
MTEXTEND
  0
MTEXT
  5
15E
330
32
100
AcDbEntity
  8
1
 62
     3
100
AcDbMText
 10
1562.917933130004
 20
841.9103250234092
 30
0.0
 40
4.0
 41
0.0
 71
     4
 72
     1
  1
改正承認日
  7
CONVERTER_12
 73
     1
 44
1.32052821128451
1001
ACAD
1000
MTEXTBEGIN
1070
    73
1070
     1
1070
    44
1040
1.32052821128451
1070
    74
1070
     0
1000
MTEXTEND
  0
MTEXT
  5
15F
330
32
100
AcDbEntity
  8
1
 62
     3
100
AcDbMText
 10
1544.03139869984
 20
841.6727489416393
 30
0.0
 40
4.0
 41
0.0
 71
     4
 72
     1
  1
改正承認
  7
CONVERTER_12
 73
     1
 44
1.32052821128451
1001
ACAD
1000
MTEXTBEGIN
1070
    73
1070
     1
1070
    44
1040
1.32052821128451
1070
    74
1070
     0
1000
MTEXTEND
  0
MTEXT
  5
160
330
32
100
AcDbEntity
  8
1
 62
     3
100
AcDbMText
 10
1584.198836424833
 20
841.9994617754232
 30
0.0
 40
4.0
 41
0.0
 71
     4
 72
     1
  1
改正担当
  7
CONVERTER_12
 73
     1
 44
1.32052821128451
1001
ACAD
1000
MTEXTBEGIN
1070
    73
1070
     1
1070
    44
1040
1.32052821128451
1070
    74
1070
     0
1000
MTEXTEND
  0
MTEXT
  5
161
330
32
100
AcDbEntity
  8
1
 62
     3
100
AcDbMText
 10
1470.28633887867
 20
841.7874535058222
 30
0.0
 40
4.0
 41
0.0
 71
     4
 72
     1
  1
改     正      理      由
  7
CONVERTER_12
 73
     1
 44
1.32052821128451
1001
ACAD
1000
MTEXTBEGIN
1070
    73
1070
     1
1070
    44
1040
1.32052821128451
1070
    74
1070
     0
1000
MTEXTEND
  0
MTEXT
  5
162
330
32
100
AcDbEntity
  8
1
 62
     3
100
AcDbMText
 10
1439.090835118817
 20
842.0640621253749
 30
0.0
 40
4.0
 41
0.0
 71
     4
 72
     1
  1
改番
  7
CONVERTER_12
 73
     1
 44
1.32052821128451
1001
ACAD
1000
MTEXTBEGIN
1070
    73
1070
     1
1070
    44
1040
1.32052821128451
1070
    74
1070
     0
1000
MTEXTEND
  0
MTEXT
  5
163
330
32
100
AcDbEntity
  8
1
 62
     3
100
AcDbMText
 10
1605.717933130004
 20
841.9103250234092
 30
0.0
 40
4.0
 41
0.0
 71
     4
 72
     1
  1
改正日
  7
CONVERTER_12
 73
     1
 44
1.32052821128451
1001
ACAD
1000
MTEXTBEGIN
1070
    73
1070
     1
1070
    44
1040
1.32052821128451
1070
    74
1070
     0
1000
MTEXTEND
  0
TEXT
  5
164
330
32
100
AcDbEntity
  8
1
 62
     3
100
AcDbText
 10
1440.74929706963
 20
605.084671506872
 30
0.0
 40
4.0
  1
1
 41
0.63
  7
CONVERTER_11
100
AcDbText
  0
TEXT
  5
165
330
32
100
AcDbEntity
  8
1
 62
     3
100
AcDbText
 10
1440.74929706963
 20
612.084671506872
 30
0.0
 40
4.0
  1
2
 41
0.63
  7
CONVERTER_11
100
AcDbText
  0
TEXT
  5
166
330
32
100
AcDbEntity
  8
1
 62
     3
100
AcDbText
 10
1440.74929706963
 20
619.084671506872
 30
0.0
 40
4.0
  1
3
 41
0.63
  7
CONVERTER_11
100
AcDbText
  0
TEXT
  5
167
330
32
100
AcDbEntity
  8
1
 62
     3
100
AcDbText
 10
1446.61974430031
 20
604.9073277127648
 30
0.0
 40
4.0
  1
ストッパー本体
 41
0.6230000000000002
  7
CONVERTER_12
100
AcDbText
  0
TEXT
  5
168
330
32
100
AcDbEntity
  8
1
 62
     3
100
AcDbText
 10
1446.9792569888
 20
611.738068794169
 30
0.0
 40
4.0
  1
板ナット
 41
0.6230000000000002
  7
CONVERTER_12
100
AcDbText
  0
TEXT
  5
169
330
32
100
AcDbEntity
  8
1
 62
     3
100
AcDbText
 10
1446.9792569888
 20
619.048160126899
 30
0.0
 40
4.0
  1
+皿小ねじ
 41
0.6230000000000002
  7
CONVERTER_12
100
AcDbText
  0
TEXT
  5
16A
330
32
100
AcDbEntity
  8
1
 62
     3
100
AcDbText
 10
1496.45564115172
 20
604.948586869443
 30
0.0
 40
4.0
  1
POM
 41
0.63
  7
CONVERTER_11
100
AcDbText
  0
TEXT
  5
16B
330
32
100
AcDbEntity
  8
1
 62
     3
100
AcDbText
 10
1496.63826237228
 20
618.8257080362908
 30
0.0
 40
4.0
  1
SWCH10A
 41
0.63
  7
CONVERTER_11
100
AcDbText
  0
TEXT
  5
16C
330
32
100
AcDbEntity
  8
1
 62
     3
100
AcDbText
 10
1526.24929706963
 20
619.084671506872
 30
0.0
 40
4.0
  1
1
 41
0.63
  7
CONVERTER_11
100
AcDbText
  0
TEXT
  5
16D
330
32
100
AcDbEntity
  8
1
 62
     3
100
AcDbText
 10
1526.24929706963
 20
612.084671506872
 30
0.0
 40
4.0
  1
1
 41
0.63
  7
CONVERTER_11
100
AcDbText
  0
TEXT
  5
16E
330
32
100
AcDbEntity
  8
1
 62
     3
100
AcDbText
 10
1526.24929706963
 20
605.084671506872
 30
0.0
 40
4.0
  1
1
 41
0.63
  7
CONVERTER_11
100
AcDbText
  0
TEXT
  5
16F
330
32
100
AcDbEntity
  8
1
 62
     3
100
AcDbText
 10
1532.18105219459
 20
618.7388994144828
 30
0.0
 40
4.0
  1
クロメート処理
 41
0.6230000000000002
  7
CONVERTER_12
100
AcDbText
  0
TEXT
  5
170
330
32
100
AcDbEntity
  8
1
 62
     3
100
AcDbText
 10
1531.94738791381
 20
611.884747178453
 30
0.0
 40
4.0
  1
クロメート処理
 41
0.6230000000000002
  7
CONVERTER_12
100
AcDbText
  0
TEXT
  5
171
330
32
100
AcDbEntity
  8
1
 62
     3
100
AcDbText
 10
1532.41471647536
 20
604.796930661648
 30
0.0
 40
4.0
  1
DG色
 41
0.6230000000000002
  7
CONVERTER_12
100
AcDbText
  0
MTEXT
  5
173
330
32
100
AcDbEntity
  8
1
 62
     3
100
AcDbMText
 10
1582.768000601147
 20
621.0878371749386
 30
0.0
 40
4.0
 41
0.0
 71
     4
 72
     1
  1
ダイヤスクリューM4\U+00D710
  7
CONVERTER_14
 73
     1
 44
1.32052821128451
1001
ACAD
1000
MTEXTBEGIN
1070
    73
1070
     1
1070
    44
1040
1.32052821128451
1070
    74
1070
     0
1000
MTEXTEND
  0
TEXT
  5
174
330
32
100
AcDbEntity
  8
1
 62
     3
100
AcDbText
 10
1533.741557978
 20
590.896623490667
 30
0.0
 40
4.0
  1
伊藤
 41
0.6230000000000002
  7
CONVERTER_12
100
AcDbText
  0
TEXT
  5
175
330
32
100
AcDbEntity
  8
1
 62
     3
100
AcDbText
 10
1547.8591210519
 20
591.337797336726
 30
0.0
 40
3.0
  1
2005.11.30
 41
0.63
  7
CONVERTER_11
100
AcDbText
  0
TEXT
  5
176
330
32
100
AcDbEntity
  8
1
 62
     3
100
AcDbText
 10
1547.8591210519
 20
584.3377973367259
 30
0.0
 40
3.0
  1
2005.11.30
 41
0.63
  7
CONVERTER_11
100
AcDbText
  0
TEXT
  5
177
330
32
100
AcDbEntity
  8
1
 62
     3
100
AcDbText
 10
1547.8591210519
 20
577.3377973367258
 30
0.0
 40
3.0
  1
2005.11.30
 41
0.63
  7
CONVERTER_11
100
AcDbText
  0
TEXT
  5
178
330
32
100
AcDbEntity
  8
1
 62
     3
100
AcDbText
 10
1547.8591210519
 20
570.337797336726
 30
0.0
 40
3.0
  1
2005.11.30
 41
0.63
  7
CONVERTER_11
100
AcDbText
  0
TEXT
  5
179
330
32
100
AcDbEntity
  8
1
 62
     3
100
AcDbText
 10
1533.741557978
 20
583.896623490667
 30
0.0
 40
4.0
  1
中島
 41
0.6230000000000002
  7
CONVERTER_12
100
AcDbText
  0
TEXT
  5
17A
330
32
100
AcDbEntity
  8
1
 62
     3
100
AcDbText
 10
1533.741557978
 20
576.8966234906669
 30
0.0
 40
4.0
  1
関根
 41
0.6230000000000002
  7
CONVERTER_12
100
AcDbText
  0
TEXT
  5
17B
330
32
100
AcDbEntity
  8
1
 62
     3
100
AcDbText
 10
1533.741557978
 20
569.896623490667
 30
0.0
 40
4.0
  1
関根
 41
0.6230000000000002
  7
CONVERTER_12
100
AcDbText
  0
TEXT
  5
17C
330
32
100
AcDbEntity
  8
1
 62
     3
100
AcDbText
 10
1570.92621071729
 20
591.0226731609689
 30
0.0
 40
3.0
  1
HR-360
 41
0.63
  7
CONVERTER_11
100
AcDbText
  0
MTEXT
  5
17E
330
32
100
AcDbEntity
  8
1
 62
     2
100
AcDbMText
 10
1562.508513518605
 20
758.0
 30
0.0
 40
4.0
 41
0.0
 71
     5
 72
     1
  1
1
  7
CONVERTER_15
 73
     1
 44
0.9003601440576199
1001
ACAD
1000
MTEXTBEGIN
1070
    73
1070
     1
1070
    44
1040
0.9003601440576199
1070
    74
1070
     0
1000
MTEXTEND
  0
MTEXT
  5
17F
330
32
100
AcDbEntity
  8
1
 62
     2
100
AcDbMText
 10
1527.880605326508
 20
651.1192896289882
 30
0.0
 40
4.0
 41
0.0
 71
     5
 72
     1
  1
2
  7
CONVERTER_15
 73
     1
 44
0.9003601440576199
1001
ACAD
1000
MTEXTBEGIN
1070
    73
1070
     1
1070
    44
1040
0.9003601440576199
1070
    74
1070
     0
1000
MTEXTEND
  0
MTEXT
  5
180
330
32
100
AcDbEntity
  8
1
 62
     2
100
AcDbMText
 10
1485.7806618249
 20
758.0
 30
0.0
 40
4.0
 41
0.0
 71
     5
 72
     1
  1
2
  7
CONVERTER_15
 73
     1
 44
0.9003601440576199
1001
ACAD
1000
MTEXTBEGIN
1070
    73
1070
     1
1070
    44
1040
0.9003601440576199
1070
    74
1070
     0
1000
MTEXTEND
  0
ENDBLK
  5
34
330
32
100
AcDbEntity
  8
0
100
AcDbBlockEnd
  0
BLOCK
  5
37
330
35
100
AcDbEntity
  8
0
100
AcDbBlockBegin
  2
format_A4
 70
     0
 10
3.273132178690959
 20
-763.5039456429207
 30
0.0
  3
format_A4
  1

  0
INSERT
  5
36
330
35
100
AcDbEntity
  8
0
100
AcDbBlockReference
  2
________1
 10
222.1930958877499
 20
-987.8754902093968
 30
0.0
  0
LINE
  5
181
330
35
100
AcDbEntity
  8
1
  6
Continuous
 62
     7
100
AcDbLine
 10
3.273132178690959
 20
-486.5039456429208
 30
0.0
 11
3.273132178690959
 21
-721.5039456429207
 31
0.0
  0
LINE
  5
182
330
35
100
AcDbEntity
  8
1
  6
Continuous
 62
     7
100
AcDbLine
 10
187.273132178691
 20
-486.5039456429208
 30
0.0
 11
3.273132178690959
 21
-486.5039456429208
 31
0.0
  0
LINE
  5
183
330
35
100
AcDbEntity
  8
1
  6
Continuous
 62
     7
100
AcDbLine
 10
187.273132178691
 20
-721.5039456429207
 30
0.0
 11
187.273132178691
 21
-486.5039456429208
 31
0.0
  0
ENDBLK
  5
38
330
35
100
AcDbEntity
  8
0
100
AcDbBlockEnd
  0
BLOCK
  5
3B
330
39
100
AcDbEntity
  8
0
100
AcDbBlockBegin
  2
________2
 70
     0
 10
411.8079797552771
 20
-962.6429264314467
 30
0.0
  3
________2
  1

  0
INSERT
  5
3A
330
39
100
AcDbEntity
  8
0
100
AcDbBlockReference
  2
format_A4
 10
3.273132178690959
 20
-763.5039456429207
 30
0.0
  0
ENDBLK
  5
3C
330
39
100
AcDbEntity
  8
0
100
AcDbBlockEnd
  0
BLOCK
  5
3F
330
3D
100
AcDbEntity
  8
0
100
AcDbBlockBegin
  2
format_A3
 70
     0
 10
-23.1119839537812
 20
-738.2713818649699
 30
0.0
  3
format_A3
  1

  0
INSERT
  5
3E
330
3D
100
AcDbEntity
  8
0
100
AcDbBlockReference
  2
________2
 10
411.8079797552771
 20
-962.6429264314467
 30
0.0
  0
ENDBLK
  5
40
330
3D
100
AcDbEntity
  8
0
100
AcDbBlockEnd
  0
BLOCK
  5
23E
330
235
100
AcDbEntity
  8
0
100
AcDbBlockBegin
  2
*D5
 70
     1
 10
0.0
 20
0.0
 30
0.0
  3
*D5
  1

  0
LINE
  5
236
330
235
100
AcDbEntity
  8
1
  6
Continuous
 62
     2
100
AcDbLine
 10
119.3402402723061
 20
-523.6315543418348
 30
0.0
 11
66.3402402723061
 21
-523.6315543418348
 31
0.0
  0
LINE
  5
237
330
235
100
AcDbEntity
  8
1
  6
Continuous
 62
     2
100
AcDbLine
 10
119.3402402723061
 20
-550.3848334669136
 30
0.0
 11
119.3402402723061
 21
-522.6315543418349
 31
0.0
  0
LINE
  5
238
330
235
100
AcDbEntity
  8
1
  6
Continuous
 62
     2
100
AcDbLine
 10
66.3402402723061
 20
-543.3848334669136
 30
0.0
 11
66.3402402723061
 21
-522.6315543418349
 31
0.0
  0
LINE
  5
239
330
235
100
AcDbEntity
  8
1
 62
     2
100
AcDbLine
 10
119.3402402723061
 20
-523.6315543418348
 30
0.0
 11
115.8402402723061
 21
-524.5693765153438
 31
0.0
  0
LINE
  5
23A
330
235
100
AcDbEntity
  8
1
 62
     2
100
AcDbLine
 10
119.3402402723061
 20
-523.6315543418348
 30
0.0
 11
115.8402402723061
 21
-522.693732168326
 31
0.0
  0
LINE
  5
23B
330
235
100
AcDbEntity
  8
1
 62
     2
100
AcDbLine
 10
66.3402402723061
 20
-523.6315543418348
 30
0.0
 11
69.8402402723061
 21
-522.693732168326
 31
0.0
  0
LINE
  5
23C
330
235
100
AcDbEntity
  8
1
 62
     2
100
AcDbLine
 10
66.3402402723061
 20
-523.6315543418348
 30
0.0
 11
69.8402402723061
 21
-524.5693765153438
 31
0.0
  0
MTEXT
  5
23D
330
235
100
AcDbEntity
  8
1
 62
     3
100
AcDbMText
 10
91.00274027230611
 20
-523.1315543418348
 30
0.0
 40
3.5
 41
0.0
 71
     7
 72
     1
  1
53
  7
CONVERTER_11
 11
0.999999999997062
 21
0.0000024240684055
 31
0.0
 73
     1
 44
0.6002400960384202
1001
ACAD
1000
MTEXTBEGIN
1070
    73
1070
     1
1070
    44
1040
0.6002400960384202
1070
    74
1070
     0
1000
MTEXTEND
  0
ENDBLK
  5
23F
330
235
100
AcDbEntity
  8
0
100
AcDbBlockEnd
  0
BLOCK
  5
241
330
240
100
AcDbEntity
  8
0
100
AcDbBlockBegin
  2
_Open30
 70
     0
 10
0.0
 20
0.0
 30
0.0
  3
_Open30
  1

  0
LINE
  5
243
330
240
100
AcDbEntity
  8
0
  6
ByBlock
 62
     0
370
    -2
100
AcDbLine
 10
-1.0
 20
0.267949
 30
0.0
 11
0.0
 21
0.0
 31
0.0
  0
LINE
  5
244
330
240
100
AcDbEntity
  8
0
  6
ByBlock
 62
     0
370
    -2
100
AcDbLine
 10
0.0
 20
0.0
 30
0.0
 11
-1.0
 21
-0.267949
 31
0.0
  0
LINE
  5
245
330
240
100
AcDbEntity
  8
0
  6
ByBlock
 62
     0
370
    -2
100
AcDbLine
 10
0.0
 20
0.0
 30
0.0
 11
-1.0
 21
0.0
 31
0.0
  0
ENDBLK
  5
242
330
240
100
AcDbEntity
  8
0
100
AcDbBlockEnd
  0
BLOCK
  5
253
330
248
100
AcDbEntity
  8
0
100
AcDbBlockBegin
  2
*D7
 70
     1
 10
0.0
 20
0.0
 30
0.0
  3
*D7
  1

  0
LINE
  5
249
330
248
100
AcDbEntity
  8
1
  6
Continuous
 62
     2
100
AcDbLine
 10
59.34024027230609
 20
-532.145434552251
 30
0.0
 11
66.3402402723061
 21
-532.145434552251
 31
0.0
  0
LINE
  5
24A
330
248
100
AcDbEntity
  8
1
  6
Continuous
 62
     2
100
AcDbLine
 10
66.3402402723061
 20
-532.145434552251
 30
0.0
 11
74.34024027230613
 21
-532.145434552251
 31
0.0
  0
LINE
  5
24B
330
248
100
AcDbEntity
  8
1
  6
Continuous
 62
     2
100
AcDbLine
 10
74.34024027230613
 20
-532.145434552251
 30
0.0
 11
81.34024027230614
 21
-532.145434552251
 31
0.0
  0
LINE
  5
24C
330
248
100
AcDbEntity
  8
1
  6
Continuous
 62
     2
100
AcDbLine
 10
66.3402402723061
 20
-543.3848334669136
 30
0.0
 11
66.3402402723061
 21
-531.145434552251
 31
0.0
  0
LINE
  5
24D
330
248
100
AcDbEntity
  8
1
  6
Continuous
 62
     2
100
AcDbLine
 10
74.34024027230613
 20
-539.7275923170566
 30
0.0
 11
74.34024027230613
 21
-531.145434552251
 31
0.0
  0
LINE
  5
24E
330
248
100
AcDbEntity
  8
1
 62
     2
100
AcDbLine
 10
66.3402402723061
 20
-532.145434552251
 30
0.0
 11
62.8402402723061
 21
-533.08325672576
 31
0.0
  0
LINE
  5
24F
330
248
100
AcDbEntity
  8
1
 62
     2
100
AcDbLine
 10
66.3402402723061
 20
-532.145434552251
 30
0.0
 11
62.8402402723061
 21
-531.2076123787419
 31
0.0
  0
LINE
  5
250
330
248
100
AcDbEntity
  8
1
 62
     2
100
AcDbLine
 10
74.34024027230613
 20
-532.145434552251
 30
0.0
 11
77.84024027230613
 21
-531.2076123787419
 31
0.0
  0
LINE
  5
251
330
248
100
AcDbEntity
  8
1
 62
     2
100
AcDbLine
 10
74.34024027230613
 20
-532.145434552251
 30
0.0
 11
77.84024027230613
 21
-533.08325672576
 31
0.0
  0
MTEXT
  5
252
330
248
100
AcDbEntity
  8
1
 62
     3
100
AcDbMText
 10
69.60524027230611
 20
-531.645434552251
 30
0.0
 40
3.5
 41
0.0
 71
     7
 72
     1
  1
8
  7
CONVERTER_11
 11
0.999999999997062
 21
0.0000024240684055
 31
0.0
 73
     1
 44
0.6002400960384202
1001
ACAD
1000
MTEXTBEGIN
1070
    73
1070
     1
1070
    44
1040
0.6002400960384202
1070
    74
1070
     0
1000
MTEXTEND
  0
ENDBLK
  5
254
330
248
100
AcDbEntity
  8
0
100
AcDbBlockEnd
  0
BLOCK
  5
262
330
257
100
AcDbEntity
  8
0
100
AcDbBlockBegin
  2
*D8
 70
     1
 10
0.0
 20
0.0
 30
0.0
  3
*D8
  1

  0
LINE
  5
258
330
257
100
AcDbEntity
  8
1
  6
Continuous
 62
     2
100
AcDbLine
 10
143.767241633314
 20
-584.3538330030678
 30
0.0
 11
143.767241633314
 21
-594.7041415569142
 31
0.0
  0
LINE
  5
259
330
257
100
AcDbEntity
  8
1
  6
Continuous
 62
     2
100
AcDbLine
 10
143.767241633314
 20
-594.7041415569142
 30
0.0
 11
143.767241633314
 21
-598.2041415569142
 31
0.0
  0
LINE
  5
25A
330
257
100
AcDbEntity
  8
1
  6
Continuous
 62
     2
100
AcDbLine
 10
143.767241633314
 20
-598.2041415569142
 30
0.0
 11
143.767241633314
 21
-605.2041415569142
 31
0.0
  0
LINE
  5
25B
330
257
100
AcDbEntity
  8
1
  6
Continuous
 62
     2
100
AcDbLine
 10
119.4694115789191
 20
-594.7041415569142
 30
0.0
 11
144.767241633314
 21
-594.7041415569142
 31
0.0
  0
LINE
  5
25C
330
257
100
AcDbEntity
  8
1
  6
Continuous
 62
     2
100
AcDbLine
 10
120.4694115789191
 20
-598.2041415569142
 30
0.0
 11
144.767241633314
 21
-598.2041415569142
 31
0.0
  0
LINE
  5
25D
330
257
100
AcDbEntity
  8
1
 62
     2
100
AcDbLine
 10
143.767241633314
 20
-594.7041415569142
 30
0.0
 11
142.829419459805
 21
-591.2041415569142
 31
0.0
  0
LINE
  5
25E
330
257
100
AcDbEntity
  8
1
 62
     2
100
AcDbLine
 10
143.767241633314
 20
-594.7041415569142
 30
0.0
 11
144.7050638068229
 21
-591.2041415569142
 31
0.0
  0
LINE
  5
25F
330
257
100
AcDbEntity
  8
1
 62
     2
100
AcDbLine
 10
143.767241633314
 20
-598.2041415569142
 30
0.0
 11
144.7050638068229
 21
-601.7041415569142
 31
0.0
  0
LINE
  5
260
330
257
100
AcDbEntity
  8
1
 62
     2
100
AcDbLine
 10
143.767241633314
 20
-598.2041415569142
 30
0.0
 11
142.829419459805
 21
-601.7041415569142
 31
0.0
  0
MTEXT
  5
261
330
257
100
AcDbEntity
  8
1
 62
     3
100
AcDbMText
 10
143.267241633314
 20
-588.8250830030679
 30
0.0
 40
3.5
 41
0.0
 71
     7
 72
     1
  1
3.5
  7
CONVERTER_11
 11
0.0
 21
1.0
 31
0.0
 73
     1
 44
0.6002400960384202
1001
ACAD
1000
MTEXTBEGIN
1070
    73
1070
     1
1070
    44
1040
0.6002400960384202
1070
    74
1070
     0
1000
MTEXTEND
  0
ENDBLK
  5
263
330
257
100
AcDbEntity
  8
0
100
AcDbBlockEnd
  0
BLOCK
  5
271
330
266
100
AcDbEntity
  8
0
100
AcDbBlockBegin
  2
*D9
 70
     1
 10
0.0
 20
0.0
 30
0.0
  3
*D9
  1

  0
LINE
  5
267
330
266
100
AcDbEntity
  8
1
  6
Continuous
 62
     2
100
AcDbLine
 10
52.803153069398
 20
-587.7041415569142
 30
0.0
 11
52.803153069398
 21
-594.7041415569142
 31
0.0
  0
LINE
  5
268
330
266
100
AcDbEntity
  8
1
  6
Continuous
 62
     2
100
AcDbLine
 10
52.803153069398
 20
-594.7041415569142
 30
0.0
 11
52.803153069398
 21
-603.7041415569142
 31
0.0
  0
LINE
  5
269
330
266
100
AcDbEntity
  8
1
  6
Continuous
 62
     2
100
AcDbLine
 10
52.803153069398
 20
-603.7041415569142
 30
0.0
 11
52.803153069398
 21
-610.7041415569142
 31
0.0
  0
LINE
  5
26A
330
266
100
AcDbEntity
  8
1
  6
Continuous
 62
     2
100
AcDbLine
 10
66.3402402723061
 20
-594.7041415569142
 30
0.0
 11
51.803153069398
 21
-594.7041415569142
 31
0.0
  0
LINE
  5
26B
330
266
100
AcDbEntity
  8
1
  6
Continuous
 62
     2
100
AcDbLine
 10
66.3402402723061
 20
-603.7041415569142
 30
0.0
 11
51.803153069398
 21
-603.7041415569142
 31
0.0
  0
LINE
  5
26C
330
266
100
AcDbEntity
  8
1
 62
     2
100
AcDbLine
 10
52.803153069398
 20
-594.7041415569142
 30
0.0
 11
51.86533089588907
 21
-591.2041415569142
 31
0.0
  0
LINE
  5
26D
330
266
100
AcDbEntity
  8
1
 62
     2
100
AcDbLine
 10
52.803153069398
 20
-594.7041415569142
 30
0.0
 11
53.74097524290693
 21
-591.2041415569142
 31
0.0
  0
LINE
  5
26E
330
266
100
AcDbEntity
  8
1
 62
     2
100
AcDbLine
 10
52.803153069398
 20
-603.7041415569142
 30
0.0
 11
53.74097524290693
 21
-607.2041415569142
 31
0.0
  0
LINE
  5
26F
330
266
100
AcDbEntity
  8
1
 62
     2
100
AcDbLine
 10
52.803153069398
 20
-603.7041415569142
 30
0.0
 11
51.86533089588907
 21
-607.2041415569142
 31
0.0
  0
MTEXT
  5
270
330
266
100
AcDbEntity
  8
1
 62
     3
100
AcDbMText
 10
52.303153069398
 20
-599.9391415569142
 30
0.0
 40
3.5
 41
0.0
 71
     7
 72
     1
  1
9
  7
CONVERTER_11
 11
0.0
 21
1.0
 31
0.0
 73
     1
 44
0.6002400960384202
1001
ACAD
1000
MTEXTBEGIN
1070
    73
1070
     1
1070
    44
1040
0.6002400960384202
1070
    74
1070
     0
1000
MTEXTEND
  0
ENDBLK
  5
272
330
266
100
AcDbEntity
  8
0
100
AcDbBlockEnd
  0
BLOCK
  5
27E
330
275
100
AcDbEntity
  8
0
100
AcDbBlockBegin
  2
*D10
 70
     1
 10
0.0
 20
0.0
 30
0.0
  3
*D10
  1

  0
LINE
  5
276
330
275
100
AcDbEntity
  8
1
  6
Continuous
 62
     2
100
AcDbLine
 10
52.803153069398
 20
-560.3848334669137
 30
0.0
 11
52.803153069398
 21
-542.3848334669136
 31
0.0
  0
LINE
  5
277
330
275
100
AcDbEntity
  8
1
  6
Continuous
 62
     2
100
AcDbLine
 10
67.3402402723061
 20
-560.3848334669137
 30
0.0
 11
51.803153069398
 21
-560.3848334669137
 31
0.0
  0
LINE
  5
278
330
275
100
AcDbEntity
  8
1
  6
Continuous
 62
     2
100
AcDbLine
 10
67.3402402723061
 20
-542.3848334669136
 30
0.0
 11
51.803153069398
 21
-542.3848334669136
 31
0.0
  0
LINE
  5
279
330
275
100
AcDbEntity
  8
1
 62
     2
100
AcDbLine
 10
52.803153069398
 20
-560.3848334669137
 30
0.0
 11
51.86533089588907
 21
-556.8848334669137
 31
0.0
  0
LINE
  5
27A
330
275
100
AcDbEntity
  8
1
 62
     2
100
AcDbLine
 10
52.803153069398
 20
-560.3848334669137
 30
0.0
 11
53.74097524290693
 21
-556.8848334669137
 31
0.0
  0
LINE
  5
27B
330
275
100
AcDbEntity
  8
1
 62
     2
100
AcDbLine
 10
52.803153069398
 20
-542.3848334669136
 30
0.0
 11
53.74097524290693
 21
-545.8848334669136
 31
0.0
  0
LINE
  5
27C
330
275
100
AcDbEntity
  8
1
 62
     2
100
AcDbLine
 10
52.803153069398
 20
-542.3848334669136
 30
0.0
 11
51.86533089588907
 21
-545.8848334669136
 31
0.0
  0
MTEXT
  5
27D
330
275
100
AcDbEntity
  8
1
 62
     3
100
AcDbMText
 10
52.303153069398
 20
-552.8548334669136
 30
0.0
 40
3.5
 41
0.0
 71
     7
 72
     1
  1
18
  7
CONVERTER_11
 11
0.0
 21
1.0
 31
0.0
 73
     1
 44
0.6002400960384202
1001
ACAD
1000
MTEXTBEGIN
1070
    73
1070
     1
1070
    44
1040
0.6002400960384202
1070
    74
1070
     0
1000
MTEXTEND
  0
ENDBLK
  5
27F
330
275
100
AcDbEntity
  8
0
100
AcDbBlockEnd
  0
BLOCK
  5
28D
330
282
100
AcDbEntity
  8
0
100
AcDbBlockBegin
  2
*D11
 70
     1
 10
0.0
 20
0.0
 30
0.0
  3
*D11
  1

  0
LINE
  5
283
330
282
100
AcDbEntity
  8
1
  6
Continuous
 62
     2
100
AcDbLine
 10
62.34024027230613
 20
-626.022292467663
 30
0.0
 11
69.34024027230613
 21
-626.022292467663
 31
0.0
  0
LINE
  5
284
330
282
100
AcDbEntity
  8
1
  6
Continuous
 62
     2
100
AcDbLine
 10
69.34024027230613
 20
-626.022292467663
 30
0.0
 11
77.34024027230613
 21
-626.022292467663
 31
0.0
  0
LINE
  5
285
330
282
100
AcDbEntity
  8
1
  6
Continuous
 62
     2
100
AcDbLine
 10
77.34024027230613
 20
-626.022292467663
 30
0.0
 11
84.34024027230611
 21
-626.022292467663
 31
0.0
  0
LINE
  5
286
330
282
100
AcDbEntity
  8
1
  6
Continuous
 62
     2
100
AcDbLine
 10
69.34024027230613
 20
-639.820569157319
 30
0.0
 11
69.34024027230613
 21
-625.0222924676628
 31
0.0
  0
LINE
  5
287
330
282
100
AcDbEntity
  8
1
  6
Continuous
 62
     2
100
AcDbLine
 10
77.34024027230613
 20
-638.6493686686216
 30
0.0
 11
77.34024027230613
 21
-625.0222924676628
 31
0.0
  0
LINE
  5
288
330
282
100
AcDbEntity
  8
1
 62
     2
100
AcDbLine
 10
69.34024027230613
 20
-626.022292467663
 30
0.0
 11
65.84024027230613
 21
-626.9601146411717
 31
0.0
  0
LINE
  5
289
330
282
100
AcDbEntity
  8
1
 62
     2
100
AcDbLine
 10
69.34024027230613
 20
-626.022292467663
 30
0.0
 11
65.84024027230613
 21
-625.084470294154
 31
0.0
  0
LINE
  5
28A
330
282
100
AcDbEntity
  8
1
 62
     2
100
AcDbLine
 10
77.34024027230613
 20
-626.022292467663
 30
0.0
 11
80.8402402723061
 21
-625.084470294154
 31
0.0
  0
LINE
  5
28B
330
282
100
AcDbEntity
  8
1
 62
     2
100
AcDbLine
 10
77.34024027230613
 20
-626.022292467663
 30
0.0
 11
80.8402402723061
 21
-626.9601146411717
 31
0.0
  0
MTEXT
  5
28C
330
282
100
AcDbEntity
  8
1
 62
     3
100
AcDbMText
 10
72.60524027230613
 20
-625.522292467663
 30
0.0
 40
3.5
 41
0.0
 71
     7
 72
     1
  1
8
  7
CONVERTER_11
 11
0.999999999997062
 21
0.0000024240684055
 31
0.0
 73
     1
 44
0.6002400960384202
1001
ACAD
1000
MTEXTBEGIN
1070
    73
1070
     1
1070
    44
1040
0.6002400960384202
1070
    74
1070
     0
1000
MTEXTEND
  0
ENDBLK
  5
28E
330
282
100
AcDbEntity
  8
0
100
AcDbBlockEnd
  0
BLOCK
  5
29A
330
291
100
AcDbEntity
  8
0
100
AcDbBlockBegin
  2
*D12
 70
     1
 10
0.0
 20
0.0
 30
0.0
  3
*D12
  1

  0
LINE
  5
292
330
291
100
AcDbEntity
  8
1
  6
Continuous
 62
     2
100
AcDbLine
 10
52.803153069398
 20
-639.0655671557174
 30
0.0
 11
52.803153069398
 21
-655.0655671557174
 31
0.0
  0
LINE
  5
293
330
291
100
AcDbEntity
  8
1
  6
Continuous
 62
     2
100
AcDbLine
 10
73.3402402723061
 20
-639.0655671557174
 30
0.0
 11
51.803153069398
 21
-639.0655671557174
 31
0.0
  0
LINE
  5
294
330
291
100
AcDbEntity
  8
1
  6
Continuous
 62
     2
100
AcDbLine
 10
73.3402402723061
 20
-655.0655671557174
 30
0.0
 11
51.803153069398
 21
-655.0655671557174
 31
0.0
  0
LINE
  5
295
330
291
100
AcDbEntity
  8
1
 62
     2
100
AcDbLine
 10
52.803153069398
 20
-639.0655671557174
 30
0.0
 11
53.74097524290693
 21
-642.5655671557174
 31
0.0
  0
LINE
  5
296
330
291
100
AcDbEntity
  8
1
 62
     2
100
AcDbLine
 10
52.803153069398
 20
-639.0655671557174
 30
0.0
 11
51.86533089588907
 21
-642.5655671557174
 31
0.0
  0
LINE
  5
297
330
291
100
AcDbEntity
  8
1
 62
     2
100
AcDbLine
 10
52.803153069398
 20
-655.0655671557174
 30
0.0
 11
51.86533089588907
 21
-651.5655671557174
 31
0.0
  0
LINE
  5
298
330
291
100
AcDbEntity
  8
1
 62
     2
100
AcDbLine
 10
52.803153069398
 20
-655.0655671557174
 30
0.0
 11
53.74097524290693
 21
-651.5655671557174
 31
0.0
  0
MTEXT
  5
299
330
291
100
AcDbEntity
  8
1
 62
     3
100
AcDbMText
 10
52.303153069398
 20
-648.5355671557174
 30
0.0
 40
3.5
 41
0.0
 71
     7
 72
     1
  1
16
  7
CONVERTER_11
 11
0.0
 21
1.0
 31
0.0
 73
     1
 44
0.6002400960384202
1001
ACAD
1000
MTEXTBEGIN
1070
    73
1070
     1
1070
    44
1040
0.6002400960384202
1070
    74
1070
     0
1000
MTEXTEND
  0
ENDBLK
  5
29B
330
291
100
AcDbEntity
  8
0
100
AcDbBlockEnd
  0
ENDSEC
  0
SECTION
  2
ENTITIES
  0
LINE
  5
184
330
1F
100
AcDbEntity
  8
1
  6
Continuous
 62
     7
100
AcDbLine
 10
80.8402402723061
 20
-644.0655671557172
 30
0.0
 11
83.84024027230614
 21
-644.0655671557172
 31
0.0
  0
LINE
  5
185
330
1F
100
AcDbEntity
  8
1
  6
Continuous
 62
     7
100
AcDbLine
 10
82.84024027230612
 20
-645.0655671557174
 30
0.0
 11
82.84024027230612
 21
-647.0655671557174
 31
0.0
  0
LINE
  5
186
330
1F
100
AcDbEntity
  8
1
  6
CENTER_NEW
 62
     4
100
AcDbLine
 10
109.3402402723061
 20
-647.0655671557174
 30
0.0
 11
82.84024027230612
 21
-647.0655671557174
 31
0.0
  0
LINE
  5
187
330
1F
100
AcDbEntity
  8
1
  6
Continuous
 62
     7
100
AcDbLine
 10
82.84024027230612
 20
-647.0655671557174
 30
0.0
 11
82.84024027230612
 21
-649.0655671557174
 31
0.0
  0
LINE
  5
188
330
1F
100
AcDbEntity
  8
1
  6
Continuous
 62
     7
100
AcDbLine
 10
83.84024027230614
 20
-650.0655671557174
 30
0.0
 11
108.3402402723061
 21
-650.0655671557174
 31
0.0
  0
LINE
  5
189
330
1F
100
AcDbEntity
  8
1
  6
Continuous
 62
     7
100
AcDbLine
 10
109.3402402723061
 20
-649.0655671557174
 30
0.0
 11
109.3402402723061
 21
-647.0655671557174
 31
0.0
  0
LINE
  5
18A
330
1F
100
AcDbEntity
  8
1
  6
CENTER_NEW
 62
     4
100
AcDbLine
 10
122.7349817852762
 20
-647.0655671557174
 30
0.0
 11
109.3402402723061
 21
-647.0655671557174
 31
0.0
  0
LINE
  5
18B
330
1F
100
AcDbEntity
  8
1
  6
Continuous
 62
     7
100
AcDbLine
 10
109.3402402723061
 20
-647.0655671557174
 30
0.0
 11
109.3402402723061
 21
-645.0655671557174
 31
0.0
  0
LINE
  5
18C
330
1F
100
AcDbEntity
  8
1
  6
Continuous
 62
     7
100
AcDbLine
 10
108.3402402723061
 20
-644.0655671557172
 30
0.0
 11
98.34024027230611
 21
-644.0655671557172
 31
0.0
  0
LINE
  5
18D
330
1F
100
AcDbEntity
  8
1
  6
Continuous
 62
     7
100
AcDbLine
 10
79.34024027230613
 20
-644.0655671557172
 30
0.0
 11
80.34024027230612
 21
-644.0655671557172
 31
0.0
  0
LINE
  5
18E
330
1F
100
AcDbEntity
  8
1
  6
Continuous
 62
     7
100
AcDbLine
 10
69.34024027230612
 20
-652.5655671557174
 30
0.0
 11
71.34024027230613
 21
-652.5655671557174
 31
0.0
  0
LINE
  5
18F
330
1F
100
AcDbEntity
  8
1
  6
Continuous
 62
     7
100
AcDbLine
 10
80.34024027230612
 20
-644.0655671557172
 30
0.0
 11
80.34024027230612
 21
-652.5655671557174
 31
0.0
  0
LINE
  5
190
330
1F
100
AcDbEntity
  8
1
  6
Continuous
 62
     7
100
AcDbLine
 10
80.34024027230612
 20
-644.0655671557172
 30
0.0
 11
80.8402402723061
 21
-644.0655671557172
 31
0.0
  0
LINE
  5
191
330
1F
100
AcDbEntity
  8
1
  6
Continuous
 62
     7
100
AcDbLine
 10
80.34024027230612
 20
-652.5655671557174
 30
0.0
 11
80.8402402723061
 21
-652.5655671557174
 31
0.0
  0
LINE
  5
192
330
1F
100
AcDbEntity
  8
1
  6
Continuous
 62
     7
100
AcDbLine
 10
80.8402402723061
 20
-652.5655671557174
 30
0.0
 11
80.8402402723061
 21
-644.0655671557172
 31
0.0
  0
LINE
  5
193
330
1F
100
AcDbEntity
  8
1
  6
Continuous
 62
     7
100
AcDbLine
 10
66.3402402723061
 20
-650.0655671557174
 30
0.0
 11
67.84024027230611
 21
-650.0655671557174
 31
0.0
  0
LINE
  5
194
330
1F
100
AcDbEntity
  8
1
  6
Continuous
 62
     7
100
AcDbLine
 10
66.3402402723061
 20
-641.5655671557174
 30
0.0
 11
67.84024027230611
 21
-641.5655671557174
 31
0.0
  0
LINE
  5
195
330
1F
100
AcDbEntity
  8
1
  6
Continuous
 62
     7
100
AcDbLine
 10
67.84024027230611
 20
-641.5655671557174
 30
0.0
 11
67.84024027230611
 21
-650.0655671557174
 31
0.0
  0
LINE
  5
196
330
1F
100
AcDbEntity
  8
1
  6
Continuous
 62
     7
100
AcDbLine
 10
67.84024027230611
 20
-650.0655671557174
 30
0.0
 11
68.3402402723061
 21
-650.0655671557174
 31
0.0
  0
LINE
  5
197
330
1F
100
AcDbEntity
  8
1
  6
Continuous
 62
     7
100
AcDbLine
 10
67.84024027230611
 20
-641.5655671557174
 30
0.0
 11
68.3402402723061
 21
-641.5655671557174
 31
0.0
  0
LINE
  5
198
330
1F
100
AcDbEntity
  8
1
  6
Continuous
 62
     7
100
AcDbLine
 10
68.3402402723061
 20
-650.0655671557174
 30
0.0
 11
68.3402402723061
 21
-641.5655671557174
 31
0.0
  0
LINE
  5
199
330
1F
100
AcDbEntity
  8
1
  6
Continuous
 62
     7
100
AcDbLine
 10
66.3402402723061
 20
-652.5655671557174
 30
0.0
 11
66.3402402723061
 21
-650.0655671557174
 31
0.0
  0
LINE
  5
19A
330
1F
100
AcDbEntity
  8
1
  6
Continuous
 62
     7
100
AcDbLine
 10
68.3402402723061
 20
-650.0655671557174
 30
0.0
 11
69.34024027230612
 21
-650.0655671557174
 31
0.0
  0
LINE
  5
19B
330
1F
100
AcDbEntity
  8
1
  6
Continuous
 62
     7
100
AcDbLine
 10
66.3402402723061
 20
-652.5655671557174
 30
0.0
 11
69.34024027230612
 21
-652.5655671557174
 31
0.0
  0
LINE
  5
19C
330
1F
100
AcDbEntity
  8
1
  6
Continuous
 62
     7
100
AcDbLine
 10
69.34024027230612
 20
-652.5655671557174
 30
0.0
 11
69.34024027230612
 21
-650.0655671557174
 31
0.0
  0
LINE
  5
19D
330
1F
100
AcDbEntity
  8
1
  6
Continuous
 62
     7
100
AcDbLine
 10
68.3402402723061
 20
-641.5655671557174
 30
0.0
 11
69.34024027230613
 21
-641.5655671557174
 31
0.0
  0
LINE
  5
19E
330
1F
100
AcDbEntity
  8
1
  6
Continuous
 62
     7
100
AcDbLine
 10
79.34024027230613
 20
-641.5655671557174
 30
0.0
 11
79.34024027230613
 21
-644.0655671557172
 31
0.0
  0
LINE
  5
19F
330
1F
100
AcDbEntity
  8
1
  6
Continuous
 62
     7
100
AcDbLine
 10
83.84024027230614
 20
-644.0655671557172
 30
0.0
 11
98.34024027230611
 21
-644.0655671557172
 31
0.0
  0
LINE
  5
1A0
330
1F
100
AcDbEntity
  8
1
  6
Continuous
 62
     7
100
AcDbLine
 10
79.34024027230613
 20
-641.5655671557174
 30
0.0
 11
98.34024027230611
 21
-641.5655671557174
 31
0.0
  0
LINE
  5
1A1
330
1F
100
AcDbEntity
  8
1
  6
Continuous
 62
     7
100
AcDbLine
 10
98.34024027230611
 20
-644.0655671557172
 30
0.0
 11
98.34024027230611
 21
-641.5655671557174
 31
0.0
  0
LINE
  5
1A2
330
1F
100
AcDbEntity
  8
1
  6
Continuous
 62
     7
100
AcDbLine
 10
111.3402402723061
 20
-652.5655671557174
 30
0.0
 11
111.3402402723061
 21
-641.5655671557174
 31
0.0
  0
LINE
  5
1A3
330
1F
100
AcDbEntity
  8
1
  6
Continuous
 62
     7
100
AcDbLine
 10
66.3402402723061
 20
-647.0655671557174
 30
0.0
 11
66.3402402723061
 21
-641.5655671557174
 31
0.0
  0
LINE
  5
1A4
330
1F
100
AcDbEntity
  8
1
  6
Continuous
 62
     7
100
AcDbLine
 10
98.34024027230611
 20
-641.5655671557174
 30
0.0
 11
111.3402402723061
 21
-641.5655671557174
 31
0.0
  0
LINE
  5
1A5
330
1F
100
AcDbEntity
  8
1
  6
Continuous
 62
     7
100
AcDbLine
 10
111.3402402723061
 20
-656.0655671557172
 30
0.0
 11
111.3402402723061
 21
-652.5655671557174
 31
0.0
  0
LINE
  5
1A6
330
1F
100
AcDbEntity
  8
1
  6
Continuous
 62
     7
100
AcDbLine
 10
66.3402402723061
 20
-654.0655671557174
 30
0.0
 11
66.3402402723061
 21
-652.5655671557174
 31
0.0
  0
LINE
  5
1A7
330
1F
100
AcDbEntity
  8
1
  6
Continuous
 62
     7
100
AcDbLine
 10
80.8402402723061
 20
-652.5655671557174
 30
0.0
 11
111.3402402723061
 21
-652.5655671557174
 31
0.0
  0
LINE
  5
1A8
330
1F
100
AcDbEntity
  8
1
  6
Continuous
 62
     7
100
AcDbLine
 10
111.3402402723061
 20
-641.5655671557174
 30
0.0
 11
111.3402402723061
 21
-638.0655671557171
 31
0.0
  0
LINE
  5
1A9
330
1F
100
AcDbEntity
  8
1
  6
CENTER_NEW
 62
     4
100
AcDbLine
 10
76.59024027230613
 20
-647.0655671557174
 30
0.0
 11
74.34024027230613
 21
-647.0655671557174
 31
0.0
  0
LINE
  5
1AA
330
1F
100
AcDbEntity
  8
1
  6
CENTER_NEW
 62
     4
100
AcDbLine
 10
74.34024027230613
 20
-636.4083260058605
 30
0.0
 11
74.34024027230613
 21
-657.7228083055743
 31
0.0
  0
LINE
  5
1AB
330
1F
100
AcDbEntity
  8
1
  6
CENTER_NEW
 62
     4
100
AcDbLine
 10
82.84024027230612
 20
-647.0655671557174
 30
0.0
 11
76.59024027230613
 21
-647.0655671557174
 31
0.0
  0
LINE
  5
1AC
330
1F
100
AcDbEntity
  8
1
  6
CENTER_NEW
 62
     4
100
AcDbLine
 10
74.34024027230613
 20
-647.0655671557174
 30
0.0
 11
62.3274994719161
 21
-647.0655671557174
 31
0.0
  0
LINE
  5
1AD
330
1F
100
AcDbEntity
  8
1
  6
Continuous
 62
     7
100
AcDbLine
 10
68.3402402723061
 20
-638.0655671557171
 30
0.0
 11
111.3402402723061
 21
-638.0655671557171
 31
0.0
  0
LINE
  5
1AE
330
1F
100
AcDbEntity
  8
1
  6
Continuous
 62
     7
100
AcDbLine
 10
119.4694115789191
 20
-646.1947384623304
 30
0.0
 11
111.3402402723061
 21
-638.0655671557171
 31
0.0
  0
LINE
  5
1AF
330
1F
100
AcDbEntity
  8
1
  6
Continuous
 62
     7
100
AcDbLine
 10
119.4694115789191
 20
-647.9363958491042
 30
0.0
 11
111.3402402723061
 21
-656.0655671557172
 31
0.0
  0
LINE
  5
1B0
330
1F
100
AcDbEntity
  8
1
  6
Continuous
 62
     7
100
AcDbLine
 10
66.3402402723061
 20
-650.0655671557174
 30
0.0
 11
66.3402402723061
 21
-647.0655671557174
 31
0.0
  0
LINE
  5
1B1
330
1F
100
AcDbEntity
  8
1
  6
Continuous
 62
     7
100
AcDbLine
 10
66.3402402723061
 20
-641.5655671557174
 30
0.0
 11
66.3402402723061
 21
-640.0655671557172
 31
0.0
  0
LINE
  5
1B2
330
1F
100
AcDbEntity
  8
1
  6
Continuous
 62
     7
100
AcDbLine
 10
111.3402402723061
 20
-656.0655671557172
 30
0.0
 11
68.3402402723061
 21
-656.0655671557172
 31
0.0
  0
LINE
  5
1B3
330
1F
100
AcDbEntity
  8
1
  6
Continuous
 62
     7
100
AcDbLine
 10
82.84024027230612
 20
-599.9041415569144
 30
0.0
 11
80.8402402723061
 21
-599.9041415569144
 31
0.0
  0
LINE
  5
1B4
330
1F
100
AcDbEntity
  8
1
  6
DASHED_NEW
 62
     7
100
AcDbLine
 10
82.84024027230612
 20
-597.2041415569142
 30
0.0
 11
82.84024027230612
 21
-599.9041415569144
 31
0.0
  0
LINE
  5
1B5
330
1F
100
AcDbEntity
  8
1
  6
DASHED_NEW
 62
     7
100
AcDbLine
 10
108.3402402723061
 20
-596.2041415569142
 30
0.0
 11
83.84024027230614
 21
-596.2041415569142
 31
0.0
  0
LINE
  5
1B6
330
1F
100
AcDbEntity
  8
1
  6
Continuous
 62
     7
100
AcDbLine
 10
109.3402402723061
 20
-599.9041415569144
 30
0.0
 11
98.34024027230611
 21
-599.9041415569144
 31
0.0
  0
LINE
  5
1B7
330
1F
100
AcDbEntity
  8
1
  6
DASHED_NEW
 62
     7
100
AcDbLine
 10
109.3402402723061
 20
-599.9041415569144
 30
0.0
 11
109.3402402723061
 21
-597.2041415569142
 31
0.0
  0
LINE
  5
1B8
330
1F
100
AcDbEntity
  8
1
  6
Continuous
 62
     7
100
AcDbLine
 10
79.34024027230613
 20
-599.4041415569141
 30
0.0
 11
69.34024027230612
 21
-599.4041415569141
 31
0.0
  0
LINE
  5
1B9
330
1F
100
AcDbEntity
  8
1
  6
Continuous
 62
     7
100
AcDbLine
 10
79.34024027230613
 20
-603.7041415569142
 30
0.0
 11
79.34024027230613
 21
-599.4041415569141
 31
0.0
  0
LINE
  5
1BA
330
1F
100
AcDbEntity
  8
1
  6
Continuous
 62
     7
100
AcDbLine
 10
97.34024027230612
 20
-603.7041415569142
 30
0.0
 11
79.34024027230613
 21
-603.7041415569142
 31
0.0
  0
LINE
  5
1BB
330
1F
100
AcDbEntity
  8
1
  6
Continuous
 62
     7
100
AcDbLine
 10
98.34024027230611
 20
-599.9041415569144
 30
0.0
 11
82.84024027230612
 21
-599.9041415569144
 31
0.0
  0
LINE
  5
1BC
330
1F
100
AcDbEntity
  8
1
  6
Continuous
 62
     7
100
AcDbLine
 10
98.34024027230611
 20
-599.9041415569144
 30
0.0
 11
98.34024027230611
 21
-602.7041415569142
 31
0.0
  0
LINE
  5
1BD
330
1F
100
AcDbEntity
  8
1
  6
DASHED_NEW
 62
     7
100
AcDbLine
 10
69.34024027230612
 20
-599.4041415569141
 30
0.0
 11
68.3402402723061
 21
-599.4041415569141
 31
0.0
  0
LINE
  5
1BE
330
1F
100
AcDbEntity
  8
1
  6
Continuous
 62
     7
100
AcDbLine
 10
66.3402402723061
 20
-598.7041415569142
 30
0.0
 11
66.3402402723061
 21
-595.7041415569142
 31
0.0
  0
LINE
  5
1BF
330
1F
100
AcDbEntity
  8
1
  6
Continuous
 62
     7
100
AcDbLine
 10
111.3402402723061
 20
-598.7041415569142
 30
0.0
 11
111.3402402723061
 21
-599.9041415569144
 31
0.0
  0
LINE
  5
1C0
330
1F
100
AcDbEntity
  8
1
  6
Continuous
 62
     7
100
AcDbLine
 10
66.3402402723061
 20
-598.7041415569142
 30
0.0
 11
111.3402402723061
 21
-598.7041415569142
 31
0.0
  0
LINE
  5
1C1
330
1F
100
AcDbEntity
  8
1
  6
Continuous
 62
     7
100
AcDbLine
 10
80.34024027230612
 20
-599.4041415569141
 30
0.0
 11
79.34024027230613
 21
-599.4041415569141
 31
0.0
  0
LINE
  5
1C2
330
1F
100
AcDbEntity
  8
1
  6
Continuous
 62
     7
100
AcDbLine
 10
66.3402402723061
 20
-599.9041415569144
 30
0.0
 11
66.3402402723061
 21
-598.7041415569142
 31
0.0
  0
LINE
  5
1C3
330
1F
100
AcDbEntity
  8
1
  6
DASHED_NEW
 62
     7
100
AcDbLine
 10
67.84024027230611
 20
-599.9041415569144
 30
0.0
 11
66.3402402723061
 21
-599.9041415569144
 31
0.0
  0
LINE
  5
1C4
330
1F
100
AcDbEntity
  8
1
  6
Continuous
 62
     7
100
AcDbLine
 10
67.3402402723061
 20
-594.7041415569142
 30
0.0
 11
111.3402402723061
 21
-594.7041415569142
 31
0.0
  0
LINE
  5
1C5
330
1F
100
AcDbEntity
  8
1
  6
DASHED_NEW
 62
     7
100
AcDbLine
 10
67.84024027230611
 20
-599.9041415569144
 30
0.0
 11
68.3402402723061
 21
-599.4041415569141
 31
0.0
  0
LINE
  5
1C6
330
1F
100
AcDbEntity
  8
1
  6
Continuous
 62
     7
100
AcDbLine
 10
80.8402402723061
 20
-599.9041415569144
 30
0.0
 11
80.34024027230612
 21
-599.4041415569141
 31
0.0
  0
LINE
  5
1C7
330
1F
100
AcDbEntity
  8
1
  6
Continuous
 62
     7
100
AcDbLine
 10
66.3402402723061
 20
-602.7041415569142
 30
0.0
 11
66.3402402723061
 21
-599.9041415569144
 31
0.0
  0
LINE
  5
1C8
330
1F
100
AcDbEntity
  8
1
  6
Continuous
 62
     7
100
AcDbLine
 10
69.34024027230612
 20
-603.7041415569142
 30
0.0
 11
67.3402402723061
 21
-603.7041415569142
 31
0.0
  0
LINE
  5
1C9
330
1F
100
AcDbEntity
  8
1
  6
Continuous
 62
     7
100
AcDbLine
 10
69.34024027230612
 20
-599.4041415569141
 30
0.0
 11
69.34024027230612
 21
-603.7041415569142
 31
0.0
  0
LINE
  5
1CA
330
1F
100
AcDbEntity
  8
1
  6
Continuous
 62
     7
100
AcDbLine
 10
111.3402402723061
 20
-599.9041415569144
 30
0.0
 11
109.3402402723061
 21
-599.9041415569144
 31
0.0
  0
LINE
  5
1CB
330
1F
100
AcDbEntity
  8
1
  6
Continuous
 62
     7
100
AcDbLine
 10
111.3402402723061
 20
-594.7041415569142
 30
0.0
 11
111.3402402723061
 21
-598.7041415569142
 31
0.0
  0
LINE
  5
1CC
330
1F
100
AcDbEntity
  8
1
  6
Continuous
 62
     7
100
AcDbLine
 10
119.4694115789191
 20
-598.2041415569142
 30
0.0
 11
111.3402402723061
 21
-598.2041415569142
 31
0.0
  0
LINE
  5
1CD
330
1F
100
AcDbEntity
  8
1
  6
Continuous
 62
     7
100
AcDbLine
 10
119.4694115789191
 20
-595.7041415569142
 30
0.0
 11
119.4694115789191
 21
-598.2041415569142
 31
0.0
  0
LINE
  5
1CE
330
1F
100
AcDbEntity
  8
1
  6
Continuous
 62
     7
100
AcDbLine
 10
111.3402402723061
 20
-594.7041415569142
 30
0.0
 11
118.4694115789191
 21
-594.7041415569142
 31
0.0
  0
LINE
  5
1D9
330
1F
100
AcDbEntity
  8
1
  6
Continuous
 62
     7
100
AcDbLine
 10
71.34024027230613
 20
-651.6753393843638
 30
0.0
 11
71.34024027230613
 21
-654.4817656428131
 31
0.0
  0
LINE
  5
1DA
330
1F
100
AcDbEntity
  8
1
  6
Continuous
 62
     7
100
AcDbLine
 10
69.34024027230613
 20
-640.820569157319
 30
0.0
 11
69.34024027230613
 21
-649.3568550031953
 31
0.0
  0
LINE
  5
1DB
330
1F
100
AcDbEntity
  8
1
  6
Continuous
 62
     7
100
AcDbLine
 10
77.34024027230613
 20
-642.455794927071
 30
0.0
 11
77.34024027230613
 21
-639.6493686686217
 31
0.0
  0
LINE
  5
1DC
330
1F
100
AcDbEntity
  8
1
  6
Continuous
 62
     7
100
AcDbLine
 10
79.34024027230613
 20
-653.3105651541157
 30
0.0
 11
79.34024027230613
 21
-644.7742793082396
 31
0.0
  0
LINE
  5
1DD
330
1F
100
AcDbEntity
  8
1
  6
Continuous
 62
     7
100
AcDbLine
 10
71.64024027230613
 20
-602.6
 30
0.0
 11
77.04024027230611
 21
-602.6
 31
0.0
  0
LINE
  5
1DE
330
1F
100
AcDbEntity
  8
1
  6
Continuous
 62
     7
100
AcDbLine
 10
69.34024027230615
 20
-604.6
 30
0.0
 11
79.34024027230613
 21
-604.6
 31
0.0
  0
LINE
  5
1DF
330
1F
100
AcDbEntity
  8
1
  6
Continuous
 62
     7
100
AcDbLine
 10
69.34024027230615
 20
-602.2999999999998
 30
0.0
 11
69.34024027230615
 21
-604.6
 31
0.0
  0
LINE
  5
1E0
330
1F
100
AcDbEntity
  8
1
  6
Continuous
 62
     7
100
AcDbLine
 10
79.34024027230613
 20
-602.2999999999998
 30
0.0
 11
79.34024027230613
 21
-604.6
 31
0.0
  0
LINE
  5
1E1
330
1F
100
AcDbEntity
  8
1
  6
Continuous
 62
     7
100
AcDbLine
 10
77.34024027230613
 20
-602.6
 30
0.0
 11
79.04024027230611
 21
-602.6
 31
0.0
  0
LINE
  5
1E2
330
1F
100
AcDbEntity
  8
1
  6
Continuous
 62
     7
100
AcDbLine
 10
69.64024027230613
 20
-602.6
 30
0.0
 11
71.34024027230613
 21
-602.6
 31
0.0
  0
LINE
  5
1E3
330
1F
100
AcDbEntity
  8
1
  6
Continuous
 62
     7
100
AcDbLine
 10
71.34024027230616
 20
-602.2999999999998
 30
0.0
 11
71.34024027230616
 21
-604.6
 31
0.0
  0
LINE
  5
1E4
330
1F
100
AcDbEntity
  8
1
  6
Continuous
 62
     7
100
AcDbLine
 10
79.04024027230611
 20
-602.6
 30
0.0
 11
79.34024027230613
 21
-602.2999999999998
 31
0.0
  0
LINE
  5
1E5
330
1F
100
AcDbEntity
  8
1
  6
Continuous
 62
     7
100
AcDbLine
 10
71.64024027230613
 20
-602.6
 30
0.0
 11
71.34024027230616
 21
-602.2999999999998
 31
0.0
  0
LINE
  5
1E6
330
1F
100
AcDbEntity
  8
1
  6
Continuous
 62
     7
100
AcDbLine
 10
69.64024027230613
 20
-602.6
 30
0.0
 11
69.34024027230615
 21
-602.2999999999998
 31
0.0
  0
LINE
  5
1E7
330
1F
100
AcDbEntity
  8
1
  6
Continuous
 62
     7
100
AcDbLine
 10
77.04024027230611
 20
-602.6
 30
0.0
 11
77.34024027230613
 21
-602.2999999999998
 31
0.0
  0
LINE
  5
1E8
330
1F
100
AcDbEntity
  8
1
  6
Continuous
 62
     7
100
AcDbLine
 10
77.34024027230613
 20
-602.6
 30
0.0
 11
77.34024027230613
 21
-602.2999999999998
 31
0.0
  0
LINE
  5
212
330
1F
100
AcDbEntity
  8
1
  6
Continuous
 62
     7
100
AcDbLine
 10
77.34024027230613
 20
-641.5655671557174
 30
0.0
 11
79.34024027230613
 21
-641.5655671557174
 31
0.0
  0
LINE
  5
213
330
1F
100
AcDbEntity
  8
1
  6
Continuous
 62
     7
100
AcDbLine
 10
79.34024027230613
 20
-652.5655671557174
 30
0.0
 11
80.34024027230612
 21
-652.5655671557174
 31
0.0
  0
ARC
  5
214
330
1F
100
AcDbEntity
  8
1
  6
Continuous
 62
     7
100
AcDbCircle
 10
122.3402402723061
 20
-647.0655671557174
 30
0.0
 40
3.000000000000051
100
AcDbArc
 50
163.1255057020552
 51
180.0
  0
ARC
  5
215
330
1F
100
AcDbEntity
  8
1
  6
Continuous
 62
     7
100
AcDbCircle
 10
122.3402402723061
 20
-647.0655671557174
 30
0.0
 40
3.0
100
AcDbArc
 50
180.0
 51
-163.1255057020573
  0
ARC
  5
218
330
1F
100
AcDbEntity
  8
1
  6
Continuous
 62
     7
100
AcDbCircle
 10
74.34024027230613
 20
-647.0655671557174
 30
0.0
 40
8.00000000000003
100
AcDbArc
 50
67.97568716295794
 51
90.0
  0
ARC
  5
219
330
1F
100
AcDbEntity
  8
1
  6
Continuous
 62
     7
100
AcDbCircle
 10
74.34024027230613
 20
-647.0655671557174
 30
0.0
 40
8.000000000000026
100
AcDbArc
 50
-112.024312837042
 51
-90.0
  0
LWPOLYLINE
  5
21A
330
1F
100
AcDbEntity
  8
1
  6
Continuous
 62
     3
100
AcDbPolyline
 90
        2
 70
     1
 43
0.0
 10
74.34024027230613
 20
-645.4445671557172
 42
1.0
 10
74.34024027230613
 20
-648.6865671557175
 42
1.0
  0
LWPOLYLINE
  5
21B
330
1F
100
AcDbEntity
  8
1
  6
Continuous
 62
     2
100
AcDbPolyline
 90
        2
 70
     1
 43
0.0
 10
74.34024027230613
 20
-645.0655671557174
 42
1.0
 10
74.34024027230613
 20
-649.0655671557174
 42
1.0
  0
ARC
  5
21C
330
1F
100
AcDbEntity
  8
1
  6
Continuous
 62
     7
100
AcDbCircle
 10
74.34024027230613
 20
-647.0655671557174
 30
0.0
 40
8.0
100
AcDbArc
 50
-90.0
 51
-51.31781254651052
  0
ARC
  5
21D
330
1F
100
AcDbEntity
  8
1
  6
Continuous
 62
     7
100
AcDbCircle
 10
74.34024027230613
 20
-647.0655671557174
 30
0.0
 40
5.500000000000007
100
AcDbArc
 50
-155.3800226713423
 51
-123.0557311508534
  0
ARC
  5
21E
330
1F
100
AcDbEntity
  8
1
  6
Continuous
 62
     7
100
AcDbCircle
 10
74.34024027230613
 20
-647.0655671557174
 30
0.0
 40
8.0
100
AcDbArc
 50
90.0
 51
128.6821874534894
  0
ARC
  5
21F
330
1F
100
AcDbEntity
  8
1
  6
Continuous
 62
     7
100
AcDbCircle
 10
74.34024027230613
 20
-647.0655671557174
 30
0.0
 40
5.499999999999975
100
AcDbArc
 50
24.61997732865654
 51
56.94426884914586
  0
CIRCLE
  5
221
330
1F
100
AcDbEntity
  8
1
  6
Continuous
 62
     7
100
AcDbCircle
 10
74.34024027230613
 20
-647.0655671557174
 30
0.0
 40
2.25
  0
ARC
  5
223
330
1F
100
AcDbEntity
  8
1
  6
Continuous
 62
     7
100
AcDbCircle
 10
83.84024027230614
 20
-645.0655671557174
 30
0.0
 40
1.0
100
AcDbArc
 50
90.0
 51
180.0
  0
ARC
  5
224
330
1F
100
AcDbEntity
  8
1
  6
Continuous
 62
     7
100
AcDbCircle
 10
83.84024027230614
 20
-649.0655671557174
 30
0.0
 40
1.0
100
AcDbArc
 50
180.0
 51
-90.0
  0
ARC
  5
225
330
1F
100
AcDbEntity
  8
1
  6
Continuous
 62
     7
100
AcDbCircle
 10
108.3402402723061
 20
-649.0655671557174
 30
0.0
 40
1.0
100
AcDbArc
 50
-90.0
 51
0.0
  0
ARC
  5
226
330
1F
100
AcDbEntity
  8
1
  6
Continuous
 62
     7
100
AcDbCircle
 10
108.3402402723061
 20
-645.0655671557174
 30
0.0
 40
1.0
100
AcDbArc
 50
0.0
 51
90.0
  0
ARC
  5
227
330
1F
100
AcDbEntity
  8
1
  6
Continuous
 62
     7
100
AcDbCircle
 10
68.3402402723061
 20
-640.0655671557172
 30
0.0
 40
2.0
100
AcDbArc
 50
90.0
 51
180.0
  0
ARC
  5
228
330
1F
100
AcDbEntity
  8
1
  6
Continuous
 62
     7
100
AcDbCircle
 10
68.3402402723061
 20
-654.0655671557174
 30
0.0
 40
2.0
100
AcDbArc
 50
180.0
 51
-90.0
  0
ARC
  5
229
330
1F
100
AcDbEntity
  8
1
  6
DASHED_NEW
 62
     7
100
AcDbCircle
 10
108.3402402723061
 20
-597.2041415569142
 30
0.0
 40
1.0
100
AcDbArc
 50
0.0
 51
90.0
  0
ARC
  5
22A
330
1F
100
AcDbEntity
  8
1
  6
DASHED_NEW
 62
     7
100
AcDbCircle
 10
83.84024027230614
 20
-597.2041415569142
 30
0.0
 40
1.0
100
AcDbArc
 50
90.0
 51
180.0
  0
ARC
  5
22B
330
1F
100
AcDbEntity
  8
1
  6
Continuous
 62
     7
100
AcDbCircle
 10
67.3402402723061
 20
-595.7041415569142
 30
0.0
 40
1.0
100
AcDbArc
 50
90.0
 51
180.0
  0
ARC
  5
22C
330
1F
100
AcDbEntity
  8
1
  6
Continuous
 62
     7
100
AcDbCircle
 10
97.34024027230612
 20
-602.7041415569142
 30
0.0
 40
1.0
100
AcDbArc
 50
-90.0
 51
0.0
  0
ARC
  5
22D
330
1F
100
AcDbEntity
  8
1
  6
Continuous
 62
     7
100
AcDbCircle
 10
67.3402402723061
 20
-602.7041415569142
 30
0.0
 40
1.0
100
AcDbArc
 50
180.0
 51
-90.0
  0
ARC
  5
22E
330
1F
100
AcDbEntity
  8
1
  6
Continuous
 62
     7
100
AcDbCircle
 10
118.4694115789191
 20
-595.7041415569142
 30
0.0
 40
1.0
100
AcDbArc
 50
0.0
 51
90.0
  0
ENDSEC
  0
SECTION
  2
OBJECTS
  0
DICTIONARY
  5
C
330
0
100
AcDbDictionary
281
     1
  3
ACAD_CIP_PREVIOUS_PRODUCT_INFO
350
2EC
  3
ACAD_COLOR
350
2D1
  3
ACAD_GROUP
350
D
  3
ACAD_LAYOUT
350
1A
  3
ACAD_MATERIAL
350
29F
  3
ACAD_MLEADERSTYLE
350
2E6
  3
ACAD_MLINESTYLE
350
17
  3
ACAD_PLOTSETTINGS
350
19
  3
ACAD_PLOTSTYLENAME
350
E
  3
ACAD_SCALELIST
350
2D4
  3
ACAD_TABLESTYLE
350
2D2
  3
ACAD_VISUALSTYLE
350
2B8
  3
ACDB_RECOMPOSE_DATA
350
35F
  3
AcDbVariableDictionary
350
2F1
  3
ASE_INDEX_DICTIONARY
350
354
  3
DWGPROPS
350
360
  0
DICTIONARY
  5
2ED
330
10
100
AcDbDictionary
280
     1
281
     1
  3
ADSK_XREC_LAYER_RECONCILED
360
2EE
  0
DICTIONARY
  5
2EF
330
31
100
AcDbDictionary
280
     1
281
     1
  3
ADSK_XREC_LAYER_RECONCILED
360
2F0
  0
DICTIONARY
  5
33D
330
1F
100
AcDbDictionary
280
     1
281
     1
  3
ACAD_SORTENTS
360
33E
  0
XRECORD
  5
2EC
102
{ACAD_REACTORS
330
C
102
}
330
C
100
AcDbXrecord
280
     1
300
ACD
300
2012
300
ACD_F_S
  0
DICTIONARY
  5
2D1
102
{ACAD_REACTORS
330
C
102
}
330
C
100
AcDbDictionary
281
     1
  0
DICTIONARY
  5
D
102
{ACAD_REACTORS
330
C
102
}
330
C
100
AcDbDictionary
281
     1
  0
DICTIONARY
  5
1A
102
{ACAD_REACTORS
330
C
102
}
330
C
100
AcDbDictionary
281
     1
  3
Layout1
350
1E
  3
Layout2
350
26
  3
Model
350
22
  0
DICTIONARY
  5
29F
102
{ACAD_REACTORS
330
C
102
}
330
C
100
AcDbDictionary
281
     1
  3
ByBlock
350
2A8
  3
ByLayer
350
2A0
  3
Global
350
2B0
  0
DICTIONARY
  5
2E6
102
{ACAD_REACTORS
330
C
102
}
330
C
100
AcDbDictionary
281
     1
  3
Standard
350
2E7
  0
DICTIONARY
  5
17
102
{ACAD_REACTORS
330
C
102
}
330
C
100
AcDbDictionary
281
     1
  3
Standard
350
18
  0
DICTIONARY
  5
19
102
{ACAD_REACTORS
330
C
102
}
330
C
100
AcDbDictionary
281
     1
  0
ACDBDICTIONARYWDFLT
  5
E
102
{ACAD_REACTORS
330
C
102
}
330
C
100
AcDbDictionary
281
     1
  3
Normal
350
F
100
AcDbDictionaryWithDefault
340
F
  0
DICTIONARY
  5
2D4
102
{ACAD_REACTORS
330
C
102
}
330
C
100
AcDbDictionary
281
     1
  3
A0
350
2D5
  3
A1
350
2D6
  3
A2
350
2D7
  3
A3
350
2D8
  3
A4
350
2D9
  3
A5
350
2DA
  3
A6
350
2DB
  3
A7
350
2DC
  3
A8
350
2DD
  3
A9
350
2DE
  3
B0
350
2DF
  3
B1
350
2E0
  3
B2
350
2E1
  3
B3
350
2E2
  3
B4
350
2E3
  3
B5
350
2E4
  3
B6
350
2E5
  0
DICTIONARY
  5
2D2
102
{ACAD_REACTORS
330
C
102
}
330
C
100
AcDbDictionary
281
     1
  3
Standard
350
2D3
  0
DICTIONARY
  5
2B8
102
{ACAD_REACTORS
330
C
102
}
330
C
100
AcDbDictionary
281
     1
  3
2dWireframe
350
2BE
  3
Basic
350
2BD
  3
Brighten
350
2C4
  3
ColorChange
350
2C8
  3
Conceptual
350
2C1
  3
Dim
350
2C3
  3
EdgeColorOff
350
2D0
  3
Facepattern
350
2C7
  3
Flat
350
2B9
  3
FlatWithEdges
350
2BA
  3
Gouraud
350
2BB
  3
GouraudWithEdges
350
2BC
  3
Hidden
350
2C0
  3
JitterOff
350
2CE
  3
Linepattern
350
2C6
  3
OverhangOff
350
2CF
  3
Realistic
350
2C2
  3
Shaded
350
2CD
  3
Shaded with edges
350
2CC
  3
Shades of Gray
350
2C9
  3
Sketchy
350
2CA
  3
Thicken
350
2C5
  3
Wireframe
350
2BF
  3
X-Ray
350
2CB
  0
XRECORD
  5
35F
102
{ACAD_REACTORS
330
C
102
}
330
C
100
AcDbXrecord
280
     1
 90
        1
330
2D3
  0
DICTIONARY
  5
2F1
102
{ACAD_REACTORS
330
C
102
}
330
C
100
AcDbDictionary
281
     1
  3
CANNOSCALE
350
2F4
  3
CMLEADERSTYLE
350
2F3
  3
CTABLESTYLE
350
2F2
  3
DIMASSOC
350
35B
  3
HIDETEXT
350
359
  3
INDEXCTL
350
358
  3
SORTENTS
350
357
  3
XCLIPFRAME
350
35A
  0
DICTIONARY
  5
354
102
{ACAD_REACTORS
330
C
102
}
330
C
100
AcDbDictionary
281
     1
  3
ASEBlockHierarchyIndexRecord
350
356
1001
DCO15
1040
1881980294.614
  0
XRECORD
  5
360
102
{ACAD_REACTORS
330
C
102
}
330
C
100
AcDbXrecord
280
     1
  1
DWGPROPS COOKIE
  2

  3

  4

  6

  7

  8
0035sekine
  9

300
=
301
=
302
=
303
=
304
=
305
=
306
=
307
=
308
=
309
=
 40
0.0012927314814815
 41
2454445.809723842
 42
2457585.391187663
  1

 90
        0
  0
XRECORD
  5
2EE
102
{ACAD_REACTORS
330
2ED
102
}
330
2ED
100
AcDbXrecord
280
     1
290
     1
  0
XRECORD
  5
2F0
102
{ACAD_REACTORS
330
2EF
102
}
330
2EF
100
AcDbXrecord
280
     1
290
     1
  0
SORTENTSTABLE
  5
33E
102
{ACAD_REACTORS
330
33D
102
}
330
33D
100
AcDbSortentsTable
330
1F
331
215
  5
215
331
226
  5
228
331
1E2
  5
1E2
331
1C8
  5
1C8
331
1A6
  5
1A6
331
1B7
  5
1B7
331
195
  5
195
331
213
  5
213
331
224
  5
226
331
1E0
  5
1E0
331
1C6
  5
1C6
331
1A4
  5
1A4
331
1B5
  5
1B5
331
193
  5
193
331
1DE
  5
1DE
331
1C4
  5
1C4
331
1A2
  5
1A2
331
1B3
  5
1B3
331
191
  5
191
331
1DC
  5
1DC
331
1C2
  5
1C2
331
1A0
  5
1A0
331
1B1
  5
1B1
331
18F
  5
18F
331
21E
  5
21E
331
1DA
  5
1DA
331
1C0
  5
1C0
331
19E
  5
19E
331
1AF
  5
1AF
331
18D
  5
18D
331
21C
  5
21C
331
1BE
  5
1BE
331
19C
  5
19C
331
22D
  5
22F
331
1AD
  5
1AD
331
18B
  5
18B
331
21A
  5
21A
331
1BC
  5
1BC
331
19A
  5
19A
331
22B
  5
22D
331
1E7
  5
1E7
331
1CD
  5
1CD
331
1AB
  5
1AB
331
189
  5
189
331
187
  5
187
331
218
  5
218
331
1BA
  5
1BA
331
198
  5
198
331
229
  5
22B
331
1E5
  5
1E5
331
1CB
  5
1CB
331
1A9
  5
1A9
331
185
  5
185
331
1B8
  5
1B8
331
227
  5
229
331
1E3
  5
1E3
331
1C9
  5
1C9
331
1A7
  5
1A7
331
196
  5
196
331
214
  5
214
331
225
  5
227
331
1E1
  5
1E1
331
1C7
  5
1C7
331
1A5
  5
1A5
331
1B6
  5
1B6
331
194
  5
194
331
212
  5
212
331
223
  5
225
331
1DF
  5
1DF
331
1C5
  5
1C5
331
1A3
  5
1A3
331
1B4
  5
1B4
331
192
  5
192
331
221
  5
223
331
1DD
  5
1DD
331
1C3
  5
1C3
331
1A1
  5
1A1
331
1B2
  5
1B2
331
190
  5
190
331
21F
  5
21F
331
1DB
  5
1DB
331
1C1
  5
1C1
331
19F
  5
19F
331
1B0
  5
1B0
331
18E
  5
18E
331
21D
  5
21D
331
1D9
  5
1D9
331
1BF
  5
1BF
331
19D
  5
19D
331
22E
  5
230
331
1AE
  5
1AE
331
18C
  5
18C
331
21B
  5
21B
331
1BD
  5
1BD
331
19B
  5
19B
331
22C
  5
22E
331
1E8
  5
1E8
331
1CE
  5
1CE
331
1AC
  5
1AC
331
18A
  5
18A
331
199
  5
199
331
219
  5
219
331
1BB
  5
1BB
331
22A
  5
22C
331
1E6
  5
1E6
331
1CC
  5
1CC
331
1AA
  5
1AA
331
188
  5
188
331
186
  5
186
331
1B9
  5
1B9
331
228
  5
22A
331
1E4
  5
1E4
331
1CA
  5
1CA
331
1A8
  5
1A8
331
197
  5
197
331
184
  5
184
  0
LAYOUT
  5
1E
102
{ACAD_XDICTIONARY
360
361
102
}
102
{ACAD_REACTORS
330
1A
102
}
330
1A
100
AcDbPlotSettings
  1

  2

  4

  6

 40
0.0
 41
0.0
 42
0.0
 43
0.0
 44
0.0
 45
0.0
 46
0.0
 47
0.0
 48
0.0
 49
0.0
140
0.0
141
0.0
142
1.0
143
1.0
 70
   688
 72
     0
 73
     0
 74
     5
  7

 75
    16
147
1.0
148
0.0
149
0.0
100
AcDbLayout
  1
Layout1
 70
     1
 71
     1
 10
0.0
 20
0.0
 11
12.0
 21
9.0
 12
0.0
 22
0.0
 32
0.0
 14
1.000000000000000E+20
 24
1.000000000000000E+20
 34
1.000000000000000E+20
 15
-1.000000000000000E+20
 25
-1.000000000000000E+20
 35
-1.000000000000000E+20
146
0.0
 13
0.0
 23
0.0
 33
0.0
 16
1.0
 26
0.0
 36
0.0
 17
0.0
 27
1.0
 37
0.0
 76
     0
330
1B
  0
LAYOUT
  5
26
102
{ACAD_XDICTIONARY
360
365
102
}
102
{ACAD_REACTORS
330
1A
102
}
330
1A
100
AcDbPlotSettings
  1

  2

  4

  6

 40
0.0
 41
0.0
 42
0.0
 43
0.0
 44
0.0
 45
0.0
 46
0.0
 47
0.0
 48
0.0
 49
0.0
140
0.0
141
0.0
142
1.0
143
1.0
 70
   688
 72
     0
 73
     0
 74
     5
  7

 75
    16
147
1.0
148
0.0
149
0.0
100
AcDbLayout
  1
Layout2
 70
     1
 71
     2
 10
0.0
 20
0.0
 11
0.0
 21
0.0
 12
0.0
 22
0.0
 32
0.0
 14
0.0
 24
0.0
 34
0.0
 15
0.0
 25
0.0
 35
0.0
146
0.0
 13
0.0
 23
0.0
 33
0.0
 16
1.0
 26
0.0
 36
0.0
 17
0.0
 27
1.0
 37
0.0
 76
     0
330
23
  0
LAYOUT
  5
22
102
{ACAD_XDICTIONARY
360
363
102
}
102
{ACAD_REACTORS
330
1A
102
}
330
1A
100
AcDbPlotSettings
  1

  2

  4

  6

 40
0.0
 41
0.0
 42
0.0
 43
0.0
 44
0.0
 45
0.0
 46
0.0
 47
0.0
 48
0.0
 49
0.0
140
0.0
141
0.0
142
1.0
143
1.0
 70
  1712
 72
     0
 73
     0
 74
     0
  7

 75
     0
147
1.0
148
0.0
149
0.0
100
AcDbLayout
  1
Model
 70
     1
 71
     0
 10
0.0
 20
0.0
 11
0.0
 21
0.0
 12
0.0
 22
0.0
 32
0.0
 14
3.273132178690959
 24
-763.5039456429209
 34
0.0
 15
187.2731321786919
 25
-486.5039456429196
 35
0.0
146
0.0
 13
0.0
 23
0.0
 33
0.0
 16
1.0
 26
0.0
 36
0.0
 17
0.0
 27
1.0
 37
0.0
 76
     0
330
1F
331
29
  0
MATERIAL
  5
2A8
102
{ACAD_XDICTIONARY
360
2A9
102
}
102
{ACAD_REACTORS
330
29F
102
}
330
29F
100
AcDbMaterial
  1
ByBlock
 72
     0
 43
0.0208333333333333
 43
0.0
 43
0.0
 43
0.0
 43
0.0
 43
0.0208333333333333
 43
0.0
 43
0.0
 43
0.0
 43
0.0
 43
1.0
 43
0.0
 43
0.0
 43
0.0
 43
0.0
 43
1.0
 77
     0
 47
0.0208333333333333
 47
0.0
 47
0.0
 47
0.0
 47
0.0
 47
0.0208333333333333
 47
0.0
 47
0.0
 47
0.0
 47
0.0
 47
1.0
 47
0.0
 47
0.0
 47
0.0
 47
0.0
 47
1.0
171
     0
 49
0.0208333333333333
 49
0.0
 49
0.0
 49
0.0
 49
0.0
 49
0.0208333333333333
 49
0.0
 49
0.0
 49
0.0
 49
0.0
 49
1.0
 49
0.0
 49
0.0
 49
0.0
 49
0.0
 49
1.0
175
     0
142
0.0208333333333333
142
0.0
142
0.0
142
0.0
142
0.0
142
0.0208333333333333
142
0.0
142
0.0
142
0.0
142
0.0
142
1.0
142
0.0
142
0.0
142
0.0
142
0.0
142
1.0
179
     0
144
0.0208333333333333
144
0.0
144
0.0
144
0.0
144
0.0
144
0.0208333333333333
144
0.0
144
0.0
144
0.0
144
0.0
144
1.0
144
0.0
144
0.0
144
0.0
144
0.0
144
1.0
147
0.0208333333333333
147
0.0
147
0.0
147
0.0
147
0.0
147
0.0208333333333333
147
0.0
147
0.0
147
0.0
147
0.0
147
1.0
147
0.0
147
0.0
147
0.0
147
0.0
147
1.0
  0
MATERIAL
  5
2A0
102
{ACAD_XDICTIONARY
360
2A1
102
}
102
{ACAD_REACTORS
330
29F
102
}
330
29F
100
AcDbMaterial
  1
ByLayer
 72
     0
 43
0.0208333333333333
 43
0.0
 43
0.0
 43
0.0
 43
0.0
 43
0.0208333333333333
 43
0.0
 43
0.0
 43
0.0
 43
0.0
 43
1.0
 43
0.0
 43
0.0
 43
0.0
 43
0.0
 43
1.0
 77
     0
 47
0.0208333333333333
 47
0.0
 47
0.0
 47
0.0
 47
0.0
 47
0.0208333333333333
 47
0.0
 47
0.0
 47
0.0
 47
0.0
 47
1.0
 47
0.0
 47
0.0
 47
0.0
 47
0.0
 47
1.0
171
     0
 49
0.0208333333333333
 49
0.0
 49
0.0
 49
0.0
 49
0.0
 49
0.0208333333333333
 49
0.0
 49
0.0
 49
0.0
 49
0.0
 49
1.0
 49
0.0
 49
0.0
 49
0.0
 49
0.0
 49
1.0
175
     0
142
0.0208333333333333
142
0.0
142
0.0
142
0.0
142
0.0
142
0.0208333333333333
142
0.0
142
0.0
142
0.0
142
0.0
142
1.0
142
0.0
142
0.0
142
0.0
142
0.0
142
1.0
179
     0
144
0.0208333333333333
144
0.0
144
0.0
144
0.0
144
0.0
144
0.0208333333333333
144
0.0
144
0.0
144
0.0
144
0.0
144
1.0
144
0.0
144
0.0
144
0.0
144
0.0
144
1.0
147
0.0208333333333333
147
0.0
147
0.0
147
0.0
147
0.0
147
0.0208333333333333
147
0.0
147
0.0
147
0.0
147
0.0
147
1.0
147
0.0
147
0.0
147
0.0
147
0.0
147
1.0
  0
MATERIAL
  5
2B0
102
{ACAD_XDICTIONARY
360
2B1
102
}
102
{ACAD_REACTORS
330
29F
102
}
330
29F
100
AcDbMaterial
  1
Global
 72
     0
 43
0.0208333333333333
 43
0.0
 43
0.0
 43
0.0
 43
0.0
 43
0.0208333333333333
 43
0.0
 43
0.0
 43
0.0
 43
0.0
 43
1.0
 43
0.0
 43
0.0
 43
0.0
 43
0.0
 43
1.0
 77
     0
 47
0.0208333333333333
 47
0.0
 47
0.0
 47
0.0
 47
0.0
 47
0.0208333333333333
 47
0.0
 47
0.0
 47
0.0
 47
0.0
 47
1.0
 47
0.0
 47
0.0
 47
0.0
 47
0.0
 47
1.0
171
     0
 49
0.0208333333333333
 49
0.0
 49
0.0
 49
0.0
 49
0.0
 49
0.0208333333333333
 49
0.0
 49
0.0
 49
0.0
 49
0.0
 49
1.0
 49
0.0
 49
0.0
 49
0.0
 49
0.0
 49
1.0
175
     0
142
0.0208333333333333
142
0.0
142
0.0
142
0.0
142
0.0
142
0.0208333333333333
142
0.0
142
0.0
142
0.0
142
0.0
142
1.0
142
0.0
142
0.0
142
0.0
142
0.0
142
1.0
179
     0
144
0.0208333333333333
144
0.0
144
0.0
144
0.0
144
0.0
144
0.0208333333333333
144
0.0
144
0.0
144
0.0
144
0.0
144
1.0
144
0.0
144
0.0
144
0.0
144
0.0
144
1.0
147
0.0208333333333333
147
0.0
147
0.0
147
0.0
147
0.0
147
0.0208333333333333
147
0.0
147
0.0
147
0.0
147
0.0
147
1.0
147
0.0
147
0.0
147
0.0
147
0.0
147
1.0
  0
MLEADERSTYLE
  5
2E7
102
{ACAD_XDICTIONARY
360
35D
102
}
102
{ACAD_REACTORS
330
2E6
102
}
330
2E6
100
AcDbMLeaderStyle
170
     2
171
     1
172
     0
 90
        2
 40
0.0
 41
0.0
173
     1
 91
-1056964608
340
14
 92
       -2
290
     1
 42
0.09
291
     1
 43
0.36
  3
Standard
 44
0.18
300

342
11
174
     1
178
     6
175
     1
176
     0
 93
-1056964608
 45
0.18
292
     0
297
     0
 46
0.18
 94
-1056964608
 47
1.0
 49
1.0
140
1.0
293
     1
141
0.0
294
     1
177
     0
142
1.0
295
     0
296
     0
143
0.125
1001
ACAD_MLEADERVER
1070
     2
  0
MLINESTYLE
  5
18
102
{ACAD_REACTORS
330
17
102
}
330
17
100
AcDbMlineStyle
  2
STANDARD
 70
     0
  3

 62
   256
 51
90.0
 52
90.0
 71
     2
 49
0.5
 62
   256
  6
BYLAYER
 49
-0.5
 62
   256
  6
BYLAYER
  0
ACDBPLACEHOLDER
  5
F
102
{ACAD_REACTORS
330
E
102
}
330
E
  0
SCALE
  5
2D5
102
{ACAD_REACTORS
330
2D4
102
}
330
2D4
100
AcDbScale
 70
     0
300
1:1
140
1.0
141
1.0
290
     1
  0
SCALE
  5
2D6
102
{ACAD_REACTORS
330
2D4
102
}
330
2D4
100
AcDbScale
 70
     0
300
1/128" = 1'-0"
140
0.0078125
141
12.0
290
     0
  0
SCALE
  5
2D7
102
{ACAD_REACTORS
330
2D4
102
}
330
2D4
100
AcDbScale
 70
     0
300
1/64" = 1'-0"
140
0.015625
141
12.0
290
     0
  0
SCALE
  5
2D8
102
{ACAD_REACTORS
330
2D4
102
}
330
2D4
100
AcDbScale
 70
     0
300
1/32" = 1'-0"
140
0.03125
141
12.0
290
     0
  0
SCALE
  5
2D9
102
{ACAD_REACTORS
330
2D4
102
}
330
2D4
100
AcDbScale
 70
     0
300
1/16" = 1'-0"
140
0.0625
141
12.0
290
     0
  0
SCALE
  5
2DA
102
{ACAD_REACTORS
330
2D4
102
}
330
2D4
100
AcDbScale
 70
     0
300
3/32" = 1'-0"
140
0.09375
141
12.0
290
     0
  0
SCALE
  5
2DB
102
{ACAD_REACTORS
330
2D4
102
}
330
2D4
100
AcDbScale
 70
     0
300
1/8" = 1'-0"
140
0.125
141
12.0
290
     0
  0
SCALE
  5
2DC
102
{ACAD_REACTORS
330
2D4
102
}
330
2D4
100
AcDbScale
 70
     0
300
3/16" = 1'-0"
140
0.1875
141
12.0
290
     0
  0
SCALE
  5
2DD
102
{ACAD_REACTORS
330
2D4
102
}
330
2D4
100
AcDbScale
 70
     0
300
1/4" = 1'-0"
140
0.25
141
12.0
290
     0
  0
SCALE
  5
2DE
102
{ACAD_REACTORS
330
2D4
102
}
330
2D4
100
AcDbScale
 70
     0
300
3/8" = 1'-0"
140
0.375
141
12.0
290
     0
  0
SCALE
  5
2DF
102
{ACAD_REACTORS
330
2D4
102
}
330
2D4
100
AcDbScale
 70
     0
300
1/2" = 1'-0"
140
0.5
141
12.0
290
     0
  0
SCALE
  5
2E0
102
{ACAD_REACTORS
330
2D4
102
}
330
2D4
100
AcDbScale
 70
     0
300
3/4" = 1'-0"
140
0.75
141
12.0
290
     0
  0
SCALE
  5
2E1
102
{ACAD_REACTORS
330
2D4
102
}
330
2D4
100
AcDbScale
 70
     0
300
1" = 1'-0"
140
1.0
141
12.0
290
     0
  0
SCALE
  5
2E2
102
{ACAD_REACTORS
330
2D4
102
}
330
2D4
100
AcDbScale
 70
     0
300
1-1/2" = 1'-0"
140
1.5
141
12.0
290
     0
  0
SCALE
  5
2E3
102
{ACAD_REACTORS
330
2D4
102
}
330
2D4
100
AcDbScale
 70
     0
300
3" = 1'-0"
140
3.0
141
12.0
290
     0
  0
SCALE
  5
2E4
102
{ACAD_REACTORS
330
2D4
102
}
330
2D4
100
AcDbScale
 70
     0
300
6" = 1'-0"
140
6.0
141
12.0
290
     0
  0
SCALE
  5
2E5
102
{ACAD_REACTORS
330
2D4
102
}
330
2D4
100
AcDbScale
 70
     0
300
1'-0" = 1'-0"
140
12.0
141
12.0
290
     0
  0
TABLESTYLE
  5
2D3
102
{ACAD_XDICTIONARY
360
2F6
102
}
102
{ACAD_REACTORS
330
2D2
102
}
330
2D2
100
AcDbTableStyle
  3
Standard
 70
     0
 71
     0
 40
0.06
 41
0.06
280
     0
281
     0
  7
Standard
140
0.18
170
     2
 62
     0
 63
     7
283
     0
274
    -2
284
     1
 64
     0
275
    -2
285
     1
 65
     0
276
    -2
286
     1
 66
     0
277
    -2
287
     1
 67
     0
278
    -2
288
     1
 68
     0
279
    -2
289
     1
 69
     0
  7
Standard
140
0.25
170
     5
 62
     0
 63
     7
283
     0
274
    -2
284
     1
 64
     0
275
    -2
285
     1
 65
     0
276
    -2
286
     1
 66
     0
277
    -2
287
     1
 67
     0
278
    -2
288
     1
 68
     0
279
    -2
289
     1
 69
     0
  7
Standard
140
0.18
170
     5
 62
     0
 63
     7
283
     0
274
    -2
284
     1
 64
     0
275
    -2
285
     1
 65
     0
276
    -2
286
     1
 66
     0
277
    -2
287
     1
 67
     0
278
    -2
288
     1
 68
     0
279
    -2
289
     1
 69
     0
  0
VISUALSTYLE
  5
2BE
102
{ACAD_XDICTIONARY
360
371
102
}
102
{ACAD_REACTORS
330
2B8
102
}
330
2B8
100
AcDbVisualStyle
  2

 70
     4
 71
     0
 72
     2
 73
     0
 90
        0
 40
-0.6
 41
-30.0
 62
     5
 63
     7
 74
     1
 91
        4
 64
     7
 65
   257
 75
     1
175
     1
 42
1.0
 92
        0
 66
   257
 43
1.0
 76
     1
 77
     6
 78
     2
 67
     7
 79
     5
170
     0
171
     0
290
     0
174
     0
 93
        1
 44
0.0
173
     0
291
     0
 45
0.0
1001
ACAD
1000
AcDbSavedByObjectVersion
1070
     0
  0
VISUALSTYLE
  5
2BD
102
{ACAD_XDICTIONARY
360
36F
102
}
102
{ACAD_REACTORS
330
2B8
102
}
330
2B8
100
AcDbVisualStyle
  2

 70
     7
 71
     1
 72
     0
 73
     1
 90
        0
 40
-0.6
 41
-30.0
 62
     5
 63
     7
 74
     0
 91
        4
 64
     7
 65
   257
 75
     1
175
     1
 42
1.0
 92
        8
 66
     7
 43
1.0
 76
     1
 77
     6
 78
     2
 67
     7
 79
     5
170
     0
171
     0
290
     0
174
     0
 93
        1
 44
0.0
173
     0
291
     1
 45
0.0
1001
ACAD
1000
AcDbSavedByObjectVersion
1070
     0
  0
VISUALSTYLE
  5
2C4
102
{ACAD_XDICTIONARY
360
37D
102
}
102
{ACAD_REACTORS
330
2B8
102
}
330
2B8
100
AcDbVisualStyle
  2

 70
    12
 71
     2
 72
     2
 73
     0
 90
        0
 40
-0.6
 41
-30.0
 62
     5
 63
     7
 74
     1
 91
        4
 64
     7
 65
   257
 75
     1
175
     1
 42
1.0
 92
        8
 66
     7
 43
1.0
 76
     1
 77
     6
 78
     2
 67
     7
 79
     5
170
     0
171
     0
290
     0
174
     0
 93
        1
 44
50.0
173
     0
291
     1
 45
0.0
1001
ACAD
1000
AcDbSavedByObjectVersion
1070
     0
  0
VISUALSTYLE
  5
2C8
102
{ACAD_XDICTIONARY
360
385
102
}
102
{ACAD_REACTORS
330
2B8
102
}
330
2B8
100
AcDbVisualStyle
  2

 70
    16
 71
     2
 72
     2
 73
     3
 90
        0
 40
-0.6
 41
-30.0
 62
     5
 63
     8
 74
     1
 91
        4
 64
     7
 65
   257
 75
     1
175
     1
 42
1.0
 92
        8
 66
     8
 43
1.0
 76
     1
 77
     6
 78
     2
 67
     7
 79
     5
170
     0
171
     0
290
     0
174
     0
 93
        1
 44
0.0
173
     0
291
     1
 45
0.0
1001
ACAD
1000
AcDbSavedByObjectVersion
1070
     0
  0
VISUALSTYLE
  5
2C1
102
{ACAD_XDICTIONARY
360
377
102
}
102
{ACAD_REACTORS
330
2B8
102
}
330
2B8
100
AcDbVisualStyle
  2

 70
     9
 71
     3
 72
     2
 73
     0
 90
        0
 40
-0.6
 41
-30.0
 62
     5
 63
     7
 74
     2
 91
        2
 64
     7
 65
   257
 75
     1
175
     1
 42
179.0
 92
        8
 66
     7
 43
1.0
 76
     1
 77
     6
 78
     2
 67
     7
 79
     3
170
     0
171
     0
290
     0
174
     0
 93
        1
 44
0.0
173
     0
291
     0
 45
0.0
1001
ACAD
1000
AcDbSavedByObjectVersion
1070
     0
  0
VISUALSTYLE
  5
2C3
102
{ACAD_XDICTIONARY
360
37B
102
}
102
{ACAD_REACTORS
330
2B8
102
}
330
2B8
100
AcDbVisualStyle
  2

 70
    11
 71
     2
 72
     2
 73
     0
 90
        0
 40
-0.6
 41
-30.0
 62
     5
 63
     7
 74
     1
 91
        4
 64
     7
 65
   257
 75
     1
175
     1
 42
1.0
 92
        8
 66
     7
 43
1.0
 76
     1
 77
     6
 78
     2
 67
     7
 79
     5
170
     0
171
     0
290
     0
174
     0
 93
        1
 44
-50.0
173
     0
291
     1
 45
0.0
1001
ACAD
1000
AcDbSavedByObjectVersion
1070
     0
  0
VISUALSTYLE
  5
2D0
102
{ACAD_XDICTIONARY
360
395
102
}
102
{ACAD_REACTORS
330
2B8
102
}
330
2B8
100
AcDbVisualStyle
  2

 70
    22
 71
     2
 72
     2
 73
     0
 90
        0
 40
-0.6
 41
-30.0
 62
     5
 63
     7
 74
     1
 91
        4
 64
     7
 65
   257
 75
     1
175
     1
 42
1.0
 92
        8
 66
     7
 43
1.0
 76
     1
 77
     6
 78
     2
 67
     7
 79
     5
170
     0
171
     0
290
     0
174
     0
 93
        1
 44
0.0
173
     0
291
     1
 45
0.0
1001
ACAD
1000
AcDbSavedByObjectVersion
1070
     0
  0
VISUALSTYLE
  5
2C7
102
{ACAD_XDICTIONARY
360
383
102
}
102
{ACAD_REACTORS
330
2B8
102
}
330
2B8
100
AcDbVisualStyle
  2

 70
    15
 71
     2
 72
     2
 73
     0
 90
        0
 40
-0.6
 41
-30.0
 62
     5
 63
     7
 74
     1
 91
        4
 64
     7
 65
   257
 75
     1
175
     1
 42
1.0
 92
        8
 66
     7
 43
1.0
 76
     1
 77
     6
 78
     2
 67
     7
 79
     5
170
     0
171
     0
290
     0
174
     0
 93
        1
 44
0.0
173
     0
291
     1
 45
0.0
1001
ACAD
1000
AcDbSavedByObjectVersion
1070
     0
  0
VISUALSTYLE
  5
2B9
102
{ACAD_XDICTIONARY
360
367
102
}
102
{ACAD_REACTORS
330
2B8
102
}
330
2B8
100
AcDbVisualStyle
  2

 70
     0
 71
     2
 72
     1
 73
     1
 90
        2
 40
-0.6
 41
30.0
 62
     5
 63
     7
 74
     0
 91
        0
 64
     7
 65
   257
 75
     1
175
     1
 42
1.0
 92
        8
 66
     7
 43
1.0
 76
     1
 77
     6
 78
     2
 67
     7
 79
     5
170
     0
171
     0
290
     0
174
     0
 93
       13
 44
0.0
173
     0
291
     1
 45
0.0
1001
ACAD
1000
AcDbSavedByObjectVersion
1070
     0
  0
VISUALSTYLE
  5
2BA
102
{ACAD_XDICTIONARY
360
369
102
}
102
{ACAD_REACTORS
330
2B8
102
}
330
2B8
100
AcDbVisualStyle
  2

 70
     1
 71
     2
 72
     1
 73
     1
 90
        2
 40
-0.6
 41
30.0
 62
     5
 63
     7
 74
     1
 91
        0
 64
     7
 65
   257
 75
     1
175
     1
 42
1.0
 92
        0
 66
   257
 43
1.0
 76
     1
 77
     6
 78
     2
 67
     7
 79
     5
170
     0
171
     0
290
     0
174
     0
 93
       13
 44
0.0
173
     0
291
     1
 45
0.0
1001
ACAD
1000
AcDbSavedByObjectVersion
1070
     0
  0
VISUALSTYLE
  5
2BB
102
{ACAD_XDICTIONARY
360
36B
102
}
102
{ACAD_REACTORS
330
2B8
102
}
330
2B8
100
AcDbVisualStyle
  2

 70
     2
 71
     2
 72
     2
 73
     1
 90
        2
 40
-0.6
 41
30.0
 62
     5
 63
     7
 74
     0
 91
        0
 64
     7
 65
   257
 75
     1
175
     1
 42
1.0
 92
        0
 66
     7
 43
1.0
 76
     1
 77
     6
 78
     2
 67
     7
 79
     5
170
     0
171
     0
290
     0
174
     0
 93
       13
 44
0.0
173
     0
291
     1
 45
0.0
1001
ACAD
1000
AcDbSavedByObjectVersion
1070
     0
  0
VISUALSTYLE
  5
2BC
102
{ACAD_XDICTIONARY
360
36D
102
}
102
{ACAD_REACTORS
330
2B8
102
}
330
2B8
100
AcDbVisualStyle
  2

 70
     3
 71
     2
 72
     2
 73
     1
 90
        2
 40
-0.6
 41
30.0
 62
     5
 63
     7
 74
     1
 91
        0
 64
     7
 65
   257
 75
     1
175
     1
 42
1.0
 92
        0
 66
   257
 43
1.0
 76
     1
 77
     6
 78
     2
 67
     7
 79
     5
170
     0
171
     0
290
     0
174
     0
 93
       13
 44
0.0
173
     0
291
     1
 45
0.0
1001
ACAD
1000
AcDbSavedByObjectVersion
1070
     0
  0
VISUALSTYLE
  5
2C0
102
{ACAD_XDICTIONARY
360
375
102
}
102
{ACAD_REACTORS
330
2B8
102
}
330
2B8
100
AcDbVisualStyle
  2

 70
     6
 71
     1
 72
     2
 73
     2
 90
        0
 40
-0.6
 41
-30.0
 62
     5
 63
     7
 74
     2
 91
        2
 64
     7
 65
   257
 75
     2
175
     1
 42
40.0
 92
        0
 66
   257
 43
1.0
 76
     1
 77
     6
 78
     2
 67
     7
 79
     3
170
     0
171
     0
290
     0
174
     0
 93
        1
 44
0.0
173
     0
291
     0
 45
0.0
1001
ACAD
1000
AcDbSavedByObjectVersion
1070
     0
  0
VISUALSTYLE
  5
2CE
102
{ACAD_XDICTIONARY
360
391
102
}
102
{ACAD_REACTORS
330
2B8
102
}
330
2B8
100
AcDbVisualStyle
  2

 70
    20
 71
     2
 72
     2
 73
     0
 90
        0
 40
-0.6
 41
-30.0
 62
     5
 63
     7
 74
     1
 91
        4
 64
     7
 65
   257
 75
     1
175
     1
 42
1.0
 92
       10
 66
     7
 43
1.0
 76
     1
 77
     6
 78
     2
 67
     7
 79
     5
170
     0
171
     0
290
     0
174
     0
 93
        1
 44
0.0
173
     0
291
     1
 45
0.0
1001
ACAD
1000
AcDbSavedByObjectVersion
1070
     0
  0
VISUALSTYLE
  5
2C6
102
{ACAD_XDICTIONARY
360
381
102
}
102
{ACAD_REACTORS
330
2B8
102
}
330
2B8
100
AcDbVisualStyle
  2

 70
    14
 71
     2
 72
     2
 73
     0
 90
        0
 40
-0.6
 41
-30.0
 62
     5
 63
     7
 74
     1
 91
        4
 64
     7
 65
   257
 75
     7
175
     7
 42
1.0
 92
        8
 66
     7
 43
1.0
 76
     1
 77
     6
 78
     2
 67
     7
 79
     5
170
     0
171
     0
290
     0
174
     0
 93
        1
 44
0.0
173
     0
291
     1
 45
0.0
1001
ACAD
1000
AcDbSavedByObjectVersion
1070
     0
  0
VISUALSTYLE
  5
2CF
102
{ACAD_XDICTIONARY
360
393
102
}
102
{ACAD_REACTORS
330
2B8
102
}
330
2B8
100
AcDbVisualStyle
  2

 70
    21
 71
     2
 72
     2
 73
     0
 90
        0
 40
-0.6
 41
-30.0
 62
     5
 63
     7
 74
     1
 91
        4
 64
     7
 65
   257
 75
     1
175
     1
 42
1.0
 92
        9
 66
     7
 43
1.0
 76
     1
 77
     6
 78
     2
 67
     7
 79
     5
170
     0
171
     0
290
     0
174
     0
 93
        1
 44
0.0
173
     0
291
     1
 45
0.0
1001
ACAD
1000
AcDbSavedByObjectVersion
1070
     0
  0
VISUALSTYLE
  5
2C2
102
{ACAD_XDICTIONARY
360
379
102
}
102
{ACAD_REACTORS
330
2B8
102
}
330
2B8
100
AcDbVisualStyle
  2

 70
     8
 71
     2
 72
     3
 73
     0
 90
        2
 40
-0.6
 41
30.0
 62
     5
 63
     7
 74
     0
 91
        0
 64
     7
 65
   257
 75
     1
175
     1
 42
1.0
 92
        8
 66
   257
 43
1.0
 76
     1
 77
     6
 78
     2
 67
     7
 79
     3
170
     0
171
     0
290
     0
174
     0
 93
       13
 44
0.0
173
     0
291
     0
 45
0.0
1001
ACAD
1000
AcDbSavedByObjectVersion
1070
     0
  0
VISUALSTYLE
  5
2CD
102
{ACAD_XDICTIONARY
360
38F
102
}
102
{ACAD_REACTORS
330
2B8
102
}
330
2B8
100
AcDbVisualStyle
  2

 70
    27
 71
     2
 72
     2
 73
     1
 90
        2
 40
-0.6
 41
30.0
 62
     5
 63
     7
 74
     0
 91
        4
 64
     7
 65
   257
 75
     1
175
     1
 42
1.0
 92
        8
 66
   257
 43
1.0
 76
     1
 77
     6
 78
     2
 67
     8
 79
     3
170
     0
171
     0
290
     0
174
     0
 93
        5
 44
0.0
173
     0
291
     0
 45
0.0
1001
ACAD
1000
AcDbSavedByObjectVersion
1070
     0
  0
VISUALSTYLE
  5
2CC
102
{ACAD_XDICTIONARY
360
38D
102
}
102
{ACAD_REACTORS
330
2B8
102
}
330
2B8
100
AcDbVisualStyle
  2

 70
    26
 71
     2
 72
     2
 73
     1
 90
        2
 40
-0.6
 41
30.0
 62
     5
 63
     7
 74
     1
 91
       10
 64
     7
 65
   257
 75
     2
175
     1
 42
1.0
 92
        8
 66
   257
 43
1.0
 76
     1
 77
     6
 78
     2
 67
     7
 79
     3
170
     0
171
     0
290
     0
174
     0
 93
        5
 44
0.0
173
     0
291
     0
 45
0.0
1001
ACAD
1000
AcDbSavedByObjectVersion
1070
     0
  0
VISUALSTYLE
  5
2C9
102
{ACAD_XDICTIONARY
360
387
102
}
102
{ACAD_REACTORS
330
2B8
102
}
330
2B8
100
AcDbVisualStyle
  2

 70
    23
 71
     2
 72
     2
 73
     3
 90
        0
 40
-0.6
 41
-30.0
 62
     5
 63
     7
 74
     2
 91
        2
 64
     7
 65
     7
 75
     1
175
     1
 42
40.0
 92
        8
 66
     7
 43
1.0
 76
     1
 77
     6
 78
     2
 67
     7
 79
     3
170
     0
171
     0
290
     0
174
     0
 93
        1
 44
0.0
173
     0
291
     0
 45
0.0
1001
ACAD
1000
AcDbSavedByObjectVersion
1070
     0
  0
VISUALSTYLE
  5
2CA
102
{ACAD_XDICTIONARY
360
389
102
}
102
{ACAD_REACTORS
330
2B8
102
}
330
2B8
100
AcDbVisualStyle
  2

 70
    24
 71
     1
 72
     2
 73
     2
 90
        0
 40
-0.6
 41
-30.0
 62
     5
 63
     7
 74
     2
 91
        2
 64
     7
 65
     7
 75
     1
175
     1
 42
40.0
 92
       11
 66
     7
 43
1.0
 76
     1
 77
     6
 78
     2
 67
     7
 79
     6
170
     0
171
     0
290
     0
174
     0
 93
        1
 44
0.0
173
     0
291
     0
 45
0.0
1001
ACAD
1000
AcDbSavedByObjectVersion
1070
     0
  0
VISUALSTYLE
  5
2C5
102
{ACAD_XDICTIONARY
360
37F
102
}
102
{ACAD_REACTORS
330
2B8
102
}
330
2B8
100
AcDbVisualStyle
  2

 70
    13
 71
     2
 72
     2
 73
     0
 90
        0
 40
-0.6
 41
-30.0
 62
     5
 63
     7
 74
     1
 91
        4
 64
     7
 65
   257
 75
     1
175
     1
 42
1.0
 92
       12
 66
     7
 43
1.0
 76
     1
 77
     6
 78
     2
 67
     7
 79
     5
170
     0
171
     0
290
     0
174
     0
 93
        1
 44
0.0
173
     0
291
     1
 45
0.0
1001
ACAD
1000
AcDbSavedByObjectVersion
1070
     0
  0
VISUALSTYLE
  5
2BF
102
{ACAD_XDICTIONARY
360
373
102
}
102
{ACAD_REACTORS
330
2B8
102
}
330
2B8
100
AcDbVisualStyle
  2

 70
     5
 71
     0
 72
     2
 73
     0
 90
        0
 40
-0.6
 41
-30.0
 62
     5
 63
     7
 74
     1
 91
        4
 64
     7
 65
   257
 75
     1
175
     1
 42
1.0
 92
        0
 66
   257
 43
1.0
 76
     1
 77
     6
 78
     2
 67
     7
 79
     3
170
     0
171
     0
290
     0
174
     0
 93
        1
 44
0.0
173
     0
291
     0
 45
0.0
1001
ACAD
1000
AcDbSavedByObjectVersion
1070
     0
  0
VISUALSTYLE
  5
2CB
102
{ACAD_XDICTIONARY
360
38B
102
}
102
{ACAD_REACTORS
330
2B8
102
}
330
2B8
100
AcDbVisualStyle
  2

 70
    25
 71
     2
 72
     2
 73
     1
 90
        1
 40
0.5
 41
-30.0
 62
     5
 63
     7
 74
     1
 91
        0
 64
     7
 65
   257
 75
     1
175
     1
 42
1.0
 92
        8
 66
     7
 43
1.0
 76
     1
 77
     6
 78
     2
 67
     7
 79
     3
170
     0
171
     0
290
     0
174
     0
 93
       13
 44
0.0
173
     0
291
     0
 45
0.0
1001
ACAD
1000
AcDbSavedByObjectVersion
1070
     0
  0
DICTIONARYVAR
  5
2F4
102
{ACAD_REACTORS
330
2F1
102
}
330
2F1
100
DictionaryVariables
280
     0
  1
1:1
  0
DICTIONARYVAR
  5
2F3
102
{ACAD_REACTORS
330
2F1
102
}
330
2F1
100
DictionaryVariables
280
     0
  1
STANDARD
  0
DICTIONARYVAR
  5
2F2
102
{ACAD_REACTORS
330
2F1
102
}
330
2F1
100
DictionaryVariables
280
     0
  1
STANDARD
  0
DICTIONARYVAR
  5
35B
102
{ACAD_REACTORS
330
2F1
102
}
330
2F1
100
DictionaryVariables
280
     0
  1
2
  0
DICTIONARYVAR
  5
359
102
{ACAD_REACTORS
330
2F1
102
}
330
2F1
100
DictionaryVariables
280
     0
  1
1
  0
DICTIONARYVAR
  5
358
102
{ACAD_REACTORS
330
2F1
102
}
330
2F1
100
DictionaryVariables
280
     0
  1
0
  0
DICTIONARYVAR
  5
357
102
{ACAD_REACTORS
330
2F1
102
}
330
2F1
100
DictionaryVariables
280
     0
  1
127
  0
DICTIONARYVAR
  5
35A
102
{ACAD_REACTORS
330
2F1
102
}
330
2F1
100
DictionaryVariables
280
     0
  1
0
  0
XRECORD
  5
356
102
{ACAD_REACTORS
330
354
102
}
330
354
100
AcDbXrecord
280
     1
330
36
330
3A
330
3E
  0
DICTIONARY
  5
361
330
1E
100
AcDbDictionary
280
     1
281
     1
  3
ACAD_XREC_ROUNDTRIP
360
362
  0
DICTIONARY
  5
365
330
26
100
AcDbDictionary
280
     1
281
     1
  3
ACAD_XREC_ROUNDTRIP
360
366
  0
DICTIONARY
  5
363
330
22
100
AcDbDictionary
280
     1
281
     1
  3
ACAD_XREC_ROUNDTRIP
360
364
  0
DICTIONARY
  5
2A9
330
2A8
100
AcDbDictionary
280
     1
281
     1
  3
ACAD_XREC_ROUNDTRIP
360
2FC
  3
BUMPTILE
360
2AB
  3
DIFFUSETILE
360
2AA
  3
OPACITYTILE
360
2AE
  3
REFLECTIONTILE
360
2AD
  3
REFRACTIONTILE
360
2AF
  3
SPECULARTILE
360
2AC
  0
DICTIONARY
  5
2A1
330
2A0
100
AcDbDictionary
280
     1
281
     1
  3
ACAD_XREC_ROUNDTRIP
360
2FB
  3
BUMPTILE
360
2A3
  3
DIFFUSETILE
360
2A2
  3
OPACITYTILE
360
2A6
  3
REFLECTIONTILE
360
2A5
  3
REFRACTIONTILE
360
2A7
  3
SPECULARTILE
360
2A4
  0
DICTIONARY
  5
2B1
330
2B0
100
AcDbDictionary
280
     1
281
     1
  3
ACAD_XREC_ROUNDTRIP
360
2FD
  3
BUMPTILE
360
2B3
  3
DIFFUSETILE
360
2B2
  3
OPACITYTILE
360
2B6
  3
REFLECTIONTILE
360
2B5
  3
REFRACTIONTILE
360
2B7
  3
SPECULARTILE
360
2B4
  0
DICTIONARY
  5
35D
330
2E7
100
AcDbDictionary
280
     1
281
     1
  3
ACAD_XREC_ROUNDTRIP
360
35E
  0
DICTIONARY
  5
2F6
330
2D3
100
AcDbDictionary
280
     1
281
     1
  3
ACAD_ROUNDTRIP_2008_TABLESTYLE_CELLSTYLEMAP
360
35C
  3
ACAD_XREC_ROUNDTRIP
360
397
  0
DICTIONARY
  5
371
330
2BE
100
AcDbDictionary
280
     1
281
     1
  3
ACAD_XREC_ROUNDTRIP
360
372
  0
DICTIONARY
  5
36F
330
2BD
100
AcDbDictionary
280
     1
281
     1
  3
ACAD_XREC_ROUNDTRIP
360
370
  0
DICTIONARY
  5
37D
330
2C4
100
AcDbDictionary
280
     1
281
     1
  3
ACAD_XREC_ROUNDTRIP
360
37E
  0
DICTIONARY
  5
385
330
2C8
100
AcDbDictionary
280
     1
281
     1
  3
ACAD_XREC_ROUNDTRIP
360
386
  0
DICTIONARY
  5
377
330
2C1
100
AcDbDictionary
280
     1
281
     1
  3
ACAD_XREC_ROUNDTRIP
360
378
  0
DICTIONARY
  5
37B
330
2C3
100
AcDbDictionary
280
     1
281
     1
  3
ACAD_XREC_ROUNDTRIP
360
37C
  0
DICTIONARY
  5
395
330
2D0
100
AcDbDictionary
280
     1
281
     1
  3
ACAD_XREC_ROUNDTRIP
360
396
  0
DICTIONARY
  5
383
330
2C7
100
AcDbDictionary
280
     1
281
     1
  3
ACAD_XREC_ROUNDTRIP
360
384
  0
DICTIONARY
  5
367
330
2B9
100
AcDbDictionary
280
     1
281
     1
  3
ACAD_XREC_ROUNDTRIP
360
368
  0
DICTIONARY
  5
369
330
2BA
100
AcDbDictionary
280
     1
281
     1
  3
ACAD_XREC_ROUNDTRIP
360
36A
  0
DICTIONARY
  5
36B
330
2BB
100
AcDbDictionary
280
     1
281
     1
  3
ACAD_XREC_ROUNDTRIP
360
36C
  0
DICTIONARY
  5
36D
330
2BC
100
AcDbDictionary
280
     1
281
     1
  3
ACAD_XREC_ROUNDTRIP
360
36E
  0
DICTIONARY
  5
375
330
2C0
100
AcDbDictionary
280
     1
281
     1
  3
ACAD_XREC_ROUNDTRIP
360
376
  0
DICTIONARY
  5
391
330
2CE
100
AcDbDictionary
280
     1
281
     1
  3
ACAD_XREC_ROUNDTRIP
360
392
  0
DICTIONARY
  5
381
330
2C6
100
AcDbDictionary
280
     1
281
     1
  3
ACAD_XREC_ROUNDTRIP
360
382
  0
DICTIONARY
  5
393
330
2CF
100
AcDbDictionary
280
     1
281
     1
  3
ACAD_XREC_ROUNDTRIP
360
394
  0
DICTIONARY
  5
379
330
2C2
100
AcDbDictionary
280
     1
281
     1
  3
ACAD_XREC_ROUNDTRIP
360
37A
  0
DICTIONARY
  5
38F
330
2CD
100
AcDbDictionary
280
     1
281
     1
  3
ACAD_XREC_ROUNDTRIP
360
390
  0
DICTIONARY
  5
38D
330
2CC
100
AcDbDictionary
280
     1
281
     1
  3
ACAD_XREC_ROUNDTRIP
360
38E
  0
DICTIONARY
  5
387
330
2C9
100
AcDbDictionary
280
     1
281
     1
  3
ACAD_XREC_ROUNDTRIP
360
388
  0
DICTIONARY
  5
389
330
2CA
100
AcDbDictionary
280
     1
281
     1
  3
ACAD_XREC_ROUNDTRIP
360
38A
  0
DICTIONARY
  5
37F
330
2C5
100
AcDbDictionary
280
     1
281
     1
  3
ACAD_XREC_ROUNDTRIP
360
380
  0
DICTIONARY
  5
373
330
2BF
100
AcDbDictionary
280
     1
281
     1
  3
ACAD_XREC_ROUNDTRIP
360
374
  0
DICTIONARY
  5
38B
330
2CB
100
AcDbDictionary
280
     1
281
     1
  3
ACAD_XREC_ROUNDTRIP
360
38C
  0
XRECORD
  5
362
102
{ACAD_REACTORS
330
361
102
}
330
361
100
AcDbXrecord
280
     1
102
SHADEPLOT
 70
 31976
102
SHADEPLOTRESLEVEL
 70
     6
102
SHADEPLOTCUSTOMDPI
 70
  7199
  0
XRECORD
  5
366
102
{ACAD_REACTORS
330
365
102
}
330
365
100
AcDbXrecord
280
     1
102
SHADEPLOT
 70
     0
102
SHADEPLOTRESLEVEL
 70
     0
102
SHADEPLOTCUSTOMDPI
 70
     0
  0
XRECORD
  5
364
102
{ACAD_REACTORS
330
363
102
}
330
363
100
AcDbXrecord
280
     1
102
SHADEPLOT
 70
     0
102
SHADEPLOTRESLEVEL
 70
     0
102
SHADEPLOTCUSTOMDPI
 70
     0
  0
XRECORD
  5
2FC
102
{ACAD_REACTORS
330
2A9
102
}
330
2A9
100
AcDbXrecord
280
     1
102
MATERIAL
148
0.0
149
0.0
149
0.0
 93
        0
 94
      127
282
     0
 72
     0
 77
     0
171
     0
175
     0
179
     0
273
     0
  0
XRECORD
  5
2AB
102
{ACAD_REACTORS
330
2A9
102
}
330
2A9
100
AcDbXrecord
280
     1
270
     1
271
     1
  0
XRECORD
  5
2AA
102
{ACAD_REACTORS
330
2A9
102
}
330
2A9
100
AcDbXrecord
280
     1
270
     1
271
     1
  0
XRECORD
  5
2AE
102
{ACAD_REACTORS
330
2A9
102
}
330
2A9
100
AcDbXrecord
280
     1
270
     1
271
     1
  0
XRECORD
  5
2AD
102
{ACAD_REACTORS
330
2A9
102
}
330
2A9
100
AcDbXrecord
280
     1
270
     1
271
     1
  0
XRECORD
  5
2AF
102
{ACAD_REACTORS
330
2A9
102
}
330
2A9
100
AcDbXrecord
280
     1
270
     1
271
     1
  0
XRECORD
  5
2AC
102
{ACAD_REACTORS
330
2A9
102
}
330
2A9
100
AcDbXrecord
280
     1
270
     1
271
     1
  0
XRECORD
  5
2FB
102
{ACAD_REACTORS
330
2A1
102
}
330
2A1
100
AcDbXrecord
280
     1
102
MATERIAL
148
0.0
149
0.0
149
0.0
 93
        0
 94
      127
282
     0
 72
     0
 77
     0
171
     0
175
     0
179
     0
273
     0
  0
XRECORD
  5
2A3
102
{ACAD_REACTORS
330
2A1
102
}
330
2A1
100
AcDbXrecord
280
     1
270
     1
271
     1
  0
XRECORD
  5
2A2
102
{ACAD_REACTORS
330
2A1
102
}
330
2A1
100
AcDbXrecord
280
     1
270
     1
271
     1
  0
XRECORD
  5
2A6
102
{ACAD_REACTORS
330
2A1
102
}
330
2A1
100
AcDbXrecord
280
     1
270
     1
271
     1
  0
XRECORD
  5
2A5
102
{ACAD_REACTORS
330
2A1
102
}
330
2A1
100
AcDbXrecord
280
     1
270
     1
271
     1
  0
XRECORD
  5
2A7
102
{ACAD_REACTORS
330
2A1
102
}
330
2A1
100
AcDbXrecord
280
     1
270
     1
271
     1
  0
XRECORD
  5
2A4
102
{ACAD_REACTORS
330
2A1
102
}
330
2A1
100
AcDbXrecord
280
     1
270
     1
271
     1
  0
XRECORD
  5
2FD
102
{ACAD_REACTORS
330
2B1
102
}
330
2B1
100
AcDbXrecord
280
     1
102
MATERIAL
148
0.0
149
0.0
149
0.0
 93
        0
 94
      127
282
     0
 72
     0
 77
     0
171
     0
175
     0
179
     0
273
     0
  0
XRECORD
  5
2B3
102
{ACAD_REACTORS
330
2B1
102
}
330
2B1
100
AcDbXrecord
280
     1
270
     1
271
     1
  0
XRECORD
  5
2B2
102
{ACAD_REACTORS
330
2B1
102
}
330
2B1
100
AcDbXrecord
280
     1
270
     1
271
     1
  0
XRECORD
  5
2B6
102
{ACAD_REACTORS
330
2B1
102
}
330
2B1
100
AcDbXrecord
280
     1
270
     1
271
     1
  0
XRECORD
  5
2B5
102
{ACAD_REACTORS
330
2B1
102
}
330
2B1
100
AcDbXrecord
280
     1
270
     1
271
     1
  0
XRECORD
  5
2B7
102
{ACAD_REACTORS
330
2B1
102
}
330
2B1
100
AcDbXrecord
280
     1
270
     1
271
     1
  0
XRECORD
  5
2B4
102
{ACAD_REACTORS
330
2B1
102
}
330
2B1
100
AcDbXrecord
280
     1
270
     1
271
     1
  0
XRECORD
  5
35E
102
{ACAD_REACTORS
330
35D
102
}
330
35D
100
AcDbXrecord
280
     1
102
ACAD_ROUNDTRIP_2012_MLEADER_STYLE
298
     1
  0
CELLSTYLEMAP
  5
35C
102
{ACAD_REACTORS
330
2F6
102
}
330
2F6
100
AcDbCellStyleMap
 90
        3
300
CELLSTYLE
  1
TABLEFORMAT_BEGIN
 90
        5
170
     1
 91
        0
 92
    32768
 62
   257
 93
        1
300
CONTENTFORMAT
  1
CONTENTFORMAT_BEGIN
 90
        0
 91
        0
 92
      512
 93
        0
300

 40
0.0
140
1.0
 94
        5
 62
     0
340
11
144
0.25
309
CONTENTFORMAT_END
171
     1
301
MARGIN
  1
CELLMARGIN_BEGIN
 40
0.06
 40
0.06
 40
0.06
 40
0.06
 40
0.18
 40
0.18
309
CELLMARGIN_END
 94
        6
 95
        1
302
GRIDFORMAT
  1
GRIDFORMAT_BEGIN
 90
        0
 91
        1
 62
     0
 92
       -2
340
0
 93
        0
 40
0.045
309
GRIDFORMAT_END
 95
        2
302
GRIDFORMAT
  1
GRIDFORMAT_BEGIN
 90
        0
 91
        1
 62
     0
 92
       -2
340
0
 93
        0
 40
0.045
309
GRIDFORMAT_END
 95
        4
302
GRIDFORMAT
  1
GRIDFORMAT_BEGIN
 90
        0
 91
        1
 62
     0
 92
       -2
340
0
 93
        0
 40
0.045
309
GRIDFORMAT_END
 95
        8
302
GRIDFORMAT
  1
GRIDFORMAT_BEGIN
 90
        0
 91
        1
 62
     0
 92
       -2
340
0
 93
        0
 40
0.045
309
GRIDFORMAT_END
 95
       16
302
GRIDFORMAT
  1
GRIDFORMAT_BEGIN
 90
        0
 91
        1
 62
     0
 92
       -2
340
0
 93
        0
 40
0.045
309
GRIDFORMAT_END
 95
       32
302
GRIDFORMAT
  1
GRIDFORMAT_BEGIN
 90
        0
 91
        1
 62
     0
 92
       -2
340
0
 93
        0
 40
0.045
309
GRIDFORMAT_END
309
TABLEFORMAT_END
  1
CELLSTYLE_BEGIN
 90
        1
 91
        1
300
_TITLE
309
CELLSTYLE_END
300
CELLSTYLE
  1
TABLEFORMAT_BEGIN
 90
        5
170
     1
 91
        0
 92
        0
 62
   257
 93
        1
300
CONTENTFORMAT
  1
CONTENTFORMAT_BEGIN
 90
        0
 91
        0
 92
      512
 93
        0
300

 40
0.0
140
1.0
 94
        5
 62
     0
340
11
144
0.18
309
CONTENTFORMAT_END
171
     1
301
MARGIN
  1
CELLMARGIN_BEGIN
 40
0.06
 40
0.06
 40
0.06
 40
0.06
 40
0.18
 40
0.18
309
CELLMARGIN_END
 94
        6
 95
        1
302
GRIDFORMAT
  1
GRIDFORMAT_BEGIN
 90
        0
 91
        1
 62
     0
 92
       -2
340
0
 93
        0
 40
0.045
309
GRIDFORMAT_END
 95
        2
302
GRIDFORMAT
  1
GRIDFORMAT_BEGIN
 90
        0
 91
        1
 62
     0
 92
       -2
340
0
 93
        0
 40
0.045
309
GRIDFORMAT_END
 95
        4
302
GRIDFORMAT
  1
GRIDFORMAT_BEGIN
 90
        0
 91
        1
 62
     0
 92
       -2
340
0
 93
        0
 40
0.045
309
GRIDFORMAT_END
 95
        8
302
GRIDFORMAT
  1
GRIDFORMAT_BEGIN
 90
        0
 91
        1
 62
     0
 92
       -2
340
0
 93
        0
 40
0.045
309
GRIDFORMAT_END
 95
       16
302
GRIDFORMAT
  1
GRIDFORMAT_BEGIN
 90
        0
 91
        1
 62
     0
 92
       -2
340
0
 93
        0
 40
0.045
309
GRIDFORMAT_END
 95
       32
302
GRIDFORMAT
  1
GRIDFORMAT_BEGIN
 90
        0
 91
        1
 62
     0
 92
       -2
340
0
 93
        0
 40
0.045
309
GRIDFORMAT_END
309
TABLEFORMAT_END
  1
CELLSTYLE_BEGIN
 90
        2
 91
        1
300
_HEADER
309
CELLSTYLE_END
300
CELLSTYLE
  1
TABLEFORMAT_BEGIN
 90
        5
170
     1
 91
        0
 92
        0
 62
   257
 93
        1
300
CONTENTFORMAT
  1
CONTENTFORMAT_BEGIN
 90
        0
 91
        0
 92
      512
 93
        0
300

 40
0.0
140
1.0
 94
        2
 62
     0
340
11
144
0.18
309
CONTENTFORMAT_END
171
     1
301
MARGIN
  1
CELLMARGIN_BEGIN
 40
0.06
 40
0.06
 40
0.06
 40
0.06
 40
0.18
 40
0.18
309
CELLMARGIN_END
 94
        6
 95
        1
302
GRIDFORMAT
  1
GRIDFORMAT_BEGIN
 90
        0
 91
        1
 62
     0
 92
       -2
340
0
 93
        0
 40
0.045
309
GRIDFORMAT_END
 95
        2
302
GRIDFORMAT
  1
GRIDFORMAT_BEGIN
 90
        0
 91
        1
 62
     0
 92
       -2
340
0
 93
        0
 40
0.045
309
GRIDFORMAT_END
 95
        4
302
GRIDFORMAT
  1
GRIDFORMAT_BEGIN
 90
        0
 91
        1
 62
     0
 92
       -2
340
0
 93
        0
 40
0.045
309
GRIDFORMAT_END
 95
        8
302
GRIDFORMAT
  1
GRIDFORMAT_BEGIN
 90
        0
 91
        1
 62
     0
 92
       -2
340
0
 93
        0
 40
0.045
309
GRIDFORMAT_END
 95
       16
302
GRIDFORMAT
  1
GRIDFORMAT_BEGIN
 90
        0
 91
        1
 62
     0
 92
       -2
340
0
 93
        0
 40
0.045
309
GRIDFORMAT_END
 95
       32
302
GRIDFORMAT
  1
GRIDFORMAT_BEGIN
 90
        0
 91
        1
 62
     0
 92
       -2
340
0
 93
        0
 40
0.045
309
GRIDFORMAT_END
309
TABLEFORMAT_END
  1
CELLSTYLE_BEGIN
 90
        3
 91
        2
300
_DATA
309
CELLSTYLE_END
  0
XRECORD
  5
397
102
{ACAD_REACTORS
330
2F6
102
}
330
2F6
100
AcDbXrecord
280
     1
102
ACAD_ROUNDTRIP_PRE2007_TABLESTYLE
 90
      512
 91
        0
  1

 92
      512
 93
        0
  2

 94
      512
 95
        0
  3

  0
XRECORD
  5
372
102
{ACAD_REACTORS
330
371
102
}
330
371
100
AcDbXrecord
280
     1
102
RTVSPropertyOp0
 70
     1
102
RTVSPropertyOp1
 70
     1
102
RTVSPropertyOp2
 70
     1
102
RTVSPropertyOp3
 70
     1
102
RTVSPropertyOp4
 70
     1
102
RTVSPropertyOp5
 70
     1
102
RTVSPropertyOp6
 70
     1
102
RTVSPropertyOp7
 70
     1
102
RTVSPropertyOp8
 70
     1
102
RTVSPropertyOp9
 70
     1
102
RTVSPropertyOp10
 70
     1
102
RTVSPropertyOp11
 70
     1
102
RTVSPropertyOp12
 70
     1
102
RTVSPropertyOp13
 70
     1
102
RTVSPropertyOp14
 70
     1
102
RTVSPropertyOp15
 70
     1
102
RTVSPropertyOp16
 70
     1
102
RTVSPropertyOp17
 70
     1
102
RTVSPropertyOp18
 70
     1
102
RTVSPropertyOp19
 70
     1
102
RTVSPropertyOp20
 70
     1
102
RTVSPropertyOp21
 70
     1
102
RTVSPropertyOp22
 70
     1
102
RTVSPropertyOp23
 70
     1
102
RTVSPropertyOp24
 70
     1
102
RTVSPropertyOp25
 70
     1
102
RTVSPropertyOp26
 70
     1
102
RTVSPropertyOp27
 70
     1
102
RTVSPropertyOp28
 70
     1
102
RTVSPropertyOp29
 70
     1
102
RTVSPropertyOp30
 70
     1
102
RTVSPropertyOp31
 70
     1
102
RTVSPropertyOp32
 70
     1
  0
XRECORD
  5
370
102
{ACAD_REACTORS
330
36F
102
}
330
36F
100
AcDbXrecord
280
     1
102
RTVSPropertyOp0
 70
     1
102
RTVSPropertyOp1
 70
     1
102
RTVSPropertyOp2
 70
     1
102
RTVSPropertyOp3
 70
     1
102
RTVSPropertyOp4
 70
     1
102
RTVSPropertyOp5
 70
     1
102
RTVSPropertyOp6
 70
     1
102
RTVSPropertyOp7
 70
     1
102
RTVSPropertyOp8
 70
     1
102
RTVSPropertyOp9
 70
     1
102
RTVSPropertyOp10
 70
     1
102
RTVSPropertyOp11
 70
     1
102
RTVSPropertyOp12
 70
     1
102
RTVSPropertyOp13
 70
     1
102
RTVSPropertyOp14
 70
     1
102
RTVSPropertyOp15
 70
     1
102
RTVSPropertyOp16
 70
     1
102
RTVSPropertyOp17
 70
     1
102
RTVSPropertyOp18
 70
     1
102
RTVSPropertyOp19
 70
     1
102
RTVSPropertyOp20
 70
     1
102
RTVSPropertyOp21
 70
     1
102
RTVSPropertyOp22
 70
     1
102
RTVSPropertyOp23
 70
     1
102
RTVSPropertyOp24
 70
     1
102
RTVSPropertyOp25
 70
     1
102
RTVSPropertyOp26
 70
     1
102
RTVSPropertyOp27
 70
     1
102
RTVSPropertyOp28
 70
     1
102
RTVSPropertyOp29
 70
     1
102
RTVSPropertyOp30
 70
     1
102
RTVSPropertyOp31
 70
     1
102
RTVSPropertyOp32
 70
     1
  0
XRECORD
  5
37E
102
{ACAD_REACTORS
330
37D
102
}
330
37D
100
AcDbXrecord
280
     1
102
RTVSPropertyOp0
 70
     1
102
RTVSPropertyOp1
 70
     1
102
RTVSPropertyOp2
 70
     1
102
RTVSPropertyOp3
 70
     1
102
RTVSPropertyOp4
 70
     1
102
RTVSPropertyOp5
 70
     1
102
RTVSPropertyOp6
 70
     1
102
RTVSPropertyOp7
 70
     1
102
RTVSPropertyOp8
 70
     1
102
RTVSPropertyOp9
 70
     1
102
RTVSPropertyOp10
 70
     1
102
RTVSPropertyOp11
 70
     1
102
RTVSPropertyOp12
 70
     1
102
RTVSPropertyOp13
 70
     1
102
RTVSPropertyOp14
 70
     1
102
RTVSPropertyOp15
 70
     1
102
RTVSPropertyOp16
 70
     1
102
RTVSPropertyOp17
 70
     1
102
RTVSPropertyOp18
 70
     1
102
RTVSPropertyOp19
 70
     1
102
RTVSPropertyOp20
 70
     1
102
RTVSPropertyOp21
 70
     1
102
RTVSPropertyOp22
 70
     1
102
RTVSPropertyOp23
 70
     1
102
RTVSPropertyOp24
 70
     1
102
RTVSPropertyOp25
 70
     1
102
RTVSPropertyOp26
 70
     1
102
RTVSPropertyOp27
 70
     1
102
RTVSPropertyOp28
 70
     1
102
RTVSPropertyOp29
 70
     1
102
RTVSPropertyOp30
 70
     1
102
RTVSPropertyOp31
 70
     1
102
RTVSPropertyOp32
 70
     1
  0
XRECORD
  5
386
102
{ACAD_REACTORS
330
385
102
}
330
385
100
AcDbXrecord
280
     1
102
RTVSPropertyOp0
 70
     1
102
RTVSPropertyOp1
 70
     1
102
RTVSPropertyOp2
 70
     1
102
RTVSPropertyOp3
 70
     1
102
RTVSPropertyOp4
 70
     1
102
RTVSPropertyOp5
 70
     1
102
RTVSPropertyOp6
 70
     1
102
RTVSPropertyOp7
 70
     1
102
RTVSPropertyOp8
 70
     1
102
RTVSPropertyOp9
 70
     1
102
RTVSPropertyOp10
 70
     1
102
RTVSPropertyOp11
 70
     1
102
RTVSPropertyOp12
 70
     1
102
RTVSPropertyOp13
 70
     1
102
RTVSPropertyOp14
 70
     1
102
RTVSPropertyOp15
 70
     1
102
RTVSPropertyOp16
 70
     1
102
RTVSPropertyOp17
 70
     1
102
RTVSPropertyOp18
 70
     1
102
RTVSPropertyOp19
 70
     1
102
RTVSPropertyOp20
 70
     1
102
RTVSPropertyOp21
 70
     1
102
RTVSPropertyOp22
 70
     1
102
RTVSPropertyOp23
 70
     1
102
RTVSPropertyOp24
 70
     1
102
RTVSPropertyOp25
 70
     1
102
RTVSPropertyOp26
 70
     1
102
RTVSPropertyOp27
 70
     1
102
RTVSPropertyOp28
 70
     1
102
RTVSPropertyOp29
 70
     1
102
RTVSPropertyOp30
 70
     1
102
RTVSPropertyOp31
 70
     1
102
RTVSPropertyOp32
 70
     1
  0
XRECORD
  5
378
102
{ACAD_REACTORS
330
377
102
}
330
377
100
AcDbXrecord
280
     1
102
RTVSPropertyOp0
 70
     1
102
RTVSPropertyOp1
 70
     1
102
RTVSPropertyOp2
 70
     1
102
RTVSPropertyOp3
 70
     1
102
RTVSPropertyOp4
 70
     1
102
RTVSPropertyOp5
 70
     1
102
RTVSPropertyOp6
 70
     1
102
RTVSPropertyOp7
 70
     1
102
RTVSPropertyOp8
 70
     1
102
RTVSPropertyOp9
 70
     1
102
RTVSPropertyOp10
 70
     1
102
RTVSPropertyOp11
 70
     1
102
RTVSPropertyOp12
 70
     1
102
RTVSPropertyOp13
 70
     1
102
RTVSPropertyOp14
 70
     1
102
RTVSPropertyOp15
 70
     1
102
RTVSPropertyOp16
 70
     1
102
RTVSPropertyOp17
 70
     1
102
RTVSPropertyOp18
 70
     1
102
RTVSPropertyOp19
 70
     1
102
RTVSPropertyOp20
 70
     1
102
RTVSPropertyOp21
 70
     1
102
RTVSPropertyOp22
 70
     1
102
RTVSPropertyOp23
 70
     1
102
RTVSPropertyOp24
 70
     1
102
RTVSPropertyOp25
 70
     1
102
RTVSPropertyOp26
 70
     1
102
RTVSPropertyOp27
 70
     1
102
RTVSPropertyOp28
 70
     1
102
RTVSPropertyOp29
 70
     1
102
RTVSPropertyOp30
 70
     1
102
RTVSPropertyOp31
 70
     1
102
RTVSPropertyOp32
 70
     1
  0
XRECORD
  5
37C
102
{ACAD_REACTORS
330
37B
102
}
330
37B
100
AcDbXrecord
280
     1
102
RTVSPropertyOp0
 70
     1
102
RTVSPropertyOp1
 70
     1
102
RTVSPropertyOp2
 70
     1
102
RTVSPropertyOp3
 70
     1
102
RTVSPropertyOp4
 70
     1
102
RTVSPropertyOp5
 70
     1
102
RTVSPropertyOp6
 70
     1
102
RTVSPropertyOp7
 70
     1
102
RTVSPropertyOp8
 70
     1
102
RTVSPropertyOp9
 70
     1
102
RTVSPropertyOp10
 70
     1
102
RTVSPropertyOp11
 70
     1
102
RTVSPropertyOp12
 70
     1
102
RTVSPropertyOp13
 70
     1
102
RTVSPropertyOp14
 70
     1
102
RTVSPropertyOp15
 70
     1
102
RTVSPropertyOp16
 70
     1
102
RTVSPropertyOp17
 70
     1
102
RTVSPropertyOp18
 70
     1
102
RTVSPropertyOp19
 70
     1
102
RTVSPropertyOp20
 70
     1
102
RTVSPropertyOp21
 70
     1
102
RTVSPropertyOp22
 70
     1
102
RTVSPropertyOp23
 70
     1
102
RTVSPropertyOp24
 70
     1
102
RTVSPropertyOp25
 70
     1
102
RTVSPropertyOp26
 70
     1
102
RTVSPropertyOp27
 70
     1
102
RTVSPropertyOp28
 70
     1
102
RTVSPropertyOp29
 70
     1
102
RTVSPropertyOp30
 70
     1
102
RTVSPropertyOp31
 70
     1
102
RTVSPropertyOp32
 70
     1
  0
XRECORD
  5
396
102
{ACAD_REACTORS
330
395
102
}
330
395
100
AcDbXrecord
280
     1
102
RTVSPropertyOp0
 70
     0
102
RTVSPropertyOp1
 70
     0
102
RTVSPropertyOp2
 70
     0
102
RTVSPropertyOp3
 70
     0
102
RTVSPropertyOp4
 70
     0
102
RTVSPropertyOp5
 70
     0
102
RTVSPropertyOp6
 70
     0
102
RTVSPropertyOp7
 70
     0
102
RTVSPropertyOp8
 70
     0
102
RTVSPropertyOp9
 70
     0
102
RTVSPropertyOp10
 70
     0
102
RTVSPropertyOp11
 70
     0
102
RTVSPropertyOp12
 70
     0
102
RTVSPropertyOp13
 70
     0
102
RTVSPropertyOp14
 70
     2
102
RTVSPropertyOp15
 70
     0
102
RTVSPropertyOp16
 70
     0
102
RTVSPropertyOp17
 70
     0
102
RTVSPropertyOp18
 70
     0
102
RTVSPropertyOp19
 70
     0
102
RTVSPropertyOp20
 70
     0
102
RTVSPropertyOp21
 70
     0
102
RTVSPropertyOp22
 70
     0
102
RTVSPropertyOp23
 70
     0
102
RTVSPropertyOp24
 70
     0
102
RTVSPropertyOp25
 70
     0
102
RTVSPropertyOp26
 70
     0
102
RTVSPropertyOp27
 70
     0
102
RTVSPropertyOp28
 70
     0
102
RTVSPropertyOp29
 70
     0
102
RTVSPropertyOp30
 70
     0
102
RTVSPropertyOp31
 70
     0
102
RTVSPropertyOp32
 70
     0
  0
XRECORD
  5
384
102
{ACAD_REACTORS
330
383
102
}
330
383
100
AcDbXrecord
280
     1
102
RTVSPropertyOp0
 70
     1
102
RTVSPropertyOp1
 70
     1
102
RTVSPropertyOp2
 70
     1
102
RTVSPropertyOp3
 70
     1
102
RTVSPropertyOp4
 70
     1
102
RTVSPropertyOp5
 70
     1
102
RTVSPropertyOp6
 70
     1
102
RTVSPropertyOp7
 70
     1
102
RTVSPropertyOp8
 70
     1
102
RTVSPropertyOp9
 70
     1
102
RTVSPropertyOp10
 70
     1
102
RTVSPropertyOp11
 70
     1
102
RTVSPropertyOp12
 70
     1
102
RTVSPropertyOp13
 70
     1
102
RTVSPropertyOp14
 70
     1
102
RTVSPropertyOp15
 70
     1
102
RTVSPropertyOp16
 70
     1
102
RTVSPropertyOp17
 70
     1
102
RTVSPropertyOp18
 70
     1
102
RTVSPropertyOp19
 70
     1
102
RTVSPropertyOp20
 70
     1
102
RTVSPropertyOp21
 70
     1
102
RTVSPropertyOp22
 70
     1
102
RTVSPropertyOp23
 70
     1
102
RTVSPropertyOp24
 70
     1
102
RTVSPropertyOp25
 70
     1
102
RTVSPropertyOp26
 70
     1
102
RTVSPropertyOp27
 70
     1
102
RTVSPropertyOp28
 70
     1
102
RTVSPropertyOp29
 70
     1
102
RTVSPropertyOp30
 70
     1
102
RTVSPropertyOp31
 70
     1
102
RTVSPropertyOp32
 70
     1
  0
XRECORD
  5
368
102
{ACAD_REACTORS
330
367
102
}
330
367
100
AcDbXrecord
280
     1
102
RTVSPropertyOp0
 70
     1
102
RTVSPropertyOp1
 70
     1
102
RTVSPropertyOp2
 70
     1
102
RTVSPropertyOp3
 70
     1
102
RTVSPropertyOp4
 70
     1
102
RTVSPropertyOp5
 70
     1
102
RTVSPropertyOp6
 70
     1
102
RTVSPropertyOp7
 70
     1
102
RTVSPropertyOp8
 70
     1
102
RTVSPropertyOp9
 70
     1
102
RTVSPropertyOp10
 70
     1
102
RTVSPropertyOp11
 70
     1
102
RTVSPropertyOp12
 70
     1
102
RTVSPropertyOp13
 70
     1
102
RTVSPropertyOp14
 70
     1
102
RTVSPropertyOp15
 70
     1
102
RTVSPropertyOp16
 70
     1
102
RTVSPropertyOp17
 70
     1
102
RTVSPropertyOp18
 70
     1
102
RTVSPropertyOp19
 70
     1
102
RTVSPropertyOp20
 70
     1
102
RTVSPropertyOp21
 70
     1
102
RTVSPropertyOp22
 70
     1
102
RTVSPropertyOp23
 70
     1
102
RTVSPropertyOp24
 70
     1
102
RTVSPropertyOp25
 70
     1
102
RTVSPropertyOp26
 70
     1
102
RTVSPropertyOp27
 70
     1
102
RTVSPropertyOp28
 70
     1
102
RTVSPropertyOp29
 70
     1
102
RTVSPropertyOp30
 70
     1
102
RTVSPropertyOp31
 70
     1
102
RTVSPropertyOp32
 70
     1
  0
XRECORD
  5
36A
102
{ACAD_REACTORS
330
369
102
}
330
369
100
AcDbXrecord
280
     1
102
RTVSPropertyOp0
 70
     1
102
RTVSPropertyOp1
 70
     1
102
RTVSPropertyOp2
 70
     1
102
RTVSPropertyOp3
 70
     1
102
RTVSPropertyOp4
 70
     1
102
RTVSPropertyOp5
 70
     1
102
RTVSPropertyOp6
 70
     1
102
RTVSPropertyOp7
 70
     1
102
RTVSPropertyOp8
 70
     1
102
RTVSPropertyOp9
 70
     1
102
RTVSPropertyOp10
 70
     1
102
RTVSPropertyOp11
 70
     1
102
RTVSPropertyOp12
 70
     1
102
RTVSPropertyOp13
 70
     1
102
RTVSPropertyOp14
 70
     1
102
RTVSPropertyOp15
 70
     1
102
RTVSPropertyOp16
 70
     1
102
RTVSPropertyOp17
 70
     1
102
RTVSPropertyOp18
 70
     1
102
RTVSPropertyOp19
 70
     1
102
RTVSPropertyOp20
 70
     1
102
RTVSPropertyOp21
 70
     1
102
RTVSPropertyOp22
 70
     1
102
RTVSPropertyOp23
 70
     1
102
RTVSPropertyOp24
 70
     1
102
RTVSPropertyOp25
 70
     1
102
RTVSPropertyOp26
 70
     1
102
RTVSPropertyOp27
 70
     1
102
RTVSPropertyOp28
 70
     1
102
RTVSPropertyOp29
 70
     1
102
RTVSPropertyOp30
 70
     1
102
RTVSPropertyOp31
 70
     1
102
RTVSPropertyOp32
 70
     1
  0
XRECORD
  5
36C
102
{ACAD_REACTORS
330
36B
102
}
330
36B
100
AcDbXrecord
280
     1
102
RTVSPropertyOp0
 70
     1
102
RTVSPropertyOp1
 70
     1
102
RTVSPropertyOp2
 70
     1
102
RTVSPropertyOp3
 70
     1
102
RTVSPropertyOp4
 70
     1
102
RTVSPropertyOp5
 70
     1
102
RTVSPropertyOp6
 70
     1
102
RTVSPropertyOp7
 70
     1
102
RTVSPropertyOp8
 70
     1
102
RTVSPropertyOp9
 70
     1
102
RTVSPropertyOp10
 70
     1
102
RTVSPropertyOp11
 70
     1
102
RTVSPropertyOp12
 70
     1
102
RTVSPropertyOp13
 70
     1
102
RTVSPropertyOp14
 70
     1
102
RTVSPropertyOp15
 70
     1
102
RTVSPropertyOp16
 70
     1
102
RTVSPropertyOp17
 70
     1
102
RTVSPropertyOp18
 70
     1
102
RTVSPropertyOp19
 70
     1
102
RTVSPropertyOp20
 70
     1
102
RTVSPropertyOp21
 70
     1
102
RTVSPropertyOp22
 70
     1
102
RTVSPropertyOp23
 70
     1
102
RTVSPropertyOp24
 70
     1
102
RTVSPropertyOp25
 70
     1
102
RTVSPropertyOp26
 70
     1
102
RTVSPropertyOp27
 70
     1
102
RTVSPropertyOp28
 70
     1
102
RTVSPropertyOp29
 70
     1
102
RTVSPropertyOp30
 70
     1
102
RTVSPropertyOp31
 70
     1
102
RTVSPropertyOp32
 70
     1
  0
XRECORD
  5
36E
102
{ACAD_REACTORS
330
36D
102
}
330
36D
100
AcDbXrecord
280
     1
102
RTVSPropertyOp0
 70
     1
102
RTVSPropertyOp1
 70
     1
102
RTVSPropertyOp2
 70
     1
102
RTVSPropertyOp3
 70
     1
102
RTVSPropertyOp4
 70
     1
102
RTVSPropertyOp5
 70
     1
102
RTVSPropertyOp6
 70
     1
102
RTVSPropertyOp7
 70
     1
102
RTVSPropertyOp8
 70
     1
102
RTVSPropertyOp9
 70
     1
102
RTVSPropertyOp10
 70
     1
102
RTVSPropertyOp11
 70
     1
102
RTVSPropertyOp12
 70
     1
102
RTVSPropertyOp13
 70
     1
102
RTVSPropertyOp14
 70
     1
102
RTVSPropertyOp15
 70
     1
102
RTVSPropertyOp16
 70
     1
102
RTVSPropertyOp17
 70
     1
102
RTVSPropertyOp18
 70
     1
102
RTVSPropertyOp19
 70
     1
102
RTVSPropertyOp20
 70
     1
102
RTVSPropertyOp21
 70
     1
102
RTVSPropertyOp22
 70
     1
102
RTVSPropertyOp23
 70
     1
102
RTVSPropertyOp24
 70
     1
102
RTVSPropertyOp25
 70
     1
102
RTVSPropertyOp26
 70
     1
102
RTVSPropertyOp27
 70
     1
102
RTVSPropertyOp28
 70
     1
102
RTVSPropertyOp29
 70
     1
102
RTVSPropertyOp30
 70
     1
102
RTVSPropertyOp31
 70
     1
102
RTVSPropertyOp32
 70
     1
  0
XRECORD
  5
376
102
{ACAD_REACTORS
330
375
102
}
330
375
100
AcDbXrecord
280
     1
102
RTVSPropertyOp0
 70
     1
102
RTVSPropertyOp1
 70
     1
102
RTVSPropertyOp2
 70
     1
102
RTVSPropertyOp3
 70
     1
102
RTVSPropertyOp4
 70
     1
102
RTVSPropertyOp5
 70
     1
102
RTVSPropertyOp6
 70
     1
102
RTVSPropertyOp7
 70
     1
102
RTVSPropertyOp8
 70
     1
102
RTVSPropertyOp9
 70
     1
102
RTVSPropertyOp10
 70
     1
102
RTVSPropertyOp11
 70
     1
102
RTVSPropertyOp12
 70
     1
102
RTVSPropertyOp13
 70
     1
102
RTVSPropertyOp14
 70
     1
102
RTVSPropertyOp15
 70
     1
102
RTVSPropertyOp16
 70
     1
102
RTVSPropertyOp17
 70
     1
102
RTVSPropertyOp18
 70
     1
102
RTVSPropertyOp19
 70
     1
102
RTVSPropertyOp20
 70
     1
102
RTVSPropertyOp21
 70
     1
102
RTVSPropertyOp22
 70
     1
102
RTVSPropertyOp23
 70
     1
102
RTVSPropertyOp24
 70
     1
102
RTVSPropertyOp25
 70
     1
102
RTVSPropertyOp26
 70
     1
102
RTVSPropertyOp27
 70
     1
102
RTVSPropertyOp28
 70
     1
102
RTVSPropertyOp29
 70
     1
102
RTVSPropertyOp30
 70
     1
102
RTVSPropertyOp31
 70
     1
102
RTVSPropertyOp32
 70
     1
  0
XRECORD
  5
392
102
{ACAD_REACTORS
330
391
102
}
330
391
100
AcDbXrecord
280
     1
102
RTVSPropertyOp0
 70
     0
102
RTVSPropertyOp1
 70
     0
102
RTVSPropertyOp2
 70
     0
102
RTVSPropertyOp3
 70
     0
102
RTVSPropertyOp4
 70
     0
102
RTVSPropertyOp5
 70
     0
102
RTVSPropertyOp6
 70
     0
102
RTVSPropertyOp7
 70
     0
102
RTVSPropertyOp8
 70
     0
102
RTVSPropertyOp9
 70
     0
102
RTVSPropertyOp10
 70
     0
102
RTVSPropertyOp11
 70
     0
102
RTVSPropertyOp12
 70
     0
102
RTVSPropertyOp13
 70
     0
102
RTVSPropertyOp14
 70
     2
102
RTVSPropertyOp15
 70
     0
102
RTVSPropertyOp16
 70
     0
102
RTVSPropertyOp17
 70
     0
102
RTVSPropertyOp18
 70
     0
102
RTVSPropertyOp19
 70
     0
102
RTVSPropertyOp20
 70
     0
102
RTVSPropertyOp21
 70
     0
102
RTVSPropertyOp22
 70
     0
102
RTVSPropertyOp23
 70
     0
102
RTVSPropertyOp24
 70
     0
102
RTVSPropertyOp25
 70
     0
102
RTVSPropertyOp26
 70
     0
102
RTVSPropertyOp27
 70
     0
102
RTVSPropertyOp28
 70
     0
102
RTVSPropertyOp29
 70
     0
102
RTVSPropertyOp30
 70
     0
102
RTVSPropertyOp31
 70
     0
102
RTVSPropertyOp32
 70
     0
  0
XRECORD
  5
382
102
{ACAD_REACTORS
330
381
102
}
330
381
100
AcDbXrecord
280
     1
102
RTVSPropertyOp0
 70
     1
102
RTVSPropertyOp1
 70
     1
102
RTVSPropertyOp2
 70
     1
102
RTVSPropertyOp3
 70
     1
102
RTVSPropertyOp4
 70
     1
102
RTVSPropertyOp5
 70
     1
102
RTVSPropertyOp6
 70
     1
102
RTVSPropertyOp7
 70
     1
102
RTVSPropertyOp8
 70
     1
102
RTVSPropertyOp9
 70
     1
102
RTVSPropertyOp10
 70
     1
102
RTVSPropertyOp11
 70
     1
102
RTVSPropertyOp12
 70
     1
102
RTVSPropertyOp13
 70
     1
102
RTVSPropertyOp14
 70
     1
102
RTVSPropertyOp15
 70
     1
102
RTVSPropertyOp16
 70
     1
102
RTVSPropertyOp17
 70
     1
102
RTVSPropertyOp18
 70
     1
102
RTVSPropertyOp19
 70
     1
102
RTVSPropertyOp20
 70
     1
102
RTVSPropertyOp21
 70
     1
102
RTVSPropertyOp22
 70
     1
102
RTVSPropertyOp23
 70
     1
102
RTVSPropertyOp24
 70
     1
102
RTVSPropertyOp25
 70
     1
102
RTVSPropertyOp26
 70
     1
102
RTVSPropertyOp27
 70
     1
102
RTVSPropertyOp28
 70
     1
102
RTVSPropertyOp29
 70
     1
102
RTVSPropertyOp30
 70
     1
102
RTVSPropertyOp31
 70
     1
102
RTVSPropertyOp32
 70
     1
  0
XRECORD
  5
394
102
{ACAD_REACTORS
330
393
102
}
330
393
100
AcDbXrecord
280
     1
102
RTVSPropertyOp0
 70
     0
102
RTVSPropertyOp1
 70
     0
102
RTVSPropertyOp2
 70
     0
102
RTVSPropertyOp3
 70
     0
102
RTVSPropertyOp4
 70
     0
102
RTVSPropertyOp5
 70
     0
102
RTVSPropertyOp6
 70
     0
102
RTVSPropertyOp7
 70
     0
102
RTVSPropertyOp8
 70
     0
102
RTVSPropertyOp9
 70
     0
102
RTVSPropertyOp10
 70
     0
102
RTVSPropertyOp11
 70
     0
102
RTVSPropertyOp12
 70
     0
102
RTVSPropertyOp13
 70
     0
102
RTVSPropertyOp14
 70
     2
102
RTVSPropertyOp15
 70
     0
102
RTVSPropertyOp16
 70
     0
102
RTVSPropertyOp17
 70
     0
102
RTVSPropertyOp18
 70
     0
102
RTVSPropertyOp19
 70
     0
102
RTVSPropertyOp20
 70
     0
102
RTVSPropertyOp21
 70
     0
102
RTVSPropertyOp22
 70
     0
102
RTVSPropertyOp23
 70
     0
102
RTVSPropertyOp24
 70
     0
102
RTVSPropertyOp25
 70
     0
102
RTVSPropertyOp26
 70
     0
102
RTVSPropertyOp27
 70
     0
102
RTVSPropertyOp28
 70
     0
102
RTVSPropertyOp29
 70
     0
102
RTVSPropertyOp30
 70
     0
102
RTVSPropertyOp31
 70
     0
102
RTVSPropertyOp32
 70
     0
  0
XRECORD
  5
37A
102
{ACAD_REACTORS
330
379
102
}
330
379
100
AcDbXrecord
280
     1
102
RTVSPropertyOp0
 70
     1
102
RTVSPropertyOp1
 70
     1
102
RTVSPropertyOp2
 70
     1
102
RTVSPropertyOp3
 70
     1
102
RTVSPropertyOp4
 70
     1
102
RTVSPropertyOp5
 70
     1
102
RTVSPropertyOp6
 70
     1
102
RTVSPropertyOp7
 70
     1
102
RTVSPropertyOp8
 70
     1
102
RTVSPropertyOp9
 70
     1
102
RTVSPropertyOp10
 70
     1
102
RTVSPropertyOp11
 70
     1
102
RTVSPropertyOp12
 70
     1
102
RTVSPropertyOp13
 70
     1
102
RTVSPropertyOp14
 70
     1
102
RTVSPropertyOp15
 70
     1
102
RTVSPropertyOp16
 70
     1
102
RTVSPropertyOp17
 70
     1
102
RTVSPropertyOp18
 70
     1
102
RTVSPropertyOp19
 70
     1
102
RTVSPropertyOp20
 70
     1
102
RTVSPropertyOp21
 70
     1
102
RTVSPropertyOp22
 70
     1
102
RTVSPropertyOp23
 70
     1
102
RTVSPropertyOp24
 70
     1
102
RTVSPropertyOp25
 70
     1
102
RTVSPropertyOp26
 70
     1
102
RTVSPropertyOp27
 70
     1
102
RTVSPropertyOp28
 70
     1
102
RTVSPropertyOp29
 70
     1
102
RTVSPropertyOp30
 70
     1
102
RTVSPropertyOp31
 70
     1
102
RTVSPropertyOp32
 70
     1
  0
XRECORD
  5
390
102
{ACAD_REACTORS
330
38F
102
}
330
38F
100
AcDbXrecord
280
     1
102
RTVSPropertyOp0
 70
     1
102
RTVSPropertyOp1
 70
     1
102
RTVSPropertyOp2
 70
     1
102
RTVSPropertyOp3
 70
     1
102
RTVSPropertyOp4
 70
     1
102
RTVSPropertyOp5
 70
     1
102
RTVSPropertyOp6
 70
     1
102
RTVSPropertyOp7
 70
     1
102
RTVSPropertyOp8
 70
     1
102
RTVSPropertyOp9
 70
     1
102
RTVSPropertyOp10
 70
     1
102
RTVSPropertyOp11
 70
     1
102
RTVSPropertyOp12
 70
     1
102
RTVSPropertyOp13
 70
     1
102
RTVSPropertyOp14
 70
     1
102
RTVSPropertyOp15
 70
     1
102
RTVSPropertyOp16
 70
     1
102
RTVSPropertyOp17
 70
     1
102
RTVSPropertyOp18
 70
     1
102
RTVSPropertyOp19
 70
     1
102
RTVSPropertyOp20
 70
     1
102
RTVSPropertyOp21
 70
     1
102
RTVSPropertyOp22
 70
     1
102
RTVSPropertyOp23
 70
     1
102
RTVSPropertyOp24
 70
     1
102
RTVSPropertyOp25
 70
     1
102
RTVSPropertyOp26
 70
     1
102
RTVSPropertyOp27
 70
     1
102
RTVSPropertyOp28
 70
     1
102
RTVSPropertyOp29
 70
     1
102
RTVSPropertyOp30
 70
     1
102
RTVSPropertyOp31
 70
     1
102
RTVSPropertyOp32
 70
     1
  0
XRECORD
  5
38E
102
{ACAD_REACTORS
330
38D
102
}
330
38D
100
AcDbXrecord
280
     1
102
RTVSPropertyOp0
 70
     1
102
RTVSPropertyOp1
 70
     1
102
RTVSPropertyOp2
 70
     1
102
RTVSPropertyOp3
 70
     1
102
RTVSPropertyOp4
 70
     1
102
RTVSPropertyOp5
 70
     1
102
RTVSPropertyOp6
 70
     1
102
RTVSPropertyOp7
 70
     1
102
RTVSPropertyOp8
 70
     1
102
RTVSPropertyOp9
 70
     1
102
RTVSPropertyOp10
 70
     1
102
RTVSPropertyOp11
 70
     1
102
RTVSPropertyOp12
 70
     1
102
RTVSPropertyOp13
 70
     1
102
RTVSPropertyOp14
 70
     1
102
RTVSPropertyOp15
 70
     1
102
RTVSPropertyOp16
 70
     1
102
RTVSPropertyOp17
 70
     1
102
RTVSPropertyOp18
 70
     1
102
RTVSPropertyOp19
 70
     1
102
RTVSPropertyOp20
 70
     1
102
RTVSPropertyOp21
 70
     1
102
RTVSPropertyOp22
 70
     1
102
RTVSPropertyOp23
 70
     1
102
RTVSPropertyOp24
 70
     1
102
RTVSPropertyOp25
 70
     1
102
RTVSPropertyOp26
 70
     1
102
RTVSPropertyOp27
 70
     1
102
RTVSPropertyOp28
 70
     1
102
RTVSPropertyOp29
 70
     1
102
RTVSPropertyOp30
 70
     1
102
RTVSPropertyOp31
 70
     1
102
RTVSPropertyOp32
 70
     1
  0
XRECORD
  5
388
102
{ACAD_REACTORS
330
387
102
}
330
387
100
AcDbXrecord
280
     1
102
RTVSPropertyOp0
 70
     1
102
RTVSPropertyOp1
 70
     1
102
RTVSPropertyOp2
 70
     1
102
RTVSPropertyOp3
 70
     1
102
RTVSPropertyOp4
 70
     1
102
RTVSPropertyOp5
 70
     1
102
RTVSPropertyOp6
 70
     1
102
RTVSPropertyOp7
 70
     1
102
RTVSPropertyOp8
 70
     1
102
RTVSPropertyOp9
 70
     1
102
RTVSPropertyOp10
 70
     1
102
RTVSPropertyOp11
 70
     1
102
RTVSPropertyOp12
 70
     1
102
RTVSPropertyOp13
 70
     1
102
RTVSPropertyOp14
 70
     1
102
RTVSPropertyOp15
 70
     1
102
RTVSPropertyOp16
 70
     1
102
RTVSPropertyOp17
 70
     1
102
RTVSPropertyOp18
 70
     1
102
RTVSPropertyOp19
 70
     1
102
RTVSPropertyOp20
 70
     1
102
RTVSPropertyOp21
 70
     1
102
RTVSPropertyOp22
 70
     1
102
RTVSPropertyOp23
 70
     1
102
RTVSPropertyOp24
 70
     1
102
RTVSPropertyOp25
 70
     1
102
RTVSPropertyOp26
 70
     1
102
RTVSPropertyOp27
 70
     1
102
RTVSPropertyOp28
 70
     1
102
RTVSPropertyOp29
 70
     1
102
RTVSPropertyOp30
 70
     1
102
RTVSPropertyOp31
 70
     1
102
RTVSPropertyOp32
 70
     1
  0
XRECORD
  5
38A
102
{ACAD_REACTORS
330
389
102
}
330
389
100
AcDbXrecord
280
     1
102
RTVSPropertyOp0
 70
     1
102
RTVSPropertyOp1
 70
     1
102
RTVSPropertyOp2
 70
     1
102
RTVSPropertyOp3
 70
     1
102
RTVSPropertyOp4
 70
     1
102
RTVSPropertyOp5
 70
     1
102
RTVSPropertyOp6
 70
     1
102
RTVSPropertyOp7
 70
     1
102
RTVSPropertyOp8
 70
     1
102
RTVSPropertyOp9
 70
     1
102
RTVSPropertyOp10
 70
     1
102
RTVSPropertyOp11
 70
     1
102
RTVSPropertyOp12
 70
     1
102
RTVSPropertyOp13
 70
     1
102
RTVSPropertyOp14
 70
     1
102
RTVSPropertyOp15
 70
     1
102
RTVSPropertyOp16
 70
     1
102
RTVSPropertyOp17
 70
     1
102
RTVSPropertyOp18
 70
     1
102
RTVSPropertyOp19
 70
     1
102
RTVSPropertyOp20
 70
     1
102
RTVSPropertyOp21
 70
     1
102
RTVSPropertyOp22
 70
     1
102
RTVSPropertyOp23
 70
     1
102
RTVSPropertyOp24
 70
     1
102
RTVSPropertyOp25
 70
     1
102
RTVSPropertyOp26
 70
     1
102
RTVSPropertyOp27
 70
     1
102
RTVSPropertyOp28
 70
     1
102
RTVSPropertyOp29
 70
     1
102
RTVSPropertyOp30
 70
     1
102
RTVSPropertyOp31
 70
     1
102
RTVSPropertyOp32
 70
     1
  0
XRECORD
  5
380
102
{ACAD_REACTORS
330
37F
102
}
330
37F
100
AcDbXrecord
280
     1
102
RTVSPropertyOp0
 70
     1
102
RTVSPropertyOp1
 70
     1
102
RTVSPropertyOp2
 70
     1
102
RTVSPropertyOp3
 70
     1
102
RTVSPropertyOp4
 70
     1
102
RTVSPropertyOp5
 70
     1
102
RTVSPropertyOp6
 70
     1
102
RTVSPropertyOp7
 70
     1
102
RTVSPropertyOp8
 70
     1
102
RTVSPropertyOp9
 70
     1
102
RTVSPropertyOp10
 70
     1
102
RTVSPropertyOp11
 70
     1
102
RTVSPropertyOp12
 70
     1
102
RTVSPropertyOp13
 70
     1
102
RTVSPropertyOp14
 70
     1
102
RTVSPropertyOp15
 70
     1
102
RTVSPropertyOp16
 70
     1
102
RTVSPropertyOp17
 70
     1
102
RTVSPropertyOp18
 70
     1
102
RTVSPropertyOp19
 70
     1
102
RTVSPropertyOp20
 70
     1
102
RTVSPropertyOp21
 70
     1
102
RTVSPropertyOp22
 70
     1
102
RTVSPropertyOp23
 70
     1
102
RTVSPropertyOp24
 70
     1
102
RTVSPropertyOp25
 70
     1
102
RTVSPropertyOp26
 70
     1
102
RTVSPropertyOp27
 70
     1
102
RTVSPropertyOp28
 70
     1
102
RTVSPropertyOp29
 70
     1
102
RTVSPropertyOp30
 70
     1
102
RTVSPropertyOp31
 70
     1
102
RTVSPropertyOp32
 70
     1
  0
XRECORD
  5
374
102
{ACAD_REACTORS
330
373
102
}
330
373
100
AcDbXrecord
280
     1
102
RTVSPropertyOp0
 70
     1
102
RTVSPropertyOp1
 70
     1
102
RTVSPropertyOp2
 70
     1
102
RTVSPropertyOp3
 70
     1
102
RTVSPropertyOp4
 70
     1
102
RTVSPropertyOp5
 70
     1
102
RTVSPropertyOp6
 70
     1
102
RTVSPropertyOp7
 70
     1
102
RTVSPropertyOp8
 70
     1
102
RTVSPropertyOp9
 70
     1
102
RTVSPropertyOp10
 70
     1
102
RTVSPropertyOp11
 70
     1
102
RTVSPropertyOp12
 70
     1
102
RTVSPropertyOp13
 70
     1
102
RTVSPropertyOp14
 70
     1
102
RTVSPropertyOp15
 70
     1
102
RTVSPropertyOp16
 70
     1
102
RTVSPropertyOp17
 70
     1
102
RTVSPropertyOp18
 70
     1
102
RTVSPropertyOp19
 70
     1
102
RTVSPropertyOp20
 70
     1
102
RTVSPropertyOp21
 70
     1
102
RTVSPropertyOp22
 70
     1
102
RTVSPropertyOp23
 70
     1
102
RTVSPropertyOp24
 70
     1
102
RTVSPropertyOp25
 70
     1
102
RTVSPropertyOp26
 70
     1
102
RTVSPropertyOp27
 70
     1
102
RTVSPropertyOp28
 70
     1
102
RTVSPropertyOp29
 70
     1
102
RTVSPropertyOp30
 70
     1
102
RTVSPropertyOp31
 70
     1
102
RTVSPropertyOp32
 70
     1
  0
XRECORD
  5
38C
102
{ACAD_REACTORS
330
38B
102
}
330
38B
100
AcDbXrecord
280
     1
102
RTVSPropertyOp0
 70
     1
102
RTVSPropertyOp1
 70
     1
102
RTVSPropertyOp2
 70
     1
102
RTVSPropertyOp3
 70
     1
102
RTVSPropertyOp4
 70
     1
102
RTVSPropertyOp5
 70
     1
102
RTVSPropertyOp6
 70
     1
102
RTVSPropertyOp7
 70
     1
102
RTVSPropertyOp8
 70
     1
102
RTVSPropertyOp9
 70
     1
102
RTVSPropertyOp10
 70
     1
102
RTVSPropertyOp11
 70
     1
102
RTVSPropertyOp12
 70
     1
102
RTVSPropertyOp13
 70
     1
102
RTVSPropertyOp14
 70
     1
102
RTVSPropertyOp15
 70
     1
102
RTVSPropertyOp16
 70
     1
102
RTVSPropertyOp17
 70
     1
102
RTVSPropertyOp18
 70
     1
102
RTVSPropertyOp19
 70
     1
102
RTVSPropertyOp20
 70
     1
102
RTVSPropertyOp21
 70
     1
102
RTVSPropertyOp22
 70
     1
102
RTVSPropertyOp23
 70
     1
102
RTVSPropertyOp24
 70
     1
102
RTVSPropertyOp25
 70
     1
102
RTVSPropertyOp26
 70
     1
102
RTVSPropertyOp27
 70
     1
102
RTVSPropertyOp28
 70
     1
102
RTVSPropertyOp29
 70
     1
102
RTVSPropertyOp30
 70
     1
102
RTVSPropertyOp31
 70
     1
102
RTVSPropertyOp32
 70
     1
  0
ENDSEC
  0
EOF
