  0
SECTION
  2
HEADER
  9
$ACADVER
  1
AC1015
  9
$ACADMAINTVER
 70
    20
  9
$DWGCODEPAGE
  3
ANSI_932
  9
$INSBASE
 10
0.0
 20
0.0
 30
0.0
  9
$EXTMIN
 10
691.3138622112072
 20
-1.472198786184605
 30
0.0
  9
$EXTMAX
 10
1077.569535471781
 20
268.5278012138154
 30
0.0
  9
$LIMMIN
 10
0.0
 20
0.0
  9
$LIMMAX
 10
0.0
 20
0.0
  9
$ORTHOMODE
 70
     0
  9
$REGENMODE
 70
     1
  9
$FILLMODE
 70
     1
  9
$QTEXTMODE
 70
     0
  9
$MIRRTEXT
 70
     1
  9
$LTSCALE
 40
1.0
  9
$ATTMODE
 70
     1
  9
$TEXTSIZE
 40
0.0
  9
$TRACEWID
 40
0.05
  9
$TEXTSTYLE
  7
STANDARD
  9
$CLAYER
  8
0
  9
$CELTYPE
  6
CONTINUOUS
  9
$CECOLOR
 62
   256
  9
$CELTSCALE
 40
1.0
  9
$DISPSILH
 70
     0
  9
$DIMSCALE
 40
1.0
  9
$DIMASZ
 40
0.18
  9
$DIMEXO
 40
0.0625
  9
$DIMDLI
 40
0.38
  9
$DIMRND
 40
0.0
  9
$DIMDLE
 40
0.0
  9
$DIMEXE
 40
0.18
  9
$DIMTP
 40
0.0
  9
$DIMTM
 40
0.0
  9
$DIMTXT
 40
0.18
  9
$DIMCEN
 40
0.09
  9
$DIMTSZ
 40
0.0
  9
$DIMTOL
 70
     0
  9
$DIMLIM
 70
     0
  9
$DIMTIH
 70
     1
  9
$DIMTOH
 70
     1
  9
$DIMSE1
 70
     0
  9
$DIMSE2
 70
     0
  9
$DIMTAD
 70
     0
  9
$DIMZIN
 70
     0
  9
$DIMBLK
  1

  9
$DIMASO
 70
     1
  9
$DIMSHO
 70
     1
  9
$DIMPOST
  1

  9
$DIMAPOST
  1

  9
$DIMALT
 70
     0
  9
$DIMALTD
 70
     2
  9
$DIMALTF
 40
25.4
  9
$DIMLFAC
 40
1.0
  9
$DIMTOFL
 70
     0
  9
$DIMTVP
 40
0.0
  9
$DIMTIX
 70
     0
  9
$DIMSOXD
 70
     0
  9
$DIMSAH
 70
     0
  9
$DIMBLK1
  1

  9
$DIMBLK2
  1

  9
$DIMSTYLE
  2
STANDARD
  9
$DIMCLRD
 70
     0
  9
$DIMCLRE
 70
     0
  9
$DIMCLRT
 70
     0
  9
$DIMTFAC
 40
1.0
  9
$DIMGAP
 40
0.09
  9
$DIMJUST
 70
     0
  9
$DIMSD1
 70
     0
  9
$DIMSD2
 70
     0
  9
$DIMTOLJ
 70
     1
  9
$DIMTZIN
 70
     0
  9
$DIMALTZ
 70
     0
  9
$DIMALTTZ
 70
     0
  9
$DIMUPT
 70
     0
  9
$DIMDEC
 70
     4
  9
$DIMTDEC
 70
     4
  9
$DIMALTU
 70
     2
  9
$DIMALTTD
 70
     2
  9
$DIMTXSTY
  7
STANDARD
  9
$DIMAUNIT
 70
     0
  9
$DIMADEC
 70
     0
  9
$DIMALTRND
 40
0.0
  9
$DIMAZIN
 70
     0
  9
$DIMDSEP
 70
    46
  9
$DIMATFIT
 70
     3
  9
$DIMFRAC
 70
     0
  9
$DIMLDRBLK
  1

  9
$DIMLUNIT
 70
     2
  9
$DIMLWD
 70
    -2
  9
$DIMLWE
 70
    -2
  9
$DIMTMOVE
 70
     0
  9
$LUNITS
 70
     2
  9
$LUPREC
 70
     4
  9
$SKETCHINC
 40
0.1
  9
$FILLETRAD
 40
0.0
  9
$AUNITS
 70
     0
  9
$AUPREC
 70
     0
  9
$MENU
  1
acad
  9
$ELEVATION
 40
0.0
  9
$PELEVATION
 40
0.0
  9
$THICKNESS
 40
0.0
  9
$LIMCHECK
 70
     0
  9
$CHAMFERA
 40
0.0
  9
$CHAMFERB
 40
0.0
  9
$CHAMFERC
 40
0.0
  9
$CHAMFERD
 40
0.0
  9
$SKPOLY
 70
     0
  9
$TDCREATE
 40
12367012.42918654
  9
$TDUCREATE
 40
6.0000000000
  9
$TDUPDATE
 40
2457585.389931088
  9
$TDUUPDATE
 40
2457585.014931088
  9
$TDINDWG
 40
0.0011184954
  9
$TDUSRTIMER
 40
0.0011184954
  9
$USRTIMER
 70
     1
  9
$ANGBASE
 50
0.0
  9
$ANGDIR
 70
     0
  9
$PDMODE
 70
     0
  9
$PDSIZE
 40
0.0
  9
$PLINEWID
 40
0.0
  9
$SPLFRAME
 70
     0
  9
$SPLINETYPE
 70
     6
  9
$SPLINESEGS
 70
     8
  9
$HANDSEED
  5
6E5
  9
$SURFTAB1
 70
     6
  9
$SURFTAB2
 70
     6
  9
$SURFTYPE
 70
     6
  9
$SURFU
 70
     6
  9
$SURFV
 70
     6
  9
$UCSBASE
  2

  9
$UCSNAME
  2

  9
$UCSORG
 10
0.0
 20
0.0
 30
0.0
  9
$UCSXDIR
 10
1.0
 20
0.0
 30
0.0
  9
$UCSYDIR
 10
0.0
 20
1.0
 30
0.0
  9
$UCSORTHOREF
  2

  9
$UCSORTHOVIEW
 70
     0
  9
$UCSORGTOP
 10
0.0
 20
0.0
 30
0.0
  9
$UCSORGBOTTOM
 10
0.0
 20
0.0
 30
0.0
  9
$UCSORGLEFT
 10
0.0
 20
0.0
 30
0.0
  9
$UCSORGRIGHT
 10
0.0
 20
0.0
 30
0.0
  9
$UCSORGFRONT
 10
0.0
 20
0.0
 30
0.0
  9
$UCSORGBACK
 10
0.0
 20
0.0
 30
0.0
  9
$PUCSBASE
  2

  9
$PUCSNAME
  2

  9
$PUCSORG
 10
0.0
 20
0.0
 30
0.0
  9
$PUCSXDIR
 10
1.0
 20
0.0
 30
0.0
  9
$PUCSYDIR
 10
0.0
 20
1.0
 30
0.0
  9
$PUCSORTHOREF
  2

  9
$PUCSORTHOVIEW
 70
     0
  9
$PUCSORGTOP
 10
0.0
 20
0.0
 30
0.0
  9
$PUCSORGBOTTOM
 10
0.0
 20
0.0
 30
0.0
  9
$PUCSORGLEFT
 10
0.0
 20
0.0
 30
0.0
  9
$PUCSORGRIGHT
 10
0.0
 20
0.0
 30
0.0
  9
$PUCSORGFRONT
 10
0.0
 20
0.0
 30
0.0
  9
$PUCSORGBACK
 10
0.0
 20
0.0
 30
0.0
  9
$USERI1
 70
     0
  9
$USERI2
 70
     0
  9
$USERI3
 70
     0
  9
$USERI4
 70
     0
  9
$USERI5
 70
     0
  9
$USERR1
 40
12.01
  9
$USERR2
 40
0.0
  9
$USERR3
 40
0.0
  9
$USERR4
 40
0.0
  9
$USERR5
 40
0.0
  9
$WORLDVIEW
 70
     1
  9
$SHADEDGE
 70
     3
  9
$SHADEDIF
 70
    70
  9
$TILEMODE
 70
     1
  9
$MAXACTVP
 70
    16
  9
$PINSBASE
 10
0.0
 20
0.0
 30
0.0
  9
$PLIMCHECK
 70
     0
  9
$PEXTMIN
 10
1.000000000000000E+20
 20
1.000000000000000E+20
 30
1.000000000000000E+20
  9
$PEXTMAX
 10
-1.000000000000000E+20
 20
-1.000000000000000E+20
 30
-1.000000000000000E+20
  9
$PLIMMIN
 10
0.0
 20
0.0
  9
$PLIMMAX
 10
12.0
 20
9.0
  9
$UNITMODE
 70
     0
  9
$VISRETAIN
 70
     0
  9
$PLINEGEN
 70
     1
  9
$PSLTSCALE
 70
     0
  9
$TREEDEPTH
 70
  3020
  9
$CMLSTYLE
  2
STANDARD
  9
$CMLJUST
 70
     0
  9
$CMLSCALE
 40
1.0
  9
$PROXYGRAPHICS
 70
     0
  9
$MEASUREMENT
 70
     1
  9
$CELWEIGHT
370
    -1
  9
$ENDCAPS
280
     0
  9
$JOINSTYLE
280
     0
  9
$LWDISPLAY
290
     0
  9
$INSUNITS
 70
     0
  9
$HYPERLINKBASE
  1

  9
$STYLESHEET
  1

  9
$XEDIT
290
     1
  9
$CEPSNTYPE
380
     0
  9
$PSTYLEMODE
290
     1
  9
$FINGERPRINTGUID
  2
{03A650EB-B98F-4D7D-9F76-43C1BB711D02}
  9
$VERSIONGUID
  2
{C3764DAE-E4B3-4BBA-80CE-F3A038381DC9}
  9
$EXTNAMES
290
     1
  9
$PSVPSCALE
 40
0.0
  9
$OLESTARTUP
290
     0
  0
ENDSEC
  0
SECTION
  2
CLASSES
  0
CLASS
  1
IMAGE
  2
AcDbRasterImage
  3
ISM
 90
    34943
280
     0
281
     1
  0
CLASS
  1
DICTIONARYVAR
  2
AcDbDictionaryVar
  3
ObjectDBX Classes
 90
        0
280
     0
281
     0
  0
CLASS
  1
RASTERVARIABLES
  2
AcDbRasterVariables
  3
ISM
 90
    32768
280
     0
281
     0
  0
CLASS
  1
IMAGEDEF
  2
AcDbRasterImageDef
  3
ISM
 90
    32768
280
     0
281
     0
  0
CLASS
  1
IMAGEDEF_REACTOR
  2
AcDbRasterImageDefReactor
  3
ISM
 90
    32769
280
     0
281
     0
  0
CLASS
  1
IDBUFFER
  2
AcDbIdBuffer
  3
ObjectDBX Classes
 90
    32768
280
     0
281
     0
  0
CLASS
  1
SPATIAL_FILTER
  2
AcDbSpatialFilter
  3
ObjectDBX Classes
 90
    32768
280
     0
281
     0
  0
CLASS
  1
SORTENTSTABLE
  2
AcDbSortentsTable
  3
ObjectDBX Classes
 90
        0
280
     0
281
     0
  0
CLASS
  1
LAYER_INDEX
  2
AcDbLayerIndex
  3
ObjectDBX Classes
 90
    32768
280
     0
281
     0
  0
CLASS
  1
SPATIAL_INDEX
  2
AcDbSpatialIndex
  3
ObjectDBX Classes
 90
    32768
280
     0
281
     0
  0
CLASS
  1
OBJECT_PTR
  2
CAseDLPNTableRecord
  3
ASE-LPNTableRecord
 90
    32769
280
     0
281
     0
  0
CLASS
  1
LAYOUT
  2
AcDbLayout
  3
ObjectDBX Classes
 90
        0
280
     0
281
     0
  0
CLASS
  1
PLOTSETTINGS
  2
AcDbPlotSettings
  3
ObjectDBX Classes
 90
    32768
280
     0
281
     0
  0
CLASS
  1
ACDBDICTIONARYWDFLT
  2
AcDbDictionaryWithDefault
  3
ObjectDBX Classes
 90
        0
280
     0
281
     0
  0
CLASS
  1
ACDBPLACEHOLDER
  2
AcDbPlaceHolder
  3
ObjectDBX Classes
 90
        0
280
     0
281
     0
  0
CLASS
  1
MATERIAL
  2
AcDbMaterial
  3
ObjectDBX Classes
 90
     1153
280
     0
281
     0
  0
CLASS
  1
VISUALSTYLE
  2
AcDbVisualStyle
  3
ObjectDBX Classes
 90
     4095
280
     0
281
     0
  0
CLASS
  1
TABLESTYLE
  2
AcDbTableStyle
  3
ObjectDBX Classes
 90
     4095
280
     0
281
     0
  0
CLASS
  1
SCALE
  2
AcDbScale
  3
ObjectDBX Classes
 90
     1153
280
     0
281
     0
  0
CLASS
  1
MLEADERSTYLE
  2
AcDbMLeaderStyle
  3
ACDB_MLEADERSTYLE_CLASS
 90
     4095
280
     0
281
     0
  0
CLASS
  1
CELLSTYLEMAP
  2
AcDbCellStyleMap
  3
ObjectDBX Classes
 90
     1152
280
     0
281
     0
  0
ENDSEC
  0
SECTION
  2
TABLES
  0
TABLE
  2
VPORT
  5
7
330
0
100
AcDbSymbolTable
 70
     1
  0
VPORT
  5
15
330
7
100
AcDbSymbolTableRecord
100
AcDbViewportTableRecord
  2
*ACTIVE
 70
     0
 10
0.0
 20
0.0
 11
1.0
 21
1.0
 12
967.796996811764
 22
148.0106042463273
 13
0.0
 23
0.0
 14
1.0
 24
1.0
 15
0.0
 25
0.0
 16
0.0
 26
0.0
 36
1.0
 17
0.0
 27
0.0
 37
0.0
 40
90.11266890742957
 41
2.023923444976076
 42
50.0
 43
0.0
 44
0.0
 50
0.0
 51
0.0
 71
     0
 72
   100
 73
     1
 74
     1
 75
     0
 76
     0
 77
     0
 78
     0
281
     0
 65
     1
110
0.0
120
0.0
130
0.0
111
1.0
121
0.0
131
0.0
112
0.0
122
1.0
132
0.0
 79
     0
146
0.0
1001
ACAD_NAV_VCDISPLAY
1070
     3
  0
ENDTAB
  0
TABLE
  2
LTYPE
  5
4
330
0
100
AcDbSymbolTable
 70
     8
  0
LTYPE
  5
11
330
4
100
AcDbSymbolTableRecord
100
AcDbLinetypeTableRecord
  2
BYBLOCK
 70
     0
  3

 72
    65
 73
     0
 40
0.0
  0
LTYPE
  5
12
330
4
100
AcDbSymbolTableRecord
100
AcDbLinetypeTableRecord
  2
BYLAYER
 70
     0
  3

 72
    65
 73
     0
 40
0.0
  0
LTYPE
  5
13
330
4
100
AcDbSymbolTableRecord
100
AcDbLinetypeTableRecord
  2
CONTINUOUS
 70
     0
  3
Solid line
 72
    65
 73
     0
 40
0.0
  0
LTYPE
  5
1D
330
4
100
AcDbSymbolTableRecord
100
AcDbLinetypeTableRecord
  2
DASHED
 70
     0
  3
Dashed
 72
    65
 73
     2
 40
15.0
 49
7.0
 74
     0
 49
-8.0
 74
     0
  0
LTYPE
  5
1E
330
4
100
AcDbSymbolTableRecord
100
AcDbLinetypeTableRecord
  2
DOTTED
 70
     0
  3
Dotted
 72
    65
 73
     2
 40
1.0
 49
0.0
 74
     0
 49
-1.0
 74
     0
  0
LTYPE
  5
1F
330
4
100
AcDbSymbolTableRecord
100
AcDbLinetypeTableRecord
  2
DOT_CENTER
 70
     0
  3
Dot_Center
 72
    65
 73
     4
 40
14.0
 49
12.0
 74
     0
 49
-1.0
 74
     0
 49
0.0
 74
     0
 49
-1.0
 74
     0
  0
LTYPE
  5
20
330
4
100
AcDbSymbolTableRecord
100
AcDbLinetypeTableRecord
  2
LONG_DASHED
 70
     0
  3
Long_Dashed
 72
    65
 73
     2
 40
15.0
 49
10.0
 74
     0
 49
-5.0
 74
     0
  0
LTYPE
  5
21
330
4
100
AcDbSymbolTableRecord
100
AcDbLinetypeTableRecord
  2
DASH_CENTER
 70
     0
  3
Dash_Center
 72
    65
 73
     4
 40
14.0
 49
11.0
 74
     0
 49
-1.0
 74
     0
 49
1.0
 74
     0
 49
-1.0
 74
     0
  0
LTYPE
  5
22
330
4
100
AcDbSymbolTableRecord
100
AcDbLinetypeTableRecord
  2
PHANTOM
 70
     0
  3
Phantom
 72
    65
 73
     6
 40
13.0
 49
10.0
 74
     0
 49
-1.0
 74
     0
 49
0.0
 74
     0
 49
-1.0
 74
     0
 49
0.0
 74
     0
 49
-1.0
 74
     0
  0
LTYPE
  5
23
330
4
100
AcDbSymbolTableRecord
100
AcDbLinetypeTableRecord
  2
CENTER_DASH_DASH
 70
     0
  3
Center_Dash_Dash
 72
    65
 73
     6
 40
14.0
 49
9.0
 74
     0
 49
-1.0
 74
     0
 49
1.0
 74
     0
 49
-1.0
 74
     0
 49
1.0
 74
     0
 49
-1.0
 74
     0
  0
ENDTAB
  0
TABLE
  2
LAYER
  5
2
330
0
100
AcDbSymbolTable
 70
     2
  0
LAYER
  5
14
102
{ACAD_XDICTIONARY
360
645
102
}
330
2
100
AcDbSymbolTableRecord
100
AcDbLayerTableRecord
  2
0
 70
     0
 62
     7
  6
CONTINUOUS
370
    -3
390
468
  0
LAYER
  5
24
102
{ACAD_XDICTIONARY
360
647
102
}
330
2
100
AcDbSymbolTableRecord
100
AcDbLayerTableRecord
  2
1
 70
     0
 62
     7
  6
CONTINUOUS
370
    -3
390
468
  0
ENDTAB
  0
TABLE
  2
STYLE
  5
3
330
0
100
AcDbSymbolTable
 70
     6
  0
STYLE
  5
17
330
3
100
AcDbSymbolTableRecord
100
AcDbTextStyleTableRecord
  2
STANDARD
 70
     0
 40
0.0
 41
1.0
 50
0.0
 71
     0
 42
0.0
  3
txt
  4

  0
STYLE
  5
20B
330
3
100
AcDbSymbolTableRecord
100
AcDbTextStyleTableRecord
  2
CONVERTER_1
 70
     0
 40
0.0
 41
0.63
 50
0.0
 71
     0
 42
0.0
  3
txt.shx
  4

  0
STYLE
  5
232
330
3
100
AcDbSymbolTableRecord
100
AcDbTextStyleTableRecord
  2
CONVERTER_2
 70
     0
 40
0.0
 41
0.9
 50
0.0
 71
     0
 42
0.0
  3
txt.shx
  4

  0
STYLE
  5
234
330
3
100
AcDbSymbolTableRecord
100
AcDbTextStyleTableRecord
  2
CONVERTER_3
 70
     0
 40
0.0
 41
0.76
 50
0.0
 71
     0
 42
0.0
  3
complex.shx
  4

  0
STYLE
  5
249
330
3
100
AcDbSymbolTableRecord
100
AcDbTextStyleTableRecord
  2
CONVERTER_4
 70
     0
 40
0.0
 41
0.585
 50
0.0
 71
     0
 42
0.0
  3
txt.shx
  4

  0
STYLE
  5
333
330
3
100
AcDbSymbolTableRecord
100
AcDbTextStyleTableRecord
  2
CONVERTER_5
 70
     0
 40
0.0
 41
0.6650000000000001
 50
0.0
 71
     0
 42
0.0
  3
simplex.shx
  4

  0
ENDTAB
  0
TABLE
  2
VIEW
  5
5
330
0
100
AcDbSymbolTable
 70
     0
  0
ENDTAB
  0
TABLE
  2
UCS
  5
6
330
0
100
AcDbSymbolTable
 70
     0
  0
ENDTAB
  0
TABLE
  2
APPID
  5
8
330
0
100
AcDbSymbolTable
 70
     4
  0
APPID
  5
16
330
8
100
AcDbSymbolTableRecord
100
AcDbRegAppTableRecord
  2
ACAD
 70
     0
  0
APPID
  5
64B
330
8
100
AcDbSymbolTableRecord
100
AcDbRegAppTableRecord
  2
DCO15
 70
     0
  0
APPID
  5
655
330
8
100
AcDbSymbolTableRecord
100
AcDbRegAppTableRecord
  2
ACAD_NAV_VCDISPLAY
 70
     0
  0
APPID
  5
6E0
330
8
100
AcDbSymbolTableRecord
100
AcDbRegAppTableRecord
  2
ACAD_MLEADERVER
 70
     0
  0
ENDTAB
  0
TABLE
  2
DIMSTYLE
  5
9
330
0
100
AcDbSymbolTable
 70
    22
100
AcDbDimStyleTable
 71
     0
  0
DIMSTYLE
105
18
330
9
100
AcDbSymbolTableRecord
100
AcDbDimStyleTableRecord
  2
STANDARD
 70
     0
340
17
  0
DIMSTYLE
105
33C
330
9
100
AcDbSymbolTableRecord
100
AcDbDimStyleTableRecord
  2
ME10_DIM_0
 70
     0
  3
\U+2019\U+00FD\U+0090\U+00DB\U+201D\U+00EB\U+02C6\U+00EB1.5\U+0081`<>
 41
2.45
 42
1.0
 44
1.0
 73
     0
 74
     0
 77
     1
 78
     8
140
3.5
147
0.625
172
     1
173
     1
176
     2
177
     2
178
     3
271
     2
340
333
341
336
343
336
344
336
  0
DIMSTYLE
105
349
330
9
100
AcDbSymbolTableRecord
100
AcDbDimStyleTableRecord
  2
ME10_DIM_1
 70
     0
 41
2.45
 42
1.0
 44
1.0
 73
     0
 74
     0
 77
     1
 78
     8
140
3.5
147
0.625
172
     1
173
     1
176
     2
177
     2
178
     3
271
     2
340
333
341
336
343
336
344
336
  0
DIMSTYLE
105
356
330
9
100
AcDbSymbolTableRecord
100
AcDbDimStyleTableRecord
  2
ME10_DIM_2
 70
     0
 41
2.45
 42
1.0
 44
1.0
 73
     0
 74
     0
 77
     1
 78
     8
140
3.5
147
0.625
172
     1
173
     1
176
     2
177
     2
178
     3
271
     2
340
333
341
336
343
336
344
336
  0
DIMSTYLE
105
363
330
9
100
AcDbSymbolTableRecord
100
AcDbDimStyleTableRecord
  2
ME10_DIM_3
 70
     0
 41
2.45
 42
1.0
 44
1.0
 73
     0
 74
     0
 77
     1
 78
     8
140
3.5
147
0.625
172
     1
173
     1
176
     2
177
     2
178
     3
271
     2
340
333
341
336
343
336
344
336
  0
DIMSTYLE
105
370
330
9
100
AcDbSymbolTableRecord
100
AcDbDimStyleTableRecord
  2
ME10_DIM_4
 70
     0
 41
2.45
 42
1.0
 44
1.0
 73
     0
 74
     0
 77
     1
 78
     8
140
3.5
147
0.625
172
     1
173
     1
176
     2
177
     2
178
     3
271
     2
340
333
341
336
343
336
344
336
  0
DIMSTYLE
105
380
330
9
100
AcDbSymbolTableRecord
100
AcDbDimStyleTableRecord
  2
ME10_DIM_5
 70
     0
 41
2.45
 42
1.0
 44
1.0
 73
     0
 74
     0
 77
     1
 78
     8
140
3.5
147
0.625
172
     1
173
     1
176
     2
177
     2
178
     3
271
     2
340
333
341
336
343
336
344
37D
  0
DIMSTYLE
105
396
330
9
100
AcDbSymbolTableRecord
100
AcDbDimStyleTableRecord
  2
ME10_DIM_6
 70
     0
 41
2.45
 42
1.0
 44
1.0
 73
     0
 74
     0
 77
     1
 78
     8
140
3.5
147
0.625
172
     1
173
     1
176
     2
177
     2
178
     3
271
     2
340
333
341
38E
343
38E
344
336
  0
DIMSTYLE
105
3A5
330
9
100
AcDbSymbolTableRecord
100
AcDbDimStyleTableRecord
  2
ME10_DIM_7
 70
     0
 41
2.45
 42
1.0
 44
1.0
 73
     0
 74
     0
 77
     1
 78
     8
140
3.5
147
0.625
172
     1
173
     1
176
     2
177
     2
178
     3
271
     2
340
333
341
336
343
336
344
336
  0
DIMSTYLE
105
3B2
330
9
100
AcDbSymbolTableRecord
100
AcDbDimStyleTableRecord
  2
ME10_DIM_8
 70
     0
 41
2.45
 42
1.0
 44
1.0
 73
     0
 74
     0
 77
     1
 78
     8
140
3.5
147
0.625
172
     1
173
     1
176
     2
177
     2
178
     3
271
     2
340
333
341
336
343
336
344
336
  0
DIMSTYLE
105
3BF
330
9
100
AcDbSymbolTableRecord
100
AcDbDimStyleTableRecord
  2
ME10_DIM_9
 70
     0
 41
2.45
 42
1.0
 44
1.0
 73
     0
 74
     0
 77
     1
 78
     8
140
3.5
147
0.625
172
     1
173
     1
176
     2
177
     2
178
     3
271
     2
340
333
341
336
343
336
344
336
  0
DIMSTYLE
105
3CC
330
9
100
AcDbSymbolTableRecord
100
AcDbDimStyleTableRecord
  2
ME10_DIM_10
 70
     0
 41
2.45
 42
1.0
 44
1.0
 73
     0
 74
     0
 77
     1
 78
     8
140
3.5
147
0.625
172
     1
173
     1
176
     2
177
     2
178
     3
271
     2
340
333
341
336
343
336
344
336
  0
DIMSTYLE
105
3D9
330
9
100
AcDbSymbolTableRecord
100
AcDbDimStyleTableRecord
  2
ME10_DIM_11
 70
     0
 41
2.45
 42
1.0
 44
1.0
 73
     0
 74
     0
 77
     1
 78
     8
140
3.5
147
0.625
172
     1
173
     1
176
     2
177
     2
178
     3
271
     2
340
333
341
336
343
336
344
336
  0
DIMSTYLE
105
3E8
330
9
100
AcDbSymbolTableRecord
100
AcDbDimStyleTableRecord
  2
ME10_DIM_12
 70
     0
 41
2.45
 42
1.0
 44
1.0
 73
     0
 74
     0
 77
     1
 78
     8
140
3.5
147
0.625
172
     1
173
     1
176
     2
177
     2
178
     3
271
     2
340
333
341
336
343
336
344
336
  0
DIMSTYLE
105
3F5
330
9
100
AcDbSymbolTableRecord
100
AcDbDimStyleTableRecord
  2
ME10_DIM_13
 70
     0
 41
2.45
 42
1.0
 44
1.0
 73
     0
 74
     0
 77
     1
 78
     8
140
3.5
147
0.625
172
     1
173
     1
176
     2
177
     2
178
     3
271
     2
340
333
341
336
343
336
344
336
  0
DIMSTYLE
105
402
330
9
100
AcDbSymbolTableRecord
100
AcDbDimStyleTableRecord
  2
ME10_DIM_14
 70
     0
 41
2.45
 42
1.0
 44
1.0
 73
     0
 74
     0
 77
     1
 78
     8
140
3.5
147
0.625
172
     1
173
     1
176
     2
177
     2
178
     3
271
     2
340
333
341
336
343
336
344
336
  0
DIMSTYLE
105
40F
330
9
100
AcDbSymbolTableRecord
100
AcDbDimStyleTableRecord
  2
ME10_DIM_15
 70
     0
 41
2.45
 42
1.0
 44
1.0
 73
     0
 74
     0
 77
     1
 78
     8
140
3.5
147
0.625
172
     1
173
     1
176
     2
177
     2
178
     3
271
     2
340
333
341
336
343
336
344
336
  0
DIMSTYLE
105
41C
330
9
100
AcDbSymbolTableRecord
100
AcDbDimStyleTableRecord
  2
ME10_DIM_16
 70
     0
 41
2.45
 42
1.0
 44
1.0
 73
     0
 74
     0
 77
     1
 78
     8
140
3.5
147
0.625
172
     1
173
     1
176
     2
177
     2
178
     3
271
     2
340
333
341
336
343
336
344
336
  0
DIMSTYLE
105
429
330
9
100
AcDbSymbolTableRecord
100
AcDbDimStyleTableRecord
  2
ME10_DIM_17
 70
     0
 41
2.45
 42
1.0
 44
1.0
 73
     0
 74
     0
 77
     1
 78
     8
140
3.5
147
0.625
172
     1
173
     1
176
     2
177
     2
178
     3
271
     2
340
333
341
336
343
336
344
336
  0
DIMSTYLE
105
438
330
9
100
AcDbSymbolTableRecord
100
AcDbDimStyleTableRecord
  2
ME10_DIM_18
 70
     0
 41
2.45
 42
1.0
 44
1.0
 73
     0
 74
     0
 77
     1
 78
     8
140
3.5
147
0.625
172
     1
173
     1
176
     2
177
     2
178
     3
271
     2
340
333
341
336
343
336
344
336
  0
DIMSTYLE
105
445
330
9
100
AcDbSymbolTableRecord
100
AcDbDimStyleTableRecord
  2
ME10_DIM_19
 70
     0
 41
2.45
 42
1.0
 44
1.0
 73
     0
 74
     0
 77
     1
 78
     8
140
3.5
147
0.625
172
     1
173
     1
176
     2
177
     2
178
     3
271
     2
340
333
341
336
343
336
344
336
  0
DIMSTYLE
105
452
330
9
100
AcDbSymbolTableRecord
100
AcDbDimStyleTableRecord
  2
ME10_DIM_20
 70
     0
 41
2.45
 42
1.0
 44
1.0
 73
     0
 74
     0
 77
     1
 78
     8
140
3.5
147
0.625
172
     1
173
     1
176
     2
177
     2
178
     3
271
     2
340
333
341
336
343
336
344
336
  0
ENDTAB
  0
TABLE
  2
BLOCK_RECORD
  5
1
330
0
100
AcDbSymbolTable
 70
    38
  0
BLOCK_RECORD
  5
A
102
{ACAD_XDICTIONARY
360
566
102
}
330
1
100
AcDbSymbolTableRecord
100
AcDbBlockTableRecord
  2
*MODEL_SPACE
340
4B4
  0
BLOCK_RECORD
  5
B
330
1
100
AcDbSymbolTableRecord
100
AcDbBlockTableRecord
  2
*PAPER_SPACE
340
4B5
  0
BLOCK_RECORD
  5
25
330
1
100
AcDbSymbolTableRecord
100
AcDbBlockTableRecord
  2
_______T__________M___5X12
340
0
102
{BLKREFS
331
29
102
}
  0
BLOCK_RECORD
  5
27
330
1
100
AcDbSymbolTableRecord
100
AcDbBlockTableRecord
  2
_______T______________5X25
340
0
102
{BLKREFS
331
34
102
}
  0
BLOCK_RECORD
  5
2A
330
1
100
AcDbSymbolTableRecord
100
AcDbBlockTableRecord
  2
_______T______________3X14
340
0
102
{BLKREFS
331
2E
102
}
  0
BLOCK_RECORD
  5
2C
330
1
100
AcDbSymbolTableRecord
100
AcDbBlockTableRecord
  2
_______T______________5X14
340
0
102
{BLKREFS
331
31
102
}
  0
BLOCK_RECORD
  5
2F
330
1
100
AcDbSymbolTableRecord
100
AcDbBlockTableRecord
  2
_______T______________3X26
340
0
102
{BLKREFS
331
35
102
}
  0
BLOCK_RECORD
  5
32
330
1
100
AcDbSymbolTableRecord
100
AcDbBlockTableRecord
  2
TOP__1
340
0
  0
BLOCK_RECORD
  5
36
330
1
100
AcDbSymbolTableRecord
100
AcDbBlockTableRecord
  2
_3
340
0
102
{BLKREFS
331
46
102
}
  0
BLOCK_RECORD
  5
38
330
1
100
AcDbSymbolTableRecord
100
AcDbBlockTableRecord
  2
_2
340
0
  0
BLOCK_RECORD
  5
3A
330
1
100
AcDbSymbolTableRecord
100
AcDbBlockTableRecord
  2
_1
340
0
  0
BLOCK_RECORD
  5
3C
330
1
100
AcDbSymbolTableRecord
100
AcDbBlockTableRecord
  2
______
340
0
102
{BLKREFS
331
40
102
}
  0
BLOCK_RECORD
  5
3E
330
1
100
AcDbSymbolTableRecord
100
AcDbBlockTableRecord
  2
FORMAT_A3
340
0
  0
BLOCK_RECORD
  5
41
330
1
100
AcDbSymbolTableRecord
100
AcDbBlockTableRecord
  2
_5
340
0
  0
BLOCK_RECORD
  5
328
330
1
100
AcDbSymbolTableRecord
100
AcDbBlockTableRecord
  2
*D12
340
0
  0
BLOCK_RECORD
  5
336
330
1
100
AcDbSymbolTableRecord
100
AcDbBlockTableRecord
  2
_OPEN30
340
0
  0
BLOCK_RECORD
  5
33E
330
1
100
AcDbSymbolTableRecord
100
AcDbBlockTableRecord
  2
*D14
340
0
  0
BLOCK_RECORD
  5
34B
330
1
100
AcDbSymbolTableRecord
100
AcDbBlockTableRecord
  2
*D15
340
0
  0
BLOCK_RECORD
  5
358
330
1
100
AcDbSymbolTableRecord
100
AcDbBlockTableRecord
  2
*D16
340
0
  0
BLOCK_RECORD
  5
365
330
1
100
AcDbSymbolTableRecord
100
AcDbBlockTableRecord
  2
*D17
340
0
  0
BLOCK_RECORD
  5
372
330
1
100
AcDbSymbolTableRecord
100
AcDbBlockTableRecord
  2
*D18
340
0
  0
BLOCK_RECORD
  5
37D
330
1
100
AcDbSymbolTableRecord
100
AcDbBlockTableRecord
  2
_NONE
340
0
  0
BLOCK_RECORD
  5
382
330
1
100
AcDbSymbolTableRecord
100
AcDbBlockTableRecord
  2
*D20
340
0
  0
BLOCK_RECORD
  5
38E
330
1
100
AcDbSymbolTableRecord
100
AcDbBlockTableRecord
  2
_DOT
340
0
  0
BLOCK_RECORD
  5
398
330
1
100
AcDbSymbolTableRecord
100
AcDbBlockTableRecord
  2
*D22
340
0
  0
BLOCK_RECORD
  5
3A7
330
1
100
AcDbSymbolTableRecord
100
AcDbBlockTableRecord
  2
*D23
340
0
  0
BLOCK_RECORD
  5
3B4
330
1
100
AcDbSymbolTableRecord
100
AcDbBlockTableRecord
  2
*D24
340
0
  0
BLOCK_RECORD
  5
3C1
330
1
100
AcDbSymbolTableRecord
100
AcDbBlockTableRecord
  2
*D25
340
0
  0
BLOCK_RECORD
  5
3CE
330
1
100
AcDbSymbolTableRecord
100
AcDbBlockTableRecord
  2
*D26
340
0
  0
BLOCK_RECORD
  5
3DB
330
1
100
AcDbSymbolTableRecord
100
AcDbBlockTableRecord
  2
*D27
340
0
  0
BLOCK_RECORD
  5
3EA
330
1
100
AcDbSymbolTableRecord
100
AcDbBlockTableRecord
  2
*D28
340
0
  0
BLOCK_RECORD
  5
3F7
330
1
100
AcDbSymbolTableRecord
100
AcDbBlockTableRecord
  2
*D29
340
0
  0
BLOCK_RECORD
  5
404
330
1
100
AcDbSymbolTableRecord
100
AcDbBlockTableRecord
  2
*D30
340
0
  0
BLOCK_RECORD
  5
411
330
1
100
AcDbSymbolTableRecord
100
AcDbBlockTableRecord
  2
*D31
340
0
  0
BLOCK_RECORD
  5
41E
330
1
100
AcDbSymbolTableRecord
100
AcDbBlockTableRecord
  2
*D32
340
0
  0
BLOCK_RECORD
  5
42B
330
1
100
AcDbSymbolTableRecord
100
AcDbBlockTableRecord
  2
*D33
340
0
  0
BLOCK_RECORD
  5
43A
330
1
100
AcDbSymbolTableRecord
100
AcDbBlockTableRecord
  2
*D34
340
0
  0
BLOCK_RECORD
  5
447
330
1
100
AcDbSymbolTableRecord
100
AcDbBlockTableRecord
  2
*D35
340
0
  0
BLOCK_RECORD
  5
454
330
1
100
AcDbSymbolTableRecord
100
AcDbBlockTableRecord
  2
*D36
340
0
  0
BLOCK_RECORD
  5
45C
330
1
100
AcDbSymbolTableRecord
100
AcDbBlockTableRecord
  2
*D37
340
0
  0
ENDTAB
  0
ENDSEC
  0
SECTION
  2
BLOCKS
  0
BLOCK
  5
D
330
A
100
AcDbEntity
  8
0
100
AcDbBlockBegin
  2
*MODEL_SPACE
 70
     0
 10
0.0
 20
0.0
 30
0.0
  3
*MODEL_SPACE
  1

  0
ENDBLK
  5
E
330
A
100
AcDbEntity
  8
0
100
AcDbBlockEnd
  0
BLOCK
  5
F
330
B
100
AcDbEntity
 67
     1
  8
0
100
AcDbBlockBegin
  2
*PAPER_SPACE
 70
     0
 10
0.0
 20
0.0
 30
0.0
  3
*PAPER_SPACE
  1

  0
ENDBLK
  5
10
330
B
100
AcDbEntity
 67
     1
  8
0
100
AcDbBlockEnd
  0
BLOCK
  5
26
330
25
100
AcDbEntity
  8
0
100
AcDbBlockBegin
  2
_______T__________M___5X12
 70
     0
 10
760.9161389383231
 20
90.10565263342561
 30
0.0
  3
_______T__________M___5X12
  1

  0
CIRCLE
  5
73
330
25
100
AcDbEntity
  8
1
  6
Continuous
 62
     7
100
AcDbCircle
 10
815.0625773480525
 20
94.95565263342564
 30
0.0
 40
4.85000000000002
  0
LINE
  5
72
330
25
100
AcDbEntity
  8
1
  6
Continuous
 62
     7
100
AcDbLine
 10
946.4313638386681
 20
222.559787467744
 30
0.0
 11
946.4313638386681
 21
222.8701824975618
 31
0.0
  0
LINE
  5
71
330
25
100
AcDbEntity
  8
1
  6
Continuous
 62
     7
100
AcDbLine
 10
945.9983638386681
 20
222.559787467744
 30
0.0
 11
945.9983638386681
 21
222.8701824975618
 31
0.0
  0
LINE
  5
70
330
25
100
AcDbEntity
  8
1
  6
Continuous
 62
     7
100
AcDbLine
 10
941.8643638386681
 20
222.559787467744
 30
0.0
 11
941.8643638386681
 21
222.8701824975618
 31
0.0
  0
LINE
  5
6F
330
25
100
AcDbEntity
  8
1
  6
Continuous
 62
     7
100
AcDbLine
 10
941.431363838668
 20
219.659787467744
 30
0.0
 11
941.431363838668
 21
214.7556726556796
 31
0.0
  0
LINE
  5
6E
330
25
100
AcDbEntity
  8
1
  6
Continuous
 62
     7
100
AcDbLine
 10
946.4313638386681
 20
214.7556726556796
 30
0.0
 11
946.4313638386681
 21
219.659787467744
 31
0.0
  0
LINE
  5
6D
330
25
100
AcDbEntity
  8
1
  6
Continuous
 62
     7
100
AcDbLine
 10
945.9983638386681
 20
214.7556726556796
 30
0.0
 11
945.9983638386681
 21
219.659787467744
 31
0.0
  0
LINE
  5
6C
330
25
100
AcDbEntity
  8
1
  6
Continuous
 62
     7
100
AcDbLine
 10
941.8643638386681
 20
214.7556726556796
 30
0.0
 11
941.8643638386681
 21
219.659787467744
 31
0.0
  0
LINE
  5
6B
330
25
100
AcDbEntity
  8
1
  6
Continuous
 62
     7
100
AcDbLine
 10
939.081363838668
 20
210.9914590933065
 30
0.0
 11
939.081363838668
 21
210.8701824975618
 31
0.0
  0
LINE
  5
6A
330
25
100
AcDbEntity
  8
1
  6
Continuous
 62
     7
100
AcDbLine
 10
817.5625773480525
 20
222.559787467744
 30
0.0
 11
817.5625773480525
 21
222.8701824975618
 31
0.0
  0
LINE
  5
69
330
25
100
AcDbEntity
  8
1
  6
Continuous
 62
     7
100
AcDbLine
 10
817.1295773480526
 20
222.559787467744
 30
0.0
 11
817.1295773480526
 21
222.8701824975618
 31
0.0
  0
LINE
  5
68
330
25
100
AcDbEntity
  8
1
  6
Continuous
 62
     7
100
AcDbLine
 10
812.9955773480526
 20
222.559787467744
 30
0.0
 11
812.9955773480526
 21
222.8701824975618
 31
0.0
  0
LINE
  5
67
330
25
100
AcDbEntity
  8
1
  6
Continuous
 62
     7
100
AcDbLine
 10
812.5625773480527
 20
219.659787467744
 30
0.0
 11
812.5625773480527
 21
218.9914590933065
 31
0.0
  0
LINE
  5
66
330
25
100
AcDbEntity
  8
1
  6
Continuous
 62
     7
100
AcDbLine
 10
812.9955773480526
 20
218.9914590933065
 30
0.0
 11
812.9955773480526
 21
219.659787467744
 31
0.0
  0
LINE
  5
65
330
25
100
AcDbEntity
  8
1
  6
Continuous
 62
     7
100
AcDbLine
 10
817.1295773480526
 20
218.9914590933065
 30
0.0
 11
817.1295773480526
 21
219.659787467744
 31
0.0
  0
LINE
  5
64
330
25
100
AcDbEntity
  8
1
  6
Continuous
 62
     7
100
AcDbLine
 10
817.5625773480525
 20
218.9914590933065
 30
0.0
 11
817.5625773480525
 21
219.659787467744
 31
0.0
  0
LINE
  5
63
330
25
100
AcDbEntity
  8
1
  6
Continuous
 62
     7
100
AcDbLine
 10
810.2125773480526
 20
210.9914590933065
 30
0.0
 11
810.2125773480526
 21
210.8701824975618
 31
0.0
  0
LINE
  5
62
330
25
100
AcDbEntity
  8
1
  6
Continuous
 62
     7
100
AcDbLine
 10
939.081363838668
 20
210.8701824975618
 30
0.0
 11
948.7813638386681
 21
210.8701824975618
 31
0.0
  0
LINE
  5
61
330
25
100
AcDbEntity
  8
1
  6
Continuous
 62
     7
100
AcDbLine
 10
948.7813638386681
 20
210.8701824975618
 30
0.0
 11
948.7813638386681
 21
210.9914590933065
 31
0.0
  0
LINE
  5
60
330
25
100
AcDbEntity
  8
1
  6
Continuous
 62
     7
100
AcDbLine
 10
941.8643638386681
 20
222.8701824975618
 30
0.0
 11
941.431363838668
 21
222.8701824975618
 31
0.0
  0
LINE
  5
5F
330
25
100
AcDbEntity
  8
1
  6
Continuous
 62
     7
100
AcDbLine
 10
945.9983638386681
 20
222.8701824975618
 30
0.0
 11
941.8643638386681
 21
222.8701824975618
 31
0.0
  0
LINE
  5
5E
330
25
100
AcDbEntity
  8
1
  6
Continuous
 62
     7
100
AcDbLine
 10
941.431363838668
 20
222.8701824975618
 30
0.0
 11
941.431363838668
 21
222.559787467744
 31
0.0
  0
LINE
  5
5D
330
25
100
AcDbEntity
  8
1
  6
Continuous
 62
     7
100
AcDbLine
 10
946.4313638386681
 20
222.8701824975618
 30
0.0
 11
945.9983638386681
 21
222.8701824975618
 31
0.0
  0
LINE
  5
5C
330
25
100
AcDbEntity
  8
1
  6
Continuous
 62
     7
100
AcDbLine
 10
810.2125773480526
 20
210.8701824975618
 30
0.0
 11
819.9125773480526
 21
210.8701824975618
 31
0.0
  0
LINE
  5
5B
330
25
100
AcDbEntity
  8
1
  6
Continuous
 62
     7
100
AcDbLine
 10
819.9125773480526
 20
210.8701824975618
 30
0.0
 11
819.9125773480526
 21
210.9914590933065
 31
0.0
  0
LINE
  5
5A
330
25
100
AcDbEntity
  8
1
  6
Continuous
 62
     7
100
AcDbLine
 10
812.9955773480526
 20
222.8701824975618
 30
0.0
 11
812.5625773480527
 21
222.8701824975618
 31
0.0
  0
LINE
  5
59
330
25
100
AcDbEntity
  8
1
  6
Continuous
 62
     7
100
AcDbLine
 10
817.1295773480526
 20
222.8701824975618
 30
0.0
 11
812.9955773480526
 21
222.8701824975618
 31
0.0
  0
LINE
  5
58
330
25
100
AcDbEntity
  8
1
  6
Continuous
 62
     7
100
AcDbLine
 10
812.5625773480527
 20
222.8701824975618
 30
0.0
 11
812.5625773480527
 21
222.559787467744
 31
0.0
  0
LINE
  5
57
330
25
100
AcDbEntity
  8
1
  6
Continuous
 62
     7
100
AcDbLine
 10
817.5625773480525
 20
222.8701824975618
 30
0.0
 11
817.1295773480526
 21
222.8701824975618
 31
0.0
  0
LINE
  5
56
330
25
100
AcDbEntity
  8
1
  6
Continuous
 62
     7
100
AcDbLine
 10
814.1625773480527
 20
95.85565263342562
 30
0.0
 11
814.5225773480527
 21
97.65565263342564
 31
0.0
  0
LINE
  5
55
330
25
100
AcDbEntity
  8
1
  6
Continuous
 62
     7
100
AcDbLine
 10
812.3625773480524
 20
95.49565263342564
 30
0.0
 11
814.1625773480527
 21
95.85565263342562
 31
0.0
  0
LINE
  5
54
330
25
100
AcDbEntity
  8
1
  6
Continuous
 62
     7
100
AcDbLine
 10
812.3625773480524
 20
94.41565263342562
 30
0.0
 11
812.3625773480524
 21
95.49565263342564
 31
0.0
  0
LINE
  5
53
330
25
100
AcDbEntity
  8
1
  6
Continuous
 62
     7
100
AcDbLine
 10
814.1625773480527
 20
94.0556526334257
 30
0.0
 11
812.3625773480524
 21
94.41565263342562
 31
0.0
  0
LINE
  5
52
330
25
100
AcDbEntity
  8
1
  6
Continuous
 62
     7
100
AcDbLine
 10
814.5225773480527
 20
92.25565263342565
 30
0.0
 11
814.1625773480527
 21
94.0556526334257
 31
0.0
  0
LINE
  5
51
330
25
100
AcDbEntity
  8
1
  6
Continuous
 62
     7
100
AcDbLine
 10
815.6025773480527
 20
92.25565263342565
 30
0.0
 11
814.5225773480527
 21
92.25565263342565
 31
0.0
  0
LINE
  5
50
330
25
100
AcDbEntity
  8
1
  6
Continuous
 62
     7
100
AcDbLine
 10
815.9625773480527
 20
94.0556526334257
 30
0.0
 11
815.6025773480527
 21
92.25565263342565
 31
0.0
  0
LINE
  5
4F
330
25
100
AcDbEntity
  8
1
  6
Continuous
 62
     7
100
AcDbLine
 10
817.7625773480526
 20
94.41565263342562
 30
0.0
 11
815.9625773480527
 21
94.0556526334257
 31
0.0
  0
LINE
  5
4E
330
25
100
AcDbEntity
  8
1
  6
Continuous
 62
     7
100
AcDbLine
 10
817.7625773480526
 20
95.49565263342564
 30
0.0
 11
817.7625773480526
 21
94.41565263342562
 31
0.0
  0
LINE
  5
4D
330
25
100
AcDbEntity
  8
1
  6
Continuous
 62
     7
100
AcDbLine
 10
815.9625773480527
 20
95.85565263342562
 30
0.0
 11
817.7625773480526
 21
95.49565263342564
 31
0.0
  0
LINE
  5
4C
330
25
100
AcDbEntity
  8
1
  6
Continuous
 62
     7
100
AcDbLine
 10
815.6025773480527
 20
97.65565263342564
 30
0.0
 11
815.9625773480527
 21
95.85565263342562
 31
0.0
  0
LINE
  5
4B
330
25
100
AcDbEntity
  8
1
  6
Continuous
 62
     7
100
AcDbLine
 10
814.5225773480527
 20
97.65565263342564
 30
0.0
 11
815.6025773480527
 21
97.65565263342564
 31
0.0
  0
ENDBLK
  5
74
330
25
100
AcDbEntity
  8
0
100
AcDbBlockEnd
  0
BLOCK
  5
28
330
27
100
AcDbEntity
  8
0
100
AcDbBlockBegin
  2
_______T______________5X25
 70
     0
 10
742.836202647766
 20
332.972066358469
 30
0.0
  3
_______T______________5X25
  1

  0
INSERT
  5
29
330
27
100
AcDbEntity
  8
1
100
AcDbBlockReference
  2
_______T__________M___5X12
 10
760.9161389383231
 20
90.10565263342561
 30
0.0
  0
ENDBLK
  5
75
330
27
100
AcDbEntity
  8
0
100
AcDbBlockEnd
  0
BLOCK
  5
2B
330
2A
100
AcDbEntity
  8
0
100
AcDbBlockBegin
  2
_______T______________3X14
 70
     0
 10
720.862550540367
 20
71.45565263342567
 30
0.0
  3
_______T______________3X14
  1

  0
CIRCLE
  5
AC
330
2A
100
AcDbEntity
  8
1
  6
Continuous
 62
     7
100
AcDbCircle
 10
786.0625773480526
 20
74.95565263342564
 30
0.0
 40
2.79999999999995
  0
CIRCLE
  5
AB
330
2A
100
AcDbEntity
  8
1
  6
Continuous
 62
     7
100
AcDbCircle
 10
786.0625773480526
 20
114.9556526334256
 30
0.0
 40
2.79999999999995
  0
ARC
  5
AA
330
2A
100
AcDbEntity
  8
1
  6
Continuous
 62
     7
100
AcDbCircle
 10
923.9313638386681
 20
199.5914590933065
 30
0.0
 40
4.99999999999999
100
AcDbArc
 50
-84.2608295227332
 51
-58.59201583339939
  0
ARC
  5
A9
330
2A
100
AcDbEntity
  8
1
  6
Continuous
 62
     7
100
AcDbCircle
 10
786.0625773480526
 20
199.5914590933065
 30
0.0
 40
4.99999999999999
100
AcDbArc
 50
-84.2608295227332
 51
-55.94420225743261
  0
ARC
  5
A8
330
2A
100
AcDbEntity
  8
1
  6
Continuous
 62
     7
100
AcDbCircle
 10
963.9313638386679
 20
199.5914590933065
 30
0.0
 40
5.000000000000009
100
AcDbArc
 50
-121.4079841666006
 51
-95.73917047726679
  0
ARC
  5
A7
330
2A
100
AcDbEntity
  8
1
  6
Continuous
 62
     7
100
AcDbCircle
 10
963.9313638386679
 20
199.5914590933065
 30
0.0
 40
4.99999999999999
100
AcDbArc
 50
-84.2608295227332
 51
-55.94420225743261
  0
ARC
  5
A6
330
2A
100
AcDbEntity
  8
1
  6
Continuous
 62
     7
100
AcDbCircle
 10
923.9313638386681
 20
199.5914590933065
 30
0.0
 40
4.99999999999998
100
AcDbArc
 50
-124.0557977425674
 51
-95.73917047726679
  0
ARC
  5
A5
330
2A
100
AcDbEntity
  8
1
  6
Continuous
 62
     7
100
AcDbCircle
 10
786.0625773480526
 20
199.5914590933065
 30
0.0
 40
4.99999999999998
100
AcDbArc
 50
-124.0557977425674
 51
-95.73917047726679
  0
LINE
  5
A4
330
2A
100
AcDbEntity
  8
1
  6
Continuous
 62
     7
100
AcDbLine
 10
921.131363838668
 20
196.5091514009988
 30
0.0
 11
921.131363838668
 21
195.4489960578649
 31
0.0
  0
LINE
  5
A3
330
2A
100
AcDbEntity
  8
1
  6
Continuous
 62
     7
100
AcDbLine
 10
784.8330773480527
 20
203.9914590933065
 30
0.0
 11
784.8330773480527
 21
204.9914590933065
 31
0.0
  0
LINE
  5
A2
330
2A
100
AcDbEntity
  8
1
  6
Continuous
 62
     7
100
AcDbLine
 10
787.2920773480525
 20
203.9914590933065
 30
0.0
 11
787.2920773480526
 21
204.9914590933065
 31
0.0
  0
LINE
  5
A1
330
2A
100
AcDbEntity
  8
1
  6
Continuous
 62
     7
100
AcDbLine
 10
787.5625773480526
 20
203.9914590933065
 30
0.0
 11
787.5625773480526
 21
204.9914590933065
 31
0.0
  0
LINE
  5
A0
330
2A
100
AcDbEntity
  8
1
  6
Continuous
 62
     7
100
AcDbLine
 10
788.8625773480525
 20
195.4489960578649
 30
0.0
 11
788.8625773480525
 21
196.9914590933065
 31
0.0
  0
LINE
  5
9F
330
2A
100
AcDbEntity
  8
1
  6
Continuous
 62
     7
100
AcDbLine
 10
963.5813638386681
 20
194.9165219077733
 30
0.0
 11
963.431363838668
 21
194.6165219077734
 31
0.0
  0
LINE
  5
9E
330
2A
100
AcDbEntity
  8
1
  6
Continuous
 62
     7
100
AcDbLine
 10
964.281363838668
 20
194.9165219077733
 30
0.0
 11
963.5813638386681
 21
194.9165219077733
 31
0.0
  0
LINE
  5
9D
330
2A
100
AcDbEntity
  8
1
  6
Continuous
 62
     7
100
AcDbLine
 10
964.431363838668
 20
194.6165219077734
 30
0.0
 11
964.281363838668
 21
194.9165219077733
 31
0.0
  0
LINE
  5
9C
330
2A
100
AcDbEntity
  8
1
  6
Continuous
 62
     7
100
AcDbLine
 10
966.731363838668
 20
195.4489960578649
 30
0.0
 11
966.731363838668
 21
196.5091514009988
 31
0.0
  0
LINE
  5
9B
330
2A
100
AcDbEntity
  8
1
  6
Continuous
 62
     7
100
AcDbLine
 10
923.581363838668
 20
194.9165219077733
 30
0.0
 11
923.431363838668
 21
194.6165219077734
 31
0.0
  0
LINE
  5
9A
330
2A
100
AcDbEntity
  8
1
  6
Continuous
 62
     7
100
AcDbLine
 10
924.281363838668
 20
194.9165219077733
 30
0.0
 11
923.581363838668
 21
194.9165219077733
 31
0.0
  0
LINE
  5
99
330
2A
100
AcDbEntity
  8
1
  6
Continuous
 62
     7
100
AcDbLine
 10
924.431363838668
 20
194.6165219077734
 30
0.0
 11
924.281363838668
 21
194.9165219077733
 31
0.0
  0
LINE
  5
98
330
2A
100
AcDbEntity
  8
1
  6
Continuous
 62
     7
100
AcDbLine
 10
785.7125773480527
 20
194.9165219077733
 30
0.0
 11
785.5625773480526
 21
194.6165219077734
 31
0.0
  0
LINE
  5
97
330
2A
100
AcDbEntity
  8
1
  6
Continuous
 62
     7
100
AcDbLine
 10
786.4125773480526
 20
194.9165219077733
 30
0.0
 11
785.7125773480527
 21
194.9165219077733
 31
0.0
  0
LINE
  5
96
330
2A
100
AcDbEntity
  8
1
  6
Continuous
 62
     7
100
AcDbLine
 10
786.5625773480526
 20
194.6165219077734
 30
0.0
 11
786.4125773480526
 21
194.9165219077733
 31
0.0
  0
LINE
  5
95
330
2A
100
AcDbEntity
  8
1
  6
Continuous
 62
     7
100
AcDbLine
 10
783.2625773480526
 20
196.9914590933065
 30
0.0
 11
783.2625773480526
 21
195.4489960578649
 31
0.0
  0
LINE
  5
94
330
2A
100
AcDbEntity
  8
1
  6
Continuous
 62
     7
100
AcDbLine
 10
788.8625773480525
 20
196.9914590933065
 30
0.0
 11
783.2625773480526
 21
196.9914590933065
 31
0.0
  0
LINE
  5
93
330
2A
100
AcDbEntity
  8
1
  6
Continuous
 62
     7
100
AcDbLine
 10
784.5625773480526
 20
204.9914590933065
 30
0.0
 11
784.5625773480526
 21
203.9914590933065
 31
0.0
  0
LINE
  5
92
330
2A
100
AcDbEntity
  8
1
  6
Continuous
 62
     7
100
AcDbLine
 10
787.5625773480526
 20
204.9914590933065
 30
0.0
 11
784.5625773480526
 21
204.9914590933065
 31
0.0
  0
LINE
  5
91
330
2A
100
AcDbEntity
  8
1
  6
DOT_CENTER
 62
     2
100
AcDbLine
 10
786.0625773480526
 20
78.45565263342567
 30
0.0
 11
786.0625773480526
 21
71.45565263342567
 31
0.0
  0
LINE
  5
90
330
2A
100
AcDbEntity
  8
1
  6
DOT_CENTER
 62
     2
100
AcDbLine
 10
782.5625773480526
 20
74.95565263342567
 30
0.0
 11
789.5625773480526
 21
74.95565263342567
 31
0.0
  0
LINE
  5
8F
330
2A
100
AcDbEntity
  8
1
  6
Continuous
 62
     7
100
AcDbLine
 10
785.5625773480526
 20
75.45565263342564
 30
0.0
 11
785.7625773480527
 21
76.45565263342565
 31
0.0
  0
LINE
  5
8E
330
2A
100
AcDbEntity
  8
1
  6
Continuous
 62
     7
100
AcDbLine
 10
784.5625773480526
 20
75.25565263342565
 30
0.0
 11
785.5625773480526
 21
75.45565263342564
 31
0.0
  0
LINE
  5
8D
330
2A
100
AcDbEntity
  8
1
  6
Continuous
 62
     7
100
AcDbLine
 10
784.5625773480526
 20
74.65565263342563
 30
0.0
 11
784.5625773480526
 21
75.25565263342565
 31
0.0
  0
LINE
  5
8C
330
2A
100
AcDbEntity
  8
1
  6
Continuous
 62
     7
100
AcDbLine
 10
785.5625773480526
 20
74.45565263342564
 30
0.0
 11
784.5625773480526
 21
74.65565263342563
 31
0.0
  0
LINE
  5
8B
330
2A
100
AcDbEntity
  8
1
  6
Continuous
 62
     7
100
AcDbLine
 10
785.7625773480527
 20
73.45565263342564
 30
0.0
 11
785.5625773480526
 21
74.45565263342564
 31
0.0
  0
LINE
  5
8A
330
2A
100
AcDbEntity
  8
1
  6
Continuous
 62
     7
100
AcDbLine
 10
786.3625773480524
 20
73.45565263342564
 30
0.0
 11
785.7625773480527
 21
73.45565263342564
 31
0.0
  0
LINE
  5
89
330
2A
100
AcDbEntity
  8
1
  6
Continuous
 62
     7
100
AcDbLine
 10
786.5625773480526
 20
74.45565263342564
 30
0.0
 11
786.3625773480524
 21
73.45565263342564
 31
0.0
  0
LINE
  5
88
330
2A
100
AcDbEntity
  8
1
  6
Continuous
 62
     7
100
AcDbLine
 10
787.5625773480526
 20
74.65565263342563
 30
0.0
 11
786.5625773480526
 21
74.45565263342564
 31
0.0
  0
LINE
  5
87
330
2A
100
AcDbEntity
  8
1
  6
Continuous
 62
     7
100
AcDbLine
 10
787.5625773480526
 20
75.25565263342565
 30
0.0
 11
787.5625773480526
 21
74.65565263342563
 31
0.0
  0
LINE
  5
86
330
2A
100
AcDbEntity
  8
1
  6
Continuous
 62
     7
100
AcDbLine
 10
786.5625773480526
 20
75.45565263342564
 30
0.0
 11
787.5625773480526
 21
75.25565263342565
 31
0.0
  0
LINE
  5
85
330
2A
100
AcDbEntity
  8
1
  6
Continuous
 62
     7
100
AcDbLine
 10
786.3625773480524
 20
76.45565263342565
 30
0.0
 11
786.5625773480526
 21
75.45565263342564
 31
0.0
  0
LINE
  5
84
330
2A
100
AcDbEntity
  8
1
  6
Continuous
 62
     7
100
AcDbLine
 10
785.7625773480527
 20
76.45565263342565
 30
0.0
 11
786.3625773480524
 21
76.45565263342565
 31
0.0
  0
LINE
  5
83
330
2A
100
AcDbEntity
  8
1
  6
DOT_CENTER
 62
     2
100
AcDbLine
 10
782.5625773480526
 20
114.9556526334256
 30
0.0
 11
789.5625773480526
 21
114.9556526334256
 31
0.0
  0
LINE
  5
82
330
2A
100
AcDbEntity
  8
1
  6
DOT_CENTER
 62
     2
100
AcDbLine
 10
786.0625773480526
 20
118.4556526334256
 30
0.0
 11
786.0625773480526
 21
111.4556526334256
 31
0.0
  0
LINE
  5
81
330
2A
100
AcDbEntity
  8
1
  6
Continuous
 62
     7
100
AcDbLine
 10
785.5625773480526
 20
115.4556526334256
 30
0.0
 11
785.7625773480527
 21
116.4556526334256
 31
0.0
  0
LINE
  5
80
330
2A
100
AcDbEntity
  8
1
  6
Continuous
 62
     7
100
AcDbLine
 10
784.5625773480526
 20
115.2556526334257
 30
0.0
 11
785.5625773480526
 21
115.4556526334256
 31
0.0
  0
LINE
  5
7F
330
2A
100
AcDbEntity
  8
1
  6
Continuous
 62
     7
100
AcDbLine
 10
784.5625773480526
 20
114.6556526334256
 30
0.0
 11
784.5625773480526
 21
115.2556526334257
 31
0.0
  0
LINE
  5
7E
330
2A
100
AcDbEntity
  8
1
  6
Continuous
 62
     7
100
AcDbLine
 10
785.5625773480526
 20
114.4556526334256
 30
0.0
 11
784.5625773480526
 21
114.6556526334256
 31
0.0
  0
LINE
  5
7D
330
2A
100
AcDbEntity
  8
1
  6
Continuous
 62
     7
100
AcDbLine
 10
785.7625773480527
 20
113.4556526334256
 30
0.0
 11
785.5625773480526
 21
114.4556526334256
 31
0.0
  0
LINE
  5
7C
330
2A
100
AcDbEntity
  8
1
  6
Continuous
 62
     7
100
AcDbLine
 10
786.3625773480524
 20
113.4556526334256
 30
0.0
 11
785.7625773480527
 21
113.4556526334256
 31
0.0
  0
LINE
  5
7B
330
2A
100
AcDbEntity
  8
1
  6
Continuous
 62
     7
100
AcDbLine
 10
786.5625773480526
 20
114.4556526334256
 30
0.0
 11
786.3625773480524
 21
113.4556526334256
 31
0.0
  0
LINE
  5
7A
330
2A
100
AcDbEntity
  8
1
  6
Continuous
 62
     7
100
AcDbLine
 10
787.5625773480526
 20
114.6556526334256
 30
0.0
 11
786.5625773480526
 21
114.4556526334256
 31
0.0
  0
LINE
  5
79
330
2A
100
AcDbEntity
  8
1
  6
Continuous
 62
     7
100
AcDbLine
 10
787.5625773480526
 20
115.2556526334257
 30
0.0
 11
787.5625773480526
 21
114.6556526334256
 31
0.0
  0
LINE
  5
78
330
2A
100
AcDbEntity
  8
1
  6
Continuous
 62
     7
100
AcDbLine
 10
786.5625773480526
 20
115.4556526334256
 30
0.0
 11
787.5625773480526
 21
115.2556526334257
 31
0.0
  0
LINE
  5
77
330
2A
100
AcDbEntity
  8
1
  6
Continuous
 62
     7
100
AcDbLine
 10
786.3625773480524
 20
116.4556526334256
 30
0.0
 11
786.5625773480526
 21
115.4556526334256
 31
0.0
  0
LINE
  5
76
330
2A
100
AcDbEntity
  8
1
  6
Continuous
 62
     7
100
AcDbLine
 10
785.7625773480527
 20
116.4556526334256
 30
0.0
 11
786.3625773480524
 21
116.4556526334256
 31
0.0
  0
ENDBLK
  5
AD
330
2A
100
AcDbEntity
  8
0
100
AcDbBlockEnd
  0
BLOCK
  5
2D
330
2C
100
AcDbEntity
  8
0
100
AcDbBlockBegin
  2
_______T______________5X14
 70
     0
 10
720.862550540367
 20
71.45565263342567
 30
0.0
  3
_______T______________5X14
  1

  0
INSERT
  5
2E
330
2C
100
AcDbEntity
  8
1
100
AcDbBlockReference
  2
_______T______________3X14
 10
720.862550540367
 20
71.45565263342567
 30
0.0
  0
ENDBLK
  5
AE
330
2C
100
AcDbEntity
  8
0
100
AcDbBlockEnd
  0
BLOCK
  5
30
330
2F
100
AcDbEntity
  8
0
100
AcDbBlockBegin
  2
_______T______________3X26
 70
     0
 10
725.862550540367
 20
332.972066358469
 30
0.0
  3
_______T______________3X26
  1

  0
INSERT
  5
31
330
2F
100
AcDbEntity
  8
1
100
AcDbBlockReference
  2
_______T______________5X14
 10
720.862550540367
 20
71.45565263342567
 30
0.0
  0
ENDBLK
  5
AF
330
2F
100
AcDbEntity
  8
0
100
AcDbBlockEnd
  0
BLOCK
  5
33
330
32
100
AcDbEntity
  8
0
100
AcDbBlockBegin
  2
TOP__1
 70
     0
 10
704.5738987075578
 20
184.342886371966
 30
0.0
  3
TOP__1
  1

  0
INSERT
  5
34
330
32
100
AcDbEntity
  8
1
100
AcDbBlockReference
  2
_______T______________5X25
 10
742.836202647766
 20
332.972066358469
 30
0.0
  0
INSERT
  5
35
330
32
100
AcDbEntity
  8
1
100
AcDbBlockReference
  2
_______T______________3X26
 10
725.862550540367
 20
332.972066358469
 30
0.0
  0
ENDBLK
  5
B0
330
32
100
AcDbEntity
  8
0
100
AcDbBlockEnd
  0
BLOCK
  5
37
330
36
100
AcDbEntity
  8
0
100
AcDbBlockBegin
  2
_3
 70
     0
 10
911.9374226519475
 20
361.2269579819604
 30
0.0
  3
_3
  1

  0
LWPOLYLINE
  5
B8
330
36
100
AcDbEntity
  8
1
  6
Continuous
 62
     7
100
AcDbPolyline
 90
        2
 70
     1
 43
0.0
 10
950.0
 20
135.092203891192
 42
1.0
 10
944.0
 20
135.092203891192
 42
1.0
  0
LWPOLYLINE
  5
B7
330
36
100
AcDbEntity
  8
1
  6
Continuous
 62
     7
100
AcDbPolyline
 90
        2
 70
     1
 43
0.0
 10
948.75
 20
135.092203891192
 42
1.0
 10
945.25
 20
135.092203891192
 42
1.0
  0
LINE
  5
B6
330
36
100
AcDbEntity
  8
1
  6
Continuous
 62
     7
100
AcDbLine
 10
962.0
 20
142.5922038911919
 30
0.0
 11
932.0
 21
142.5922038911919
 31
0.0
  0
LINE
  5
B5
330
36
100
AcDbEntity
  8
1
  6
Continuous
 62
     7
100
AcDbLine
 10
962.0
 20
127.592203891192
 30
0.0
 11
962.0
 21
142.5922038911919
 31
0.0
  0
LINE
  5
B4
330
36
100
AcDbEntity
  8
1
  6
Continuous
 62
     7
100
AcDbLine
 10
932.0
 20
127.592203891192
 30
0.0
 11
962.0
 21
127.592203891192
 31
0.0
  0
LINE
  5
B3
330
36
100
AcDbEntity
  8
1
  6
DOT_CENTER
 62
     2
100
AcDbLine
 10
965.0
 20
135.092203891192
 30
0.0
 11
929.0
 21
135.092203891192
 31
0.0
  0
LINE
  5
B2
330
36
100
AcDbEntity
  8
1
  6
DOT_CENTER
 62
     2
100
AcDbLine
 10
947.0
 20
145.592203891192
 30
0.0
 11
947.0
 21
124.592203891192
 31
0.0
  0
LINE
  5
B1
330
36
100
AcDbEntity
  8
1
  6
Continuous
 62
     7
100
AcDbLine
 10
932.0
 20
142.5922038911919
 30
0.0
 11
932.0
 21
127.592203891192
 31
0.0
  0
ENDBLK
  5
B9
330
36
100
AcDbEntity
  8
0
100
AcDbBlockEnd
  0
BLOCK
  5
39
330
38
100
AcDbEntity
  8
0
100
AcDbBlockBegin
  2
_2
 70
     0
 10
975.1165214935916
 20
359.1476965060303
 30
0.0
  3
_2
  1

  0
ARC
  5
C7
330
38
100
AcDbEntity
  8
1
  6
DOTTED
 62
     7
100
AcDbCircle
 10
815.0625773480525
 20
107.4556526334261
 30
0.0
 40
5.499999999999899
100
AcDbArc
 50
89.99999999999882
 51
180.0
  0
ARC
  5
C6
330
38
100
AcDbEntity
  8
1
  6
DOTTED
 62
     7
100
AcDbCircle
 10
815.0625773480525
 20
82.45565263342568
 30
0.0
 40
5.499999999999888
100
AcDbArc
 50
-90.00000000000119
 51
0.0
  0
ARC
  5
C5
330
38
100
AcDbEntity
  8
1
  6
DOTTED
 62
     7
100
AcDbCircle
 10
815.0625773480525
 20
82.45565263342568
 30
0.0
 40
5.500000000000111
100
AcDbArc
 50
180.0
 51
-90.00000000000119
  0
ARC
  5
C4
330
38
100
AcDbEntity
  8
1
  6
DOTTED
 62
     7
100
AcDbCircle
 10
815.0625773480525
 20
107.4556526334261
 30
0.0
 40
5.500000000000111
100
AcDbArc
 50
0.0
 51
89.99999999999882
  0
LINE
  5
C3
330
38
100
AcDbEntity
  8
1
  6
Continuous
 62
     7
100
AcDbLine
 10
809.5625773480525
 20
222.559787467744
 30
0.0
 11
809.5625773480525
 21
219.659787467744
 31
0.0
  0
LINE
  5
C2
330
38
100
AcDbEntity
  8
1
  6
Continuous
 62
     7
100
AcDbLine
 10
820.5625773480527
 20
219.659787467744
 30
0.0
 11
820.5625773480527
 21
222.559787467744
 31
0.0
  0
LINE
  5
C1
330
38
100
AcDbEntity
  8
1
  6
Continuous
 62
     7
100
AcDbLine
 10
820.5625773480527
 20
222.559787467744
 30
0.0
 11
809.5625773480525
 21
222.559787467744
 31
0.0
  0
LINE
  5
C0
330
38
100
AcDbEntity
  8
1
  6
Continuous
 62
     7
100
AcDbLine
 10
809.5625773480525
 20
219.659787467744
 30
0.0
 11
820.5625773480527
 21
219.659787467744
 31
0.0
  0
LINE
  5
BF
330
38
100
AcDbEntity
  8
1
  6
Continuous
 62
     7
100
AcDbLine
 10
925.931363838668
 20
222.559787467744
 30
0.0
 11
925.931363838668
 21
219.6597874677441
 31
0.0
  0
LINE
  5
BE
330
38
100
AcDbEntity
  8
1
  6
Continuous
 62
     7
100
AcDbLine
 10
961.9313638386685
 20
219.6597874677439
 30
0.0
 11
961.9313638386685
 21
222.559787467744
 31
0.0
  0
LINE
  5
BD
330
38
100
AcDbEntity
  8
1
  6
Continuous
 62
     7
100
AcDbLine
 10
961.9313638386685
 20
222.559787467744
 30
0.0
 11
925.931363838668
 21
222.559787467744
 31
0.0
  0
LINE
  5
BC
330
38
100
AcDbEntity
  8
1
  6
Continuous
 62
     7
100
AcDbLine
 10
925.931363838668
 20
219.6597874677441
 30
0.0
 11
961.9313638386685
 21
219.6597874677439
 31
0.0
  0
LINE
  5
BB
330
38
100
AcDbEntity
  8
1
  6
DOTTED
 62
     7
100
AcDbLine
 10
809.5625773480525
 20
107.4556526334261
 30
0.0
 11
809.5625773480525
 21
82.45565263342568
 31
0.0
  0
LINE
  5
BA
330
38
100
AcDbEntity
  8
1
  6
DOTTED
 62
     7
100
AcDbLine
 10
820.5625773480527
 20
82.45565263342568
 30
0.0
 11
820.5625773480527
 21
107.4556526334261
 31
0.0
  0
ENDBLK
  5
C8
330
38
100
AcDbEntity
  8
0
100
AcDbBlockEnd
  0
BLOCK
  5
3B
330
3A
100
AcDbEntity
  8
0
100
AcDbBlockBegin
  2
_1
 70
     0
 10
929.9374226519471
 20
433.9914590933065
 30
0.0
  3
_1
  1

  0
ARC
  5
109
330
3A
100
AcDbEntity
  8
1
  6
Continuous
 62
     7
100
AcDbCircle
 10
825.0625773480527
 20
117.9556526334256
 30
0.0
 40
2.0
100
AcDbArc
 50
0.0
 51
90.0
  0
ARC
  5
108
330
3A
100
AcDbEntity
  8
1
  6
Continuous
 62
     7
100
AcDbCircle
 10
825.0625773480527
 20
71.95565263342567
 30
0.0
 40
2.0
100
AcDbArc
 50
-90.0
 51
0.0
  0
ARC
  5
107
330
3A
100
AcDbEntity
  8
1
  6
Continuous
 62
     7
100
AcDbCircle
 10
774.5625773480526
 20
74.95565263342567
 30
0.0
 40
5.0
100
AcDbArc
 50
180.0
 51
-90.0
  0
ARC
  5
106
330
3A
100
AcDbEntity
  8
1
  6
Continuous
 62
     7
100
AcDbCircle
 10
774.5625773480526
 20
114.9556526334256
 30
0.0
 40
5.0
100
AcDbArc
 50
90.0
 51
180.0
  0
ARC
  5
105
330
3A
100
AcDbEntity
  8
1
  6
Continuous
 62
     7
100
AcDbCircle
 10
796.5625773480526
 20
210.9914590933065
 30
0.0
 40
2.0
100
AcDbArc
 50
90.0
 51
180.0
  0
ARC
  5
104
330
3A
100
AcDbEntity
  8
1
  6
Continuous
 62
     7
100
AcDbCircle
 10
794.5625773480523
 20
203.9914590933065
 30
0.0
 40
2.0
100
AcDbArc
 50
-90.0
 51
0.0
  0
ARC
  5
103
330
3A
100
AcDbEntity
  8
1
  6
Continuous
 62
     7
100
AcDbCircle
 10
819.5625773480525
 20
217.9914590933065
 30
0.0
 40
1.0
100
AcDbArc
 50
0.0
 51
90.0
  0
ARC
  5
102
330
3A
100
AcDbEntity
  8
1
  6
Continuous
 62
     7
100
AcDbCircle
 10
810.5625773480525
 20
217.9914590933065
 30
0.0
 40
1.0
100
AcDbArc
 50
90.0
 51
180.0
  0
LINE
  5
101
330
3A
100
AcDbEntity
  8
1
  6
Continuous
 62
     7
100
AcDbLine
 10
820.5625773480523
 20
210.9914590933065
 30
0.0
 11
809.5625773480525
 21
210.9914590933065
 31
0.0
  0
LINE
  5
100
330
3A
100
AcDbEntity
  8
1
  6
Continuous
 62
     7
100
AcDbLine
 10
809.5625773480525
 20
210.9914590933065
 30
0.0
 11
796.5625773480526
 21
210.9914590933065
 31
0.0
  0
LINE
  5
FF
330
3A
100
AcDbEntity
  8
1
  6
Continuous
 62
     7
100
AcDbLine
 10
796.5625773480526
 20
69.95565263342567
 30
0.0
 11
807.5625773480526
 21
69.95565263342567
 31
0.0
  0
LINE
  5
FE
330
3A
100
AcDbEntity
  8
1
  6
DOT_CENTER
 62
     2
100
AcDbLine
 10
786.0625773480526
 20
207.9914590933065
 30
0.0
 11
786.0625773480526
 21
192.9914590933065
 31
0.0
  0
LINE
  5
FD
330
3A
100
AcDbEntity
  8
1
  6
Continuous
 62
     7
100
AcDbLine
 10
820.5625773480527
 20
71.95565263342567
 30
0.0
 11
822.5625773480526
 21
71.95565263342567
 31
0.0
  0
LINE
  5
FC
330
3A
100
AcDbEntity
  8
1
  6
Continuous
 62
     7
100
AcDbLine
 10
809.5625773480525
 20
117.9556526334256
 30
0.0
 11
807.5625773480526
 21
117.9556526334256
 31
0.0
  0
LINE
  5
FB
330
3A
100
AcDbEntity
  8
1
  6
DOT_CENTER
 62
     2
100
AcDbLine
 10
943.931363838668
 20
225.8701824975618
 30
0.0
 11
943.931363838668
 21
187.4914590933065
 31
0.0
  0
LINE
  5
FA
330
3A
100
AcDbEntity
  8
1
  6
Continuous
 62
     7
100
AcDbLine
 10
949.8597909634142
 20
212.9914590933065
 30
0.0
 11
948.0955774010412
 21
214.7556726556796
 31
0.0
  0
LINE
  5
F9
330
3A
100
AcDbEntity
  8
1
  6
Continuous
 62
     7
100
AcDbLine
 10
948.0955774010412
 20
214.7556726556796
 30
0.0
 11
939.7671502762946
 21
214.7556726556796
 31
0.0
  0
LINE
  5
F8
330
3A
100
AcDbEntity
  8
1
  6
Continuous
 62
     7
100
AcDbLine
 10
939.7671502762946
 20
214.7556726556796
 30
0.0
 11
938.0029367139218
 21
212.9914590933065
 31
0.0
  0
LINE
  5
F7
330
3A
100
AcDbEntity
  8
1
  6
Continuous
 62
     7
100
AcDbLine
 10
968.931363838668
 20
210.9914590933065
 30
0.0
 11
918.931363838668
 21
210.9914590933065
 31
0.0
  0
LINE
  5
F6
330
3A
100
AcDbEntity
  8
1
  6
Continuous
 62
     7
100
AcDbLine
 10
920.931363838668
 20
218.9914590933065
 30
0.0
 11
920.931363838668
 21
212.9914590933065
 31
0.0
  0
LINE
  5
F5
330
3A
100
AcDbEntity
  8
1
  6
Continuous
 62
     7
100
AcDbLine
 10
966.9313638386681
 20
212.9914590933065
 30
0.0
 11
966.9313638386681
 21
218.9914590933065
 31
0.0
  0
LINE
  5
F4
330
3A
100
AcDbEntity
  8
1
  6
Continuous
 62
     7
100
AcDbLine
 10
920.931363838668
 20
218.9914590933065
 30
0.0
 11
918.931363838668
 21
218.9914590933065
 31
0.0
  0
LINE
  5
F3
330
3A
100
AcDbEntity
  8
1
  6
Continuous
 62
     7
100
AcDbLine
 10
968.931363838668
 20
218.9914590933065
 30
0.0
 11
966.9313638386681
 21
218.9914590933065
 31
0.0
  0
LINE
  5
F2
330
3A
100
AcDbEntity
  8
1
  6
Continuous
 62
     7
100
AcDbLine
 10
918.931363838668
 20
212.9914590933065
 30
0.0
 11
968.931363838668
 21
212.9914590933065
 31
0.0
  0
LINE
  5
F1
330
3A
100
AcDbEntity
  8
1
  6
Continuous
 62
     7
100
AcDbLine
 10
918.931363838668
 20
218.9914590933065
 30
0.0
 11
918.931363838668
 21
201.9914590933065
 31
0.0
  0
LINE
  5
F0
330
3A
100
AcDbEntity
  8
1
  6
Continuous
 62
     7
100
AcDbLine
 10
968.931363838668
 20
201.9914590933065
 30
0.0
 11
968.931363838668
 21
218.9914590933065
 31
0.0
  0
LINE
  5
EF
330
3A
100
AcDbEntity
  8
1
  6
Continuous
 62
     7
100
AcDbLine
 10
918.931363838668
 20
201.9914590933065
 30
0.0
 11
968.931363838668
 21
201.9914590933065
 31
0.0
  0
LINE
  5
EE
330
3A
100
AcDbEntity
  8
1
  6
Continuous
 62
     7
100
AcDbLine
 10
769.5625773480526
 20
114.9556526334256
 30
0.0
 11
769.5625773480526
 21
74.95565263342567
 31
0.0
  0
LINE
  5
ED
330
3A
100
AcDbEntity
  8
1
  6
Continuous
 62
     7
100
AcDbLine
 10
822.5625773480524
 20
69.95565263342567
 30
0.0
 11
825.0625773480527
 21
69.95565263342567
 31
0.0
  0
LINE
  5
EC
330
3A
100
AcDbEntity
  8
1
  6
Continuous
 62
     7
100
AcDbLine
 10
809.5625773480525
 20
69.95565263342567
 30
0.0
 11
820.5625773480523
 21
69.95565263342567
 31
0.0
  0
LINE
  5
EB
330
3A
100
AcDbEntity
  8
1
  6
Continuous
 62
     7
100
AcDbLine
 10
820.5625773480523
 20
119.9556526334256
 30
0.0
 11
809.5625773480525
 21
119.9556526334256
 31
0.0
  0
LINE
  5
EA
330
3A
100
AcDbEntity
  8
1
  6
Continuous
 62
     7
100
AcDbLine
 10
825.0625773480527
 20
119.9556526334256
 30
0.0
 11
822.5625773480524
 21
119.9556526334256
 31
0.0
  0
LINE
  5
E9
330
3A
100
AcDbEntity
  8
1
  6
Continuous
 62
     7
100
AcDbLine
 10
827.0625773480526
 20
117.9556526334256
 30
0.0
 11
827.0625773480526
 21
71.95565263342567
 31
0.0
  0
LINE
  5
E8
330
3A
100
AcDbEntity
  8
1
  6
Continuous
 62
     7
100
AcDbLine
 10
822.5625773480526
 20
117.9556526334256
 30
0.0
 11
822.5625773480524
 21
119.9556526334256
 31
0.0
  0
LINE
  5
E7
330
3A
100
AcDbEntity
  8
1
  6
Continuous
 62
     7
100
AcDbLine
 10
820.5625773480523
 20
119.9556526334256
 30
0.0
 11
820.5625773480527
 21
117.9556526334256
 31
0.0
  0
LINE
  5
E6
330
3A
100
AcDbEntity
  8
1
  6
Continuous
 62
     7
100
AcDbLine
 10
809.5625773480525
 20
117.9556526334256
 30
0.0
 11
809.5625773480525
 21
119.9556526334256
 31
0.0
  0
LINE
  5
E5
330
3A
100
AcDbEntity
  8
1
  6
Continuous
 62
     7
100
AcDbLine
 10
807.5625773480526
 20
119.9556526334256
 30
0.0
 11
807.5625773480526
 21
117.9556526334256
 31
0.0
  0
LINE
  5
E4
330
3A
100
AcDbEntity
  8
1
  6
Continuous
 62
     7
100
AcDbLine
 10
807.5625773480526
 20
71.95565263342567
 30
0.0
 11
807.5625773480526
 21
69.95565263342567
 31
0.0
  0
LINE
  5
E3
330
3A
100
AcDbEntity
  8
1
  6
Continuous
 62
     7
100
AcDbLine
 10
809.5625773480525
 20
69.95565263342567
 30
0.0
 11
809.5625773480525
 21
71.95565263342567
 31
0.0
  0
LINE
  5
E2
330
3A
100
AcDbEntity
  8
1
  6
Continuous
 62
     7
100
AcDbLine
 10
820.5625773480527
 20
71.95565263342567
 30
0.0
 11
820.5625773480523
 21
69.95565263342567
 31
0.0
  0
LINE
  5
E1
330
3A
100
AcDbEntity
  8
1
  6
Continuous
 62
     7
100
AcDbLine
 10
822.5625773480524
 20
69.95565263342567
 30
0.0
 11
822.5625773480526
 21
71.95565263342567
 31
0.0
  0
LINE
  5
E0
330
3A
100
AcDbEntity
  8
1
  6
Continuous
 62
     7
100
AcDbLine
 10
807.5625773480526
 20
71.95565263342567
 30
0.0
 11
809.5625773480525
 21
71.95565263342567
 31
0.0
  0
LINE
  5
DF
330
3A
100
AcDbEntity
  8
1
  6
Continuous
 62
     7
100
AcDbLine
 10
822.5625773480526
 20
117.9556526334256
 30
0.0
 11
820.5625773480527
 21
117.9556526334256
 31
0.0
  0
LINE
  5
DE
330
3A
100
AcDbEntity
  8
1
  6
DOT_CENTER
 62
     2
100
AcDbLine
 10
766.5625773480526
 20
94.95565263342564
 30
0.0
 11
830.0625773480525
 21
94.95565263342564
 31
0.0
  0
LINE
  5
DD
330
3A
100
AcDbEntity
  8
1
  6
Continuous
 62
     7
100
AcDbLine
 10
796.5625773480526
 20
119.9556526334256
 30
0.0
 11
796.5625773480526
 21
69.95565263342567
 31
0.0
  0
LINE
  5
DC
330
3A
100
AcDbEntity
  8
1
  6
Continuous
 62
     7
100
AcDbLine
 10
774.5625773480526
 20
69.95565263342567
 30
0.0
 11
796.5625773480526
 21
69.95565263342567
 31
0.0
  0
LINE
  5
DB
330
3A
100
AcDbEntity
  8
1
  6
Continuous
 62
     7
100
AcDbLine
 10
807.5625773480526
 20
119.9556526334256
 30
0.0
 11
774.5625773480526
 21
119.9556526334256
 31
0.0
  0
LINE
  5
DA
330
3A
100
AcDbEntity
  8
1
  6
Continuous
 62
     7
100
AcDbLine
 10
827.0625773480526
 20
210.9914590933065
 30
0.0
 11
827.0625773480526
 21
212.9914590933065
 31
0.0
  0
LINE
  5
D9
330
3A
100
AcDbEntity
  8
1
  6
Continuous
 62
     7
100
AcDbLine
 10
822.5625773480524
 20
212.9914590933065
 30
0.0
 11
822.5625773480524
 21
210.9914590933065
 31
0.0
  0
LINE
  5
D8
330
3A
100
AcDbEntity
  8
1
  6
Continuous
 62
     7
100
AcDbLine
 10
807.5625773480526
 20
210.9914590933065
 30
0.0
 11
807.5625773480526
 21
212.9914590933065
 31
0.0
  0
LINE
  5
D7
330
3A
100
AcDbEntity
  8
1
  6
Continuous
 62
     7
100
AcDbLine
 10
769.5625773480526
 20
203.9914590933065
 30
0.0
 11
769.5625773480526
 21
201.9914590933065
 31
0.0
  0
LINE
  5
D6
330
3A
100
AcDbEntity
  8
1
  6
Continuous
 62
     7
100
AcDbLine
 10
796.5625773480526
 20
203.9914590933065
 30
0.0
 11
796.5625773480526
 21
210.9914590933065
 31
0.0
  0
LINE
  5
D5
330
3A
100
AcDbEntity
  8
1
  6
Continuous
 62
     7
100
AcDbLine
 10
794.5625773480523
 20
203.9914590933065
 30
0.0
 11
794.5625773480523
 21
210.9914590933065
 31
0.0
  0
LINE
  5
D4
330
3A
100
AcDbEntity
  8
1
  6
Continuous
 62
     7
100
AcDbLine
 10
827.0625773480526
 20
210.9914590933065
 30
0.0
 11
820.5625773480523
 21
210.9914590933065
 31
0.0
  0
LINE
  5
D3
330
3A
100
AcDbEntity
  8
1
  6
Continuous
 62
     7
100
AcDbLine
 10
809.5625773480525
 20
213.4198862180527
 30
0.0
 11
809.1341502233063
 21
212.9914590933065
 31
0.0
  0
LINE
  5
D2
330
3A
100
AcDbEntity
  8
1
  6
Continuous
 62
     7
100
AcDbLine
 10
820.9910044727987
 20
212.9914590933065
 30
0.0
 11
820.5625773480527
 21
213.4198862180527
 31
0.0
  0
LINE
  5
D1
330
3A
100
AcDbEntity
  8
1
  6
Continuous
 62
     7
100
AcDbLine
 10
827.0625773480526
 20
212.9914590933065
 30
0.0
 11
820.5625773480523
 21
212.9914590933065
 31
0.0
  0
LINE
  5
D0
330
3A
100
AcDbEntity
  8
1
  6
Continuous
 62
     7
100
AcDbLine
 10
820.5625773480523
 20
210.9914590933065
 30
0.0
 11
820.5625773480527
 21
217.9914590933065
 31
0.0
  0
LINE
  5
CF
330
3A
100
AcDbEntity
  8
1
  6
Continuous
 62
     7
100
AcDbLine
 10
809.5625773480525
 20
210.9914590933065
 30
0.0
 11
809.5625773480525
 21
217.9914590933065
 31
0.0
  0
LINE
  5
CE
330
3A
100
AcDbEntity
  8
1
  6
Continuous
 62
     7
100
AcDbLine
 10
809.5625773480525
 20
212.9914590933065
 30
0.0
 11
796.5625773480526
 21
212.9914590933065
 31
0.0
  0
LINE
  5
CD
330
3A
100
AcDbEntity
  8
1
  6
Continuous
 62
     7
100
AcDbLine
 10
819.5625773480525
 20
218.9914590933065
 30
0.0
 11
810.5625773480525
 21
218.9914590933065
 31
0.0
  0
LINE
  5
CC
330
3A
100
AcDbEntity
  8
1
  6
DOT_CENTER
 62
     2
100
AcDbLine
 10
815.0625773480525
 20
102.8840797581719
 30
0.0
 11
815.0625773480525
 21
87.02722550867942
 31
0.0
  0
LINE
  5
CB
330
3A
100
AcDbEntity
  8
1
  6
DOT_CENTER
 62
     2
100
AcDbLine
 10
815.0625773480525
 20
225.8701824975618
 30
0.0
 11
815.0625773480525
 21
207.9914590933065
 31
0.0
  0
LINE
  5
CA
330
3A
100
AcDbEntity
  8
1
  6
Continuous
 62
     7
100
AcDbLine
 10
769.5625773480526
 20
203.9914590933065
 30
0.0
 11
794.5625773480523
 21
203.9914590933065
 31
0.0
  0
LINE
  5
C9
330
3A
100
AcDbEntity
  8
1
  6
Continuous
 62
     7
100
AcDbLine
 10
794.5625773480523
 20
201.9914590933065
 30
0.0
 11
769.5625773480526
 21
201.9914590933065
 31
0.0
  0
ENDBLK
  5
10A
330
3A
100
AcDbEntity
  8
0
100
AcDbBlockEnd
  0
BLOCK
  5
3D
330
3C
100
AcDbEntity
  8
0
100
AcDbBlockBegin
  2
______
 70
     0
 10
755.0768948146622
 20
-125.607643959568
 30
0.0
  3
______
  1

  0
MTEXT
  5
253
330
3C
100
AcDbEntity
  8
1
 62
     3
100
AcDbMText
 10
570.6569311056039
 20
125.7639006069079
 30
0.0
 40
3.5
 41
0.0
 71
     5
 72
     1
  1
98.11.24.
  7
CONVERTER_1
 73
     1
 44
1.0
1001
ACAD
1000
MTEXTBEGIN
1070
    73
1070
     1
1070
    44
1040
1.0
1070
    74
1070
     0
1000
MTEXTEND
  0
MTEXT
  5
252
330
3C
100
AcDbEntity
  8
1
 62
     3
100
AcDbMText
 10
590.656931105604
 20
125.7639006069079
 30
0.0
 40
3.5
 41
0.0
 71
     5
 72
     1
  1
98.11.24.
  7
CONVERTER_1
 73
     1
 44
1.0
1001
ACAD
1000
MTEXTBEGIN
1070
    73
1070
     1
1070
    44
1040
1.0
1070
    74
1070
     0
1000
MTEXTEND
  0
MTEXT
  5
251
330
3C
100
AcDbEntity
  8
1
 62
     3
100
AcDbMText
 10
610.6569311056041
 20
125.7639006069079
 30
0.0
 40
3.5
 41
0.0
 71
     5
 72
     1
  1
98.11.24.
  7
CONVERTER_1
 73
     1
 44
1.0
1001
ACAD
1000
MTEXTBEGIN
1070
    73
1070
     1
1070
    44
1040
1.0
1070
    74
1070
     0
1000
MTEXTEND
  0
MTEXT
  5
250
330
3C
100
AcDbEntity
  8
1
 62
     3
100
AcDbMText
 10
545.4423771722099
 20
141.180675241334
 30
0.0
 40
6.0
 41
0.0
 71
     5
 72
     1
  1
1 : 1
  7
CONVERTER_1
 73
     1
 44
1.0
1001
ACAD
1000
MTEXTBEGIN
1070
    73
1070
     1
1070
    44
1040
1.0
1070
    74
1070
     0
1000
MTEXTEND
  0
MTEXT
  5
24F
102
{ACAD_XDICTIONARY
360
6A8
102
}
330
3C
100
AcDbEntity
  8
1
 62
     3
100
AcDbMText
 10
570.6569311056039
 20
134.7639006069079
 30
0.0
 40
6.0
 41
0.0
 71
     5
 72
     1
  1
\U+02C6\U+00CF\U+008D\U+00E3
  7
CONVERTER_1
 73
     1
 44
1.0
1001
ACAD
1000
MTEXTBEGIN
1070
    73
1070
     1
1070
    44
1040
1.0
1070
    74
1070
     0
1000
MTEXTEND
  0
MTEXT
  5
24E
102
{ACAD_XDICTIONARY
360
6A6
102
}
330
3C
100
AcDbEntity
  8
1
 62
     3
100
AcDbMText
 10
590.656931105604
 20
134.7639006069079
 30
0.0
 40
6.0
 41
0.0
 71
     5
 72
     1
  1
\U+2019\U+2020\U+201C\U+2021
  7
CONVERTER_1
 73
     1
 44
1.0
1001
ACAD
1000
MTEXTBEGIN
1070
    73
1070
     1
1070
    44
1040
1.0
1070
    74
1070
     0
1000
MTEXTEND
  0
MTEXT
  5
24D
102
{ACAD_XDICTIONARY
360
6A4
102
}
330
3C
100
AcDbEntity
  8
1
 62
     3
100
AcDbMText
 10
610.6569311056041
 20
134.7639006069079
 30
0.0
 40
6.0
 41
0.0
 71
     5
 72
     1
  1
\U+008F\U+008F\U+2022\U+00AB
  7
CONVERTER_1
 73
     1
 44
1.0
1001
ACAD
1000
MTEXTBEGIN
1070
    73
1070
     1
1070
    44
1040
1.0
1070
    74
1070
     0
1000
MTEXTEND
  0
MTEXT
  5
24C
330
3C
100
AcDbEntity
  8
1
 62
     3
100
AcDbMText
 10
630.1569311056042
 20
109.7639006069079
 30
0.0
 40
6.0
 41
0.0
 71
     4
 72
     1
  1
GDFD-HR4-A03
  7
CONVERTER_1
 73
     1
 44
1.0
1001
ACAD
1000
MTEXTBEGIN
1070
    73
1070
     1
1070
    44
1040
1.0
1070
    74
1070
     0
1000
MTEXTEND
  0
MTEXT
  5
24B
102
{ACAD_XDICTIONARY
360
6A2
102
}
330
3C
100
AcDbEntity
  8
1
 62
     3
100
AcDbMText
 10
630.1569311056042
 20
125.7639006069079
 30
0.0
 40
6.0
 41
0.0
 71
     4
 72
     1
  1
\U+2018g%%d\U+00CF\U+0090}
  7
CONVERTER_1
 73
     1
 44
1.0
1001
ACAD
1000
MTEXTBEGIN
1070
    73
1070
     1
1070
    44
1040
1.0
1070
    74
1070
     0
1000
MTEXTEND
  0
MTEXT
  5
24A
102
{ACAD_XDICTIONARY
360
6A0
102
}
330
3C
100
AcDbEntity
  8
1
 62
     3
100
AcDbMText
 10
630.1569311056042
 20
139.7639006069079
 30
0.0
 40
6.0
 41
0.0
 71
     4
 72
     1
  1
HR-350\U+0081i\U+0152\U+00F9\U+201C\U+00B2\U+201A%%c\U+0192}\U+0192O\U+0192l\U+0192b\U+0192g\U+0192L\U+0192\U+0192\U+0192b\U+0192`\U+0081j
  7
CONVERTER_4
 73
     1
 44
1.0
1001
ACAD
1000
MTEXTBEGIN
1070
    73
1070
     1
1070
    44
1040
1.0
1070
    74
1070
     0
1000
MTEXTEND
  0
MTEXT
  5
248
102
{ACAD_XDICTIONARY
360
69E
102
}
330
3C
100
AcDbEntity
  8
1
 62
     4
100
AcDbMText
 10
620.5569311056041
 20
139.7639006069079
 30
0.0
 40
4.0
 41
0.0
 71
     4
 72
     1
  1
\U+2022i\P\U+00B2\U+00A5
  7
CONVERTER_2
 73
     1
 44
1.0
1001
ACAD
1000
MTEXTBEGIN
1070
    73
1070
     1
1070
    44
1040
1.0
1070
    74
1070
     0
1000
MTEXTEND
  0
MTEXT
  5
247
102
{ACAD_XDICTIONARY
360
69C
102
}
330
3C
100
AcDbEntity
  8
1
 62
     4
100
AcDbMText
 10
620.5569311056041
 20
124.7639006069079
 30
0.0
 40
4.0
 41
0.0
 71
     4
 72
     1
  1
\U+0090}\P\U+00B2\U+00A5
  7
CONVERTER_2
 73
     1
 44
1.0
1001
ACAD
1000
MTEXTBEGIN
1070
    73
1070
     1
1070
    44
1040
1.0
1070
    74
1070
     0
1000
MTEXTEND
  0
MTEXT
  5
246
102
{ACAD_XDICTIONARY
360
69A
102
}
330
3C
100
AcDbEntity
  8
1
 62
     4
100
AcDbMText
 10
620.5569311056041
 20
109.7639006069079
 30
0.0
 40
4.0
 41
0.0
 71
     4
 72
     1
  1
\U+0090}\P\U+201D\U+00E5
  7
CONVERTER_2
 73
     1
 44
1.0
1001
ACAD
1000
MTEXTBEGIN
1070
    73
1070
     1
1070
    44
1040
1.0
1070
    74
1070
     0
1000
MTEXTEND
  0
MTEXT
  5
245
102
{ACAD_XDICTIONARY
360
698
102
}
330
3C
100
AcDbEntity
  8
1
 62
     4
100
AcDbMText
 10
535.156931105604
 20
150.763900606908
 30
0.0
 40
4.0
 41
0.0
 71
     5
 72
     1
  1
\U+2022i \U+201D\U+00E5
  7
CONVERTER_2
 73
     1
 44
1.0
1001
ACAD
1000
MTEXTBEGIN
1070
    73
1070
     1
1070
    44
1040
1.0
1070
    74
1070
     0
1000
MTEXTEND
  0
MTEXT
  5
244
102
{ACAD_XDICTIONARY
360
696
102
}
330
3C
100
AcDbEntity
  8
1
 62
     4
100
AcDbMText
 10
567.6569311056039
 20
150.763900606908
 30
0.0
 40
4.0
 41
0.0
 71
     5
 72
     1
  1
\U+2022i        \U+00B2\U+00A5
  7
CONVERTER_2
 73
     1
 44
1.0
1001
ACAD
1000
MTEXTBEGIN
1070
    73
1070
     1
1070
    44
1040
1.0
1070
    74
1070
     0
1000
MTEXTEND
  0
MTEXT
  5
243
102
{ACAD_XDICTIONARY
360
694
102
}
330
3C
100
AcDbEntity
  8
1
 62
     4
100
AcDbMText
 10
607.6569311056041
 20
150.763900606908
 30
0.0
 40
4.0
 41
0.0
 71
     5
 72
     1
  1
\U+008D\U+00DF   \U+017D\U+00A2
  7
CONVERTER_2
 73
     1
 44
1.0
1001
ACAD
1000
MTEXTBEGIN
1070
    73
1070
     1
1070
    44
1040
1.0
1070
    74
1070
     0
1000
MTEXTEND
  0
MTEXT
  5
242
102
{ACAD_XDICTIONARY
360
692
102
}
330
3C
100
AcDbEntity
  8
1
 62
     4
100
AcDbMText
 10
630.1569311056042
 20
150.7639006069079
 30
0.0
 40
4.0
 41
0.0
 71
     5
 72
     1
  1
\U+0090\U+201D %%d%%d
  7
CONVERTER_2
 73
     1
 44
1.0
1001
ACAD
1000
MTEXTBEGIN
1070
    73
1070
     1
1070
    44
1040
1.0
1070
    74
1070
     0
1000
MTEXTEND
  0
MTEXT
  5
241
102
{ACAD_XDICTIONARY
360
690
102
}
330
3C
100
AcDbEntity
  8
1
 62
     4
100
AcDbMText
 10
657.656931105604
 20
150.7639006069079
 30
0.0
 40
4.0
 41
0.0
 71
     5
 72
     1
  1
\U+017Dd   \U+008F\U+00D0   \U+201A\U+00AF
  7
CONVERTER_2
 73
     1
 44
1.0
1001
ACAD
1000
MTEXTBEGIN
1070
    73
1070
     1
1070
    44
1040
1.0
1070
    74
1070
     0
1000
MTEXTEND
  0
MTEXT
  5
240
102
{ACAD_XDICTIONARY
360
68E
102
}
330
3C
100
AcDbEntity
  8
1
 62
     4
100
AcDbMText
 10
692.6569311056039
 20
150.7639006069079
 30
0.0
 40
4.0
 41
0.0
 71
     5
 72
     1
  1
\U+2039L   \U+017D\U+00B2
  7
CONVERTER_2
 73
     1
 44
1.0
1001
ACAD
1000
MTEXTBEGIN
1070
    73
1070
     1
1070
    44
1040
1.0
1070
    74
1070
     0
1000
MTEXTEND
  0
MTEXT
  5
23F
102
{ACAD_XDICTIONARY
360
68C
102
}
330
3C
100
AcDbEntity
  8
1
 62
     4
100
AcDbMText
 10
570.6569311056039
 20
143.7639006069079
 30
0.0
 40
4.0
 41
0.0
 71
     5
 72
     1
  1
\U+008F\U+00B0  \U+201DF
  7
CONVERTER_2
 73
     1
 44
1.0
1001
ACAD
1000
MTEXTBEGIN
1070
    73
1070
     1
1070
    44
1040
1.0
1070
    74
1070
     0
1000
MTEXTEND
  0
MTEXT
  5
23E
102
{ACAD_XDICTIONARY
360
68A
102
}
330
3C
100
AcDbEntity
  8
1
 62
     4
100
AcDbMText
 10
590.6569311056038
 20
143.7639006069079
 30
0.0
 40
4.0
 41
0.0
 71
     5
 72
     1
  1
\U+0152\U+0081  \U+0090}
  7
CONVERTER_2
 73
     1
 44
1.0
1001
ACAD
1000
MTEXTBEGIN
1070
    73
1070
     1
1070
    44
1040
1.0
1070
    74
1070
     0
1000
MTEXTEND
  0
MTEXT
  5
23D
102
{ACAD_XDICTIONARY
360
688
102
}
330
3C
100
AcDbEntity
  8
1
 62
     4
100
AcDbMText
 10
610.6569311056041
 20
143.7639006069079
 30
0.0
 40
4.0
 41
0.0
 71
     5
 72
     1
  1
\U+2019S  \U+201C\U+00B2
  7
CONVERTER_2
 73
     1
 44
1.0
1001
ACAD
1000
MTEXTBEGIN
1070
    73
1070
     1
1070
    44
1040
1.0
1070
    74
1070
     0
1000
MTEXTEND
  0
MTEXT
  5
23C
102
{ACAD_XDICTIONARY
360
686
102
}
330
3C
100
AcDbEntity
  8
1
 62
     4
100
AcDbMText
 10
531.8440026041352
 20
144.7570445834015
 30
0.0
 40
4.0
 41
0.0
 71
     5
 72
     1
  1
\U+017D\U+00D6\U+201Cx
  7
CONVERTER_2
 73
     1
 44
1.0
1001
ACAD
1000
MTEXTBEGIN
1070
    73
1070
     1
1070
    44
1040
1.0
1070
    74
1070
     0
1000
MTEXTEND
  0
MTEXT
  5
23B
102
{ACAD_XDICTIONARY
360
684
102
}
330
3C
100
AcDbEntity
  8
1
 62
     4
100
AcDbMText
 10
544.5818459351942
 20
106.6702708964411
 30
0.0
 40
4.0
 41
0.0
 71
     5
 72
     1
  1
\U+008D\U+201A\U+2039\U+00C7\U+2039\U+00C1\U+2022\U+00B4\U+0160\U+201D\U+017D\U+00DB\U+2030\U+00FF\U+017D\U+00C5
  7
CONVERTER_2
 73
     1
 44
1.0
1001
ACAD
1000
MTEXTBEGIN
1070
    73
1070
     1
1070
    44
1040
1.0
1070
    74
1070
     0
1000
MTEXTEND
  0
MTEXT
  5
23A
102
{ACAD_XDICTIONARY
360
682
102
}
330
3C
100
AcDbEntity
  8
1
 62
     4
100
AcDbMText
 10
572.1466432331969
 20
116.9406962241181
 30
0.0
 40
3.0
 41
0.0
 71
     5
 72
     1
  1
\U+00B2{\U+017D\U+00C5
  7
CONVERTER_2
 73
     1
 44
1.0
1001
ACAD
1000
MTEXTBEGIN
1070
    73
1070
     1
1070
    44
1040
1.0
1070
    74
1070
     0
1000
MTEXTEND
  0
MTEXT
  5
239
102
{ACAD_XDICTIONARY
360
680
102
}
330
3C
100
AcDbEntity
  8
1
 62
     4
100
AcDbMText
 10
592.2927877152347
 20
112.211789744039
 30
0.0
 40
2.5
 41
0.0
 71
     5
 72
     1
  1
\U+201C\U+0152\U+2039\U+20AC\U+201Cs\U+2018\U+00F0\U+201C\U+0152\U+2039\U+00CC\U+201C*\U+2019J
  7
CONVERTER_2
 73
     1
 44
1.0
1001
ACAD
1000
MTEXTBEGIN
1070
    73
1070
     1
1070
    44
1040
1.0
1070
    74
1070
     0
1000
MTEXTEND
  0
MTEXT
  5
238
330
3C
100
AcDbEntity
  8
1
 62
     4
100
AcDbMText
 10
608.5688340334437
 20
112.2302074544742
 30
0.0
 40
2.0
 41
0.0
 71
     5
 72
     1
  1
1-27-4
  7
CONVERTER_2
 73
     1
 44
1.0
1001
ACAD
1000
MTEXTBEGIN
1070
    73
1070
     1
1070
    44
1040
1.0
1070
    74
1070
     0
1000
MTEXTEND
  0
MTEXT
  5
237
330
3C
100
AcDbEntity
  8
1
 62
     4
100
AcDbMText
 10
589.443135792488
 20
107.0529623379796
 30
0.0
 40
2.0
 41
0.0
 71
     5
 72
     1
  1
03 (3876) 0600
  7
CONVERTER_2
 73
     1
 44
1.0
1001
ACAD
1000
MTEXTBEGIN
1070
    73
1070
     1
1070
    44
1040
1.0
1070
    74
1070
     0
1000
MTEXTEND
  0
MTEXT
  5
236
102
{ACAD_XDICTIONARY
360
67E
102
}
330
3C
100
AcDbEntity
  8
1
 62
     4
100
AcDbMText
 10
570.8067199185921
 20
112.1146360442132
 30
0.0
 40
2.5
 41
0.0
 71
     5
 72
     1
  1
\U+0081\U+00CF
  7
CONVERTER_2
 73
     1
 44
1.0
1001
ACAD
1000
MTEXTBEGIN
1070
    73
1070
     1
1070
    44
1040
1.0
1070
    74
1070
     0
1000
MTEXTEND
  0
MTEXT
  5
235
330
3C
100
AcDbEntity
  8
1
 62
     4
100
AcDbMText
 10
573.7777427390668
 20
107.0729003488598
 30
0.0
 40
2.0
 41
0.0
 71
     5
 72
     1
  1
TEL
  7
CONVERTER_3
 73
     1
 44
1.0
1001
ACAD
1000
MTEXTBEGIN
1070
    73
1070
     1
1070
    44
1040
1.0
1070
    74
1070
     0
1000
MTEXTEND
  0
MTEXT
  5
233
330
3C
100
AcDbEntity
  8
1
 62
     4
100
AcDbMText
 10
574.9556409029581
 20
112.1770931296704
 30
0.0
 40
2.0
 41
0.0
 71
     5
 72
     1
  1
110
  7
CONVERTER_2
 73
     1
 44
1.0
1001
ACAD
1000
MTEXTBEGIN
1070
    73
1070
     1
1070
    44
1040
1.0
1070
    74
1070
     0
1000
MTEXTEND
  0
MTEXT
  5
231
330
3C
100
AcDbEntity
  8
1
 62
     3
100
AcDbMText
 10
535.1569311056039
 20
157.763900606908
 30
0.0
 40
3.5
 41
0.0
 71
     5
 72
     1
  1
1
  7
CONVERTER_1
 73
     1
 44
1.0
1001
ACAD
1000
MTEXTBEGIN
1070
    73
1070
     1
1070
    44
1040
1.0
1070
    74
1070
     0
1000
MTEXTEND
  0
MTEXT
  5
230
330
3C
100
AcDbEntity
  8
1
 62
     3
100
AcDbMText
 10
535.1569311056039
 20
164.7639006069078
 30
0.0
 40
3.5
 41
0.0
 71
     5
 72
     1
  1
2
  7
CONVERTER_1
 73
     1
 44
1.0
1001
ACAD
1000
MTEXTBEGIN
1070
    73
1070
     1
1070
    44
1040
1.0
1070
    74
1070
     0
1000
MTEXTEND
  0
MTEXT
  5
22F
330
3C
100
AcDbEntity
  8
1
 62
     3
100
AcDbMText
 10
535.1569311056039
 20
171.7639006069077
 30
0.0
 40
3.5
 41
0.0
 71
     5
 72
     1
  1
3
  7
CONVERTER_1
 73
     1
 44
1.0
1001
ACAD
1000
MTEXTBEGIN
1070
    73
1070
     1
1070
    44
1040
1.0
1070
    74
1070
     0
1000
MTEXTEND
  0
MTEXT
  5
22E
330
3C
100
AcDbEntity
  8
1
 62
     3
100
AcDbMText
 10
535.1569311056039
 20
178.7639006069076
 30
0.0
 40
3.5
 41
0.0
 71
     5
 72
     1
  1
4
  7
CONVERTER_1
 73
     1
 44
1.0
1001
ACAD
1000
MTEXTBEGIN
1070
    73
1070
     1
1070
    44
1040
1.0
1070
    74
1070
     0
1000
MTEXTEND
  0
MTEXT
  5
22D
330
3C
100
AcDbEntity
  8
1
 62
     3
100
AcDbMText
 10
535.1569311056039
 20
185.7639006069075
 30
0.0
 40
3.5
 41
0.0
 71
     5
 72
     1
  1
5
  7
CONVERTER_1
 73
     1
 44
1.0
1001
ACAD
1000
MTEXTBEGIN
1070
    73
1070
     1
1070
    44
1040
1.0
1070
    74
1070
     0
1000
MTEXTEND
  0
MTEXT
  5
22C
330
3C
100
AcDbEntity
  8
1
 62
     3
100
AcDbMText
 10
535.1569311056039
 20
192.7639006069074
 30
0.0
 40
3.5
 41
0.0
 71
     5
 72
     1
  1
6
  7
CONVERTER_1
 73
     1
 44
1.0
1001
ACAD
1000
MTEXTBEGIN
1070
    73
1070
     1
1070
    44
1040
1.0
1070
    74
1070
     0
1000
MTEXTEND
  0
MTEXT
  5
22B
330
3C
100
AcDbEntity
  8
1
 62
     3
100
AcDbMText
 10
535.1569311056039
 20
199.7639006069073
 30
0.0
 40
3.5
 41
0.0
 71
     5
 72
     1
  1
7
  7
CONVERTER_1
 73
     1
 44
1.0
1001
ACAD
1000
MTEXTBEGIN
1070
    73
1070
     1
1070
    44
1040
1.0
1070
    74
1070
     0
1000
MTEXTEND
  0
MTEXT
  5
22A
330
3C
100
AcDbEntity
  8
1
 62
     3
100
AcDbMText
 10
630.1569311056042
 20
157.763900606908
 30
0.0
 40
3.5
 41
0.0
 71
     5
 72
     1
  1
1
  7
CONVERTER_1
 73
     1
 44
1.0
1001
ACAD
1000
MTEXTBEGIN
1070
    73
1070
     1
1070
    44
1040
1.0
1070
    74
1070
     0
1000
MTEXTEND
  0
MTEXT
  5
229
330
3C
100
AcDbEntity
  8
1
 62
     3
100
AcDbMText
 10
630.1569311056042
 20
164.7639006069078
 30
0.0
 40
3.5
 41
0.0
 71
     5
 72
     1
  1
1
  7
CONVERTER_1
 73
     1
 44
1.0
1001
ACAD
1000
MTEXTBEGIN
1070
    73
1070
     1
1070
    44
1040
1.0
1070
    74
1070
     0
1000
MTEXTEND
  0
MTEXT
  5
228
330
3C
100
AcDbEntity
  8
1
 62
     3
100
AcDbMText
 10
630.1569311056042
 20
171.7639006069077
 30
0.0
 40
3.5
 41
0.0
 71
     5
 72
     1
  1
2
  7
CONVERTER_1
 73
     1
 44
1.0
1001
ACAD
1000
MTEXTBEGIN
1070
    73
1070
     1
1070
    44
1040
1.0
1070
    74
1070
     0
1000
MTEXTEND
  0
MTEXT
  5
227
330
3C
100
AcDbEntity
  8
1
 62
     3
100
AcDbMText
 10
630.1569311056042
 20
178.7639006069076
 30
0.0
 40
3.5
 41
0.0
 71
     5
 72
     1
  1
1
  7
CONVERTER_1
 73
     1
 44
1.0
1001
ACAD
1000
MTEXTBEGIN
1070
    73
1070
     1
1070
    44
1040
1.0
1070
    74
1070
     0
1000
MTEXTEND
  0
MTEXT
  5
226
330
3C
100
AcDbEntity
  8
1
 62
     3
100
AcDbMText
 10
630.1569311056042
 20
185.7639006069075
 30
0.0
 40
3.5
 41
0.0
 71
     5
 72
     1
  1
1
  7
CONVERTER_1
 73
     1
 44
1.0
1001
ACAD
1000
MTEXTBEGIN
1070
    73
1070
     1
1070
    44
1040
1.0
1070
    74
1070
     0
1000
MTEXTEND
  0
MTEXT
  5
225
330
3C
100
AcDbEntity
  8
1
 62
     3
100
AcDbMText
 10
630.1569311056042
 20
192.7639006069074
 30
0.0
 40
3.5
 41
0.0
 71
     5
 72
     1
  1
1
  7
CONVERTER_1
 73
     1
 44
1.0
1001
ACAD
1000
MTEXTBEGIN
1070
    73
1070
     1
1070
    44
1040
1.0
1070
    74
1070
     0
1000
MTEXTEND
  0
MTEXT
  5
224
330
3C
100
AcDbEntity
  8
1
 62
     3
100
AcDbMText
 10
630.1569311056042
 20
199.7639006069073
 30
0.0
 40
3.5
 41
0.0
 71
     5
 72
     1
  1
1
  7
CONVERTER_1
 73
     1
 44
1.0
1001
ACAD
1000
MTEXTBEGIN
1070
    73
1070
     1
1070
    44
1040
1.0
1070
    74
1070
     0
1000
MTEXTEND
  0
MTEXT
  5
223
102
{ACAD_XDICTIONARY
360
67C
102
}
330
3C
100
AcDbEntity
  8
1
 62
     3
100
AcDbMText
 10
639.6569311056041
 20
157.763900606908
 30
0.0
 40
3.5
 41
0.0
 71
     4
 72
     1
  1
\U+017Dw\U+2019%%c\U+0090F
  7
CONVERTER_1
 73
     1
 44
1.0
1001
ACAD
1000
MTEXTBEGIN
1070
    73
1070
     1
1070
    44
1040
1.0
1070
    74
1070
     0
1000
MTEXTEND
  0
MTEXT
  5
222
102
{ACAD_XDICTIONARY
360
67A
102
}
330
3C
100
AcDbEntity
  8
1
 62
     3
100
AcDbMText
 10
639.6569311056041
 20
164.7639006069078
 30
0.0
 40
3.5
 41
0.0
 71
     4
 72
     1
  1
\U+017Dw\U+2019%%c\U+0090F
  7
CONVERTER_1
 73
     1
 44
1.0
1001
ACAD
1000
MTEXTBEGIN
1070
    73
1070
     1
1070
    44
1040
1.0
1070
    74
1070
     0
1000
MTEXTEND
  0
MTEXT
  5
221
102
{ACAD_XDICTIONARY
360
678
102
}
330
3C
100
AcDbEntity
  8
1
 62
     3
100
AcDbMText
 10
639.6569311056041
 20
178.7639006069076
 30
0.0
 40
3.5
 41
0.0
 71
     4
 72
     1
  1
\U+0192N\U+0192\U+008D\U+0192\U+0081\U+0081[\U+0192g
  7
CONVERTER_1
 73
     1
 44
1.0
1001
ACAD
1000
MTEXTBEGIN
1070
    73
1070
     1
1070
    44
1040
1.0
1070
    74
1070
     0
1000
MTEXTEND
  0
MTEXT
  5
220
102
{ACAD_XDICTIONARY
360
676
102
}
330
3C
100
AcDbEntity
  8
1
 62
     3
100
AcDbMText
 10
639.6569311056041
 20
192.7639006069074
 30
0.0
 40
3.5
 41
0.0
 71
     4
 72
     1
  1
\U+017Dw\U+2019%%c\U+0090F
  7
CONVERTER_1
 73
     1
 44
1.0
1001
ACAD
1000
MTEXTBEGIN
1070
    73
1070
     1
1070
    44
1040
1.0
1070
    74
1070
     0
1000
MTEXTEND
  0
MTEXT
  5
21F
330
3C
100
AcDbEntity
  8
1
 62
     3
100
AcDbMText
 10
594.6569311056038
 20
199.7639006069073
 30
0.0
 40
3.5
 41
0.0
 71
     4
 72
     1
  1
SWRM
  7
CONVERTER_1
 73
     1
 44
1.0
1001
ACAD
1000
MTEXTBEGIN
1070
    73
1070
     1
1070
    44
1040
1.0
1070
    74
1070
     0
1000
MTEXTEND
  0
MTEXT
  5
21E
330
3C
100
AcDbEntity
  8
1
 62
     3
100
AcDbMText
 10
594.6569311056038
 20
192.7639006069074
 30
0.0
 40
3.5
 41
0.0
 71
     4
 72
     1
  1
SPCC
  7
CONVERTER_1
 73
     1
 44
1.0
1001
ACAD
1000
MTEXTBEGIN
1070
    73
1070
     1
1070
    44
1040
1.0
1070
    74
1070
     0
1000
MTEXTEND
  0
MTEXT
  5
21D
330
3C
100
AcDbEntity
  8
1
 62
     3
100
AcDbMText
 10
594.6569311056038
 20
185.7639006069075
 30
0.0
 40
3.5
 41
0.0
 71
     4
 72
     1
  1
SWCH
  7
CONVERTER_1
 73
     1
 44
1.0
1001
ACAD
1000
MTEXTBEGIN
1070
    73
1070
     1
1070
    44
1040
1.0
1070
    74
1070
     0
1000
MTEXTEND
  0
MTEXT
  5
21C
330
3C
100
AcDbEntity
  8
1
 62
     3
100
AcDbMText
 10
594.6569311056038
 20
178.7639006069076
 30
0.0
 40
3.5
 41
0.0
 71
     4
 72
     1
  1
SPCC
  7
CONVERTER_1
 73
     1
 44
1.0
1001
ACAD
1000
MTEXTBEGIN
1070
    73
1070
     1
1070
    44
1040
1.0
1070
    74
1070
     0
1000
MTEXTEND
  0
MTEXT
  5
21B
330
3C
100
AcDbEntity
  8
1
 62
     3
100
AcDbMText
 10
594.6569311056038
 20
171.7639006069077
 30
0.0
 40
3.5
 41
0.0
 71
     4
 72
     1
  1
SWCH
  7
CONVERTER_1
 73
     1
 44
1.0
1001
ACAD
1000
MTEXTBEGIN
1070
    73
1070
     1
1070
    44
1040
1.0
1070
    74
1070
     0
1000
MTEXTEND
  0
MTEXT
  5
21A
102
{ACAD_XDICTIONARY
360
674
102
}
330
3C
100
AcDbEntity
  8
1
 62
     3
100
AcDbMText
 10
594.6569311056038
 20
164.7639006069078
 30
0.0
 40
3.5
 41
0.0
 71
     4
 72
     1
  1
ABS,\U+2018\U+00A5
  7
CONVERTER_1
 73
     1
 44
1.0
1001
ACAD
1000
MTEXTBEGIN
1070
    73
1070
     1
1070
    44
1040
1.0
1070
    74
1070
     0
1000
MTEXTEND
  0
MTEXT
  5
219
330
3C
100
AcDbEntity
  8
1
 62
     3
100
AcDbMText
 10
594.6569311056038
 20
157.763900606908
 30
0.0
 40
3.5
 41
0.0
 71
     4
 72
     1
  1
SPCC
  7
CONVERTER_1
 73
     1
 44
1.0
1001
ACAD
1000
MTEXTBEGIN
1070
    73
1070
     1
1070
    44
1040
1.0
1070
    74
1070
     0
1000
MTEXTEND
  0
MTEXT
  5
218
102
{ACAD_XDICTIONARY
360
672
102
}
330
3C
100
AcDbEntity
  8
1
 62
     3
100
AcDbMText
 10
544.6569311056038
 20
157.763900606908
 30
0.0
 40
3.5
 41
0.0
 71
     4
 72
     1
  1
\U+0152\U+00F9\U+201C\U+00B2\U+201A%%c\U+2039\U+00C1\U+2039\U+00FF
  7
CONVERTER_1
 73
     1
 44
1.0
1001
ACAD
1000
MTEXTBEGIN
1070
    73
1070
     1
1070
    44
1040
1.0
1070
    74
1070
     0
1000
MTEXTEND
  0
MTEXT
  5
217
102
{ACAD_XDICTIONARY
360
670
102
}
330
3C
100
AcDbEntity
  8
1
 62
     3
100
AcDbMText
 10
544.6569311056038
 20
164.7639006069078
 30
0.0
 40
3.5
 41
0.0
 71
     4
 72
     1
  1
\U+0192X\U+0192\U+2030\U+0192C\U+0192h\U+0192x\U+0192X\U+0192g\U+0192}\U+0192O\U+0192l\U+0192b\U+0192g\U+0081i\U+008F~\U+0081j
  7
CONVERTER_1
 73
     1
 44
1.0
1001
ACAD
1000
MTEXTBEGIN
1070
    73
1070
     1
1070
    44
1040
1.0
1070
    74
1070
     0
1000
MTEXTEND
  0
MTEXT
  5
216
102
{ACAD_XDICTIONARY
360
66E
102
}
330
3C
100
AcDbEntity
  8
1
 62
     3
100
AcDbMText
 10
544.6569311056038
 20
171.7639006069077
 30
0.0
 40
3.5
 41
0.0
 71
     4
 72
     1
  1
\U+008F\\U+017D\U+00DF\U+0152\U+0160\U+2022t\U+201A\U+00A8\U+008F~\U+0192l\U+0192W
  7
CONVERTER_1
 73
     1
 44
1.0
1001
ACAD
1000
MTEXTBEGIN
1070
    73
1070
     1
1070
    44
1040
1.0
1070
    74
1070
     0
1000
MTEXTEND
  0
MTEXT
  5
215
102
{ACAD_XDICTIONARY
360
66C
102
}
330
3C
100
AcDbEntity
  8
1
 62
     3
100
AcDbMText
 10
544.6569311056038
 20
178.7639006069076
 30
0.0
 40
3.5
 41
0.0
 71
     4
 72
     1
  1
\U+201D\U+00F4\U+0192i\U+0192b\U+0192g
  7
CONVERTER_1
 73
     1
 44
1.0
1001
ACAD
1000
MTEXTBEGIN
1070
    73
1070
     1
1070
    44
1040
1.0
1070
    74
1070
     0
1000
MTEXTEND
  0
MTEXT
  5
214
102
{ACAD_XDICTIONARY
360
66A
102
}
330
3C
100
AcDbEntity
  8
1
 62
     3
100
AcDbMText
 10
544.6569311056038
 20
185.7639006069075
 30
0.0
 40
3.5
 41
0.0
 71
     4
 72
     1
  1
\U+008F\\U+017D\U+00DF\U+0152\U+0160\U+2022t\U+201A\U+00A8\U+008F~\U+0192l\U+0192W
  7
CONVERTER_1
 73
     1
 44
1.0
1001
ACAD
1000
MTEXTBEGIN
1070
    73
1070
     1
1070
    44
1040
1.0
1070
    74
1070
     0
1000
MTEXTEND
  0
MTEXT
  5
213
102
{ACAD_XDICTIONARY
360
668
102
}
330
3C
100
AcDbEntity
  8
1
 62
     3
100
AcDbMText
 10
544.6569311056038
 20
192.7639006069074
 30
0.0
 40
3.5
 41
0.0
 71
     4
 72
     1
  1
\U+0192X\U+0192g\U+0192\U+2030\U+0192C\U+0192N
  7
CONVERTER_1
 73
     1
 44
1.0
1001
ACAD
1000
MTEXTBEGIN
1070
    73
1070
     1
1070
    44
1040
1.0
1070
    74
1070
     0
1000
MTEXTEND
  0
MTEXT
  5
212
102
{ACAD_XDICTIONARY
360
666
102
}
330
3C
100
AcDbEntity
  8
1
 62
     3
100
AcDbMText
 10
544.6569311056038
 20
199.7639006069073
 30
0.0
 40
3.5
 41
0.0
 71
     4
 72
     1
  1
\U+008F\\U+017D\U+00DF\U+0152\U+0160\U+2022t\U+201A\U+00A8\U+00B2\U+00C4\U+0192l\U+0192W
  7
CONVERTER_1
 73
     1
 44
1.0
1001
ACAD
1000
MTEXTBEGIN
1070
    73
1070
     1
1070
    44
1040
1.0
1070
    74
1070
     0
1000
MTEXTEND
  0
MTEXT
  5
211
102
{ACAD_XDICTIONARY
360
664
102
}
330
3C
100
AcDbEntity
  8
1
 62
     3
100
AcDbMText
 10
679.6569311056041
 20
157.763900606908
 30
0.0
 40
3.5
 41
0.0
 71
     4
 72
     1
  1
\U+201A\U+201D\U+0081\U+00812
  7
CONVERTER_1
 73
     1
 44
1.0
1001
ACAD
1000
MTEXTBEGIN
1070
    73
1070
     1
1070
    44
1040
1.0
1070
    74
1070
     0
1000
MTEXTEND
  0
MTEXT
  5
210
102
{ACAD_XDICTIONARY
360
662
102
}
330
3C
100
AcDbEntity
  8
1
 62
     3
100
AcDbMText
 10
679.6569311056041
 20
178.7639006069076
 30
0.0
 40
3.5
 41
0.0
 71
     4
 72
     1
  1
\U+201A\U+201D\U+0081\U+00812.9
  7
CONVERTER_1
 73
     1
 44
1.0
1001
ACAD
1000
MTEXTBEGIN
1070
    73
1070
     1
1070
    44
1040
1.0
1070
    74
1070
     0
1000
MTEXTEND
  0
MTEXT
  5
20F
102
{ACAD_XDICTIONARY
360
660
102
}
330
3C
100
AcDbEntity
  8
1
 62
     3
100
AcDbMText
 10
679.6569311056041
 20
171.7639006069077
 30
0.0
 40
3.5
 41
0.0
 71
     4
 72
     1
  1
\U+0192o\U+0192C\U+0192\U+201C\U+0192hM3\U+0081~8
  7
CONVERTER_1
 73
     1
 44
1.0
1001
ACAD
1000
MTEXTBEGIN
1070
    73
1070
     1
1070
    44
1040
1.0
1070
    74
1070
     0
1000
MTEXTEND
  0
MTEXT
  5
20E
102
{ACAD_XDICTIONARY
360
65E
102
}
330
3C
100
AcDbEntity
  8
1
 62
     3
100
AcDbMText
 10
679.6569311056041
 20
192.7639006069074
 30
0.0
 40
3.5
 41
0.0
 71
     4
 72
     1
  1
\U+201A\U+201D\U+0081\U+00811.6
  7
CONVERTER_1
 73
     1
 44
1.0
1001
ACAD
1000
MTEXTBEGIN
1070
    73
1070
     1
1070
    44
1040
1.0
1070
    74
1070
     0
1000
MTEXTEND
  0
MTEXT
  5
20D
102
{ACAD_XDICTIONARY
360
65C
102
}
330
3C
100
AcDbEntity
  8
1
 62
     3
100
AcDbMText
 10
679.6569311056041
 20
185.7639006069075
 30
0.0
 40
3.5
 41
0.0
 71
     4
 72
     1
  1
\U+0192T\U+0192\U+2030M5\U+0081~12
  7
CONVERTER_1
 73
     1
 44
1.0
1001
ACAD
1000
MTEXTBEGIN
1070
    73
1070
     1
1070
    44
1040
1.0
1070
    74
1070
     0
1000
MTEXTEND
  0
MTEXT
  5
20C
102
{ACAD_XDICTIONARY
360
65A
102
}
330
3C
100
AcDbEntity
  8
1
 62
     3
100
AcDbMText
 10
679.6569311056041
 20
199.7639006069073
 30
0.0
 40
3.5
 41
0.0
 71
     4
 72
     1
  1
\U+0192T\U+0192\U+20302.4\U+0081~13
  7
CONVERTER_1
 73
     1
 44
1.0
1001
ACAD
1000
MTEXTBEGIN
1070
    73
1070
     1
1070
    44
1040
1.0
1070
    74
1070
     0
1000
MTEXTEND
  0
ARC
  5
20A
330
3C
100
AcDbEntity
  8
1
  6
Continuous
 62
     7
100
AcDbCircle
 10
532.9922628116916
 20
116.5341240377872
 30
0.0
 40
0.15691335823345
100
AcDbArc
 50
17.00000000000666
 51
163.0000000000055
  0
ARC
  5
209
330
3C
100
AcDbEntity
  8
1
  6
Continuous
 62
     7
100
AcDbCircle
 10
532.2808233048735
 20
114.2071102640187
 30
0.0
 40
0.15691335823334
100
AcDbArc
 50
162.9999999999812
 51
-90.0
  0
ARC
  5
208
330
3C
100
AcDbEntity
  8
1
  6
Continuous
 62
     7
100
AcDbCircle
 10
533.7037023185095
 20
114.2071102640187
 30
0.0
 40
0.1569133582335
100
AcDbArc
 50
-90.0
 51
17.00000000000666
  0
ARC
  5
207
330
3C
100
AcDbEntity
  8
1
  6
Continuous
 62
     7
100
AcDbCircle
 10
532.0249660891792
 20
113.3702390201067
 30
0.0
 40
0.15691335823351
100
AcDbArc
 50
90.0
 51
163.0000000000176
  0
ARC
  5
206
330
3C
100
AcDbEntity
  8
1
  6
Continuous
 62
     7
100
AcDbCircle
 10
531.4812695058288
 20
111.5918876267937
 30
0.0
 40
0.15691335823334
100
AcDbArc
 50
162.9999999999812
 51
-90.0
  0
ARC
  5
205
330
3C
100
AcDbEntity
  8
1
  6
Continuous
 62
     7
100
AcDbCircle
 10
533.9208562751222
 20
113.3179345673622
 30
0.0
 40
0.20921781097808
100
AcDbArc
 50
16.99999999999329
 51
90.0
  0
ARC
  5
204
330
3C
100
AcDbEntity
  8
1
  6
Continuous
 62
     7
100
AcDbCircle
 10
534.432570706511
 20
111.6441920795382
 30
0.0
 40
0.209217810978
100
AcDbArc
 50
-90.0
 51
16.99999999999329
  0
ARC
  5
203
330
3C
100
AcDbEntity
  8
1
  6
Continuous
 62
     7
100
AcDbCircle
 10
530.5287536266656
 20
111.6964965322827
 30
0.0
 40
0.2615222637225
100
AcDbArc
 50
-90.0
 51
-16.99999999999982
  0
ARC
  5
202
330
3C
100
AcDbEntity
  8
1
  6
Continuous
 62
     7
100
AcDbCircle
 10
536.7137417031548
 20
111.6964965322827
 30
0.0
 40
0.26152226372238
100
AcDbArc
 50
-162.9999999999928
 51
-90.0
  0
ARC
  5
201
330
3C
100
AcDbEntity
  8
1
  6
Continuous
 62
     7
100
AcDbCircle
 10
530.2724312689774
 20
111.3303653630712
 30
0.0
 40
0.104608905489
100
AcDbArc
 50
90.0
 51
180.0
  0
ARC
  5
200
330
3C
100
AcDbEntity
  8
1
  6
Continuous
 62
     7
100
AcDbCircle
 10
531.7369559458235
 20
111.3303653630712
 30
0.0
 40
0.10460890548882
100
AcDbArc
 50
0.0
 51
90.0
  0
ARC
  5
1FF
330
3C
100
AcDbEntity
  8
1
  6
Continuous
 62
     7
100
AcDbCircle
 10
534.1429607720704
 20
111.3303653630712
 30
0.0
 40
0.104608905489
100
AcDbArc
 50
90.0
 51
180.0
  0
ARC
  5
1FE
330
3C
100
AcDbEntity
  8
1
  6
Continuous
 62
     7
100
AcDbCircle
 10
537.0720101257624
 20
111.3303653630712
 30
0.0
 40
0.10460890548893
100
AcDbArc
 50
0.0
 51
90.0
  0
ARC
  5
1FD
330
3C
100
AcDbEntity
  8
1
  6
Continuous
 62
     7
100
AcDbCircle
 10
538.2750125388859
 20
117.2407685231997
 30
0.0
 40
0.36613116921149
100
AcDbArc
 50
0.0
 51
90.0
  0
ARC
  5
1FC
330
3C
100
AcDbEntity
  8
1
  6
Continuous
 62
     7
100
AcDbCircle
 10
540.9948440816001
 20
117.2407685231997
 30
0.0
 40
0.3661311692114999
100
AcDbArc
 50
90.0
 51
180.0
  0
ARC
  5
1FB
330
3C
100
AcDbEntity
  8
1
  6
Continuous
 62
     7
100
AcDbCircle
 10
541.1453483929868
 20
116.8746373539882
 30
0.0
 40
0.73226233842306
100
AcDbArc
 50
17.47288527029892
 51
90.0
  0
ARC
  5
1FA
330
3C
100
AcDbEntity
  8
1
  6
Continuous
 62
     7
100
AcDbCircle
 10
538.1245082274991
 20
116.8746373539882
 30
0.0
 40
0.7322623384229999
100
AcDbArc
 50
90.0
 51
162.5271147296957
  0
ARC
  5
1F9
330
3C
100
AcDbEntity
  8
1
  6
Continuous
 62
     7
100
AcDbCircle
 10
538.3796214443751
 20
111.6964965322827
 30
0.0
 40
0.2615222637225
100
AcDbArc
 50
-90.0
 51
0.0
  0
ARC
  5
1F8
330
3C
100
AcDbEntity
  8
1
  6
Continuous
 62
     7
100
AcDbCircle
 10
540.8902351761108
 20
111.6964965322827
 30
0.0
 40
0.26152226372244
100
AcDbArc
 50
180.0
 51
-90.0
  0
ARC
  5
1F7
330
3C
100
AcDbEntity
  8
1
  6
Continuous
 62
     7
100
AcDbCircle
 10
541.099452987089
 20
111.3303653630712
 30
0.0
 40
0.10460890548904
100
AcDbArc
 50
0.0
 51
90.0
  0
ARC
  5
1F6
330
3C
100
AcDbEntity
  8
1
  6
Continuous
 62
     7
100
AcDbCircle
 10
538.1704036333968
 20
111.3303653630712
 30
0.0
 40
0.104608905489
100
AcDbArc
 50
90.0
 51
180.0
  0
ARC
  5
1F5
330
3C
100
AcDbEntity
  8
1
  6
Continuous
 62
     7
100
AcDbCircle
 10
551.0896034612885
 20
117.7115085979002
 30
0.0
 40
0.10460890548916
100
AcDbArc
 50
180.0
 51
-90.0
  0
ARC
  5
1F4
330
3C
100
AcDbEntity
  8
1
  6
Continuous
 62
     7
100
AcDbCircle
 10
558.9352713729636
 20
117.7115085979002
 30
0.0
 40
0.104608905489
100
AcDbArc
 50
-90.0
 51
0.0
  0
ARC
  5
1F3
330
3C
100
AcDbEntity
  8
1
  6
Continuous
 62
     7
100
AcDbCircle
 10
558.9352713729636
 20
111.3303653630712
 30
0.0
 40
0.10460890548882
100
AcDbArc
 50
0.0
 51
90.0
  0
ARC
  5
1F2
330
3C
100
AcDbEntity
  8
1
  6
Continuous
 62
     7
100
AcDbCircle
 10
556.2154398302494
 20
111.3303653630712
 30
0.0
 40
0.104608905489
100
AcDbArc
 50
90.0
 51
180.0
  0
ARC
  5
1F1
330
3C
100
AcDbEntity
  8
1
  6
Continuous
 62
     7
100
AcDbCircle
 10
551.0896034612885
 20
111.3303653630712
 30
0.0
 40
0.104608905489
100
AcDbArc
 50
90.0
 51
180.0
  0
ARC
  5
1F0
330
3C
100
AcDbEntity
  8
1
  6
Continuous
 62
     7
100
AcDbCircle
 10
552.3449103271564
 20
111.3303653630712
 30
0.0
 40
0.10460890548916
100
AcDbArc
 50
0.0
 51
90.0
  0
ARC
  5
1EF
330
3C
100
AcDbEntity
  8
1
  6
Continuous
 62
     7
100
AcDbCircle
 10
551.3511257250111
 20
117.4499863341777
 30
0.0
 40
0.1569133582334
100
AcDbArc
 50
0.0
 51
90.0
  0
ARC
  5
1EE
330
3C
100
AcDbEntity
  8
1
  6
Continuous
 62
     7
100
AcDbCircle
 10
551.3511257250111
 20
111.5918876267937
 30
0.0
 40
0.15691335823351
100
AcDbArc
 50
-90.0
 51
0.0
  0
ARC
  5
1ED
330
3C
100
AcDbEntity
  8
1
  6
Continuous
 62
     7
100
AcDbCircle
 10
552.187996968923
 20
111.5918876267937
 30
0.0
 40
0.1569133582334
100
AcDbArc
 50
180.0
 51
-90.0
  0
ARC
  5
1EC
330
3C
100
AcDbEntity
  8
1
  6
Continuous
 62
     7
100
AcDbCircle
 10
552.187996968923
 20
117.4847560316131
 30
0.0
 40
0.15691335823353
100
AcDbArc
 50
15.00000000002618
 51
180.0
  0
ARC
  5
1EB
330
3C
100
AcDbEntity
  8
1
  6
Continuous
 62
     7
100
AcDbCircle
 10
555.0124374171259
 20
115.0273562536995
 30
0.0
 40
0.1569133582335
100
AcDbArc
 50
-165.0000000000139
 51
-14.99999999997534
  0
ARC
  5
1EA
330
3C
100
AcDbEntity
  8
1
  6
Continuous
 62
     7
100
AcDbCircle
 10
556.5292665467163
 20
117.4548174406387
 30
0.0
 40
0.15691335823374
100
AcDbArc
 50
0.0
 51
164.9999999999924
  0
ARC
  5
1E9
330
3C
100
AcDbEntity
  8
1
  6
Continuous
 62
     7
100
AcDbCircle
 10
558.7260535619854
 20
117.3453774286887
 30
0.0
 40
0.2615222637225
100
AcDbArc
 50
90.0
 51
180.0
  0
ARC
  5
1E8
330
3C
100
AcDbEntity
  8
1
  6
Continuous
 62
     7
100
AcDbCircle
 10
556.4246576412276
 20
111.6964965322827
 30
0.0
 40
0.2615222637225
100
AcDbArc
 50
-90.0
 51
0.0
  0
ARC
  5
1E7
330
3C
100
AcDbEntity
  8
1
  6
Continuous
 62
     7
100
AcDbCircle
 10
558.7260535619854
 20
111.6964965322827
 30
0.0
 40
0.26152226372244
100
AcDbArc
 50
180.0
 51
-90.0
  0
CIRCLE
  5
1E6
330
3C
100
AcDbEntity
  8
1
  6
Continuous
 62
     7
100
AcDbCircle
 10
546.643724978006
 20
114.5209369804857
 30
0.0
 40
3.81822505034847
  0
CIRCLE
  5
1E5
330
3C
100
AcDbEntity
  8
1
  6
Continuous
 62
     5
100
AcDbCircle
 10
535.732377566921
 20
129.7639006069079
 30
0.0
 40
2.0
  0
CIRCLE
  5
1E4
330
3C
100
AcDbEntity
  8
1
  6
Continuous
 62
     5
100
AcDbCircle
 10
535.732377566921
 20
129.7639006069079
 30
0.0
 40
4.0
  0
ARC
  5
1E3
330
3C
100
AcDbEntity
  8
1
  6
Continuous
 62
     7
100
AcDbCircle
 10
542.3024554002124
 20
116.5085061847767
 30
0.0
 40
0.2615222637223
100
AcDbArc
 50
-162.5271147296871
 51
1.852437285310809
  0
ARC
  5
1E2
330
3C
100
AcDbEntity
  8
1
  6
Continuous
 62
     7
100
AcDbCircle
 10
536.9674012202733
 20
116.5085061847767
 30
0.0
 40
0.26152226372242
100
AcDbArc
 50
178.1475627146658
 51
-17.47288527029797
  0
ARC
  5
1E1
330
3C
100
AcDbEntity
  8
1
  6
Continuous
 62
     7
100
AcDbCircle
 10
548.3820121394346
 20
116.2592241419144
 30
0.0
 40
0.83687124391191
100
AcDbArc
 50
-45.00000000000619
 51
134.9999999999993
  0
ARC
  5
1E0
330
3C
100
AcDbEntity
  8
1
  6
Continuous
 62
     7
100
AcDbCircle
 10
544.9054378165771
 20
112.782649819057
 30
0.0
 40
0.83687124391191
100
AcDbArc
 50
134.9999999999938
 51
-44.99999999999518
  0
LINE
  5
1DF
330
3C
100
AcDbEntity
  8
1
  6
Continuous
 62
     7
100
AcDbLine
 10
527.656931105604
 20
102.2639006069079
 30
0.0
 11
620.6569311056041
 21
102.2639006069079
 31
0.0
  0
LINE
  5
1DE
330
3C
100
AcDbEntity
  8
1
  6
Continuous
 62
     7
100
AcDbLine
 10
707.6569311056039
 20
102.2639006069079
 30
0.0
 11
707.6569311056039
 21
117.2639006069079
 31
0.0
  0
LINE
  5
1DD
330
3C
100
AcDbEntity
  8
1
  6
Continuous
 62
     7
100
AcDbLine
 10
707.6569311056039
 20
154.263900606908
 30
0.0
 11
677.656931105604
 21
154.263900606908
 31
0.0
  0
LINE
  5
1DC
330
3C
100
AcDbEntity
  8
1
  6
Continuous
 62
     7
100
AcDbLine
 10
527.656931105604
 20
154.263900606908
 30
0.0
 11
527.656931105604
 21
147.2639006069079
 31
0.0
  0
LINE
  5
1DB
330
3C
100
AcDbEntity
  8
1
  6
Continuous
 62
     7
100
AcDbLine
 10
527.656931105604
 20
147.2639006069079
 30
0.0
 11
542.6569311056039
 21
147.2639006069079
 31
0.0
  0
LINE
  5
1DA
330
3C
100
AcDbEntity
  8
1
  6
Continuous
 62
     7
100
AcDbLine
 10
527.656931105604
 20
147.2639006069079
 30
0.0
 11
527.656931105604
 21
137.2639006069079
 31
0.0
  0
LINE
  5
1D9
330
3C
100
AcDbEntity
  8
1
  6
Continuous
 62
     7
100
AcDbLine
 10
707.6569311056039
 20
147.2639006069079
 30
0.0
 11
707.6569311056039
 21
154.263900606908
 31
0.0
  0
LINE
  5
1D8
330
3C
100
AcDbEntity
  8
1
  6
Continuous
 62
     7
100
AcDbLine
 10
620.6569311056041
 20
147.2639006069079
 30
0.0
 11
620.6569311056041
 21
140.2639006069079
 31
0.0
  0
LINE
  5
1D7
330
3C
100
AcDbEntity
  8
1
  6
Continuous
 62
     7
100
AcDbLine
 10
620.6569311056041
 20
147.2639006069079
 30
0.0
 11
622.6569311056041
 21
147.2639006069079
 31
0.0
  0
LINE
  5
1D6
330
3C
100
AcDbEntity
  8
1
  6
Continuous
 62
     7
100
AcDbLine
 10
620.6569311056041
 20
102.2639006069079
 30
0.0
 11
627.6569311056041
 21
102.2639006069079
 31
0.0
  0
LINE
  5
1D5
330
3C
100
AcDbEntity
  8
1
  6
Continuous
 62
     7
100
AcDbLine
 10
627.6569311056041
 20
147.2639006069079
 30
0.0
 11
627.6569311056041
 21
102.2639006069079
 31
0.0
  0
LINE
  5
1D4
330
3C
100
AcDbEntity
  8
1
  6
Continuous
 62
     7
100
AcDbLine
 10
627.6569311056041
 20
147.2639006069079
 30
0.0
 11
637.6569311056041
 21
147.2639006069079
 31
0.0
  0
LINE
  5
1D3
330
3C
100
AcDbEntity
  8
1
  6
Continuous
 62
     7
100
AcDbLine
 10
627.6569311056041
 20
102.2639006069079
 30
0.0
 11
707.6569311056039
 21
102.2639006069079
 31
0.0
  0
LINE
  5
1D2
330
3C
100
AcDbEntity
  8
1
  6
Continuous
 62
     7
100
AcDbLine
 10
620.6569311056041
 20
132.2639006069079
 30
0.0
 11
707.6569311056039
 21
132.2639006069079
 31
0.0
  0
LINE
  5
1D1
330
3C
100
AcDbEntity
  8
1
  6
Continuous
 62
     7
100
AcDbLine
 10
620.6569311056041
 20
132.2639006069079
 30
0.0
 11
620.6569311056041
 21
129.2639006069079
 31
0.0
  0
LINE
  5
1D0
330
3C
100
AcDbEntity
  8
1
  6
Continuous
 62
     7
100
AcDbLine
 10
707.6569311056039
 20
132.2639006069079
 30
0.0
 11
707.6569311056039
 21
147.2639006069079
 31
0.0
  0
LINE
  5
1CF
330
3C
100
AcDbEntity
  8
1
  6
Continuous
 62
     7
100
AcDbLine
 10
620.6569311056041
 20
117.2639006069079
 30
0.0
 11
707.6569311056039
 21
117.2639006069079
 31
0.0
  0
LINE
  5
1CE
330
3C
100
AcDbEntity
  8
1
  6
Continuous
 62
     7
100
AcDbLine
 10
620.6569311056041
 20
117.2639006069079
 30
0.0
 11
620.6569311056041
 21
102.2639006069079
 31
0.0
  0
LINE
  5
1CD
330
3C
100
AcDbEntity
  8
1
  6
Continuous
 62
     7
100
AcDbLine
 10
707.6569311056039
 20
117.2639006069079
 30
0.0
 11
707.6569311056039
 21
132.2639006069079
 31
0.0
  0
LINE
  5
1CC
330
3C
100
AcDbEntity
  8
1
  6
Continuous
 62
     7
100
AcDbLine
 10
560.6569311056039
 20
147.2639006069079
 30
0.0
 11
560.6569311056039
 21
140.2639006069079
 31
0.0
  0
LINE
  5
1CB
330
3C
100
AcDbEntity
  8
1
  6
Continuous
 62
     7
100
AcDbLine
 10
560.6569311056039
 20
147.2639006069079
 30
0.0
 11
580.6569311056039
 21
147.2639006069079
 31
0.0
  0
LINE
  5
1CA
330
3C
100
AcDbEntity
  8
1
  6
Continuous
 62
     7
100
AcDbLine
 10
527.656931105604
 20
122.2639006069079
 30
0.0
 11
580.6569311056039
 21
122.2639006069079
 31
0.0
  0
LINE
  5
1C9
330
3C
100
AcDbEntity
  8
1
  6
Continuous
 62
     7
100
AcDbLine
 10
527.656931105604
 20
122.2639006069079
 30
0.0
 11
527.656931105604
 21
102.2639006069079
 31
0.0
  0
LINE
  5
1C8
330
3C
100
AcDbEntity
  8
1
  6
Continuous
 62
     7
100
AcDbLine
 10
620.6569311056041
 20
122.2639006069079
 30
0.0
 11
620.6569311056041
 21
117.2639006069079
 31
0.0
  0
LINE
  5
1C7
330
3C
100
AcDbEntity
  8
1
  6
Continuous
 62
     7
100
AcDbLine
 10
560.6569311056039
 20
140.2639006069079
 30
0.0
 11
620.6569311056041
 21
140.2639006069079
 31
0.0
  0
LINE
  5
1C6
330
3C
100
AcDbEntity
  8
1
  6
Continuous
 62
     7
100
AcDbLine
 10
560.6569311056039
 20
140.2639006069079
 30
0.0
 11
560.6569311056039
 21
137.2639006069079
 31
0.0
  0
LINE
  5
1C5
330
3C
100
AcDbEntity
  8
1
  6
Continuous
 62
     7
100
AcDbLine
 10
620.6569311056041
 20
140.2639006069079
 30
0.0
 11
620.6569311056041
 21
132.2639006069079
 31
0.0
  0
LINE
  5
1C4
330
3C
100
AcDbEntity
  8
1
  6
Continuous
 62
     7
100
AcDbLine
 10
580.6569311056039
 20
147.2639006069079
 30
0.0
 11
580.6569311056039
 21
122.2639006069079
 31
0.0
  0
LINE
  5
1C3
330
3C
100
AcDbEntity
  8
1
  6
Continuous
 62
     7
100
AcDbLine
 10
580.6569311056039
 20
147.2639006069079
 30
0.0
 11
592.6569311056039
 21
147.2639006069079
 31
0.0
  0
LINE
  5
1C2
330
3C
100
AcDbEntity
  8
1
  6
Continuous
 62
     7
100
AcDbLine
 10
580.6569311056039
 20
122.2639006069079
 30
0.0
 11
600.6569311056041
 21
122.2639006069079
 31
0.0
  0
LINE
  5
1C1
330
3C
100
AcDbEntity
  8
1
  6
Continuous
 62
     7
100
AcDbLine
 10
600.6569311056041
 20
147.2639006069079
 30
0.0
 11
600.6569311056041
 21
122.2639006069079
 31
0.0
  0
LINE
  5
1C0
330
3C
100
AcDbEntity
  8
1
  6
Continuous
 62
     7
100
AcDbLine
 10
600.6569311056041
 20
147.2639006069079
 30
0.0
 11
620.6569311056041
 21
147.2639006069079
 31
0.0
  0
LINE
  5
1BF
330
3C
100
AcDbEntity
  8
1
  6
Continuous
 62
     7
100
AcDbLine
 10
600.6569311056041
 20
122.2639006069079
 30
0.0
 11
620.6569311056041
 21
122.2639006069079
 31
0.0
  0
LINE
  5
1BE
330
3C
100
AcDbEntity
  8
1
  6
Continuous
 62
     7
100
AcDbLine
 10
527.656931105604
 20
137.2639006069079
 30
0.0
 11
560.6569311056039
 21
137.2639006069079
 31
0.0
  0
LINE
  5
1BD
330
3C
100
AcDbEntity
  8
1
  6
Continuous
 62
     7
100
AcDbLine
 10
527.656931105604
 20
137.2639006069079
 30
0.0
 11
527.656931105604
 21
122.2639006069079
 31
0.0
  0
LINE
  5
1BC
330
3C
100
AcDbEntity
  8
1
  6
Continuous
 62
     7
100
AcDbLine
 10
560.6569311056039
 20
137.2639006069079
 30
0.0
 11
560.6569311056039
 21
129.2639006069079
 31
0.0
  0
LINE
  5
1BB
330
3C
100
AcDbEntity
  8
1
  6
Continuous
 62
     7
100
AcDbLine
 10
677.656931105604
 20
154.263900606908
 30
0.0
 11
677.656931105604
 21
147.2639006069079
 31
0.0
  0
LINE
  5
1BA
330
3C
100
AcDbEntity
  8
1
  6
Continuous
 62
     7
100
AcDbLine
 10
677.656931105604
 20
154.263900606908
 30
0.0
 11
637.6569311056041
 21
154.263900606908
 31
0.0
  0
LINE
  5
1B9
330
3C
100
AcDbEntity
  8
1
  6
Continuous
 62
     7
100
AcDbLine
 10
677.656931105604
 20
147.2639006069079
 30
0.0
 11
707.6569311056039
 21
147.2639006069079
 31
0.0
  0
LINE
  5
1B8
330
3C
100
AcDbEntity
  8
1
  6
Continuous
 62
     7
100
AcDbLine
 10
637.6569311056041
 20
154.263900606908
 30
0.0
 11
637.6569311056041
 21
147.2639006069079
 31
0.0
  0
LINE
  5
1B7
330
3C
100
AcDbEntity
  8
1
  6
Continuous
 62
     7
100
AcDbLine
 10
637.6569311056041
 20
154.263900606908
 30
0.0
 11
622.6569311056041
 21
154.263900606908
 31
0.0
  0
LINE
  5
1B6
330
3C
100
AcDbEntity
  8
1
  6
Continuous
 62
     7
100
AcDbLine
 10
637.6569311056041
 20
147.2639006069079
 30
0.0
 11
677.656931105604
 21
147.2639006069079
 31
0.0
  0
LINE
  5
1B5
330
3C
100
AcDbEntity
  8
1
  6
Continuous
 62
     7
100
AcDbLine
 10
622.6569311056041
 20
154.263900606908
 30
0.0
 11
622.6569311056041
 21
147.2639006069079
 31
0.0
  0
LINE
  5
1B4
330
3C
100
AcDbEntity
  8
1
  6
Continuous
 62
     7
100
AcDbLine
 10
622.6569311056041
 20
154.263900606908
 30
0.0
 11
592.6569311056039
 21
154.263900606908
 31
0.0
  0
LINE
  5
1B3
330
3C
100
AcDbEntity
  8
1
  6
Continuous
 62
     7
100
AcDbLine
 10
622.6569311056041
 20
147.2639006069079
 30
0.0
 11
627.6569311056041
 21
147.2639006069079
 31
0.0
  0
LINE
  5
1B2
330
3C
100
AcDbEntity
  8
1
  6
Continuous
 62
     7
100
AcDbLine
 10
592.6569311056039
 20
154.263900606908
 30
0.0
 11
592.6569311056039
 21
147.2639006069079
 31
0.0
  0
LINE
  5
1B1
330
3C
100
AcDbEntity
  8
1
  6
Continuous
 62
     7
100
AcDbLine
 10
592.6569311056039
 20
154.263900606908
 30
0.0
 11
542.6569311056039
 21
154.263900606908
 31
0.0
  0
LINE
  5
1B0
330
3C
100
AcDbEntity
  8
1
  6
Continuous
 62
     7
100
AcDbLine
 10
592.6569311056039
 20
147.2639006069079
 30
0.0
 11
600.6569311056041
 21
147.2639006069079
 31
0.0
  0
LINE
  5
1AF
330
3C
100
AcDbEntity
  8
1
  6
Continuous
 62
     7
100
AcDbLine
 10
542.6569311056039
 20
154.263900606908
 30
0.0
 11
542.6569311056039
 21
147.2639006069079
 31
0.0
  0
LINE
  5
1AE
330
3C
100
AcDbEntity
  8
1
  6
Continuous
 62
     7
100
AcDbLine
 10
542.6569311056039
 20
154.263900606908
 30
0.0
 11
527.656931105604
 21
154.263900606908
 31
0.0
  0
LINE
  5
1AD
330
3C
100
AcDbEntity
  8
1
  6
Continuous
 62
     7
100
AcDbLine
 10
542.6569311056039
 20
147.2639006069079
 30
0.0
 11
560.6569311056039
 21
147.2639006069079
 31
0.0
  0
LINE
  5
1AC
330
3C
100
AcDbEntity
  8
1
  6
Continuous
 62
     5
100
AcDbLine
 10
527.656931105604
 20
154.263900606908
 30
0.0
 11
527.656931105604
 21
161.2639006069079
 31
0.0
  0
LINE
  5
1AB
330
3C
100
AcDbEntity
  8
1
  6
Continuous
 62
     5
100
AcDbLine
 10
527.656931105604
 20
161.2639006069079
 30
0.0
 11
542.6569311056039
 21
161.2639006069079
 31
0.0
  0
LINE
  5
1AA
330
3C
100
AcDbEntity
  8
1
  6
Continuous
 62
     5
100
AcDbLine
 10
707.6569311056039
 20
161.2639006069079
 30
0.0
 11
707.6569311056039
 21
154.263900606908
 31
0.0
  0
LINE
  5
1A9
330
3C
100
AcDbEntity
  8
1
  6
Continuous
 62
     5
100
AcDbLine
 10
677.656931105604
 20
161.2639006069079
 30
0.0
 11
677.656931105604
 21
154.263900606908
 31
0.0
  0
LINE
  5
1A8
330
3C
100
AcDbEntity
  8
1
  6
Continuous
 62
     5
100
AcDbLine
 10
677.656931105604
 20
161.2639006069079
 30
0.0
 11
707.6569311056039
 21
161.2639006069079
 31
0.0
  0
LINE
  5
1A7
330
3C
100
AcDbEntity
  8
1
  6
Continuous
 62
     5
100
AcDbLine
 10
637.6569311056041
 20
161.2639006069079
 30
0.0
 11
637.6569311056041
 21
154.263900606908
 31
0.0
  0
LINE
  5
1A6
330
3C
100
AcDbEntity
  8
1
  6
Continuous
 62
     5
100
AcDbLine
 10
637.6569311056041
 20
161.2639006069079
 30
0.0
 11
677.656931105604
 21
161.2639006069079
 31
0.0
  0
LINE
  5
1A5
330
3C
100
AcDbEntity
  8
1
  6
Continuous
 62
     5
100
AcDbLine
 10
622.6569311056041
 20
161.2639006069079
 30
0.0
 11
622.6569311056041
 21
154.263900606908
 31
0.0
  0
LINE
  5
1A4
330
3C
100
AcDbEntity
  8
1
  6
Continuous
 62
     5
100
AcDbLine
 10
622.6569311056041
 20
161.2639006069079
 30
0.0
 11
637.6569311056041
 21
161.2639006069079
 31
0.0
  0
LINE
  5
1A3
330
3C
100
AcDbEntity
  8
1
  6
Continuous
 62
     5
100
AcDbLine
 10
592.6569311056039
 20
161.2639006069079
 30
0.0
 11
592.6569311056039
 21
154.263900606908
 31
0.0
  0
LINE
  5
1A2
330
3C
100
AcDbEntity
  8
1
  6
Continuous
 62
     5
100
AcDbLine
 10
592.6569311056039
 20
161.2639006069079
 30
0.0
 11
622.6569311056041
 21
161.2639006069079
 31
0.0
  0
LINE
  5
1A1
330
3C
100
AcDbEntity
  8
1
  6
Continuous
 62
     5
100
AcDbLine
 10
542.6569311056039
 20
161.2639006069079
 30
0.0
 11
542.6569311056039
 21
154.263900606908
 31
0.0
  0
LINE
  5
1A0
330
3C
100
AcDbEntity
  8
1
  6
Continuous
 62
     5
100
AcDbLine
 10
542.6569311056039
 20
161.2639006069079
 30
0.0
 11
592.6569311056039
 21
161.2639006069079
 31
0.0
  0
LINE
  5
19F
330
3C
100
AcDbEntity
  8
1
  6
Continuous
 62
     5
100
AcDbLine
 10
560.6569311056039
 20
129.2639006069079
 30
0.0
 11
620.6569311056041
 21
129.2639006069079
 31
0.0
  0
LINE
  5
19E
330
3C
100
AcDbEntity
  8
1
  6
Continuous
 62
     7
100
AcDbLine
 10
560.6569311056039
 20
129.2639006069079
 30
0.0
 11
560.6569311056039
 21
122.2639006069079
 31
0.0
  0
LINE
  5
19D
330
3C
100
AcDbEntity
  8
1
  6
Continuous
 62
     7
100
AcDbLine
 10
620.6569311056041
 20
129.2639006069079
 30
0.0
 11
620.6569311056041
 21
122.2639006069079
 31
0.0
  0
LINE
  5
19C
330
3C
100
AcDbEntity
  8
1
  6
Continuous
 62
     7
100
AcDbLine
 10
531.8415648513123
 20
110.9119297411152
 30
0.0
 11
530.1678223634884
 21
110.9119297411152
 31
0.0
  0
LINE
  5
19B
330
3C
100
AcDbEntity
  8
1
  6
Continuous
 62
     7
100
AcDbLine
 10
530.1678223634884
 20
110.9119297411152
 30
0.0
 11
530.1678223634884
 21
111.3303653630712
 31
0.0
  0
LINE
  5
19A
330
3C
100
AcDbEntity
  8
1
  6
Continuous
 62
     7
100
AcDbLine
 10
530.2724312689774
 20
111.4349742685602
 30
0.0
 11
530.5287536266656
 21
111.4349742685602
 31
0.0
  0
LINE
  5
199
330
3C
100
AcDbEntity
  8
1
  6
Continuous
 62
     7
100
AcDbLine
 10
530.7788486112537
 20
111.6200348222152
 30
0.0
 11
532.7691276476283
 21
118.1299442198562
 31
0.0
  0
LINE
  5
198
330
3C
100
AcDbEntity
  8
1
  6
Continuous
 62
     7
100
AcDbLine
 10
532.7691276476283
 20
118.1299442198562
 30
0.0
 11
534.473367682192
 21
118.1299442198562
 31
0.0
  0
LINE
  5
197
330
3C
100
AcDbEntity
  8
1
  6
Continuous
 62
     7
100
AcDbLine
 10
534.473367682192
 20
118.1299442198562
 30
0.0
 11
536.4636467185668
 21
111.6200348222152
 31
0.0
  0
LINE
  5
196
330
3C
100
AcDbEntity
  8
1
  6
Continuous
 62
     7
100
AcDbLine
 10
536.7137417031548
 20
111.4349742685602
 30
0.0
 11
537.0720101257624
 21
111.4349742685602
 31
0.0
  0
LINE
  5
195
330
3C
100
AcDbEntity
  8
1
  6
Continuous
 62
     7
100
AcDbLine
 10
537.1766190312514
 20
111.3303653630712
 30
0.0
 11
537.1766190312514
 21
110.9119297411152
 31
0.0
  0
LINE
  5
194
330
3C
100
AcDbEntity
  8
1
  6
Continuous
 62
     7
100
AcDbLine
 10
537.1766190312514
 20
110.9119297411152
 30
0.0
 11
534.0383518665813
 21
110.9119297411152
 31
0.0
  0
LINE
  5
193
330
3C
100
AcDbEntity
  8
1
  6
Continuous
 62
     7
100
AcDbLine
 10
534.0383518665813
 20
110.9119297411152
 30
0.0
 11
534.0383518665813
 21
111.3303653630712
 31
0.0
  0
LINE
  5
192
330
3C
100
AcDbEntity
  8
1
  6
Continuous
 62
     7
100
AcDbLine
 10
534.1429607720704
 20
111.4349742685602
 30
0.0
 11
534.432570706511
 21
111.4349742685602
 31
0.0
  0
LINE
  5
191
330
3C
100
AcDbEntity
  8
1
  6
Continuous
 62
     7
100
AcDbLine
 10
534.6326466941815
 20
111.7053614475922
 30
0.0
 11
534.1209322627927
 21
113.3791039354162
 31
0.0
  0
LINE
  5
190
330
3C
100
AcDbEntity
  8
1
  6
Continuous
 62
     7
100
AcDbLine
 10
533.9208562751222
 20
113.5271523783402
 30
0.0
 11
532.0249660891792
 21
113.5271523783402
 31
0.0
  0
LINE
  5
18F
330
3C
100
AcDbEntity
  8
1
  6
Continuous
 62
     7
100
AcDbLine
 10
531.8749090984263
 20
113.4161160461472
 30
0.0
 11
531.3312125150759
 21
111.6377646528342
 31
0.0
  0
LINE
  5
18E
330
3C
100
AcDbEntity
  8
1
  6
Continuous
 62
     7
100
AcDbLine
 10
531.4812695058288
 20
111.4349742685602
 30
0.0
 11
531.7369559458235
 21
111.4349742685602
 31
0.0
  0
LINE
  5
18D
330
3C
100
AcDbEntity
  8
1
  6
Continuous
 62
     7
100
AcDbLine
 10
531.8415648513123
 20
111.3303653630712
 30
0.0
 11
531.8415648513123
 21
110.9119297411152
 31
0.0
  0
LINE
  5
18C
330
3C
100
AcDbEntity
  8
1
  6
Continuous
 62
     7
100
AcDbLine
 10
532.8422058209387
 20
116.5800010638277
 30
0.0
 11
532.1307663141208
 21
114.2529872900592
 31
0.0
  0
LINE
  5
18B
330
3C
100
AcDbEntity
  8
1
  6
Continuous
 62
     7
100
AcDbLine
 10
532.2808233048735
 20
114.0501969057852
 30
0.0
 11
533.7037023185095
 21
114.0501969057852
 31
0.0
  0
LINE
  5
18A
330
3C
100
AcDbEntity
  8
1
  6
Continuous
 62
     7
100
AcDbLine
 10
533.8537593092622
 20
114.2529872900592
 30
0.0
 11
533.1423198024443
 21
116.5800010638277
 31
0.0
  0
LINE
  5
189
330
3C
100
AcDbEntity
  8
1
  6
Continuous
 62
     7
100
AcDbLine
 10
539.6349283102428
 20
118.1299442198562
 30
0.0
 11
542.5116732111905
 21
118.1299442198562
 31
0.0
  0
LINE
  5
188
330
3C
100
AcDbEntity
  8
1
  6
Continuous
 62
     7
100
AcDbLine
 10
542.5116732111905
 20
118.1299442198562
 30
0.0
 11
542.5638409909743
 21
116.516960022053
 31
0.0
  0
LINE
  5
187
330
3C
100
AcDbEntity
  8
1
  6
Continuous
 62
     7
100
AcDbLine
 10
542.0529999959398
 20
116.4299829671806
 30
0.0
 11
541.8438235249506
 21
117.0945023632573
 31
0.0
  0
LINE
  5
186
330
3C
100
AcDbEntity
  8
1
  6
Continuous
 62
     7
100
AcDbLine
 10
541.1453483929868
 20
117.6068996924112
 30
0.0
 11
540.9948440816001
 21
117.6068996924112
 31
0.0
  0
LINE
  5
185
330
3C
100
AcDbEntity
  8
1
  6
Continuous
 62
     7
100
AcDbLine
 10
540.6287129123885
 20
117.2407685231997
 30
0.0
 11
540.6287129123885
 21
111.6964965322827
 31
0.0
  0
LINE
  5
184
330
3C
100
AcDbEntity
  8
1
  6
Continuous
 62
     7
100
AcDbLine
 10
540.8902351761108
 20
111.4349742685602
 30
0.0
 11
541.099452987089
 21
111.4349742685602
 31
0.0
  0
LINE
  5
183
330
3C
100
AcDbEntity
  8
1
  6
Continuous
 62
     7
100
AcDbLine
 10
541.204061892578
 20
111.3303653630712
 30
0.0
 11
541.204061892578
 21
110.9119297411152
 31
0.0
  0
LINE
  5
182
330
3C
100
AcDbEntity
  8
1
  6
Continuous
 62
     7
100
AcDbLine
 10
541.204061892578
 20
110.9119297411152
 30
0.0
 11
539.6349283102428
 21
110.9119297411152
 31
0.0
  0
LINE
  5
181
330
3C
100
AcDbEntity
  8
1
  6
Continuous
 62
     7
100
AcDbLine
 10
536.7581834092955
 20
118.1299442198562
 30
0.0
 11
539.6349283102428
 21
118.1299442198562
 31
0.0
  0
LINE
  5
180
330
3C
100
AcDbEntity
  8
1
  6
Continuous
 62
     7
100
AcDbLine
 10
536.7060156295117
 20
116.5169600220531
 30
0.0
 11
536.7581834092955
 21
118.1299442198562
 31
0.0
  0
LINE
  5
17F
330
3C
100
AcDbEntity
  8
1
  6
Continuous
 62
     7
100
AcDbLine
 10
537.4260330955356
 20
117.0945023632573
 30
0.0
 11
537.2168566245461
 21
116.4299829671806
 31
0.0
  0
LINE
  5
17E
330
3C
100
AcDbEntity
  8
1
  6
Continuous
 62
     7
100
AcDbLine
 10
538.2750125388859
 20
117.6068996924112
 30
0.0
 11
538.1245082274991
 21
117.6068996924112
 31
0.0
  0
LINE
  5
17D
330
3C
100
AcDbEntity
  8
1
  6
Continuous
 62
     7
100
AcDbLine
 10
538.6411437080974
 20
111.6964965322827
 30
0.0
 11
538.6411437080974
 21
117.2407685231997
 31
0.0
  0
LINE
  5
17C
330
3C
100
AcDbEntity
  8
1
  6
Continuous
 62
     7
100
AcDbLine
 10
538.1704036333968
 20
111.4349742685602
 30
0.0
 11
538.3796214443751
 21
111.4349742685602
 31
0.0
  0
LINE
  5
17B
330
3C
100
AcDbEntity
  8
1
  6
Continuous
 62
     7
100
AcDbLine
 10
538.065794727908
 20
110.9119297411152
 30
0.0
 11
538.065794727908
 21
111.3303653630712
 31
0.0
  0
LINE
  5
17A
330
3C
100
AcDbEntity
  8
1
  6
Continuous
 62
     7
100
AcDbLine
 10
539.6349283102428
 20
110.9119297411152
 30
0.0
 11
538.065794727908
 21
110.9119297411152
 31
0.0
  0
LINE
  5
179
330
3C
100
AcDbEntity
  8
1
  6
Continuous
 62
     7
100
AcDbLine
 10
548.9737694709847
 20
115.6674668103642
 30
0.0
 11
545.4971951481275
 21
112.1908924875068
 31
0.0
  0
LINE
  5
178
330
3C
100
AcDbEntity
  8
1
  6
Continuous
 62
     7
100
AcDbLine
 10
544.3136804850271
 20
113.3744071506072
 30
0.0
 11
547.7902548078844
 21
116.8509814734646
 31
0.0
  0
LINE
  5
177
330
3C
100
AcDbEntity
  8
1
  6
Continuous
 62
     7
100
AcDbLine
 10
554.0186528149804
 20
118.1299442198562
 30
0.0
 11
554.8608707519185
 21
114.9867440881577
 31
0.0
  0
LINE
  5
176
330
3C
100
AcDbEntity
  8
1
  6
Continuous
 62
     7
100
AcDbLine
 10
555.1640040823335
 20
114.9867440881577
 30
0.0
 11
556.0062220192717
 21
118.1299442198562
 31
0.0
  0
LINE
  5
175
330
3C
100
AcDbEntity
  8
1
  6
Continuous
 62
     7
100
AcDbLine
 10
552.187996968923
 20
111.4349742685602
 30
0.0
 11
552.3449103271564
 21
111.4349742685602
 31
0.0
  0
LINE
  5
174
330
3C
100
AcDbEntity
  8
1
  6
Continuous
 62
     7
100
AcDbLine
 10
552.4495192326456
 20
111.3303653630712
 30
0.0
 11
552.4495192326456
 21
110.9119297411152
 31
0.0
  0
LINE
  5
173
330
3C
100
AcDbEntity
  8
1
  6
Continuous
 62
     7
100
AcDbLine
 10
552.4495192326456
 20
110.9119297411152
 30
0.0
 11
550.9849945557994
 21
110.9119297411152
 31
0.0
  0
LINE
  5
172
330
3C
100
AcDbEntity
  8
1
  6
Continuous
 62
     7
100
AcDbLine
 10
550.9849945557994
 20
110.9119297411152
 30
0.0
 11
550.9849945557996
 21
111.3303653630712
 31
0.0
  0
LINE
  5
171
330
3C
100
AcDbEntity
  8
1
  6
Continuous
 62
     7
100
AcDbLine
 10
551.0896034612885
 20
111.4349742685602
 30
0.0
 11
551.3511257250111
 21
111.4349742685602
 31
0.0
  0
LINE
  5
170
330
3C
100
AcDbEntity
  8
1
  6
Continuous
 62
     7
100
AcDbLine
 10
551.5080390832444
 20
111.5918876267937
 30
0.0
 11
551.5080390832444
 21
117.4499863341777
 31
0.0
  0
LINE
  5
16F
330
3C
100
AcDbEntity
  8
1
  6
Continuous
 62
     7
100
AcDbLine
 10
551.3511257250111
 20
117.6068996924112
 30
0.0
 11
551.0896034612885
 21
117.6068996924112
 31
0.0
  0
LINE
  5
16E
330
3C
100
AcDbEntity
  8
1
  6
Continuous
 62
     7
100
AcDbLine
 10
550.9849945557994
 20
117.7115085979002
 30
0.0
 11
550.9849945557994
 21
118.1299442198562
 31
0.0
  0
LINE
  5
16D
330
3C
100
AcDbEntity
  8
1
  6
Continuous
 62
     7
100
AcDbLine
 10
550.9849945557994
 20
118.1299442198562
 30
0.0
 11
554.0186528149804
 21
118.1299442198562
 31
0.0
  0
LINE
  5
16C
330
3C
100
AcDbEntity
  8
1
  6
Continuous
 62
     7
100
AcDbLine
 10
556.0062220192717
 20
118.1299442198562
 30
0.0
 11
559.0398802784524
 21
118.1299442198562
 31
0.0
  0
LINE
  5
16B
330
3C
100
AcDbEntity
  8
1
  6
Continuous
 62
     7
100
AcDbLine
 10
559.0398802784524
 20
118.1299442198562
 30
0.0
 11
559.0398802784524
 21
117.7115085979002
 31
0.0
  0
LINE
  5
16A
330
3C
100
AcDbEntity
  8
1
  6
Continuous
 62
     7
100
AcDbLine
 10
558.9352713729636
 20
117.6068996924112
 30
0.0
 11
558.7260535619854
 21
117.6068996924112
 31
0.0
  0
LINE
  5
169
330
3C
100
AcDbEntity
  8
1
  6
Continuous
 62
     7
100
AcDbLine
 10
558.4645312982631
 20
117.3453774286887
 30
0.0
 11
558.4645312982631
 21
111.6964965322827
 31
0.0
  0
LINE
  5
168
330
3C
100
AcDbEntity
  8
1
  6
Continuous
 62
     7
100
AcDbLine
 10
558.7260535619854
 20
111.4349742685602
 30
0.0
 11
558.9352713729636
 21
111.4349742685602
 31
0.0
  0
LINE
  5
167
330
3C
100
AcDbEntity
  8
1
  6
Continuous
 62
     7
100
AcDbLine
 10
559.0398802784524
 20
111.3303653630712
 30
0.0
 11
559.0398802784524
 21
110.9119297411152
 31
0.0
  0
LINE
  5
166
330
3C
100
AcDbEntity
  8
1
  6
Continuous
 62
     7
100
AcDbLine
 10
559.0398802784524
 20
110.9119297411152
 30
0.0
 11
556.1108309247603
 21
110.9119297411152
 31
0.0
  0
LINE
  5
165
330
3C
100
AcDbEntity
  8
1
  6
Continuous
 62
     7
100
AcDbLine
 10
556.1108309247603
 20
110.9119297411152
 30
0.0
 11
556.1108309247603
 21
111.3303653630712
 31
0.0
  0
LINE
  5
164
330
3C
100
AcDbEntity
  8
1
  6
Continuous
 62
     7
100
AcDbLine
 10
556.2154398302494
 20
111.4349742685602
 30
0.0
 11
556.4246576412276
 21
111.4349742685602
 31
0.0
  0
LINE
  5
163
330
3C
100
AcDbEntity
  8
1
  6
Continuous
 62
     7
100
AcDbLine
 10
554.6136564092943
 20
110.9119297411152
 30
0.0
 11
554.1116291276191
 21
110.9119297411152
 31
0.0
  0
LINE
  5
162
330
3C
100
AcDbEntity
  8
1
  6
Continuous
 62
     7
100
AcDbLine
 10
552.0310836106895
 20
111.5918876267937
 30
0.0
 11
552.0310836106895
 21
117.4847560316131
 31
0.0
  0
LINE
  5
161
330
3C
100
AcDbEntity
  8
1
  6
Continuous
 62
     7
100
AcDbLine
 10
552.3395636341304
 20
117.525368197155
 30
0.0
 11
554.1116291276191
 21
110.9119297411152
 31
0.0
  0
LINE
  5
160
330
3C
100
AcDbEntity
  8
1
  6
Continuous
 62
     7
100
AcDbLine
 10
554.6136564092943
 20
110.9119297411152
 30
0.0
 11
556.377699881509
 21
117.4954296061805
 31
0.0
  0
LINE
  5
15F
330
3C
100
AcDbEntity
  8
1
  6
Continuous
 62
     7
100
AcDbLine
 10
556.6861799049499
 20
117.4548174406387
 30
0.0
 11
556.6861799049502
 21
111.6964965322827
 31
0.0
  0
LINE
  5
15E
330
3C
100
AcDbEntity
  8
1
  6
Continuous
 62
     5
100
AcDbLine
 10
545.707257511002
 20
127.7639006069079
 30
0.0
 11
545.707257511002
 21
131.7639006069079
 31
0.0
  0
LINE
  5
15D
330
3C
100
AcDbEntity
  8
1
  6
Continuous
 62
     5
100
AcDbLine
 10
545.707257511002
 20
131.7639006069079
 30
0.0
 11
555.5386140026511
 21
133.7639006069079
 31
0.0
  0
LINE
  5
15C
330
3C
100
AcDbEntity
  8
1
  6
Continuous
 62
     5
100
AcDbLine
 10
555.5386140026511
 20
133.7639006069079
 30
0.0
 11
555.5386140026511
 21
125.7639006069079
 31
0.0
  0
LINE
  5
15B
330
3C
100
AcDbEntity
  8
1
  6
Continuous
 62
     5
100
AcDbLine
 10
555.5386140026511
 20
125.7639006069079
 30
0.0
 11
545.707257511002
 21
127.7639006069079
 31
0.0
  0
LINE
  5
15A
330
3C
100
AcDbEntity
  8
1
  6
Continuous
 62
     5
100
AcDbLine
 10
530.2512155127971
 20
129.7639006069079
 30
0.0
 11
534.2985487571121
 21
129.7639006069079
 31
0.0
  0
LINE
  5
159
330
3C
100
AcDbEntity
  8
1
  6
Continuous
 62
     5
100
AcDbLine
 10
534.847339705494
 20
129.7639006069079
 30
0.0
 11
536.8024074591041
 21
129.7639006069079
 31
0.0
  0
LINE
  5
158
330
3C
100
AcDbEntity
  8
1
  6
Continuous
 62
     5
100
AcDbLine
 10
537.282599538938
 20
129.7639006069079
 30
0.0
 11
549.3560004033359
 21
129.7639006069079
 31
0.0
  0
LINE
  5
157
330
3C
100
AcDbEntity
  8
1
  6
Continuous
 62
     5
100
AcDbLine
 10
549.870491917444
 20
129.7639006069079
 30
0.0
 11
550.7279777742911
 21
129.7639006069079
 31
0.0
  0
LINE
  5
156
330
3C
100
AcDbEntity
  8
1
  6
Continuous
 62
     5
100
AcDbLine
 10
551.4825653283151
 20
129.7639006069079
 30
0.0
 11
557.9308589718011
 21
129.7639006069079
 31
0.0
  0
LINE
  5
155
330
3C
100
AcDbEntity
  8
1
  6
Continuous
 62
     5
100
AcDbLine
 10
535.732377566921
 20
135.3599392455813
 30
0.0
 11
535.732377566921
 21
131.0039110928012
 31
0.0
  0
LINE
  5
154
330
3C
100
AcDbEntity
  8
1
  6
Continuous
 62
     5
100
AcDbLine
 10
535.732377566921
 20
130.5580184472411
 30
0.0
 11
535.732377566921
 21
129.0488433391913
 31
0.0
  0
LINE
  5
153
330
3C
100
AcDbEntity
  8
1
  6
Continuous
 62
     5
100
AcDbLine
 10
535.732377566921
 20
128.5686512593572
 30
0.0
 11
535.732377566921
 21
123.766730461017
 31
0.0
  0
LINE
  5
152
330
3C
100
AcDbEntity
  8
1
  6
Continuous
 62
     5
100
AcDbLine
 10
527.656931105604
 20
168.2639006069078
 30
0.0
 11
542.6569311056039
 21
168.2639006069078
 31
0.0
  0
LINE
  5
151
330
3C
100
AcDbEntity
  8
1
  6
Continuous
 62
     5
100
AcDbLine
 10
527.656931105604
 20
175.2639006069077
 30
0.0
 11
542.6569311056039
 21
175.2639006069077
 31
0.0
  0
LINE
  5
150
330
3C
100
AcDbEntity
  8
1
  6
Continuous
 62
     5
100
AcDbLine
 10
527.656931105604
 20
182.2639006069076
 30
0.0
 11
542.6569311056039
 21
182.2639006069076
 31
0.0
  0
LINE
  5
14F
330
3C
100
AcDbEntity
  8
1
  6
Continuous
 62
     5
100
AcDbLine
 10
527.656931105604
 20
189.2639006069074
 30
0.0
 11
542.6569311056039
 21
189.2639006069074
 31
0.0
  0
LINE
  5
14E
330
3C
100
AcDbEntity
  8
1
  6
Continuous
 62
     5
100
AcDbLine
 10
527.656931105604
 20
196.2639006069073
 30
0.0
 11
542.6569311056039
 21
196.2639006069073
 31
0.0
  0
LINE
  5
14D
330
3C
100
AcDbEntity
  8
1
  6
Continuous
 62
     5
100
AcDbLine
 10
527.656931105604
 20
203.2639006069072
 30
0.0
 11
542.6569311056039
 21
203.2639006069072
 31
0.0
  0
LINE
  5
14C
330
3C
100
AcDbEntity
  8
1
  6
Continuous
 62
     5
100
AcDbLine
 10
527.656931105604
 20
161.2639006069079
 30
0.0
 11
527.656931105604
 21
168.2639006069078
 31
0.0
  0
LINE
  5
14B
330
3C
100
AcDbEntity
  8
1
  6
Continuous
 62
     5
100
AcDbLine
 10
527.656931105604
 20
168.2639006069078
 30
0.0
 11
527.656931105604
 21
175.2639006069077
 31
0.0
  0
LINE
  5
14A
330
3C
100
AcDbEntity
  8
1
  6
Continuous
 62
     5
100
AcDbLine
 10
527.656931105604
 20
175.2639006069077
 30
0.0
 11
527.656931105604
 21
182.2639006069076
 31
0.0
  0
LINE
  5
149
330
3C
100
AcDbEntity
  8
1
  6
Continuous
 62
     5
100
AcDbLine
 10
527.656931105604
 20
182.2639006069076
 30
0.0
 11
527.656931105604
 21
189.2639006069074
 31
0.0
  0
LINE
  5
148
330
3C
100
AcDbEntity
  8
1
  6
Continuous
 62
     5
100
AcDbLine
 10
527.656931105604
 20
189.2639006069074
 30
0.0
 11
527.656931105604
 21
196.2639006069073
 31
0.0
  0
LINE
  5
147
330
3C
100
AcDbEntity
  8
1
  6
Continuous
 62
     5
100
AcDbLine
 10
527.656931105604
 20
196.2639006069073
 30
0.0
 11
527.656931105604
 21
203.2639006069072
 31
0.0
  0
LINE
  5
146
330
3C
100
AcDbEntity
  8
1
  6
Continuous
 62
     5
100
AcDbLine
 10
542.6569311056039
 20
168.2639006069078
 30
0.0
 11
542.6569311056039
 21
161.2639006069079
 31
0.0
  0
LINE
  5
145
330
3C
100
AcDbEntity
  8
1
  6
Continuous
 62
     5
100
AcDbLine
 10
542.6569311056039
 20
175.2639006069077
 30
0.0
 11
542.6569311056039
 21
168.2639006069078
 31
0.0
  0
LINE
  5
144
330
3C
100
AcDbEntity
  8
1
  6
Continuous
 62
     5
100
AcDbLine
 10
542.6569311056039
 20
182.2639006069076
 30
0.0
 11
542.6569311056039
 21
175.2639006069077
 31
0.0
  0
LINE
  5
143
330
3C
100
AcDbEntity
  8
1
  6
Continuous
 62
     5
100
AcDbLine
 10
542.6569311056039
 20
189.2639006069074
 30
0.0
 11
542.6569311056039
 21
182.2639006069076
 31
0.0
  0
LINE
  5
142
330
3C
100
AcDbEntity
  8
1
  6
Continuous
 62
     5
100
AcDbLine
 10
542.6569311056039
 20
196.2639006069073
 30
0.0
 11
542.6569311056039
 21
189.2639006069074
 31
0.0
  0
LINE
  5
141
330
3C
100
AcDbEntity
  8
1
  6
Continuous
 62
     5
100
AcDbLine
 10
542.6569311056039
 20
203.2639006069072
 30
0.0
 11
542.6569311056039
 21
196.2639006069073
 31
0.0
  0
LINE
  5
140
330
3C
100
AcDbEntity
  8
1
  6
Continuous
 62
     5
100
AcDbLine
 10
542.6569311056039
 20
168.2639006069078
 30
0.0
 11
592.6569311056039
 21
168.2639006069078
 31
0.0
  0
LINE
  5
13F
330
3C
100
AcDbEntity
  8
1
  6
Continuous
 62
     5
100
AcDbLine
 10
592.6569311056039
 20
168.2639006069078
 30
0.0
 11
592.6569311056039
 21
161.2639006069079
 31
0.0
  0
LINE
  5
13E
330
3C
100
AcDbEntity
  8
1
  6
Continuous
 62
     5
100
AcDbLine
 10
592.6569311056039
 20
175.2639006069077
 30
0.0
 11
592.6569311056039
 21
168.2639006069078
 31
0.0
  0
LINE
  5
13D
330
3C
100
AcDbEntity
  8
1
  6
Continuous
 62
     5
100
AcDbLine
 10
542.6569311056039
 20
175.2639006069077
 30
0.0
 11
592.6569311056039
 21
175.2639006069077
 31
0.0
  0
LINE
  5
13C
330
3C
100
AcDbEntity
  8
1
  6
Continuous
 62
     5
100
AcDbLine
 10
592.6569311056039
 20
182.2639006069076
 30
0.0
 11
592.6569311056039
 21
175.2639006069077
 31
0.0
  0
LINE
  5
13B
330
3C
100
AcDbEntity
  8
1
  6
Continuous
 62
     5
100
AcDbLine
 10
542.6569311056039
 20
182.2639006069076
 30
0.0
 11
592.6569311056039
 21
182.2639006069076
 31
0.0
  0
LINE
  5
13A
330
3C
100
AcDbEntity
  8
1
  6
Continuous
 62
     5
100
AcDbLine
 10
592.6569311056039
 20
189.2639006069074
 30
0.0
 11
592.6569311056039
 21
182.2639006069076
 31
0.0
  0
LINE
  5
139
330
3C
100
AcDbEntity
  8
1
  6
Continuous
 62
     5
100
AcDbLine
 10
542.6569311056039
 20
189.2639006069074
 30
0.0
 11
592.6569311056039
 21
189.2639006069074
 31
0.0
  0
LINE
  5
138
330
3C
100
AcDbEntity
  8
1
  6
Continuous
 62
     5
100
AcDbLine
 10
592.6569311056039
 20
196.2639006069073
 30
0.0
 11
592.6569311056039
 21
189.2639006069074
 31
0.0
  0
LINE
  5
137
330
3C
100
AcDbEntity
  8
1
  6
Continuous
 62
     5
100
AcDbLine
 10
542.6569311056039
 20
196.2639006069073
 30
0.0
 11
592.6569311056039
 21
196.2639006069073
 31
0.0
  0
LINE
  5
136
330
3C
100
AcDbEntity
  8
1
  6
Continuous
 62
     5
100
AcDbLine
 10
592.6569311056039
 20
203.2639006069072
 30
0.0
 11
592.6569311056039
 21
196.2639006069073
 31
0.0
  0
LINE
  5
135
330
3C
100
AcDbEntity
  8
1
  6
Continuous
 62
     5
100
AcDbLine
 10
542.6569311056039
 20
203.2639006069072
 30
0.0
 11
592.6569311056039
 21
203.2639006069072
 31
0.0
  0
LINE
  5
134
330
3C
100
AcDbEntity
  8
1
  6
Continuous
 62
     5
100
AcDbLine
 10
622.6569311056041
 20
168.2639006069078
 30
0.0
 11
622.6569311056041
 21
161.2639006069079
 31
0.0
  0
LINE
  5
133
330
3C
100
AcDbEntity
  8
1
  6
Continuous
 62
     5
100
AcDbLine
 10
622.6569311056041
 20
168.2639006069078
 30
0.0
 11
637.6569311056041
 21
168.2639006069078
 31
0.0
  0
LINE
  5
132
330
3C
100
AcDbEntity
  8
1
  6
Continuous
 62
     5
100
AcDbLine
 10
592.6569311056039
 20
168.2639006069078
 30
0.0
 11
622.6569311056041
 21
168.2639006069078
 31
0.0
  0
LINE
  5
131
330
3C
100
AcDbEntity
  8
1
  6
Continuous
 62
     5
100
AcDbLine
 10
622.6569311056041
 20
175.2639006069077
 30
0.0
 11
622.6569311056041
 21
168.2639006069078
 31
0.0
  0
LINE
  5
130
330
3C
100
AcDbEntity
  8
1
  6
Continuous
 62
     5
100
AcDbLine
 10
622.6569311056041
 20
175.2639006069077
 30
0.0
 11
637.6569311056041
 21
175.2639006069077
 31
0.0
  0
LINE
  5
12F
330
3C
100
AcDbEntity
  8
1
  6
Continuous
 62
     5
100
AcDbLine
 10
592.6569311056039
 20
175.2639006069077
 30
0.0
 11
622.6569311056041
 21
175.2639006069077
 31
0.0
  0
LINE
  5
12E
330
3C
100
AcDbEntity
  8
1
  6
Continuous
 62
     5
100
AcDbLine
 10
622.6569311056041
 20
182.2639006069076
 30
0.0
 11
622.6569311056041
 21
175.2639006069077
 31
0.0
  0
LINE
  5
12D
330
3C
100
AcDbEntity
  8
1
  6
Continuous
 62
     5
100
AcDbLine
 10
622.6569311056041
 20
182.2639006069076
 30
0.0
 11
637.6569311056041
 21
182.2639006069076
 31
0.0
  0
LINE
  5
12C
330
3C
100
AcDbEntity
  8
1
  6
Continuous
 62
     5
100
AcDbLine
 10
592.6569311056039
 20
182.2639006069076
 30
0.0
 11
622.6569311056041
 21
182.2639006069076
 31
0.0
  0
LINE
  5
12B
330
3C
100
AcDbEntity
  8
1
  6
Continuous
 62
     5
100
AcDbLine
 10
622.6569311056041
 20
189.2639006069074
 30
0.0
 11
622.6569311056041
 21
182.2639006069076
 31
0.0
  0
LINE
  5
12A
330
3C
100
AcDbEntity
  8
1
  6
Continuous
 62
     5
100
AcDbLine
 10
622.6569311056041
 20
189.2639006069074
 30
0.0
 11
637.6569311056041
 21
189.2639006069074
 31
0.0
  0
LINE
  5
129
330
3C
100
AcDbEntity
  8
1
  6
Continuous
 62
     5
100
AcDbLine
 10
592.6569311056039
 20
189.2639006069074
 30
0.0
 11
622.6569311056041
 21
189.2639006069074
 31
0.0
  0
LINE
  5
128
330
3C
100
AcDbEntity
  8
1
  6
Continuous
 62
     5
100
AcDbLine
 10
622.6569311056041
 20
196.2639006069073
 30
0.0
 11
622.6569311056041
 21
189.2639006069074
 31
0.0
  0
LINE
  5
127
330
3C
100
AcDbEntity
  8
1
  6
Continuous
 62
     5
100
AcDbLine
 10
622.6569311056041
 20
196.2639006069073
 30
0.0
 11
637.6569311056041
 21
196.2639006069073
 31
0.0
  0
LINE
  5
126
330
3C
100
AcDbEntity
  8
1
  6
Continuous
 62
     5
100
AcDbLine
 10
592.6569311056039
 20
196.2639006069073
 30
0.0
 11
622.6569311056041
 21
196.2639006069073
 31
0.0
  0
LINE
  5
125
330
3C
100
AcDbEntity
  8
1
  6
Continuous
 62
     5
100
AcDbLine
 10
622.6569311056041
 20
203.2639006069072
 30
0.0
 11
622.6569311056041
 21
196.2639006069073
 31
0.0
  0
LINE
  5
124
330
3C
100
AcDbEntity
  8
1
  6
Continuous
 62
     5
100
AcDbLine
 10
622.6569311056041
 20
203.2639006069072
 30
0.0
 11
637.6569311056041
 21
203.2639006069072
 31
0.0
  0
LINE
  5
123
330
3C
100
AcDbEntity
  8
1
  6
Continuous
 62
     5
100
AcDbLine
 10
592.6569311056039
 20
203.2639006069072
 30
0.0
 11
622.6569311056041
 21
203.2639006069072
 31
0.0
  0
LINE
  5
122
330
3C
100
AcDbEntity
  8
1
  6
Continuous
 62
     5
100
AcDbLine
 10
637.6569311056041
 20
168.2639006069078
 30
0.0
 11
677.656931105604
 21
168.2639006069078
 31
0.0
  0
LINE
  5
121
330
3C
100
AcDbEntity
  8
1
  6
Continuous
 62
     5
100
AcDbLine
 10
637.6569311056041
 20
168.2639006069078
 30
0.0
 11
637.6569311056041
 21
161.2639006069079
 31
0.0
  0
LINE
  5
120
330
3C
100
AcDbEntity
  8
1
  6
Continuous
 62
     5
100
AcDbLine
 10
637.6569311056041
 20
175.2639006069077
 30
0.0
 11
637.6569311056041
 21
168.2639006069078
 31
0.0
  0
LINE
  5
11F
330
3C
100
AcDbEntity
  8
1
  6
Continuous
 62
     5
100
AcDbLine
 10
637.6569311056041
 20
175.2639006069077
 30
0.0
 11
677.656931105604
 21
175.2639006069077
 31
0.0
  0
LINE
  5
11E
330
3C
100
AcDbEntity
  8
1
  6
Continuous
 62
     5
100
AcDbLine
 10
637.6569311056041
 20
182.2639006069076
 30
0.0
 11
637.6569311056041
 21
175.2639006069077
 31
0.0
  0
LINE
  5
11D
330
3C
100
AcDbEntity
  8
1
  6
Continuous
 62
     5
100
AcDbLine
 10
637.6569311056041
 20
182.2639006069076
 30
0.0
 11
677.656931105604
 21
182.2639006069076
 31
0.0
  0
LINE
  5
11C
330
3C
100
AcDbEntity
  8
1
  6
Continuous
 62
     5
100
AcDbLine
 10
637.6569311056041
 20
189.2639006069074
 30
0.0
 11
637.6569311056041
 21
182.2639006069076
 31
0.0
  0
LINE
  5
11B
330
3C
100
AcDbEntity
  8
1
  6
Continuous
 62
     5
100
AcDbLine
 10
637.6569311056041
 20
189.2639006069074
 30
0.0
 11
677.656931105604
 21
189.2639006069074
 31
0.0
  0
LINE
  5
11A
330
3C
100
AcDbEntity
  8
1
  6
Continuous
 62
     5
100
AcDbLine
 10
637.6569311056041
 20
196.2639006069073
 30
0.0
 11
637.6569311056041
 21
189.2639006069074
 31
0.0
  0
LINE
  5
119
330
3C
100
AcDbEntity
  8
1
  6
Continuous
 62
     5
100
AcDbLine
 10
637.6569311056041
 20
196.2639006069073
 30
0.0
 11
677.656931105604
 21
196.2639006069073
 31
0.0
  0
LINE
  5
118
330
3C
100
AcDbEntity
  8
1
  6
Continuous
 62
     5
100
AcDbLine
 10
637.6569311056041
 20
203.2639006069072
 30
0.0
 11
637.6569311056041
 21
196.2639006069073
 31
0.0
  0
LINE
  5
117
330
3C
100
AcDbEntity
  8
1
  6
Continuous
 62
     5
100
AcDbLine
 10
637.6569311056041
 20
203.2639006069072
 30
0.0
 11
677.656931105604
 21
203.2639006069072
 31
0.0
  0
LINE
  5
116
330
3C
100
AcDbEntity
  8
1
  6
Continuous
 62
     5
100
AcDbLine
 10
677.656931105604
 20
168.2639006069078
 30
0.0
 11
707.6569311056039
 21
168.2639006069078
 31
0.0
  0
LINE
  5
115
330
3C
100
AcDbEntity
  8
1
  6
Continuous
 62
     5
100
AcDbLine
 10
677.656931105604
 20
168.2639006069078
 30
0.0
 11
677.656931105604
 21
161.2639006069079
 31
0.0
  0
LINE
  5
114
330
3C
100
AcDbEntity
  8
1
  6
Continuous
 62
     5
100
AcDbLine
 10
677.656931105604
 20
175.2639006069077
 30
0.0
 11
677.656931105604
 21
168.2639006069078
 31
0.0
  0
LINE
  5
113
330
3C
100
AcDbEntity
  8
1
  6
Continuous
 62
     5
100
AcDbLine
 10
677.656931105604
 20
175.2639006069077
 30
0.0
 11
707.6569311056039
 21
175.2639006069077
 31
0.0
  0
LINE
  5
112
330
3C
100
AcDbEntity
  8
1
  6
Continuous
 62
     5
100
AcDbLine
 10
677.656931105604
 20
182.2639006069076
 30
0.0
 11
677.656931105604
 21
175.2639006069077
 31
0.0
  0
LINE
  5
111
330
3C
100
AcDbEntity
  8
1
  6
Continuous
 62
     5
100
AcDbLine
 10
677.656931105604
 20
182.2639006069076
 30
0.0
 11
707.6569311056039
 21
182.2639006069076
 31
0.0
  0
LINE
  5
110
330
3C
100
AcDbEntity
  8
1
  6
Continuous
 62
     5
100
AcDbLine
 10
677.656931105604
 20
189.2639006069074
 30
0.0
 11
677.656931105604
 21
182.2639006069076
 31
0.0
  0
LINE
  5
10F
330
3C
100
AcDbEntity
  8
1
  6
Continuous
 62
     5
100
AcDbLine
 10
677.656931105604
 20
189.2639006069074
 30
0.0
 11
707.6569311056039
 21
189.2639006069074
 31
0.0
  0
LINE
  5
10E
330
3C
100
AcDbEntity
  8
1
  6
Continuous
 62
     5
100
AcDbLine
 10
677.656931105604
 20
196.2639006069073
 30
0.0
 11
677.656931105604
 21
189.2639006069074
 31
0.0
  0
LINE
  5
10D
330
3C
100
AcDbEntity
  8
1
  6
Continuous
 62
     5
100
AcDbLine
 10
677.656931105604
 20
196.2639006069073
 30
0.0
 11
707.6569311056039
 21
196.2639006069073
 31
0.0
  0
LINE
  5
10C
330
3C
100
AcDbEntity
  8
1
  6
Continuous
 62
     5
100
AcDbLine
 10
677.656931105604
 20
203.2639006069072
 30
0.0
 11
677.656931105604
 21
196.2639006069073
 31
0.0
  0
LINE
  5
10B
330
3C
100
AcDbEntity
  8
1
  6
Continuous
 62
     5
100
AcDbLine
 10
677.656931105604
 20
203.2639006069072
 30
0.0
 11
707.6569311056039
 21
203.2639006069072
 31
0.0
  0
ENDBLK
  5
254
330
3C
100
AcDbEntity
  8
0
100
AcDbBlockEnd
  0
BLOCK
  5
3F
330
3E
100
AcDbEntity
  8
0
100
AcDbBlockBegin
  2
FORMAT_A3
 70
     0
 10
358.6569311056036
 20
-103.7360993930925
 30
0.0
  3
FORMAT_A3
  1

  0
LINE
  5
258
330
3E
100
AcDbEntity
  8
1
  6
Continuous
 62
     7
100
AcDbLine
 10
332.656931105604
 20
372.2639006069079
 30
0.0
 11
332.6569311056037
 21
102.2639006069088
 31
0.0
  0
LINE
  5
257
330
3E
100
AcDbEntity
  8
1
  6
Continuous
 62
     7
100
AcDbLine
 10
707.6569311056044
 20
372.2639006069071
 30
0.0
 11
332.656931105604
 21
372.2639006069079
 31
0.0
  0
LINE
  5
256
330
3E
100
AcDbEntity
  8
1
  6
Continuous
 62
     7
100
AcDbLine
 10
707.6569311056039
 20
154.2639006069079
 30
0.0
 11
707.6569311056044
 21
372.2639006069071
 31
0.0
  0
LINE
  5
255
330
3E
100
AcDbEntity
  8
1
  6
Continuous
 62
     7
100
AcDbLine
 10
527.6569311056038
 20
102.2639006069083
 30
0.0
 11
332.6569311056037
 21
102.2639006069088
 31
0.0
  0
INSERT
  5
40
330
3E
100
AcDbEntity
  8
0
100
AcDbBlockReference
  2
______
 10
755.0768948146622
 20
-125.607643959568
 30
0.0
  0
ENDBLK
  5
259
330
3E
100
AcDbEntity
  8
0
100
AcDbBlockEnd
  0
BLOCK
  5
42
330
41
100
AcDbEntity
  8
0
100
AcDbBlockBegin
  2
_5
 70
     0
 10
769.5625773480523
 20
69.95565263342564
 30
0.0
  3
_5
  1

  0
ARC
  5
303
330
41
100
AcDbEntity
  8
1
  6
Continuous
 62
     7
100
AcDbCircle
 10
920.931363838668
 20
198.6004956673496
 30
0.0
 40
2.0
100
AcDbArc
 50
180.0
 51
-102.3653727585363
  0
ARC
  5
302
330
41
100
AcDbEntity
  8
1
  6
Continuous
 62
     7
100
AcDbCircle
 10
966.9313638386681
 20
198.6004956673496
 30
0.0
 40
1.999999999999989
100
AcDbArc
 50
-77.63462724146052
 51
0.0
  0
ARC
  5
301
330
41
100
AcDbEntity
  8
1
  6
Continuous
 62
     7
100
AcDbCircle
 10
953.931363838668
 20
192.4914590933065
 30
0.0
 40
2.0
100
AcDbArc
 50
-90.0
 51
0.0
  0
ARC
  5
300
330
41
100
AcDbEntity
  8
1
  6
Continuous
 62
     7
100
AcDbCircle
 10
933.9313638386681
 20
192.4914590933065
 30
0.0
 40
2.0
100
AcDbArc
 50
180.0
 51
-90.0
  0
ARC
  5
2FF
330
41
100
AcDbEntity
  8
1
  6
Continuous
 62
     7
100
AcDbCircle
 10
776.5625773480526
 20
191.4914590933065
 30
0.0
 40
1.0
100
AcDbArc
 50
180.0
 51
-90.0
  0
ARC
  5
2FE
330
41
100
AcDbEntity
  8
1
  6
Continuous
 62
     7
100
AcDbCircle
 10
776.5625773480526
 20
195.1414590933064
 30
0.0
 40
1.0
100
AcDbArc
 50
180.0
 51
-90.0
  0
ARC
  5
2FD
330
41
100
AcDbEntity
  8
1
  6
Continuous
 62
     7
100
AcDbCircle
 10
795.5625773480526
 20
191.4914590933065
 30
0.0
 40
1.0
100
AcDbArc
 50
-90.0
 51
0.0
  0
ARC
  5
2FC
330
41
100
AcDbEntity
  8
1
  6
Continuous
 62
     7
100
AcDbCircle
 10
795.5625773480526
 20
195.1414590933064
 30
0.0
 40
1.0
100
AcDbArc
 50
-90.0
 51
0.0
  0
ARC
  5
2FB
330
41
100
AcDbEntity
  8
1
  6
Continuous
 62
     7
100
AcDbCircle
 10
794.5625773480526
 20
71.95565263342564
 30
0.0
 40
2.0
100
AcDbArc
 50
-90.0
 51
0.0
  0
ARC
  5
2FA
330
41
100
AcDbEntity
  8
1
  6
Continuous
 62
     7
100
AcDbCircle
 10
794.5625773480526
 20
117.9556526334256
 30
0.0
 40
2.0
100
AcDbArc
 50
0.0
 51
90.0
  0
ARC
  5
2F9
330
41
100
AcDbEntity
  8
1
  6
Continuous
 62
     7
100
AcDbCircle
 10
795.5625773480526
 20
83.95565263342565
 30
0.0
 40
1.0
100
AcDbArc
 50
-90.0
 51
0.0
  0
ARC
  5
2F8
330
41
100
AcDbEntity
  8
1
  6
Continuous
 62
     7
100
AcDbCircle
 10
795.5625773480529
 20
105.9556526334256
 30
0.0
 40
0.99999999999966
100
AcDbArc
 50
0.0
 51
90.00000000001955
  0
ARC
  5
2F7
330
41
100
AcDbEntity
  8
1
  6
PHANTOM
 62
     7
100
AcDbCircle
 10
798.5625773480523
 20
83.95565263342565
 30
0.0
 40
1.0
100
AcDbArc
 50
-90.0
 51
0.0
  0
ARC
  5
2F6
330
41
100
AcDbEntity
  8
1
  6
PHANTOM
 62
     7
100
AcDbCircle
 10
798.5625773480523
 20
105.9556526334256
 30
0.0
 40
1.0
100
AcDbArc
 50
0.0
 51
90.0
  0
ARC
  5
2F5
330
41
100
AcDbEntity
  8
1
  6
Continuous
 62
     7
100
AcDbCircle
 10
777.5625773480526
 20
117.9556526334256
 30
0.0
 40
2.0
100
AcDbArc
 50
90.0
 51
180.0
  0
ARC
  5
2F4
330
41
100
AcDbEntity
  8
1
  6
Continuous
 62
     7
100
AcDbCircle
 10
777.5625773480526
 20
71.95565263342564
 30
0.0
 40
2.0
100
AcDbArc
 50
180.0
 51
-90.0
  0
ARC
  5
2F3
330
41
100
AcDbEntity
  8
1
  6
Continuous
 62
     7
100
AcDbCircle
 10
778.5625773480524
 20
91.95565263342563
 30
0.0
 40
2.0
100
AcDbArc
 50
-90.0
 51
0.0
  0
ARC
  5
2F2
330
41
100
AcDbEntity
  8
1
  6
Continuous
 62
     7
100
AcDbCircle
 10
778.5625773480526
 20
97.95565263342565
 30
0.0
 40
1.99999999999966
100
AcDbArc
 50
0.0
 51
90.00000000000978
  0
ARC
  5
2F1
330
41
100
AcDbEntity
  8
1
  6
Continuous
 62
     7
100
AcDbCircle
 10
776.5625773480526
 20
83.95565263342565
 30
0.0
 40
1.0
100
AcDbArc
 50
180.0
 51
-90.0
  0
ARC
  5
2F0
330
41
100
AcDbEntity
  8
1
  6
Continuous
 62
     7
100
AcDbCircle
 10
776.5625773480524
 20
105.9556526334256
 30
0.0
 40
1.0
100
AcDbArc
 50
89.99999999998044
 51
180.0
  0
ARC
  5
2EF
330
41
100
AcDbEntity
  8
1
  6
Continuous
 62
     7
100
AcDbCircle
 10
777.3625773480524
 20
95.95565263342564
 30
0.0
 40
0.5
100
AcDbArc
 50
180.0
 51
-90.0
  0
ARC
  5
2EE
330
41
100
AcDbEntity
  8
1
  6
Continuous
 62
     7
100
AcDbCircle
 10
777.3625773480524
 20
93.95565263342565
 30
0.0
 40
0.5
100
AcDbArc
 50
90.0
 51
180.0
  0
ARC
  5
2ED
330
41
100
AcDbEntity
  8
1
  6
Continuous
 62
     7
100
AcDbCircle
 10
775.3625773480523
 20
95.95565263342564
 30
0.0
 40
0.5
100
AcDbArc
 50
-90.0
 51
0.0
  0
ARC
  5
2EC
330
41
100
AcDbEntity
  8
1
  6
Continuous
 62
     7
100
AcDbCircle
 10
775.3625773480523
 20
93.95565263342565
 30
0.0
 40
0.5
100
AcDbArc
 50
0.0
 51
90.0
  0
CIRCLE
  5
2EB
330
41
100
AcDbEntity
  8
1
  6
Continuous
 62
     7
100
AcDbCircle
 10
776.3625773480523
 20
94.95565263342564
 30
0.0
 40
4.0
  0
ARC
  5
2EA
330
41
100
AcDbEntity
  8
1
  6
Continuous
 62
     7
100
AcDbCircle
 10
776.5625773480524
 20
199.5816118741381
 30
0.0
 40
8.69015278083166
100
AcDbArc
 50
-116.3067143196501
 51
-95.4687166016466
  0
ARC
  5
2E9
330
41
100
AcDbEntity
  8
1
  6
Continuous
 62
     7
100
AcDbCircle
 10
774.5625773480524
 20
94.95565263342564
 30
0.0
 40
5.0
100
AcDbArc
 50
180.0
 51
-90.0
  0
ARC
  5
2E8
330
41
100
AcDbEntity
  8
1
  6
Continuous
 62
     7
100
AcDbCircle
 10
774.5625773480524
 20
94.95565263342564
 30
0.0
 40
5.0
100
AcDbArc
 50
90.0
 51
180.0
  0
ARC
  5
2E7
330
41
100
AcDbEntity
  8
1
  6
Continuous
 62
     7
100
AcDbCircle
 10
773.562577348053
 20
94.95565263342564
 30
0.0
 40
2.00000000000015
100
AcDbArc
 50
111.8037479893981
 51
-111.8037479893969
  0
LINE
  5
2E6
330
41
100
AcDbEntity
  8
1
  6
Continuous
 62
     7
100
AcDbLine
 10
955.9313638386681
 20
194.1414590933064
 30
0.0
 11
967.3596538925474
 21
196.6468919128109
 31
0.0
  0
LINE
  5
2E5
330
41
100
AcDbEntity
  8
1
  6
Continuous
 62
     7
100
AcDbLine
 10
788.8625773480525
 20
195.9914590933065
 30
0.0
 11
793.8625773480525
 21
195.9914590933065
 31
0.0
  0
LINE
  5
2E4
330
41
100
AcDbEntity
  8
1
  6
Continuous
 62
     7
100
AcDbLine
 10
918.931363838668
 20
198.6004956673496
 30
0.0
 11
918.931363838668
 21
201.9914590933065
 31
0.0
  0
LINE
  5
2E3
330
41
100
AcDbEntity
  8
1
  6
Continuous
 62
     7
100
AcDbLine
 10
931.9313638386681
 20
194.1414590933064
 30
0.0
 11
920.5030737847884
 21
196.6468919128109
 31
0.0
  0
LINE
  5
2E2
330
41
100
AcDbEntity
  8
1
  6
Continuous
 62
     7
100
AcDbLine
 10
968.931363838668
 20
201.9914590933065
 30
0.0
 11
918.931363838668
 21
201.9914590933065
 31
0.0
  0
LINE
  5
2E1
330
41
100
AcDbEntity
  8
1
  6
Continuous
 62
     7
100
AcDbLine
 10
968.931363838668
 20
198.6004956673496
 30
0.0
 11
968.931363838668
 21
201.9914590933065
 31
0.0
  0
LINE
  5
2E0
330
41
100
AcDbEntity
  8
1
  6
Continuous
 62
     7
100
AcDbLine
 10
952.231363838668
 20
197.6914590933064
 30
0.0
 11
952.231363838668
 21
199.2414590933065
 31
0.0
  0
LINE
  5
2DF
330
41
100
AcDbEntity
  8
1
  6
Continuous
 62
     7
100
AcDbLine
 10
935.631363838668
 20
197.6914590933064
 30
0.0
 11
935.631363838668
 21
199.2414590933065
 31
0.0
  0
LINE
  5
2DE
330
41
100
AcDbEntity
  8
1
  6
Continuous
 62
     7
100
AcDbLine
 10
957.9313638386681
 20
199.2414590933065
 30
0.0
 11
952.231363838668
 21
199.2414590933065
 31
0.0
  0
LINE
  5
2DD
330
41
100
AcDbEntity
  8
1
  6
Continuous
 62
     7
100
AcDbLine
 10
935.631363838668
 20
199.2414590933065
 30
0.0
 11
929.931363838668
 21
199.2414590933065
 31
0.0
  0
LINE
  5
2DC
330
41
100
AcDbEntity
  8
1
  6
Continuous
 62
     7
100
AcDbLine
 10
929.931363838668
 20
198.2414590933065
 30
0.0
 11
929.931363838668
 21
199.2414590933065
 31
0.0
  0
LINE
  5
2DB
330
41
100
AcDbEntity
  8
1
  6
Continuous
 62
     7
100
AcDbLine
 10
957.9313638386681
 20
198.2414590933065
 30
0.0
 11
957.9313638386681
 21
199.2414590933065
 31
0.0
  0
LINE
  5
2DA
330
41
100
AcDbEntity
  8
1
  6
Continuous
 62
     7
100
AcDbLine
 10
957.9313638386681
 20
198.2414590933065
 30
0.0
 11
955.9313638386681
 21
196.3414590933065
 31
0.0
  0
LINE
  5
2D9
330
41
100
AcDbEntity
  8
1
  6
Continuous
 62
     7
100
AcDbLine
 10
931.9313638386681
 20
196.3414590933065
 30
0.0
 11
929.931363838668
 21
198.2414590933065
 31
0.0
  0
LINE
  5
2D8
330
41
100
AcDbEntity
  8
1
  6
Continuous
 62
     7
100
AcDbLine
 10
952.231363838668
 20
197.6914590933064
 30
0.0
 11
935.631363838668
 21
197.6914590933064
 31
0.0
  0
LINE
  5
2D7
330
41
100
AcDbEntity
  8
1
  6
Continuous
 62
     7
100
AcDbLine
 10
952.231363838668
 20
197.6914590933064
 30
0.0
 11
935.631363838668
 21
197.6914590933064
 31
0.0
  0
LINE
  5
2D6
330
41
100
AcDbEntity
  8
1
  6
Continuous
 62
     7
100
AcDbLine
 10
931.9313638386681
 20
194.1414590933064
 30
0.0
 11
931.9313638386681
 21
196.3414590933065
 31
0.0
  0
LINE
  5
2D5
330
41
100
AcDbEntity
  8
1
  6
DOTTED
 62
     7
100
AcDbLine
 10
931.0313638386681
 20
195.9414590933064
 30
0.0
 11
931.0313638386681
 21
195.9914590933065
 31
0.0
  0
LINE
  5
2D4
330
41
100
AcDbEntity
  8
1
  6
DOTTED
 62
     7
100
AcDbLine
 10
956.831363838668
 20
195.9414590933064
 30
0.0
 11
956.831363838668
 21
195.9914590933065
 31
0.0
  0
LINE
  5
2D3
330
41
100
AcDbEntity
  8
1
  6
Continuous
 62
     7
100
AcDbLine
 10
955.9313638386681
 20
194.1414590933064
 30
0.0
 11
955.9313638386681
 21
196.3414590933065
 31
0.0
  0
LINE
  5
2D2
330
41
100
AcDbEntity
  8
1
  6
Continuous
 62
     7
100
AcDbLine
 10
936.1313638386681
 20
196.4914590933065
 30
0.0
 11
935.931363838668
 21
196.4914590933065
 31
0.0
  0
LINE
  5
2D1
330
41
100
AcDbEntity
  8
1
  6
Continuous
 62
     7
100
AcDbLine
 10
936.1313638386681
 20
193.9914590933065
 30
0.0
 11
951.731363838668
 21
193.9914590933065
 31
0.0
  0
LINE
  5
2D0
330
41
100
AcDbEntity
  8
1
  6
Continuous
 62
     7
100
AcDbLine
 10
936.1313638386681
 20
193.9914590933065
 30
0.0
 11
936.1313638386681
 21
196.4914590933065
 31
0.0
  0
LINE
  5
2CF
330
41
100
AcDbEntity
  8
1
  6
Continuous
 62
     7
100
AcDbLine
 10
951.731363838668
 20
196.4914590933065
 30
0.0
 11
936.1313638386681
 21
196.4914590933065
 31
0.0
  0
LINE
  5
2CE
330
41
100
AcDbEntity
  8
1
  6
Continuous
 62
     7
100
AcDbLine
 10
951.731363838668
 20
193.9914590933065
 30
0.0
 11
951.931363838668
 21
193.9914590933065
 31
0.0
  0
LINE
  5
2CD
330
41
100
AcDbEntity
  8
1
  6
Continuous
 62
     7
100
AcDbLine
 10
951.731363838668
 20
193.9914590933065
 30
0.0
 11
951.731363838668
 21
196.4914590933065
 31
0.0
  0
LINE
  5
2CC
330
41
100
AcDbEntity
  8
1
  6
Continuous
 62
     7
100
AcDbLine
 10
935.5063638386681
 20
197.6914590933064
 30
0.0
 11
935.931363838668
 21
197.6914590933064
 31
0.0
  0
LINE
  5
2CB
330
41
100
AcDbEntity
  8
1
  6
Continuous
 62
     7
100
AcDbLine
 10
935.5063638386681
 20
193.9914590933065
 30
0.0
 11
935.931363838668
 21
193.9914590933065
 31
0.0
  0
LINE
  5
2CA
330
41
100
AcDbEntity
  8
1
  6
Continuous
 62
     7
100
AcDbLine
 10
952.3563638386679
 20
196.4914590933065
 30
0.0
 11
951.931363838668
 21
196.4914590933065
 31
0.0
  0
LINE
  5
2C9
330
41
100
AcDbEntity
  8
1
  6
Continuous
 62
     7
100
AcDbLine
 10
952.3563638386679
 20
192.7914590933064
 30
0.0
 11
951.931363838668
 21
192.7914590933064
 31
0.0
  0
LINE
  5
2C8
330
41
100
AcDbEntity
  8
1
  6
Continuous
 62
     7
100
AcDbLine
 10
935.931363838668
 20
197.6914590933064
 30
0.0
 11
951.931363838668
 21
197.6914590933064
 31
0.0
  0
LINE
  5
2C7
330
41
100
AcDbEntity
  8
1
  6
Continuous
 62
     7
100
AcDbLine
 10
935.931363838668
 20
196.4914590933065
 30
0.0
 11
935.5063638386681
 21
196.4914590933065
 31
0.0
  0
LINE
  5
2C6
330
41
100
AcDbEntity
  8
1
  6
Continuous
 62
     7
100
AcDbLine
 10
935.931363838668
 20
196.4914590933065
 30
0.0
 11
935.931363838668
 21
197.6914590933064
 31
0.0
  0
LINE
  5
2C5
330
41
100
AcDbEntity
  8
1
  6
Continuous
 62
     7
100
AcDbLine
 10
951.931363838668
 20
197.6914590933064
 30
0.0
 11
952.3563638386679
 21
197.6914590933064
 31
0.0
  0
LINE
  5
2C4
330
41
100
AcDbEntity
  8
1
  6
Continuous
 62
     7
100
AcDbLine
 10
951.931363838668
 20
196.4914590933065
 30
0.0
 11
951.731363838668
 21
196.4914590933065
 31
0.0
  0
LINE
  5
2C3
330
41
100
AcDbEntity
  8
1
  6
Continuous
 62
     7
100
AcDbLine
 10
951.931363838668
 20
196.4914590933065
 30
0.0
 11
951.931363838668
 21
197.6914590933064
 31
0.0
  0
LINE
  5
2C2
330
41
100
AcDbEntity
  8
1
  6
Continuous
 62
     7
100
AcDbLine
 10
935.931363838668
 20
193.9914590933065
 30
0.0
 11
936.1313638386681
 21
193.9914590933065
 31
0.0
  0
LINE
  5
2C1
330
41
100
AcDbEntity
  8
1
  6
Continuous
 62
     7
100
AcDbLine
 10
935.931363838668
 20
192.7914590933064
 30
0.0
 11
935.5063638386681
 21
192.7914590933064
 31
0.0
  0
LINE
  5
2C0
330
41
100
AcDbEntity
  8
1
  6
Continuous
 62
     7
100
AcDbLine
 10
935.931363838668
 20
192.7914590933064
 30
0.0
 11
935.931363838668
 21
193.9914590933065
 31
0.0
  0
LINE
  5
2BF
330
41
100
AcDbEntity
  8
1
  6
Continuous
 62
     7
100
AcDbLine
 10
951.931363838668
 20
193.9914590933065
 30
0.0
 11
952.3563638386679
 21
193.9914590933065
 31
0.0
  0
LINE
  5
2BE
330
41
100
AcDbEntity
  8
1
  6
Continuous
 62
     7
100
AcDbLine
 10
951.931363838668
 20
192.7914590933064
 30
0.0
 11
935.931363838668
 21
192.7914590933064
 31
0.0
  0
LINE
  5
2BD
330
41
100
AcDbEntity
  8
1
  6
Continuous
 62
     7
100
AcDbLine
 10
951.931363838668
 20
192.7914590933064
 30
0.0
 11
951.931363838668
 21
193.9914590933065
 31
0.0
  0
LINE
  5
2BC
330
41
100
AcDbEntity
  8
1
  6
Continuous
 62
     7
100
AcDbLine
 10
957.9313638386681
 20
198.9914590933065
 30
0.0
 11
952.3563638386679
 21
198.9914590933065
 31
0.0
  0
LINE
  5
2BB
330
41
100
AcDbEntity
  8
1
  6
Continuous
 62
     7
100
AcDbLine
 10
955.9313638386681
 20
196.4914590933065
 30
0.0
 11
955.9313638386681
 21
192.4914590933065
 31
0.0
  0
LINE
  5
2BA
330
41
100
AcDbEntity
  8
1
  6
Continuous
 62
     7
100
AcDbLine
 10
953.931363838668
 20
190.4914590933065
 30
0.0
 11
933.9313638386681
 21
190.4914590933065
 31
0.0
  0
LINE
  5
2B9
330
41
100
AcDbEntity
  8
1
  6
Continuous
 62
     7
100
AcDbLine
 10
931.9313638386681
 20
192.4914590933065
 30
0.0
 11
931.9313638386681
 21
196.4914590933065
 31
0.0
  0
LINE
  5
2B8
330
41
100
AcDbEntity
  8
1
  6
Continuous
 62
     7
100
AcDbLine
 10
952.3563638386679
 20
191.9914590933065
 30
0.0
 11
952.3563638386679
 21
198.9914590933065
 31
0.0
  0
LINE
  5
2B7
330
41
100
AcDbEntity
  8
1
  6
Continuous
 62
     7
100
AcDbLine
 10
952.3563638386679
 20
191.9914590933065
 30
0.0
 11
935.5063638386681
 21
191.9914590933065
 31
0.0
  0
LINE
  5
2B6
330
41
100
AcDbEntity
  8
1
  6
Continuous
 62
     7
100
AcDbLine
 10
935.5063638386681
 20
191.9914590933065
 30
0.0
 11
935.5063638386681
 21
198.9914590933065
 31
0.0
  0
LINE
  5
2B5
330
41
100
AcDbEntity
  8
1
  6
Continuous
 62
     7
100
AcDbLine
 10
935.5063638386681
 20
198.9914590933065
 30
0.0
 11
929.931363838668
 21
198.9914590933065
 31
0.0
  0
LINE
  5
2B4
330
41
100
AcDbEntity
  8
1
  6
Continuous
 62
     7
100
AcDbLine
 10
929.931363838668
 20
198.4914590933064
 30
0.0
 11
929.931363838668
 21
198.9914590933065
 31
0.0
  0
LINE
  5
2B3
330
41
100
AcDbEntity
  8
1
  6
Continuous
 62
     7
100
AcDbLine
 10
929.931363838668
 20
198.4914590933064
 30
0.0
 11
931.9313638386681
 21
196.4914590933065
 31
0.0
  0
LINE
  5
2B2
330
41
100
AcDbEntity
  8
1
  6
Continuous
 62
     7
100
AcDbLine
 10
957.9313638386681
 20
198.4914590933065
 30
0.0
 11
957.9313638386681
 21
198.9914590933065
 31
0.0
  0
LINE
  5
2B1
330
41
100
AcDbEntity
  8
1
  6
Continuous
 62
     7
100
AcDbLine
 10
957.9313638386681
 20
198.4914590933065
 30
0.0
 11
955.9313638386681
 21
196.4914590933065
 31
0.0
  0
LINE
  5
2B0
330
41
100
AcDbEntity
  8
1
  6
Continuous
 62
     7
100
AcDbLine
 10
769.5625773480523
 20
195.9914590933065
 30
0.0
 11
775.5625773480524
 21
195.9914590933065
 31
0.0
  0
LINE
  5
2AF
330
41
100
AcDbEntity
  8
1
  6
Continuous
 62
     7
100
AcDbLine
 10
769.5625773480523
 20
195.9914590933065
 30
0.0
 11
769.5625773480523
 21
201.9914590933065
 31
0.0
  0
LINE
  5
2AE
330
41
100
AcDbEntity
  8
1
  6
Continuous
 62
     7
100
AcDbLine
 10
769.5625773480523
 20
195.9914590933065
 30
0.0
 11
769.5625773480523
 21
193.4914590933065
 31
0.0
  0
LINE
  5
2AD
330
41
100
AcDbEntity
  8
1
  6
Continuous
 62
     7
100
AcDbLine
 10
769.5625773480523
 20
193.4914590933065
 30
0.0
 11
775.5625773480524
 21
193.4914590933065
 31
0.0
  0
LINE
  5
2AC
330
41
100
AcDbEntity
  8
1
  6
Continuous
 62
     7
100
AcDbLine
 10
775.5625773480526
 20
191.4914590933065
 30
0.0
 11
775.5625773480524
 21
195.9914590933065
 31
0.0
  0
LINE
  5
2AB
330
41
100
AcDbEntity
  8
1
  6
Continuous
 62
     7
100
AcDbLine
 10
772.5625773480524
 20
193.4914590933065
 30
0.0
 11
775.5625773480524
 21
193.4914590933065
 31
0.0
  0
LINE
  5
2AA
330
41
100
AcDbEntity
  8
1
  6
Continuous
 62
     7
100
AcDbLine
 10
772.7113080760464
 20
191.7914590933064
 30
0.0
 11
772.5625773480524
 21
193.4914590933065
 31
0.0
  0
LINE
  5
2A9
330
41
100
AcDbEntity
  8
1
  6
Continuous
 62
     7
100
AcDbLine
 10
772.7113080760464
 20
191.7914590933064
 30
0.0
 11
775.5625773480524
 21
191.7914590933064
 31
0.0
  0
LINE
  5
2A8
330
41
100
AcDbEntity
  8
1
  6
Continuous
 62
     7
100
AcDbLine
 10
778.2625773480526
 20
194.1414590933064
 30
0.0
 11
778.2625773480526
 21
196.9914590933065
 31
0.0
  0
LINE
  5
2A7
330
41
100
AcDbEntity
  8
1
  6
Continuous
 62
     7
100
AcDbLine
 10
776.5625773480526
 20
194.1414590933064
 30
0.0
 11
778.2625773480526
 21
194.1414590933064
 31
0.0
  0
LINE
  5
2A6
330
41
100
AcDbEntity
  8
1
  6
Continuous
 62
     7
100
AcDbLine
 10
775.5625773480526
 20
201.9914590933065
 30
0.0
 11
775.5625773480526
 21
195.1414590933064
 31
0.0
  0
LINE
  5
2A5
330
41
100
AcDbEntity
  8
1
  6
Continuous
 62
     7
100
AcDbLine
 10
778.2625773480526
 20
195.9914590933065
 30
0.0
 11
783.2625773480526
 21
195.9914590933065
 31
0.0
  0
LINE
  5
2A4
330
41
100
AcDbEntity
  8
1
  6
Continuous
 62
     7
100
AcDbLine
 10
778.2625773480526
 20
196.9914590933065
 30
0.0
 11
793.8625773480525
 21
196.9914590933065
 31
0.0
  0
LINE
  5
2A3
330
41
100
AcDbEntity
  8
1
  6
Continuous
 62
     7
100
AcDbLine
 10
769.5625773480523
 20
201.9914590933065
 30
0.0
 11
796.5625773480526
 21
201.9914590933065
 31
0.0
  0
LINE
  5
2A2
330
41
100
AcDbEntity
  8
1
  6
Continuous
 62
     7
100
AcDbLine
 10
796.5625773480526
 20
201.9914590933065
 30
0.0
 11
796.5625773480526
 21
195.1414590933064
 31
0.0
  0
LINE
  5
2A1
330
41
100
AcDbEntity
  8
1
  6
Continuous
 62
     7
100
AcDbLine
 10
796.5625773480524
 20
199.0914590933065
 30
0.0
 11
796.5625773480526
 21
191.4914590933065
 31
0.0
  0
LINE
  5
2A0
330
41
100
AcDbEntity
  8
1
  6
Continuous
 62
     7
100
AcDbLine
 10
795.5625773480526
 20
190.4914590933065
 30
0.0
 11
776.5625773480526
 21
190.4914590933065
 31
0.0
  0
LINE
  5
29F
330
41
100
AcDbEntity
  8
1
  6
Continuous
 62
     7
100
AcDbLine
 10
793.8625773480525
 20
194.1414590933064
 30
0.0
 11
795.5625773480526
 21
194.1414590933064
 31
0.0
  0
LINE
  5
29E
330
41
100
AcDbEntity
  8
1
  6
Continuous
 62
     7
100
AcDbLine
 10
793.8625773480525
 20
194.1414590933064
 30
0.0
 11
793.8625773480525
 21
196.9914590933065
 31
0.0
  0
LINE
  5
29D
330
41
100
AcDbEntity
  8
1
  6
Continuous
 62
     7
100
AcDbLine
 10
796.5625773480524
 20
197.6914590933064
 30
0.0
 11
798.0625773480523
 21
197.6914590933064
 31
0.0
  0
LINE
  5
29C
330
41
100
AcDbEntity
  8
1
  6
Continuous
 62
     7
100
AcDbLine
 10
796.5625773480524
 20
193.9914590933065
 30
0.0
 11
797.5664126062588
 21
193.9914590933065
 31
0.0
  0
LINE
  5
29B
330
41
100
AcDbEntity
  8
1
  6
Continuous
 62
     7
100
AcDbLine
 10
798.0625773480523
 20
196.4914590933065
 30
0.0
 11
797.5664126062588
 21
196.4914590933065
 31
0.0
  0
LINE
  5
29A
330
41
100
AcDbEntity
  8
1
  6
Continuous
 62
     7
100
AcDbLine
 10
798.0625773480523
 20
197.6914590933064
 30
0.0
 11
798.0625773480523
 21
196.4914590933065
 31
0.0
  0
LINE
  5
299
330
41
100
AcDbEntity
  8
1
  6
Continuous
 62
     7
100
AcDbLine
 10
798.0625773480523
 20
192.7914590933064
 30
0.0
 11
796.5625773480524
 21
192.7914590933064
 31
0.0
  0
LINE
  5
298
330
41
100
AcDbEntity
  8
1
  6
Continuous
 62
     7
100
AcDbLine
 10
798.0625773480523
 20
193.9914590933065
 30
0.0
 11
798.0625773480523
 21
192.7914590933064
 31
0.0
  0
LINE
  5
297
330
41
100
AcDbEntity
  8
1
  6
Continuous
 62
     7
100
AcDbLine
 10
797.5664126062588
 20
193.9914590933065
 30
0.0
 11
797.5664126062588
 21
196.4914590933065
 31
0.0
  0
LINE
  5
296
330
41
100
AcDbEntity
  8
1
  6
Continuous
 62
     7
100
AcDbLine
 10
797.5664126062588
 20
193.9914590933065
 30
0.0
 11
798.0625773480523
 21
193.9914590933065
 31
0.0
  0
LINE
  5
295
330
41
100
AcDbEntity
  8
1
  6
Continuous
 62
     7
100
AcDbLine
 10
797.5664126062588
 20
196.4914590933065
 30
0.0
 11
796.5625773480524
 21
196.4914590933065
 31
0.0
  0
LINE
  5
294
330
41
100
AcDbEntity
  8
1
  6
PHANTOM
 62
     7
100
AcDbLine
 10
801.0664126062588
 20
196.4914590933065
 30
0.0
 11
800.5702478644655
 21
196.4914590933065
 31
0.0
  0
LINE
  5
293
330
41
100
AcDbEntity
  8
1
  6
PHANTOM
 62
     7
100
AcDbLine
 10
801.0664126062588
 20
197.6914590933064
 30
0.0
 11
801.0664126062588
 21
196.4914590933065
 31
0.0
  0
LINE
  5
292
330
41
100
AcDbEntity
  8
1
  6
PHANTOM
 62
     7
100
AcDbLine
 10
801.0664126062588
 20
193.9914590933065
 30
0.0
 11
801.0664126062588
 21
192.7914590933064
 31
0.0
  0
LINE
  5
291
330
41
100
AcDbEntity
  8
1
  6
PHANTOM
 62
     7
100
AcDbLine
 10
800.5702478644655
 20
193.9914590933065
 30
0.0
 11
800.5702478644655
 21
196.4914590933065
 31
0.0
  0
LINE
  5
290
330
41
100
AcDbEntity
  8
1
  6
PHANTOM
 62
     7
100
AcDbLine
 10
800.5702478644655
 20
193.9914590933065
 30
0.0
 11
801.0664126062588
 21
193.9914590933065
 31
0.0
  0
LINE
  5
28F
330
41
100
AcDbEntity
  8
1
  6
PHANTOM
 62
     7
100
AcDbLine
 10
801.0664126062588
 20
192.7914590933064
 30
0.0
 11
798.0625773480523
 21
192.7914590933064
 31
0.0
  0
LINE
  5
28E
330
41
100
AcDbEntity
  8
1
  6
PHANTOM
 62
     7
100
AcDbLine
 10
798.0625773480523
 20
193.9914590933065
 30
0.0
 11
800.5702478644655
 21
193.9914590933065
 31
0.0
  0
LINE
  5
28D
330
41
100
AcDbEntity
  8
1
  6
PHANTOM
 62
     7
100
AcDbLine
 10
800.5702478644655
 20
196.4914590933065
 30
0.0
 11
798.0625773480523
 21
196.4914590933065
 31
0.0
  0
LINE
  5
28C
330
41
100
AcDbEntity
  8
1
  6
PHANTOM
 62
     7
100
AcDbLine
 10
798.0625773480523
 20
197.6914590933064
 30
0.0
 11
801.0664126062588
 21
197.6914590933064
 31
0.0
  0
LINE
  5
28B
330
41
100
AcDbEntity
  8
1
  6
Continuous
 62
     7
100
AcDbLine
 10
796.5625773480526
 20
117.9556526334256
 30
0.0
 11
796.5625773480526
 21
71.95565263342564
 31
0.0
  0
LINE
  5
28A
330
41
100
AcDbEntity
  8
1
  6
Continuous
 62
     7
100
AcDbLine
 10
775.5625773480526
 20
106.9556526334256
 30
0.0
 11
796.5625773480524
 21
106.9556526334256
 31
0.0
  0
LINE
  5
289
330
41
100
AcDbEntity
  8
1
  6
Continuous
 62
     7
100
AcDbLine
 10
775.5625773480526
 20
82.95565263342565
 30
0.0
 11
796.5625773480524
 21
82.95565263342565
 31
0.0
  0
LINE
  5
288
330
41
100
AcDbEntity
  8
1
  6
Continuous
 62
     7
100
AcDbLine
 10
796.5625773480524
 20
102.9556526334256
 30
0.0
 11
798.0664126062588
 21
102.9556526334256
 31
0.0
  0
LINE
  5
287
330
41
100
AcDbEntity
  8
1
  6
Continuous
 62
     7
100
AcDbLine
 10
796.5625773480524
 20
86.95565263342563
 30
0.0
 11
798.0664126062588
 21
86.95565263342563
 31
0.0
  0
LINE
  5
286
330
41
100
AcDbEntity
  8
1
  6
Continuous
 62
     7
100
AcDbLine
 10
798.0664126062588
 20
86.95565263342563
 30
0.0
 11
798.0664126062588
 21
102.9556526334256
 31
0.0
  0
LINE
  5
285
330
41
100
AcDbEntity
  8
1
  6
PHANTOM
 62
     7
100
AcDbLine
 10
798.0587420898457
 20
102.9556526334256
 30
0.0
 11
801.0664126062588
 21
102.9556526334256
 31
0.0
  0
LINE
  5
284
330
41
100
AcDbEntity
  8
1
  6
PHANTOM
 62
     7
100
AcDbLine
 10
798.0587420898461
 20
86.95565263342563
 30
0.0
 11
801.0664126062588
 21
86.95565263342563
 31
0.0
  0
LINE
  5
283
330
41
100
AcDbEntity
  8
1
  6
PHANTOM
 62
     7
100
AcDbLine
 10
801.0664126062588
 20
86.95565263342563
 30
0.0
 11
801.0664126062588
 21
102.9556526334256
 31
0.0
  0
LINE
  5
282
330
41
100
AcDbEntity
  8
1
  6
Continuous
 62
     7
100
AcDbLine
 10
776.5625773480526
 20
82.95565263342565
 30
0.0
 11
795.5625773480526
 21
82.95565263342565
 31
0.0
  0
LINE
  5
281
330
41
100
AcDbEntity
  8
1
  6
Continuous
 62
     7
100
AcDbLine
 10
796.5625773480526
 20
83.95565263342565
 30
0.0
 11
796.5625773480526
 21
105.9556526334256
 31
0.0
  0
LINE
  5
280
330
41
100
AcDbEntity
  8
1
  6
Continuous
 62
     7
100
AcDbLine
 10
776.5625773480526
 20
106.9556526334256
 30
0.0
 11
795.5625773480526
 21
106.9556526334256
 31
0.0
  0
LINE
  5
27F
330
41
100
AcDbEntity
  8
1
  6
PHANTOM
 62
     7
100
AcDbLine
 10
799.5625773480524
 20
83.95565263342565
 30
0.0
 11
799.5625773480524
 21
105.9556526334256
 31
0.0
  0
LINE
  5
27E
330
41
100
AcDbEntity
  8
1
  6
PHANTOM
 62
     7
100
AcDbLine
 10
796.5625773480524
 20
106.9556526334256
 30
0.0
 11
798.5625773480523
 21
106.9556526334256
 31
0.0
  0
LINE
  5
27D
330
41
100
AcDbEntity
  8
1
  6
PHANTOM
 62
     7
100
AcDbLine
 10
796.5625773480524
 20
82.95565263342565
 30
0.0
 11
798.5625773480523
 21
82.95565263342565
 31
0.0
  0
LINE
  5
27C
330
41
100
AcDbEntity
  8
1
  6
Continuous
 62
     7
100
AcDbLine
 10
772.4895940018449
 20
95.95565263342564
 30
0.0
 11
775.8625773480523
 21
95.95565263342564
 31
0.0
  0
LINE
  5
27B
330
41
100
AcDbEntity
  8
1
  6
Continuous
 62
     7
100
AcDbLine
 10
772.4895940018449
 20
93.95565263342565
 30
0.0
 11
775.8625773480523
 21
93.95565263342565
 31
0.0
  0
LINE
  5
27A
330
41
100
AcDbEntity
  8
1
  6
Continuous
 62
     7
100
AcDbLine
 10
794.6125773480527
 20
119.9556526334256
 30
0.0
 11
777.5125773480527
 21
119.9556526334256
 31
0.0
  0
LINE
  5
279
330
41
100
AcDbEntity
  8
1
  6
Continuous
 62
     7
100
AcDbLine
 10
777.5125773480527
 20
119.9556526334256
 30
0.0
 11
777.5625773480526
 21
119.9556526334256
 31
0.0
  0
LINE
  5
278
330
41
100
AcDbEntity
  8
1
  6
Continuous
 62
     7
100
AcDbLine
 10
794.5625773480526
 20
119.9556526334256
 30
0.0
 11
794.6125773480527
 21
119.9556526334256
 31
0.0
  0
LINE
  5
277
330
41
100
AcDbEntity
  8
1
  6
Continuous
 62
     7
100
AcDbLine
 10
775.5625773480526
 20
71.95565263342564
 30
0.0
 11
775.5625773480524
 21
89.95565263342564
 31
0.0
  0
LINE
  5
276
330
41
100
AcDbEntity
  8
1
  6
Continuous
 62
     7
100
AcDbLine
 10
774.5625773480524
 20
99.95565263342564
 30
0.0
 11
775.5625773480524
 21
99.95565263342564
 31
0.0
  0
LINE
  5
275
330
41
100
AcDbEntity
  8
1
  6
Continuous
 62
     7
100
AcDbLine
 10
775.5625773480524
 20
99.95565263342564
 30
0.0
 11
775.5625773480526
 21
117.9556526334256
 31
0.0
  0
LINE
  5
274
330
41
100
AcDbEntity
  8
1
  6
Continuous
 62
     7
100
AcDbLine
 10
774.5625773480524
 20
89.95565263342564
 30
0.0
 11
775.5625773480524
 21
89.95565263342564
 31
0.0
  0
LINE
  5
273
330
41
100
AcDbEntity
  8
1
  6
Continuous
 62
     7
100
AcDbLine
 10
777.5625773480526
 20
69.95565263342564
 30
0.0
 11
794.5625773480526
 21
69.95565263342564
 31
0.0
  0
LINE
  5
272
330
41
100
AcDbEntity
  8
1
  6
Continuous
 62
     7
100
AcDbLine
 10
778.2625773480527
 20
82.05565263342569
 30
0.0
 11
793.8625773480528
 21
82.05565263342569
 31
0.0
  0
LINE
  5
271
330
41
100
AcDbEntity
  8
1
  6
Continuous
 62
     7
100
AcDbLine
 10
793.8625773480525
 20
69.95565263342564
 30
0.0
 11
793.8625773480524
 21
82.95565263342565
 31
0.0
  0
LINE
  5
270
330
41
100
AcDbEntity
  8
1
  6
Continuous
 62
     7
100
AcDbLine
 10
778.2625773480527
 20
69.95565263342564
 30
0.0
 11
778.2625773480527
 21
82.95565263342565
 31
0.0
  0
LINE
  5
26F
330
41
100
AcDbEntity
  8
1
  6
Continuous
 62
     7
100
AcDbLine
 10
778.2625773480527
 20
107.8556526334256
 30
0.0
 11
793.8625773480528
 21
107.8556526334256
 31
0.0
  0
LINE
  5
26E
330
41
100
AcDbEntity
  8
1
  6
Continuous
 62
     7
100
AcDbLine
 10
793.8625773480525
 20
106.9556526334256
 30
0.0
 11
793.8625773480525
 21
119.9556526334256
 31
0.0
  0
LINE
  5
26D
330
41
100
AcDbEntity
  8
1
  6
Continuous
 62
     7
100
AcDbLine
 10
778.2625773480527
 20
106.9556526334256
 30
0.0
 11
778.2625773480527
 21
119.9556526334256
 31
0.0
  0
LINE
  5
26C
330
41
100
AcDbEntity
  8
1
  6
Continuous
 62
     7
100
AcDbLine
 10
775.5625773480524
 20
89.95565263342564
 30
0.0
 11
775.5625773480526
 21
83.95565263342565
 31
0.0
  0
LINE
  5
26B
330
41
100
AcDbEntity
  8
1
  6
Continuous
 62
     7
100
AcDbLine
 10
775.5625773480524
 20
99.95565263342564
 30
0.0
 11
775.5625773480526
 21
105.9556526334256
 31
0.0
  0
LINE
  5
26A
330
41
100
AcDbEntity
  8
1
  6
Continuous
 62
     7
100
AcDbLine
 10
774.5625773480524
 20
89.95565263342564
 30
0.0
 11
778.5625773480524
 21
89.95565263342564
 31
0.0
  0
LINE
  5
269
330
41
100
AcDbEntity
  8
1
  6
Continuous
 62
     7
100
AcDbLine
 10
780.5625773480524
 20
91.95565263342563
 30
0.0
 11
780.5625773480524
 21
97.95565263342565
 31
0.0
  0
LINE
  5
268
330
41
100
AcDbEntity
  8
1
  6
Continuous
 62
     7
100
AcDbLine
 10
778.5625773480524
 20
99.95565263342564
 30
0.0
 11
774.5625773480524
 21
99.95565263342564
 31
0.0
  0
LINE
  5
267
330
41
100
AcDbEntity
  8
1
  6
Continuous
 62
     7
100
AcDbLine
 10
778.6125773480523
 20
95.45565263342565
 30
0.0
 11
777.3625773480524
 21
95.45565263342565
 31
0.0
  0
LINE
  5
266
330
41
100
AcDbEntity
  8
1
  6
Continuous
 62
     7
100
AcDbLine
 10
778.6125773480523
 20
94.45565263342563
 30
0.0
 11
778.6125773480523
 21
95.45565263342565
 31
0.0
  0
LINE
  5
265
330
41
100
AcDbEntity
  8
1
  6
Continuous
 62
     7
100
AcDbLine
 10
777.3625773480524
 20
94.45565263342563
 30
0.0
 11
778.6125773480523
 21
94.45565263342563
 31
0.0
  0
LINE
  5
264
330
41
100
AcDbEntity
  8
1
  6
Continuous
 62
     7
100
AcDbLine
 10
774.1125773480523
 20
95.45565263342565
 30
0.0
 11
775.3625773480523
 21
95.45565263342565
 31
0.0
  0
LINE
  5
263
330
41
100
AcDbEntity
  8
1
  6
Continuous
 62
     7
100
AcDbLine
 10
774.1125773480523
 20
94.45565263342563
 30
0.0
 11
774.1125773480523
 21
95.45565263342565
 31
0.0
  0
LINE
  5
262
330
41
100
AcDbEntity
  8
1
  6
Continuous
 62
     7
100
AcDbLine
 10
775.3625773480523
 20
94.45565263342563
 30
0.0
 11
774.1125773480523
 21
94.45565263342563
 31
0.0
  0
LINE
  5
261
330
41
100
AcDbEntity
  8
1
  6
Continuous
 62
     7
100
AcDbLine
 10
775.8625773480523
 20
95.95565263342564
 30
0.0
 11
775.8625773480523
 21
97.20565263342564
 31
0.0
  0
LINE
  5
260
330
41
100
AcDbEntity
  8
1
  6
Continuous
 62
     7
100
AcDbLine
 10
775.8625773480523
 20
97.20565263342564
 30
0.0
 11
776.8625773480523
 21
97.20565263342564
 31
0.0
  0
LINE
  5
25F
330
41
100
AcDbEntity
  8
1
  6
Continuous
 62
     7
100
AcDbLine
 10
776.8625773480523
 20
95.95565263342564
 30
0.0
 11
776.8625773480523
 21
97.20565263342564
 31
0.0
  0
LINE
  5
25E
330
41
100
AcDbEntity
  8
1
  6
Continuous
 62
     7
100
AcDbLine
 10
776.8625773480523
 20
95.95565263342564
 30
0.0
 11
780.2355606942598
 21
95.95565263342564
 31
0.0
  0
LINE
  5
25D
330
41
100
AcDbEntity
  8
1
  6
Continuous
 62
     7
100
AcDbLine
 10
776.8625773480523
 20
93.95565263342565
 30
0.0
 11
776.8625773480523
 21
92.70565263342565
 31
0.0
  0
LINE
  5
25C
330
41
100
AcDbEntity
  8
1
  6
Continuous
 62
     7
100
AcDbLine
 10
776.8625773480523
 20
92.70565263342565
 30
0.0
 11
775.8625773480523
 21
92.70565263342565
 31
0.0
  0
LINE
  5
25B
330
41
100
AcDbEntity
  8
1
  6
Continuous
 62
     7
100
AcDbLine
 10
775.8625773480523
 20
92.70565263342565
 30
0.0
 11
775.8625773480523
 21
93.95565263342565
 31
0.0
  0
LINE
  5
25A
330
41
100
AcDbEntity
  8
1
  6
Continuous
 62
     7
100
AcDbLine
 10
780.2355606942598
 20
93.95565263342565
 30
0.0
 11
776.8625773480523
 21
93.95565263342565
 31
0.0
  0
ENDBLK
  5
304
330
41
100
AcDbEntity
  8
0
100
AcDbBlockEnd
  0
BLOCK
  5
329
330
328
100
AcDbEntity
  8
0
100
AcDbBlockBegin
  2
*D12
 70
     1
 10
0.0
 20
0.0
 30
0.0
  3
*D12
  1

  0
LINE
  5
32A
330
328
100
AcDbEntity
  8
0
  6
Continuous
 62
     2
100
AcDbLine
 10
801.0664126062588
 20
176.4914590933065
 30
0.0
 11
828.5743583417632
 21
176.4914590933065
 31
0.0
  0
LINE
  5
32B
330
328
100
AcDbEntity
  8
0
  6
Continuous
 62
     2
100
AcDbLine
 10
796.5625773480526
 20
176.4914590933065
 30
0.0
 11
801.0664126062588
 21
176.4914590933065
 31
0.0
  0
LINE
  5
32C
330
328
100
AcDbEntity
  8
0
  6
Continuous
 62
     2
100
AcDbLine
 10
791.6625773480526
 20
176.4914590933065
 30
0.0
 11
796.5625773480526
 21
176.4914590933065
 31
0.0
  0
LINE
  5
32D
330
328
100
AcDbEntity
  8
0
  6
Continuous
 62
     2
100
AcDbLine
 10
801.0664126062588
 20
191.7914590933064
 30
0.0
 11
801.0664126062588
 21
175.4914590933065
 31
0.0
  0
LINE
  5
32E
330
328
100
AcDbEntity
  8
0
  6
Continuous
 62
     2
100
AcDbLine
 10
796.5625773480526
 20
190.4914590933064
 30
0.0
 11
796.5625773480526
 21
175.4914590933065
 31
0.0
  0
LINE
  5
32F
330
328
100
AcDbEntity
  8
0
 62
     2
100
AcDbLine
 10
796.5625773480526
 20
176.4914590933065
 30
0.0
 11
794.1125773480524
 21
175.8349835718502
 31
0.0
  0
LINE
  5
330
330
328
100
AcDbEntity
  8
0
 62
     2
100
AcDbLine
 10
796.5625773480526
 20
176.4914590933065
 30
0.0
 11
794.1125773480524
 21
177.1479346147627
 31
0.0
  0
LINE
  5
331
330
328
100
AcDbEntity
  8
0
 62
     2
100
AcDbLine
 10
801.0664126062588
 20
176.4914590933065
 30
0.0
 11
803.5164126062589
 21
177.1479346147627
 31
0.0
  0
LINE
  5
332
330
328
100
AcDbEntity
  8
0
 62
     2
100
AcDbLine
 10
801.0664126062588
 20
176.4914590933065
 30
0.0
 11
803.5164126062589
 21
175.8349835718502
 31
0.0
  0
MTEXT
  5
334
102
{ACAD_XDICTIONARY
360
6AA
102
}
330
328
100
AcDbEntity
  8
0
 62
     3
100
AcDbMText
 10
786.731858341873
 20
177.6080353179809
 30
0.0
 40
3.5
 41
0.0
 71
     7
 72
     1
  1
\C3;\U+2019\U+00FD\U+0090\U+00DB\U+201D\U+00EB\U+02C6\U+00EB1.5\U+0081`\C3;4.5
  7
CONVERTER_5
 11
0.999999999997062
 21
0.00000242406841
 31
0.0
 73
     1
 44
1.0
1001
ACAD
1000
MTEXTBEGIN
1070
    73
1070
     1
1070
    44
1040
1.0
1070
    74
1070
     0
1000
MTEXTEND
  0
ENDBLK
  5
335
330
328
100
AcDbEntity
  8
0
100
AcDbBlockEnd
  0
BLOCK
  5
337
330
336
100
AcDbEntity
  8
0
 62
     0
100
AcDbBlockBegin
  2
_OPEN30
 70
     0
 10
0.0
 20
0.0
 30
0.0
  3
_OPEN30
  1

  0
LINE
  5
338
330
336
100
AcDbEntity
  8
0
  6
ByBlock
 62
     0
100
AcDbLine
 10
-1.0
 20
0.267949
 30
0.0
 11
0.0
 21
0.0
 31
0.0
  0
LINE
  5
339
330
336
100
AcDbEntity
  8
0
  6
ByBlock
 62
     0
100
AcDbLine
 10
0.0
 20
0.0
 30
0.0
 11
-1.0
 21
-0.267949
 31
0.0
  0
LINE
  5
33A
330
336
100
AcDbEntity
  8
0
  6
ByBlock
 62
     0
100
AcDbLine
 10
0.0
 20
0.0
 30
0.0
 11
-1.0
 21
0.0
 31
0.0
  0
ENDBLK
  5
33B
330
336
100
AcDbEntity
  8
0
 62
     0
100
AcDbBlockEnd
  0
BLOCK
  5
33F
330
33E
100
AcDbEntity
  8
0
100
AcDbBlockBegin
  2
*D14
 70
     1
 10
0.0
 20
0.0
 30
0.0
  3
*D14
  1

  0
LINE
  5
340
330
33E
100
AcDbEntity
  8
0
  6
Continuous
 62
     2
100
AcDbLine
 10
741.5625773480526
 20
69.95565263342567
 30
0.0
 11
741.5625773480526
 21
119.9556526334256
 31
0.0
  0
LINE
  5
341
330
33E
100
AcDbEntity
  8
0
  6
Continuous
 62
     2
100
AcDbLine
 10
773.5625773480526
 20
119.9556526334256
 30
0.0
 11
740.5625773480526
 21
119.9556526334256
 31
0.0
  0
LINE
  5
342
330
33E
100
AcDbEntity
  8
0
  6
Continuous
 62
     2
100
AcDbLine
 10
773.5625773480526
 20
69.95565263342567
 30
0.0
 11
740.5625773480526
 21
69.95565263342567
 31
0.0
  0
LINE
  5
343
330
33E
100
AcDbEntity
  8
0
 62
     2
100
AcDbLine
 10
741.5625773480526
 20
119.9556526334256
 30
0.0
 11
742.2190528695089
 21
117.5056526334256
 31
0.0
  0
LINE
  5
344
330
33E
100
AcDbEntity
  8
0
 62
     2
100
AcDbLine
 10
741.5625773480526
 20
119.9556526334256
 30
0.0
 11
740.9061018265963
 21
117.5056526334256
 31
0.0
  0
LINE
  5
345
330
33E
100
AcDbEntity
  8
0
 62
     2
100
AcDbLine
 10
741.5625773480526
 20
69.95565263342567
 30
0.0
 11
740.9061018265963
 21
72.40565263342567
 31
0.0
  0
LINE
  5
346
330
33E
100
AcDbEntity
  8
0
 62
     2
100
AcDbLine
 10
741.5625773480526
 20
69.95565263342567
 30
0.0
 11
742.2190528695089
 21
72.40565263342567
 31
0.0
  0
MTEXT
  5
347
330
33E
100
AcDbEntity
  8
0
 62
     3
100
AcDbMText
 10
740.5625773480526
 20
93.11815263342564
 30
0.0
 40
3.5
 41
0.0
 71
     7
 72
     1
  1
50
  7
CONVERTER_5
 11
0.0
 21
1.0
 31
0.0
 73
     1
 44
1.0
1001
ACAD
1000
MTEXTBEGIN
1070
    73
1070
     1
1070
    44
1040
1.0
1070
    74
1070
     0
1000
MTEXTEND
  0
ENDBLK
  5
348
330
33E
100
AcDbEntity
  8
0
100
AcDbBlockEnd
  0
BLOCK
  5
34C
330
34B
100
AcDbEntity
  8
0
100
AcDbBlockBegin
  2
*D15
 70
     1
 10
0.0
 20
0.0
 30
0.0
  3
*D15
  1

  0
LINE
  5
34D
330
34B
100
AcDbEntity
  8
0
  6
Continuous
 62
     2
100
AcDbLine
 10
769.5625773480526
 20
140.9556526334256
 30
0.0
 11
827.0625773480526
 21
140.9556526334256
 31
0.0
  0
LINE
  5
34E
330
34B
100
AcDbEntity
  8
0
  6
Continuous
 62
     2
100
AcDbLine
 10
827.0625773480526
 20
118.9556526334256
 30
0.0
 11
827.0625773480526
 21
141.9556526334256
 31
0.0
  0
LINE
  5
34F
330
34B
100
AcDbEntity
  8
0
  6
Continuous
 62
     2
100
AcDbLine
 10
769.5625773480526
 20
115.9556526334256
 30
0.0
 11
769.5625773480526
 21
141.9556526334256
 31
0.0
  0
LINE
  5
350
330
34B
100
AcDbEntity
  8
0
 62
     2
100
AcDbLine
 10
769.5625773480526
 20
140.9556526334256
 30
0.0
 11
772.0125773480527
 21
141.6121281548818
 31
0.0
  0
LINE
  5
351
330
34B
100
AcDbEntity
  8
0
 62
     2
100
AcDbLine
 10
769.5625773480526
 20
140.9556526334256
 30
0.0
 11
772.0125773480527
 21
140.2991771119693
 31
0.0
  0
LINE
  5
352
330
34B
100
AcDbEntity
  8
0
 62
     2
100
AcDbLine
 10
827.0625773480526
 20
140.9556526334256
 30
0.0
 11
824.6125773480525
 21
140.2991771119693
 31
0.0
  0
LINE
  5
353
330
34B
100
AcDbEntity
  8
0
 62
     2
100
AcDbLine
 10
827.0625773480526
 20
140.9556526334256
 30
0.0
 11
824.6125773480525
 21
141.6121281548818
 31
0.0
  0
MTEXT
  5
354
330
34B
100
AcDbEntity
  8
0
 62
     3
100
AcDbMText
 10
794.9438273480526
 20
141.9556526334256
 30
0.0
 40
3.5
 41
0.0
 71
     7
 72
     1
  1
57.5
  7
CONVERTER_5
 11
0.999999999997062
 21
0.00000242406841
 31
0.0
 73
     1
 44
1.0
1001
ACAD
1000
MTEXTBEGIN
1070
    73
1070
     1
1070
    44
1040
1.0
1070
    74
1070
     0
1000
MTEXTEND
  0
ENDBLK
  5
355
330
34B
100
AcDbEntity
  8
0
100
AcDbBlockEnd
  0
BLOCK
  5
359
330
358
100
AcDbEntity
  8
0
100
AcDbBlockBegin
  2
*D16
 70
     1
 10
0.0
 20
0.0
 30
0.0
  3
*D16
  1

  0
LINE
  5
35A
330
358
100
AcDbEntity
  8
0
  6
Continuous
 62
     2
100
AcDbLine
 10
809.5625773480525
 20
41.95565263342567
 30
0.0
 11
820.5625773480527
 21
41.95565263342567
 31
0.0
  0
LINE
  5
35B
330
358
100
AcDbEntity
  8
0
  6
Continuous
 62
     2
100
AcDbLine
 10
820.5625773480527
 20
81.45565263342566
 30
0.0
 11
820.5625773480527
 21
40.95565263342566
 31
0.0
  0
LINE
  5
35C
330
358
100
AcDbEntity
  8
0
  6
Continuous
 62
     2
100
AcDbLine
 10
809.5625773480525
 20
81.45565263342566
 30
0.0
 11
809.5625773480525
 21
40.95565263342566
 31
0.0
  0
LINE
  5
35D
330
358
100
AcDbEntity
  8
0
 62
     2
100
AcDbLine
 10
809.5625773480525
 20
41.95565263342567
 30
0.0
 11
812.0125773480527
 21
42.61212815488192
 31
0.0
  0
LINE
  5
35E
330
358
100
AcDbEntity
  8
0
 62
     2
100
AcDbLine
 10
809.5625773480525
 20
41.95565263342567
 30
0.0
 11
812.0125773480527
 21
41.29917711196942
 31
0.0
  0
LINE
  5
35F
330
358
100
AcDbEntity
  8
0
 62
     2
100
AcDbLine
 10
820.5625773480527
 20
41.95565263342567
 30
0.0
 11
818.1125773480525
 21
41.29917711196942
 31
0.0
  0
LINE
  5
360
330
358
100
AcDbEntity
  8
0
 62
     2
100
AcDbLine
 10
820.5625773480527
 20
41.95565263342567
 30
0.0
 11
818.1125773480525
 21
42.61212815488192
 31
0.0
  0
MTEXT
  5
361
330
358
100
AcDbEntity
  8
0
 62
     3
100
AcDbMText
 10
813.9600773480527
 20
42.95565263342567
 30
0.0
 40
3.5
 41
0.0
 71
     7
 72
     1
  1
11
  7
CONVERTER_5
 11
0.999999999997062
 21
0.00000242406841
 31
0.0
 73
     1
 44
1.0
1001
ACAD
1000
MTEXTBEGIN
1070
    73
1070
     1
1070
    44
1040
1.0
1070
    74
1070
     0
1000
MTEXTEND
  0
ENDBLK
  5
362
330
358
100
AcDbEntity
  8
0
100
AcDbBlockEnd
  0
BLOCK
  5
366
330
365
100
AcDbEntity
  8
0
100
AcDbBlockBegin
  2
*D17
 70
     1
 10
0.0
 20
0.0
 30
0.0
  3
*D17
  1

  0
LINE
  5
367
330
365
100
AcDbEntity
  8
0
  6
Continuous
 62
     2
100
AcDbLine
 10
848.0625773480525
 20
76.95565263342579
 30
0.0
 11
848.0625773480525
 21
112.955652633426
 31
0.0
  0
LINE
  5
368
330
365
100
AcDbEntity
  8
0
  6
Continuous
 62
     2
100
AcDbLine
 10
816.0625773480527
 20
112.955652633426
 30
0.0
 11
849.0625773480527
 21
112.955652633426
 31
0.0
  0
LINE
  5
369
330
365
100
AcDbEntity
  8
0
  6
Continuous
 62
     2
100
AcDbLine
 10
816.0625773480527
 20
76.95565263342579
 30
0.0
 11
849.0625773480527
 21
76.95565263342579
 31
0.0
  0
LINE
  5
36A
330
365
100
AcDbEntity
  8
0
 62
     2
100
AcDbLine
 10
848.0625773480525
 20
112.955652633426
 30
0.0
 11
848.7190528695091
 21
110.505652633426
 31
0.0
  0
LINE
  5
36B
330
365
100
AcDbEntity
  8
0
 62
     2
100
AcDbLine
 10
848.0625773480525
 20
112.955652633426
 30
0.0
 11
847.4061018265963
 21
110.505652633426
 31
0.0
  0
LINE
  5
36C
330
365
100
AcDbEntity
  8
0
 62
     2
100
AcDbLine
 10
848.0625773480525
 20
76.95565263342579
 30
0.0
 11
847.4061018265963
 21
79.4056526334258
 31
0.0
  0
LINE
  5
36D
330
365
100
AcDbEntity
  8
0
 62
     2
100
AcDbLine
 10
848.0625773480525
 20
76.95565263342579
 30
0.0
 11
848.7190528695091
 21
79.4056526334258
 31
0.0
  0
MTEXT
  5
36E
330
365
100
AcDbEntity
  8
0
 62
     3
100
AcDbMText
 10
847.0625773480525
 20
93.11815263342587
 30
0.0
 40
3.5
 41
0.0
 71
     7
 72
     1
  1
36
  7
CONVERTER_5
 11
0.0
 21
1.0
 31
0.0
 73
     1
 44
1.0
1001
ACAD
1000
MTEXTBEGIN
1070
    73
1070
     1
1070
    44
1040
1.0
1070
    74
1070
     0
1000
MTEXTEND
  0
ENDBLK
  5
36F
330
365
100
AcDbEntity
  8
0
100
AcDbBlockEnd
  0
BLOCK
  5
373
330
372
100
AcDbEntity
  8
0
100
AcDbBlockBegin
  2
*D18
 70
     1
 10
0.0
 20
0.0
 30
0.0
  3
*D18
  1

  0
LINE
  5
374
330
372
100
AcDbEntity
  8
0
  6
Continuous
 62
     2
100
AcDbLine
 10
827.0625773480526
 20
133.9556526334256
 30
0.0
 11
834.747490611047
 21
133.9556526334256
 31
0.0
  0
LINE
  5
375
330
372
100
AcDbEntity
  8
0
  6
Continuous
 62
     2
100
AcDbLine
 10
822.5625773480524
 20
133.9556526334256
 30
0.0
 11
827.0625773480526
 21
133.9556526334256
 31
0.0
  0
LINE
  5
376
330
372
100
AcDbEntity
  8
0
  6
Continuous
 62
     2
100
AcDbLine
 10
822.5625773480524
 20
133.9556526334256
 30
0.0
 11
822.5625773480524
 21
133.9556526334256
 31
0.0
  0
LINE
  5
377
330
372
100
AcDbEntity
  8
0
  6
Continuous
 62
     2
100
AcDbLine
 10
827.0625773480526
 20
118.9556526334256
 30
0.0
 11
827.0625773480526
 21
134.9556526334256
 31
0.0
  0
LINE
  5
378
330
372
100
AcDbEntity
  8
0
  6
Continuous
 62
     2
100
AcDbLine
 10
822.5625773480524
 20
120.9556526334256
 30
0.0
 11
822.5625773480524
 21
134.9556526334256
 31
0.0
  0
LINE
  5
379
330
372
100
AcDbEntity
  8
0
 62
     2
100
AcDbLine
 10
827.0625773480526
 20
133.9556526334256
 30
0.0
 11
829.5125773480526
 21
134.6121281548818
 31
0.0
  0
LINE
  5
37A
330
372
100
AcDbEntity
  8
0
 62
     2
100
AcDbLine
 10
827.0625773480526
 20
133.9556526334256
 30
0.0
 11
829.5125773480526
 21
133.2991771119693
 31
0.0
  0
MTEXT
  5
37B
330
372
100
AcDbEntity
  8
0
 62
     3
100
AcDbMText
 10
830.214990611047
 20
134.9556526334256
 30
0.0
 40
3.5
 41
0.0
 71
     7
 72
     1
  1
4.5
  7
CONVERTER_5
 11
0.999999999997062
 21
0.00000242406841
 31
0.0
 73
     1
 44
1.0
1001
ACAD
1000
MTEXTBEGIN
1070
    73
1070
     1
1070
    44
1040
1.0
1070
    74
1070
     0
1000
MTEXTEND
  0
ENDBLK
  5
37C
330
372
100
AcDbEntity
  8
0
100
AcDbBlockEnd
  0
BLOCK
  5
37E
330
37D
100
AcDbEntity
  8
0
 62
     0
100
AcDbBlockBegin
  2
_NONE
 70
     0
 10
0.0
 20
0.0
 30
0.0
  3
_NONE
  1

  0
ENDBLK
  5
37F
330
37D
100
AcDbEntity
  8
0
 62
     0
100
AcDbBlockEnd
  0
BLOCK
  5
383
330
382
100
AcDbEntity
  8
0
100
AcDbBlockBegin
  2
*D20
 70
     1
 10
0.0
 20
0.0
 30
0.0
  3
*D20
  1

  0
LINE
  5
384
330
382
100
AcDbEntity
  8
0
  6
Continuous
 62
     2
100
AcDbLine
 10
820.5625773480523
 20
133.9556526334256
 30
0.0
 11
815.6625773480525
 21
133.9556526334256
 31
0.0
  0
LINE
  5
385
330
382
100
AcDbEntity
  8
0
  6
Continuous
 62
     2
100
AcDbLine
 10
820.5625773480523
 20
133.9556526334256
 30
0.0
 11
822.5625773480524
 21
133.9556526334256
 31
0.0
  0
LINE
  5
386
330
382
100
AcDbEntity
  8
0
  6
Continuous
 62
     2
100
AcDbLine
 10
822.5625773480524
 20
120.9556526334256
 30
0.0
 11
822.5625773480524
 21
134.9556526334256
 31
0.0
  0
LINE
  5
387
330
382
100
AcDbEntity
  8
0
  6
Continuous
 62
     2
100
AcDbLine
 10
820.5625773480523
 20
120.9556526334256
 30
0.0
 11
820.5625773480523
 21
134.9556526334256
 31
0.0
  0
LINE
  5
388
330
382
100
AcDbEntity
  8
0
 62
     2
100
AcDbLine
 10
820.5625773480523
 20
133.9556526334256
 30
0.0
 11
818.1125773480523
 21
133.2991771119693
 31
0.0
  0
LINE
  5
389
330
382
100
AcDbEntity
  8
0
 62
     2
100
AcDbLine
 10
820.5625773480523
 20
133.9556526334256
 30
0.0
 11
818.1125773480523
 21
134.6121281548818
 31
0.0
  0
CIRCLE
  5
38A
330
382
100
AcDbEntity
  8
0
 62
     2
100
AcDbCircle
 10
822.5625773480524
 20
133.9556526334256
 30
0.0
 40
0.5
  0
HATCH
  5
38B
330
382
100
AcDbEntity
  8
0
 62
     2
100
AcDbHatch
 10
0.0
 20
0.0
 30
0.0
210
0.0
220
0.0
230
1.0
  2
SOLID
 70
     1
 71
     1
 91
        1
 92
        1
 93
        1
 72
     2
 10
822.5625773480524
 20
133.9556526334256
 40
0.5
 50
-180.0
 51
180.0
 73
     1
 97
        1
330
38A
 75
     0
 76
     1
 98
        1
 10
0.0
 20
0.0
  0
MTEXT
  5
38C
330
382
100
AcDbEntity
  8
0
 62
     3
100
AcDbMText
 10
820.8275773480524
 20
134.9556526334256
 30
0.0
 40
3.5
 41
0.0
 71
     7
 72
     1
  1
2
  7
CONVERTER_5
 11
0.999999999997062
 21
0.00000242406841
 31
0.0
 73
     1
 44
1.0
1001
ACAD
1000
MTEXTBEGIN
1070
    73
1070
     1
1070
    44
1040
1.0
1070
    74
1070
     0
1000
MTEXTEND
  0
ENDBLK
  5
38D
330
382
100
AcDbEntity
  8
0
100
AcDbBlockEnd
  0
BLOCK
  5
38F
330
38E
100
AcDbEntity
  8
0
 62
     0
100
AcDbBlockBegin
  2
_DOT
 70
     0
 10
0.0
 20
0.0
 30
0.0
  3
_DOT
  1

  0
LWPOLYLINE
  5
390
330
38E
100
AcDbEntity
  8
0
  6
ByBlock
 62
     0
100
AcDbPolyline
 90
        2
 70
     1
 43
0.5
 10
-0.25
 20
0.0
 42
1.0
 10
0.25
 20
0.0
 42
1.0
  0
LINE
  5
394
330
38E
100
AcDbEntity
  8
0
  6
ByBlock
 62
     0
100
AcDbLine
 10
-0.5
 20
0.0
 30
0.0
 11
-1.0
 21
0.0
 31
0.0
  0
ENDBLK
  5
395
330
38E
100
AcDbEntity
  8
0
 62
     0
100
AcDbBlockEnd
  0
BLOCK
  5
399
330
398
100
AcDbEntity
  8
0
100
AcDbBlockBegin
  2
*D22
 70
     1
 10
0.0
 20
0.0
 30
0.0
  3
*D22
  1

  0
LINE
  5
39A
330
398
100
AcDbEntity
  8
0
  6
Continuous
 62
     2
100
AcDbLine
 10
809.5625773480525
 20
133.9556526334256
 30
0.0
 11
814.4625773480527
 21
133.9556526334256
 31
0.0
  0
LINE
  5
39B
330
398
100
AcDbEntity
  8
0
  6
Continuous
 62
     2
100
AcDbLine
 10
807.5625773480526
 20
133.9556526334256
 30
0.0
 11
802.6625773480526
 21
133.9556526334256
 31
0.0
  0
LINE
  5
39C
330
398
100
AcDbEntity
  8
0
  6
Continuous
 62
     2
100
AcDbLine
 10
807.5625773480526
 20
133.9556526334256
 30
0.0
 11
809.5625773480525
 21
133.9556526334256
 31
0.0
  0
LINE
  5
39D
330
398
100
AcDbEntity
  8
0
  6
Continuous
 62
     2
100
AcDbLine
 10
809.5625773480525
 20
120.9556526334256
 30
0.0
 11
809.5625773480525
 21
134.9556526334256
 31
0.0
  0
LINE
  5
39E
330
398
100
AcDbEntity
  8
0
  6
Continuous
 62
     2
100
AcDbLine
 10
807.5625773480526
 20
120.9556526334256
 30
0.0
 11
807.5625773480526
 21
134.9556526334256
 31
0.0
  0
LINE
  5
39F
330
398
100
AcDbEntity
  8
0
 62
     2
100
AcDbLine
 10
809.5625773480525
 20
133.9556526334256
 30
0.0
 11
812.0125773480527
 21
134.6121281548818
 31
0.0
  0
LINE
  5
3A0
330
398
100
AcDbEntity
  8
0
 62
     2
100
AcDbLine
 10
809.5625773480525
 20
133.9556526334256
 30
0.0
 11
812.0125773480527
 21
133.2991771119693
 31
0.0
  0
LINE
  5
3A1
330
398
100
AcDbEntity
  8
0
 62
     2
100
AcDbLine
 10
807.5625773480526
 20
133.9556526334256
 30
0.0
 11
805.1125773480524
 21
133.2991771119693
 31
0.0
  0
LINE
  5
3A2
330
398
100
AcDbEntity
  8
0
 62
     2
100
AcDbLine
 10
807.5625773480526
 20
133.9556526334256
 30
0.0
 11
805.1125773480524
 21
134.6121281548818
 31
0.0
  0
MTEXT
  5
3A3
330
398
100
AcDbEntity
  8
0
 62
     3
100
AcDbMText
 10
807.8275773480527
 20
134.9556526334256
 30
0.0
 40
3.5
 41
0.0
 71
     7
 72
     1
  1
2
  7
CONVERTER_5
 11
0.999999999997062
 21
0.00000242406841
 31
0.0
 73
     1
 44
1.0
1001
ACAD
1000
MTEXTBEGIN
1070
    73
1070
     1
1070
    44
1040
1.0
1070
    74
1070
     0
1000
MTEXTEND
  0
ENDBLK
  5
3A4
330
398
100
AcDbEntity
  8
0
100
AcDbBlockEnd
  0
BLOCK
  5
3A8
330
3A7
100
AcDbEntity
  8
0
100
AcDbBlockBegin
  2
*D23
 70
     1
 10
0.0
 20
0.0
 30
0.0
  3
*D23
  1

  0
LINE
  5
3A9
330
3A7
100
AcDbEntity
  8
0
  6
Continuous
 62
     2
100
AcDbLine
 10
809.5625773480525
 20
133.9556526334256
 30
0.0
 11
820.5625773480523
 21
133.9556526334256
 31
0.0
  0
LINE
  5
3AA
330
3A7
100
AcDbEntity
  8
0
  6
Continuous
 62
     2
100
AcDbLine
 10
820.5625773480523
 20
120.9556526334256
 30
0.0
 11
820.5625773480523
 21
134.9556526334256
 31
0.0
  0
LINE
  5
3AB
330
3A7
100
AcDbEntity
  8
0
  6
Continuous
 62
     2
100
AcDbLine
 10
809.5625773480525
 20
120.9556526334256
 30
0.0
 11
809.5625773480525
 21
134.9556526334256
 31
0.0
  0
LINE
  5
3AC
330
3A7
100
AcDbEntity
  8
0
 62
     2
100
AcDbLine
 10
820.5625773480523
 20
133.9556526334256
 30
0.0
 11
818.1125773480523
 21
133.2991771119693
 31
0.0
  0
LINE
  5
3AD
330
3A7
100
AcDbEntity
  8
0
 62
     2
100
AcDbLine
 10
820.5625773480523
 20
133.9556526334256
 30
0.0
 11
818.1125773480523
 21
134.6121281548818
 31
0.0
  0
LINE
  5
3AE
330
3A7
100
AcDbEntity
  8
0
 62
     2
100
AcDbLine
 10
809.5625773480525
 20
133.9556526334256
 30
0.0
 11
812.0125773480527
 21
134.6121281548818
 31
0.0
  0
LINE
  5
3AF
330
3A7
100
AcDbEntity
  8
0
 62
     2
100
AcDbLine
 10
809.5625773480525
 20
133.9556526334256
 30
0.0
 11
812.0125773480527
 21
133.2991771119693
 31
0.0
  0
MTEXT
  5
3B0
330
3A7
100
AcDbEntity
  8
0
 62
     3
100
AcDbMText
 10
813.9600773480525
 20
134.9556526334256
 30
0.0
 40
3.5
 41
0.0
 71
     7
 72
     1
  1
11
  7
CONVERTER_5
 11
0.999999999997062
 21
0.00000242406841
 31
0.0
 73
     1
 44
1.0
1001
ACAD
1000
MTEXTBEGIN
1070
    73
1070
     1
1070
    44
1040
1.0
1070
    74
1070
     0
1000
MTEXTEND
  0
ENDBLK
  5
3B1
330
3A7
100
AcDbEntity
  8
0
100
AcDbBlockEnd
  0
BLOCK
  5
3B5
330
3B4
100
AcDbEntity
  8
0
100
AcDbBlockBegin
  2
*D24
 70
     1
 10
0.0
 20
0.0
 30
0.0
  3
*D24
  1

  0
LINE
  5
3B6
330
3B4
100
AcDbEntity
  8
0
  6
Continuous
 62
     2
100
AcDbLine
 10
815.0625773480525
 20
236.559787467744
 30
0.0
 11
827.0625773480526
 21
236.559787467744
 31
0.0
  0
LINE
  5
3B7
330
3B4
100
AcDbEntity
  8
0
  6
Continuous
 62
     2
100
AcDbLine
 10
827.0625773480526
 20
213.9914590933065
 30
0.0
 11
827.0625773480526
 21
237.559787467744
 31
0.0
  0
LINE
  5
3B8
330
3B4
100
AcDbEntity
  8
0
  6
Continuous
 62
     2
100
AcDbLine
 10
815.0625773480525
 20
226.8701824975618
 30
0.0
 11
815.0625773480525
 21
237.559787467744
 31
0.0
  0
LINE
  5
3B9
330
3B4
100
AcDbEntity
  8
0
 62
     2
100
AcDbLine
 10
815.0625773480525
 20
236.559787467744
 30
0.0
 11
817.5125773480527
 21
237.2162629892002
 31
0.0
  0
LINE
  5
3BA
330
3B4
100
AcDbEntity
  8
0
 62
     2
100
AcDbLine
 10
815.0625773480525
 20
236.559787467744
 30
0.0
 11
817.5125773480527
 21
235.9033119462877
 31
0.0
  0
LINE
  5
3BB
330
3B4
100
AcDbEntity
  8
0
 62
     2
100
AcDbLine
 10
827.0625773480526
 20
236.559787467744
 30
0.0
 11
824.6125773480525
 21
235.9033119462877
 31
0.0
  0
LINE
  5
3BC
330
3B4
100
AcDbEntity
  8
0
 62
     2
100
AcDbLine
 10
827.0625773480526
 20
236.559787467744
 30
0.0
 11
824.6125773480525
 21
237.2162629892002
 31
0.0
  0
MTEXT
  5
3BD
330
3B4
100
AcDbEntity
  8
0
 62
     3
100
AcDbMText
 10
819.5925773480526
 20
237.559787467744
 30
0.0
 40
3.5
 41
0.0
 71
     7
 72
     1
  1
12
  7
CONVERTER_5
 11
0.999999999997062
 21
0.00000242406841
 31
0.0
 73
     1
 44
1.0
1001
ACAD
1000
MTEXTBEGIN
1070
    73
1070
     1
1070
    44
1040
1.0
1070
    74
1070
     0
1000
MTEXTEND
  0
ENDBLK
  5
3BE
330
3B4
100
AcDbEntity
  8
0
100
AcDbBlockEnd
  0
BLOCK
  5
3C2
330
3C1
100
AcDbEntity
  8
0
100
AcDbBlockBegin
  2
*D25
 70
     1
 10
0.0
 20
0.0
 30
0.0
  3
*D25
  1

  0
LINE
  5
3C3
330
3C1
100
AcDbEntity
  8
0
  6
Continuous
 62
     2
100
AcDbLine
 10
918.0
 20
127.592203891192
 30
0.0
 11
918.0
 21
142.5922038911919
 31
0.0
  0
LINE
  5
3C4
330
3C1
100
AcDbEntity
  8
0
  6
Continuous
 62
     2
100
AcDbLine
 10
931.0
 20
142.5922038911919
 30
0.0
 11
917.0
 21
142.5922038911919
 31
0.0
  0
LINE
  5
3C5
330
3C1
100
AcDbEntity
  8
0
  6
Continuous
 62
     2
100
AcDbLine
 10
931.0
 20
127.592203891192
 30
0.0
 11
917.0
 21
127.592203891192
 31
0.0
  0
LINE
  5
3C6
330
3C1
100
AcDbEntity
  8
0
 62
     2
100
AcDbLine
 10
918.0
 20
142.5922038911919
 30
0.0
 11
918.6564755214563
 21
140.142203891192
 31
0.0
  0
LINE
  5
3C7
330
3C1
100
AcDbEntity
  8
0
 62
     2
100
AcDbLine
 10
918.0
 20
142.5922038911919
 30
0.0
 11
917.3435244785437
 21
140.142203891192
 31
0.0
  0
LINE
  5
3C8
330
3C1
100
AcDbEntity
  8
0
 62
     2
100
AcDbLine
 10
918.0
 20
127.592203891192
 30
0.0
 11
917.3435244785437
 21
130.042203891192
 31
0.0
  0
LINE
  5
3C9
330
3C1
100
AcDbEntity
  8
0
 62
     2
100
AcDbLine
 10
918.0
 20
127.592203891192
 30
0.0
 11
918.6564755214563
 21
130.042203891192
 31
0.0
  0
MTEXT
  5
3CA
330
3C1
100
AcDbEntity
  8
0
 62
     3
100
AcDbMText
 10
917.0
 20
133.622203891192
 30
0.0
 40
3.5
 41
0.0
 71
     7
 72
     1
  1
15
  7
CONVERTER_5
 11
0.0
 21
1.0
 31
0.0
 73
     1
 44
1.0
1001
ACAD
1000
MTEXTBEGIN
1070
    73
1070
     1
1070
    44
1040
1.0
1070
    74
1070
     0
1000
MTEXTEND
  0
ENDBLK
  5
3CB
330
3C1
100
AcDbEntity
  8
0
100
AcDbBlockEnd
  0
BLOCK
  5
3CF
330
3CE
100
AcDbEntity
  8
0
100
AcDbBlockBegin
  2
*D26
 70
     1
 10
0.0
 20
0.0
 30
0.0
  3
*D26
  1

  0
LINE
  5
3D0
330
3CE
100
AcDbEntity
  8
0
  6
Continuous
 62
     2
100
AcDbLine
 10
932.0
 20
156.592203891192
 30
0.0
 11
962.0
 21
156.592203891192
 31
0.0
  0
LINE
  5
3D1
330
3CE
100
AcDbEntity
  8
0
  6
Continuous
 62
     2
100
AcDbLine
 10
962.0
 20
143.592203891192
 30
0.0
 11
962.0
 21
157.592203891192
 31
0.0
  0
LINE
  5
3D2
330
3CE
100
AcDbEntity
  8
0
  6
Continuous
 62
     2
100
AcDbLine
 10
932.0
 20
143.592203891192
 30
0.0
 11
932.0
 21
157.592203891192
 31
0.0
  0
LINE
  5
3D3
330
3CE
100
AcDbEntity
  8
0
 62
     2
100
AcDbLine
 10
962.0
 20
156.592203891192
 30
0.0
 11
959.5499999999999
 21
155.9357283697357
 31
0.0
  0
LINE
  5
3D4
330
3CE
100
AcDbEntity
  8
0
 62
     2
100
AcDbLine
 10
962.0
 20
156.592203891192
 30
0.0
 11
959.5499999999999
 21
157.2486794126483
 31
0.0
  0
LINE
  5
3D5
330
3CE
100
AcDbEntity
  8
0
 62
     2
100
AcDbLine
 10
932.0
 20
156.592203891192
 30
0.0
 11
934.45
 21
157.2486794126483
 31
0.0
  0
LINE
  5
3D6
330
3CE
100
AcDbEntity
  8
0
 62
     2
100
AcDbLine
 10
932.0
 20
156.592203891192
 30
0.0
 11
934.45
 21
155.9357283697357
 31
0.0
  0
MTEXT
  5
3D7
330
3CE
100
AcDbEntity
  8
0
 62
     3
100
AcDbMText
 10
945.1624999999999
 20
157.592203891192
 30
0.0
 40
3.5
 41
0.0
 71
     7
 72
     1
  1
30
  7
CONVERTER_5
 11
0.999999999997062
 21
0.00000242406841
 31
0.0
 73
     1
 44
1.0
1001
ACAD
1000
MTEXTBEGIN
1070
    73
1070
     1
1070
    44
1040
1.0
1070
    74
1070
     0
1000
MTEXTEND
  0
ENDBLK
  5
3D8
330
3CE
100
AcDbEntity
  8
0
100
AcDbBlockEnd
  0
BLOCK
  5
3DC
330
3DB
100
AcDbEntity
  8
0
100
AcDbBlockBegin
  2
*D27
 70
     1
 10
0.0
 20
0.0
 30
0.0
  3
*D27
  1

  0
LINE
  5
3DD
330
3DB
100
AcDbEntity
  8
0
  6
Continuous
 62
     2
100
AcDbLine
 10
848.0625773480525
 20
218.9914590933065
 30
0.0
 11
848.0625773480525
 21
223.8914590933064
 31
0.0
  0
LINE
  5
3DE
330
3DB
100
AcDbEntity
  8
0
  6
Continuous
 62
     2
100
AcDbLine
 10
848.0625773480525
 20
212.9914590933065
 30
0.0
 11
848.0625773480525
 21
208.0914590933065
 31
0.0
  0
LINE
  5
3DF
330
3DB
100
AcDbEntity
  8
0
  6
Continuous
 62
     2
100
AcDbLine
 10
848.0625773480525
 20
212.9914590933065
 30
0.0
 11
848.0625773480525
 21
218.9914590933065
 31
0.0
  0
LINE
  5
3E0
330
3DB
100
AcDbEntity
  8
0
  6
Continuous
 62
     2
100
AcDbLine
 10
820.5625773480527
 20
218.9914590933065
 30
0.0
 11
849.0625773480527
 21
218.9914590933065
 31
0.0
  0
LINE
  5
3E1
330
3DB
100
AcDbEntity
  8
0
  6
Continuous
 62
     2
100
AcDbLine
 10
828.0625773480526
 20
212.9914590933065
 30
0.0
 11
849.0625773480527
 21
212.9914590933065
 31
0.0
  0
LINE
  5
3E2
330
3DB
100
AcDbEntity
  8
0
 62
     2
100
AcDbLine
 10
848.0625773480525
 20
218.9914590933065
 30
0.0
 11
847.4061018265963
 21
221.4414590933065
 31
0.0
  0
LINE
  5
3E3
330
3DB
100
AcDbEntity
  8
0
 62
     2
100
AcDbLine
 10
848.0625773480525
 20
218.9914590933065
 30
0.0
 11
848.7190528695091
 21
221.4414590933065
 31
0.0
  0
LINE
  5
3E4
330
3DB
100
AcDbEntity
  8
0
 62
     2
100
AcDbLine
 10
848.0625773480525
 20
212.9914590933065
 30
0.0
 11
848.7190528695091
 21
210.5414590933065
 31
0.0
  0
LINE
  5
3E5
330
3DB
100
AcDbEntity
  8
0
 62
     2
100
AcDbLine
 10
848.0625773480525
 20
212.9914590933065
 30
0.0
 11
847.4061018265963
 21
210.5414590933065
 31
0.0
  0
MTEXT
  5
3E6
330
3DB
100
AcDbEntity
  8
0
 62
     3
100
AcDbMText
 10
847.0625773480525
 20
215.2564590933065
 30
0.0
 40
3.5
 41
0.0
 71
     7
 72
     1
  1
6
  7
CONVERTER_5
 11
0.0
 21
1.0
 31
0.0
 73
     1
 44
1.0
1001
ACAD
1000
MTEXTBEGIN
1070
    73
1070
     1
1070
    44
1040
1.0
1070
    74
1070
     0
1000
MTEXTEND
  0
ENDBLK
  5
3E7
330
3DB
100
AcDbEntity
  8
0
100
AcDbBlockEnd
  0
BLOCK
  5
3EB
330
3EA
100
AcDbEntity
  8
0
100
AcDbBlockBegin
  2
*D28
 70
     1
 10
0.0
 20
0.0
 30
0.0
  3
*D28
  1

  0
LINE
  5
3EC
330
3EA
100
AcDbEntity
  8
0
  6
Continuous
 62
     2
100
AcDbLine
 10
769.5625773480526
 20
133.9556526334256
 30
0.0
 11
786.0625773480526
 21
133.9556526334256
 31
0.0
  0
LINE
  5
3ED
330
3EA
100
AcDbEntity
  8
0
  6
Continuous
 62
     2
100
AcDbLine
 10
786.0625773480526
 20
119.4556526334256
 30
0.0
 11
786.0625773480526
 21
134.9556526334256
 31
0.0
  0
LINE
  5
3EE
330
3EA
100
AcDbEntity
  8
0
  6
Continuous
 62
     2
100
AcDbLine
 10
769.5625773480526
 20
115.9556526334256
 30
0.0
 11
769.5625773480526
 21
134.9556526334256
 31
0.0
  0
LINE
  5
3EF
330
3EA
100
AcDbEntity
  8
0
 62
     2
100
AcDbLine
 10
786.0625773480526
 20
133.9556526334256
 30
0.0
 11
783.6125773480524
 21
133.2991771119693
 31
0.0
  0
LINE
  5
3F0
330
3EA
100
AcDbEntity
  8
0
 62
     2
100
AcDbLine
 10
786.0625773480526
 20
133.9556526334256
 30
0.0
 11
783.6125773480524
 21
134.6121281548818
 31
0.0
  0
LINE
  5
3F1
330
3EA
100
AcDbEntity
  8
0
 62
     2
100
AcDbLine
 10
769.5625773480526
 20
133.9556526334256
 30
0.0
 11
772.0125773480527
 21
134.6121281548818
 31
0.0
  0
LINE
  5
3F2
330
3EA
100
AcDbEntity
  8
0
 62
     2
100
AcDbLine
 10
769.5625773480526
 20
133.9556526334256
 30
0.0
 11
772.0125773480527
 21
133.2991771119693
 31
0.0
  0
MTEXT
  5
3F3
330
3EA
100
AcDbEntity
  8
0
 62
     3
100
AcDbMText
 10
774.8113273480527
 20
134.9556526334256
 30
0.0
 40
3.5
 41
0.0
 71
     7
 72
     1
  1
16.5
  7
CONVERTER_5
 11
0.999999999997062
 21
0.00000242406841
 31
0.0
 73
     1
 44
1.0
1001
ACAD
1000
MTEXTBEGIN
1070
    73
1070
     1
1070
    44
1040
1.0
1070
    74
1070
     0
1000
MTEXTEND
  0
ENDBLK
  5
3F4
330
3EA
100
AcDbEntity
  8
0
100
AcDbBlockEnd
  0
BLOCK
  5
3F8
330
3F7
100
AcDbEntity
  8
0
100
AcDbBlockBegin
  2
*D29
 70
     1
 10
0.0
 20
0.0
 30
0.0
  3
*D29
  1

  0
LINE
  5
3F9
330
3F7
100
AcDbEntity
  8
0
  6
Continuous
 62
     2
100
AcDbLine
 10
769.5625773480526
 20
243.5597874677442
 30
0.0
 11
794.5625773480523
 21
243.5597874677442
 31
0.0
  0
LINE
  5
3FA
330
3F7
100
AcDbEntity
  8
0
  6
Continuous
 62
     2
100
AcDbLine
 10
794.5625773480523
 20
211.9914590933065
 30
0.0
 11
794.5625773480523
 21
244.5597874677442
 31
0.0
  0
LINE
  5
3FB
330
3F7
100
AcDbEntity
  8
0
  6
Continuous
 62
     2
100
AcDbLine
 10
769.5625773480526
 20
204.9914590933065
 30
0.0
 11
769.5625773480526
 21
244.5597874677442
 31
0.0
  0
LINE
  5
3FC
330
3F7
100
AcDbEntity
  8
0
 62
     2
100
AcDbLine
 10
769.5625773480526
 20
243.5597874677442
 30
0.0
 11
772.0125773480527
 21
244.2162629892005
 31
0.0
  0
LINE
  5
3FD
330
3F7
100
AcDbEntity
  8
0
 62
     2
100
AcDbLine
 10
769.5625773480526
 20
243.5597874677442
 30
0.0
 11
772.0125773480527
 21
242.903311946288
 31
0.0
  0
LINE
  5
3FE
330
3F7
100
AcDbEntity
  8
0
 62
     2
100
AcDbLine
 10
794.5625773480523
 20
243.5597874677442
 30
0.0
 11
792.1125773480524
 21
242.903311946288
 31
0.0
  0
LINE
  5
3FF
330
3F7
100
AcDbEntity
  8
0
 62
     2
100
AcDbLine
 10
794.5625773480523
 20
243.5597874677442
 30
0.0
 11
792.1125773480524
 21
244.2162629892005
 31
0.0
  0
MTEXT
  5
400
330
3F7
100
AcDbEntity
  8
0
 62
     3
100
AcDbMText
 10
780.2250773480525
 20
244.5597874677442
 30
0.0
 40
3.5
 41
0.0
 71
     7
 72
     1
  1
25
  7
CONVERTER_5
 11
0.999999999997062
 21
0.00000242406841
 31
0.0
 73
     1
 44
1.0
1001
ACAD
1000
MTEXTBEGIN
1070
    73
1070
     1
1070
    44
1040
1.0
1070
    74
1070
     0
1000
MTEXTEND
  0
ENDBLK
  5
401
330
3F7
100
AcDbEntity
  8
0
100
AcDbBlockEnd
  0
BLOCK
  5
405
330
404
100
AcDbEntity
  8
0
100
AcDbBlockBegin
  2
*D30
 70
     1
 10
0.0
 20
0.0
 30
0.0
  3
*D30
  1

  0
LINE
  5
406
330
404
100
AcDbEntity
  8
0
  6
Continuous
 62
     2
100
AcDbLine
 10
794.5625773480523
 20
243.5597874677442
 30
0.0
 11
827.0625773480526
 21
243.5597874677442
 31
0.0
  0
LINE
  5
407
330
404
100
AcDbEntity
  8
0
  6
Continuous
 62
     2
100
AcDbLine
 10
827.0625773480526
 20
213.9914590933065
 30
0.0
 11
827.0625773480526
 21
244.5597874677442
 31
0.0
  0
LINE
  5
408
330
404
100
AcDbEntity
  8
0
  6
Continuous
 62
     2
100
AcDbLine
 10
794.5625773480523
 20
211.9914590933065
 30
0.0
 11
794.5625773480523
 21
244.5597874677442
 31
0.0
  0
LINE
  5
409
330
404
100
AcDbEntity
  8
0
 62
     2
100
AcDbLine
 10
827.0625773480526
 20
243.5597874677442
 30
0.0
 11
824.6125773480525
 21
242.903311946288
 31
0.0
  0
LINE
  5
40A
330
404
100
AcDbEntity
  8
0
 62
     2
100
AcDbLine
 10
827.0625773480526
 20
243.5597874677442
 30
0.0
 11
824.6125773480525
 21
244.2162629892005
 31
0.0
  0
LINE
  5
40B
330
404
100
AcDbEntity
  8
0
 62
     2
100
AcDbLine
 10
794.5625773480523
 20
243.5597874677442
 30
0.0
 11
797.0125773480526
 21
244.2162629892005
 31
0.0
  0
LINE
  5
40C
330
404
100
AcDbEntity
  8
0
 62
     2
100
AcDbLine
 10
794.5625773480523
 20
243.5597874677442
 30
0.0
 11
797.0125773480526
 21
242.903311946288
 31
0.0
  0
MTEXT
  5
40D
330
404
100
AcDbEntity
  8
0
 62
     3
100
AcDbMText
 10
807.4438273480526
 20
244.5597874677442
 30
0.0
 40
3.5
 41
0.0
 71
     7
 72
     1
  1
32.5
  7
CONVERTER_5
 11
0.999999999997062
 21
0.00000242406841
 31
0.0
 73
     1
 44
1.0
1001
ACAD
1000
MTEXTBEGIN
1070
    73
1070
     1
1070
    44
1040
1.0
1070
    74
1070
     0
1000
MTEXTEND
  0
ENDBLK
  5
40E
330
404
100
AcDbEntity
  8
0
100
AcDbBlockEnd
  0
BLOCK
  5
412
330
411
100
AcDbEntity
  8
0
100
AcDbBlockBegin
  2
*D31
 70
     1
 10
0.0
 20
0.0
 30
0.0
  3
*D31
  1

  0
LINE
  5
413
330
411
100
AcDbEntity
  8
0
  6
Continuous
 62
     2
100
AcDbLine
 10
748.5625773480526
 20
74.95565263342567
 30
0.0
 11
748.5625773480526
 21
114.9556526334256
 31
0.0
  0
LINE
  5
414
330
411
100
AcDbEntity
  8
0
  6
Continuous
 62
     2
100
AcDbLine
 10
781.5625773480526
 20
74.95565263342567
 30
0.0
 11
747.5625773480526
 21
74.95565263342567
 31
0.0
  0
LINE
  5
415
330
411
100
AcDbEntity
  8
0
  6
Continuous
 62
     2
100
AcDbLine
 10
781.5625773480526
 20
114.9556526334256
 30
0.0
 11
747.5625773480526
 21
114.9556526334256
 31
0.0
  0
LINE
  5
416
330
411
100
AcDbEntity
  8
0
 62
     2
100
AcDbLine
 10
748.5625773480526
 20
114.9556526334256
 30
0.0
 11
749.219052869509
 21
112.5056526334256
 31
0.0
  0
LINE
  5
417
330
411
100
AcDbEntity
  8
0
 62
     2
100
AcDbLine
 10
748.5625773480526
 20
114.9556526334256
 30
0.0
 11
747.9061018265963
 21
112.5056526334256
 31
0.0
  0
LINE
  5
418
330
411
100
AcDbEntity
  8
0
 62
     2
100
AcDbLine
 10
748.5625773480526
 20
74.95565263342567
 30
0.0
 11
747.9061018265963
 21
77.40565263342567
 31
0.0
  0
LINE
  5
419
330
411
100
AcDbEntity
  8
0
 62
     2
100
AcDbLine
 10
748.5625773480526
 20
74.95565263342567
 30
0.0
 11
749.219052869509
 21
77.40565263342567
 31
0.0
  0
MTEXT
  5
41A
330
411
100
AcDbEntity
  8
0
 62
     3
100
AcDbMText
 10
747.5625773480526
 20
93.11815263342564
 30
0.0
 40
3.5
 41
0.0
 71
     7
 72
     1
  1
40
  7
CONVERTER_5
 11
0.0
 21
1.0
 31
0.0
 73
     1
 44
1.0
1001
ACAD
1000
MTEXTBEGIN
1070
    73
1070
     1
1070
    44
1040
1.0
1070
    74
1070
     0
1000
MTEXTEND
  0
ENDBLK
  5
41B
330
411
100
AcDbEntity
  8
0
100
AcDbBlockEnd
  0
BLOCK
  5
41F
330
41E
100
AcDbEntity
  8
0
100
AcDbBlockBegin
  2
*D32
 70
     1
 10
0.0
 20
0.0
 30
0.0
  3
*D32
  1

  0
LINE
  5
420
330
41E
100
AcDbEntity
  8
0
  6
Continuous
 62
     2
100
AcDbLine
 10
775.5625773480526
 20
41.95565263342567
 30
0.0
 11
796.5625773480526
 21
41.95565263342567
 31
0.0
  0
LINE
  5
421
330
41E
100
AcDbEntity
  8
0
  6
Continuous
 62
     2
100
AcDbLine
 10
796.5625773480526
 20
68.95565263342567
 30
0.0
 11
796.5625773480526
 21
40.95565263342566
 31
0.0
  0
LINE
  5
422
330
41E
100
AcDbEntity
  8
0
  6
Continuous
 62
     2
100
AcDbLine
 10
775.5625773480526
 20
70.95565263342564
 30
0.0
 11
775.5625773480526
 21
40.95565263342566
 31
0.0
  0
LINE
  5
423
330
41E
100
AcDbEntity
  8
0
 62
     2
100
AcDbLine
 10
796.5625773480526
 20
41.95565263342567
 30
0.0
 11
794.1125773480524
 21
41.29917711196942
 31
0.0
  0
LINE
  5
424
330
41E
100
AcDbEntity
  8
0
 62
     2
100
AcDbLine
 10
796.5625773480526
 20
41.95565263342567
 30
0.0
 11
794.1125773480524
 21
42.61212815488192
 31
0.0
  0
LINE
  5
425
330
41E
100
AcDbEntity
  8
0
 62
     2
100
AcDbLine
 10
775.5625773480526
 20
41.95565263342567
 30
0.0
 11
778.0125773480526
 21
42.61212815488192
 31
0.0
  0
LINE
  5
426
330
41E
100
AcDbEntity
  8
0
 62
     2
100
AcDbLine
 10
775.5625773480526
 20
41.95565263342567
 30
0.0
 11
778.0125773480526
 21
41.29917711196942
 31
0.0
  0
MTEXT
  5
427
330
41E
100
AcDbEntity
  8
0
 62
     3
100
AcDbMText
 10
784.5925773480526
 20
42.95565263342567
 30
0.0
 40
3.5
 41
0.0
 71
     7
 72
     1
  1
21
  7
CONVERTER_5
 11
0.999999999997062
 21
0.00000242406841
 31
0.0
 73
     1
 44
1.0
1001
ACAD
1000
MTEXTBEGIN
1070
    73
1070
     1
1070
    44
1040
1.0
1070
    74
1070
     0
1000
MTEXTEND
  0
ENDBLK
  5
428
330
41E
100
AcDbEntity
  8
0
100
AcDbBlockEnd
  0
BLOCK
  5
42C
330
42B
100
AcDbEntity
  8
0
100
AcDbBlockBegin
  2
*D33
 70
     1
 10
0.0
 20
0.0
 30
0.0
  3
*D33
  1

  0
LINE
  5
42D
330
42B
100
AcDbEntity
  8
0
  6
Continuous
 62
     2
100
AcDbLine
 10
775.5625773480526
 20
41.95565263342567
 30
0.0
 11
780.4625773480527
 21
41.95565263342567
 31
0.0
  0
LINE
  5
42E
330
42B
100
AcDbEntity
  8
0
  6
Continuous
 62
     2
100
AcDbLine
 10
769.5625773480526
 20
41.95565263342567
 30
0.0
 11
764.6625773480526
 21
41.95565263342567
 31
0.0
  0
LINE
  5
42F
330
42B
100
AcDbEntity
  8
0
  6
Continuous
 62
     2
100
AcDbLine
 10
769.5625773480526
 20
41.95565263342567
 30
0.0
 11
775.5625773480526
 21
41.95565263342567
 31
0.0
  0
LINE
  5
430
330
42B
100
AcDbEntity
  8
0
  6
Continuous
 62
     2
100
AcDbLine
 10
775.5625773480526
 20
70.95565263342564
 30
0.0
 11
775.5625773480526
 21
40.95565263342566
 31
0.0
  0
LINE
  5
431
330
42B
100
AcDbEntity
  8
0
  6
Continuous
 62
     2
100
AcDbLine
 10
769.5625773480526
 20
73.95565263342567
 30
0.0
 11
769.5625773480526
 21
40.95565263342566
 31
0.0
  0
LINE
  5
432
330
42B
100
AcDbEntity
  8
0
 62
     2
100
AcDbLine
 10
775.5625773480526
 20
41.95565263342567
 30
0.0
 11
778.0125773480526
 21
42.61212815488192
 31
0.0
  0
LINE
  5
433
330
42B
100
AcDbEntity
  8
0
 62
     2
100
AcDbLine
 10
775.5625773480526
 20
41.95565263342567
 30
0.0
 11
778.0125773480526
 21
41.29917711196942
 31
0.0
  0
LINE
  5
434
330
42B
100
AcDbEntity
  8
0
 62
     2
100
AcDbLine
 10
769.5625773480526
 20
41.95565263342567
 30
0.0
 11
767.1125773480524
 21
41.29917711196942
 31
0.0
  0
LINE
  5
435
330
42B
100
AcDbEntity
  8
0
 62
     2
100
AcDbLine
 10
769.5625773480526
 20
41.95565263342567
 30
0.0
 11
767.1125773480524
 21
42.61212815488192
 31
0.0
  0
MTEXT
  5
436
330
42B
100
AcDbEntity
  8
0
 62
     3
100
AcDbMText
 10
771.8275773480527
 20
42.95565263342567
 30
0.0
 40
3.5
 41
0.0
 71
     7
 72
     1
  1
6
  7
CONVERTER_5
 11
0.999999999997062
 21
0.00000242406841
 31
0.0
 73
     1
 44
1.0
1001
ACAD
1000
MTEXTBEGIN
1070
    73
1070
     1
1070
    44
1040
1.0
1070
    74
1070
     0
1000
MTEXTEND
  0
ENDBLK
  5
437
330
42B
100
AcDbEntity
  8
0
100
AcDbBlockEnd
  0
BLOCK
  5
43B
330
43A
100
AcDbEntity
  8
0
100
AcDbBlockBegin
  2
*D34
 70
     1
 10
0.0
 20
0.0
 30
0.0
  3
*D34
  1

  0
LINE
  5
43C
330
43A
100
AcDbEntity
  8
0
  6
Continuous
 62
     2
100
AcDbLine
 10
748.5625773480526
 20
190.4914590933065
 30
0.0
 11
748.5625773480526
 21
201.9914590933065
 31
0.0
  0
LINE
  5
43D
330
43A
100
AcDbEntity
  8
0
  6
Continuous
 62
     2
100
AcDbLine
 10
775.5625773480526
 20
190.4914590933065
 30
0.0
 11
747.5625773480526
 21
190.4914590933065
 31
0.0
  0
LINE
  5
43E
330
43A
100
AcDbEntity
  8
0
  6
Continuous
 62
     2
100
AcDbLine
 10
768.5625773480524
 20
201.9914590933065
 30
0.0
 11
747.5625773480526
 21
201.9914590933065
 31
0.0
  0
LINE
  5
43F
330
43A
100
AcDbEntity
  8
0
 62
     2
100
AcDbLine
 10
748.5625773480526
 20
201.9914590933065
 30
0.0
 11
749.219052869509
 21
199.5414590933064
 31
0.0
  0
LINE
  5
440
330
43A
100
AcDbEntity
  8
0
 62
     2
100
AcDbLine
 10
748.5625773480526
 20
201.9914590933065
 30
0.0
 11
747.9061018265963
 21
199.5414590933064
 31
0.0
  0
LINE
  5
441
330
43A
100
AcDbEntity
  8
0
 62
     2
100
AcDbLine
 10
748.5625773480526
 20
190.4914590933065
 30
0.0
 11
747.9061018265963
 21
192.9414590933064
 31
0.0
  0
LINE
  5
442
330
43A
100
AcDbEntity
  8
0
 62
     2
100
AcDbLine
 10
748.5625773480526
 20
190.4914590933065
 30
0.0
 11
749.219052869509
 21
192.9414590933064
 31
0.0
  0
MTEXT
  5
443
330
43A
100
AcDbEntity
  8
0
 62
     3
100
AcDbMText
 10
747.5625773480526
 20
193.6077090933064
 30
0.0
 40
3.5
 41
0.0
 71
     7
 72
     1
  1
11.5
  7
CONVERTER_5
 11
0.0
 21
1.0
 31
0.0
 73
     1
 44
1.0
1001
ACAD
1000
MTEXTBEGIN
1070
    73
1070
     1
1070
    44
1040
1.0
1070
    74
1070
     0
1000
MTEXTEND
  0
ENDBLK
  5
444
330
43A
100
AcDbEntity
  8
0
100
AcDbBlockEnd
  0
BLOCK
  5
448
330
447
100
AcDbEntity
  8
0
100
AcDbBlockBegin
  2
*D35
 70
     1
 10
0.0
 20
0.0
 30
0.0
  3
*D35
  1

  0
LINE
  5
449
330
447
100
AcDbEntity
  8
0
  6
Continuous
 62
     2
100
AcDbLine
 10
748.5625773480526
 20
201.9914590933065
 30
0.0
 11
748.5625773480526
 21
212.9914590933065
 31
0.0
  0
LINE
  5
44A
330
447
100
AcDbEntity
  8
0
  6
Continuous
 62
     2
100
AcDbLine
 10
795.5625773480526
 20
212.9914590933065
 30
0.0
 11
747.5625773480526
 21
212.9914590933065
 31
0.0
  0
LINE
  5
44B
330
447
100
AcDbEntity
  8
0
  6
Continuous
 62
     2
100
AcDbLine
 10
768.5625773480524
 20
201.9914590933065
 30
0.0
 11
747.5625773480526
 21
201.9914590933065
 31
0.0
  0
LINE
  5
44C
330
447
100
AcDbEntity
  8
0
 62
     2
100
AcDbLine
 10
748.5625773480526
 20
201.9914590933065
 30
0.0
 11
747.9061018265963
 21
204.4414590933065
 31
0.0
  0
LINE
  5
44D
330
447
100
AcDbEntity
  8
0
 62
     2
100
AcDbLine
 10
748.5625773480526
 20
201.9914590933065
 30
0.0
 11
749.219052869509
 21
204.4414590933065
 31
0.0
  0
LINE
  5
44E
330
447
100
AcDbEntity
  8
0
 62
     2
100
AcDbLine
 10
748.5625773480526
 20
212.9914590933065
 30
0.0
 11
749.219052869509
 21
210.5414590933065
 31
0.0
  0
LINE
  5
44F
330
447
100
AcDbEntity
  8
0
 62
     2
100
AcDbLine
 10
748.5625773480526
 20
212.9914590933065
 30
0.0
 11
747.9061018265963
 21
210.5414590933065
 31
0.0
  0
MTEXT
  5
450
330
447
100
AcDbEntity
  8
0
 62
     3
100
AcDbMText
 10
747.5625773480526
 20
206.3889590933065
 30
0.0
 40
3.5
 41
0.0
 71
     7
 72
     1
  1
11
  7
CONVERTER_5
 11
0.0
 21
1.0
 31
0.0
 73
     1
 44
1.0
1001
ACAD
1000
MTEXTBEGIN
1070
    73
1070
     1
1070
    44
1040
1.0
1070
    74
1070
     0
1000
MTEXTEND
  0
ENDBLK
  5
451
330
447
100
AcDbEntity
  8
0
100
AcDbBlockEnd
  0
BLOCK
  5
455
330
454
100
AcDbEntity
  8
0
100
AcDbBlockBegin
  2
*D36
 70
     1
 10
0.0
 20
0.0
 30
0.0
  3
*D36
  1

  0
LINE
  5
456
330
454
100
AcDbEntity
  8
0
  6
Continuous
 62
     2
100
AcDbLine
 10
770.9317959335209
 20
71.5180042628253
 30
0.0
 11
736.972498594141
 21
39.36511213381476
 31
0.0
  0
LINE
  5
457
330
454
100
AcDbEntity
  8
0
 62
     2
100
AcDbLine
 10
770.9317959335209
 20
71.5180042628253
 30
0.0
 11
769.604059441735
 21
69.35685273675144
 31
0.0
  0
LINE
  5
458
330
454
100
AcDbEntity
  8
0
 62
     2
100
AcDbLine
 10
770.9317959335209
 20
71.5180042628253
 30
0.0
 11
768.7013666390659
 21
70.31026038571077
 31
0.0
  0
MTEXT
  5
459
330
454
100
AcDbEntity
  8
0
 62
     3
100
AcDbMText
 10
735.395427473461
 20
39.249044565924
 30
0.0
 40
3.5
 41
0.0
 71
     7
 72
     1
  1
\C3;2-R\C3;5
  7
CONVERTER_5
 11
0.7261562829063295
 21
0.6875296741200796
 31
0.0
 73
     1
 44
1.0
1001
ACAD
1000
MTEXTBEGIN
1070
    73
1070
     1
1070
    44
1040
1.0
1070
    74
1070
     0
1000
MTEXTEND
  0
ENDBLK
  5
45A
330
454
100
AcDbEntity
  8
0
100
AcDbBlockEnd
  0
BLOCK
  5
45D
330
45C
100
AcDbEntity
  8
0
100
AcDbBlockBegin
  2
*D37
 70
     1
 10
0.0
 20
0.0
 30
0.0
  3
*D37
  1

  0
LINE
  5
45E
330
45C
100
AcDbEntity
  8
0
  6
Continuous
 62
     2
100
AcDbLine
 10
826.5703105438886
 20
70.64159760787522
 30
0.0
 11
861.1327867060778
 21
40.51889710501114
 31
0.0
  0
LINE
  5
45F
330
45C
100
AcDbEntity
  8
0
 62
     2
100
AcDbLine
 10
826.5703105438886
 20
70.64159760787522
 30
0.0
 11
828.8486061878478
 21
69.52677516955262
 31
0.0
  0
LINE
  5
460
330
45C
100
AcDbEntity
  8
0
 62
     2
100
AcDbLine
 10
826.5703105438886
 20
70.64159760787522
 30
0.0
 11
827.9859612297272
 21
68.53698523359932
 31
0.0
  0
MTEXT
  5
461
330
45C
100
AcDbEntity
  8
0
 62
     3
100
AcDbMText
 10
854.1908389118399
 20
47.89560103170329
 30
0.0
 40
3.5
 41
0.0
 71
     7
 72
     1
  1
\C3;2-R\C3;2
  7
CONVERTER_5
 11
0.7538665979179678
 21
-0.6570275127752181
 31
0.0
 73
     1
 44
1.0
1001
ACAD
1000
MTEXTBEGIN
1070
    73
1070
     1
1070
    44
1040
1.0
1070
    74
1070
     0
1000
MTEXTEND
  0
ENDBLK
  5
462
330
45C
100
AcDbEntity
  8
0
100
AcDbBlockEnd
  0
ENDSEC
  0
SECTION
  2
ENTITIES
  0
INSERT
  5
46
330
A
100
AcDbEntity
  8
1
100
AcDbBlockReference
  2
_3
 10
911.9374226519475
 20
361.2269579819604
 30
0.0
  0
ARC
  5
4C0
330
A
100
AcDbEntity
  8
1
  6
Continuous
 62
     7
100
AcDbCircle
 10
776.5625773480526
 20
191.4914590933065
 30
0.0
 40
1.0
100
AcDbArc
 50
180.0
 51
270.0
  0
ARC
  5
4C1
330
A
100
AcDbEntity
  8
1
  6
Continuous
 62
     7
100
AcDbCircle
 10
776.5625773480526
 20
195.1414590933064
 30
0.0
 40
1.0
100
AcDbArc
 50
180.0
 51
270.0
  0
ARC
  5
4C2
330
A
100
AcDbEntity
  8
1
  6
Continuous
 62
     7
100
AcDbCircle
 10
795.5625773480526
 20
191.4914590933065
 30
0.0
 40
1.0
100
AcDbArc
 50
270.0
 51
0.0
  0
ARC
  5
4C3
330
A
100
AcDbEntity
  8
1
  6
Continuous
 62
     7
100
AcDbCircle
 10
795.5625773480526
 20
195.1414590933064
 30
0.0
 40
1.0
100
AcDbArc
 50
270.0
 51
0.0
  0
ARC
  5
4C4
330
A
100
AcDbEntity
  8
1
  6
Continuous
 62
     7
100
AcDbCircle
 10
794.5625773480526
 20
71.95565263342564
 30
0.0
 40
2.0
100
AcDbArc
 50
270.0
 51
0.0
  0
ARC
  5
4C5
330
A
100
AcDbEntity
  8
1
  6
Continuous
 62
     7
100
AcDbCircle
 10
794.5625773480526
 20
117.9556526334256
 30
0.0
 40
2.0
100
AcDbArc
 50
0.0
 51
90.0
  0
ARC
  5
4C6
330
A
100
AcDbEntity
  8
1
  6
Continuous
 62
     7
100
AcDbCircle
 10
795.5625773480526
 20
83.95565263342565
 30
0.0
 40
1.0
100
AcDbArc
 50
270.0
 51
0.0
  0
ARC
  5
4C7
330
A
100
AcDbEntity
  8
1
  6
Continuous
 62
     7
100
AcDbCircle
 10
795.5625773480529
 20
105.9556526334256
 30
0.0
 40
0.99999999999966
100
AcDbArc
 50
0.0
 51
90.00000000001953
  0
ARC
  5
4C8
330
A
100
AcDbEntity
  8
1
  6
PHANTOM
 62
     7
100
AcDbCircle
 10
798.5625773480523
 20
83.95565263342565
 30
0.0
 40
1.0
100
AcDbArc
 50
270.0
 51
0.0
  0
ARC
  5
4C9
330
A
100
AcDbEntity
  8
1
  6
PHANTOM
 62
     7
100
AcDbCircle
 10
798.5625773480523
 20
105.9556526334256
 30
0.0
 40
1.0
100
AcDbArc
 50
0.0
 51
90.0
  0
ARC
  5
4CA
330
A
100
AcDbEntity
  8
1
  6
Continuous
 62
     7
100
AcDbCircle
 10
777.5625773480526
 20
117.9556526334256
 30
0.0
 40
2.0
100
AcDbArc
 50
90.0
 51
180.0
  0
ARC
  5
4CB
330
A
100
AcDbEntity
  8
1
  6
Continuous
 62
     7
100
AcDbCircle
 10
777.5625773480526
 20
71.95565263342564
 30
0.0
 40
2.0
100
AcDbArc
 50
180.0
 51
270.0
  0
ARC
  5
4CC
330
A
100
AcDbEntity
  8
1
  6
Continuous
 62
     7
100
AcDbCircle
 10
778.5625773480524
 20
91.95565263342563
 30
0.0
 40
2.0
100
AcDbArc
 50
270.0
 51
0.0
  0
ARC
  5
4CD
330
A
100
AcDbEntity
  8
1
  6
Continuous
 62
     7
100
AcDbCircle
 10
778.5625773480526
 20
97.95565263342565
 30
0.0
 40
1.99999999999966
100
AcDbArc
 50
0.0
 51
90.00000000000978
  0
ARC
  5
4CE
330
A
100
AcDbEntity
  8
1
  6
Continuous
 62
     7
100
AcDbCircle
 10
776.5625773480526
 20
83.95565263342565
 30
0.0
 40
1.0
100
AcDbArc
 50
180.0
 51
270.0
  0
ARC
  5
4CF
330
A
100
AcDbEntity
  8
1
  6
Continuous
 62
     7
100
AcDbCircle
 10
776.5625773480524
 20
105.9556526334256
 30
0.0
 40
1.0
100
AcDbArc
 50
89.99999999998044
 51
180.0
  0
ARC
  5
4D0
330
A
100
AcDbEntity
  8
1
  6
Continuous
 62
     7
100
AcDbCircle
 10
777.3625773480524
 20
95.95565263342564
 30
0.0
 40
0.5
100
AcDbArc
 50
180.0
 51
270.0
  0
ARC
  5
4D1
330
A
100
AcDbEntity
  8
1
  6
Continuous
 62
     7
100
AcDbCircle
 10
777.3625773480524
 20
93.95565263342565
 30
0.0
 40
0.5
100
AcDbArc
 50
90.0
 51
180.0
  0
ARC
  5
4D2
330
A
100
AcDbEntity
  8
1
  6
Continuous
 62
     7
100
AcDbCircle
 10
775.3625773480523
 20
95.95565263342564
 30
0.0
 40
0.5
100
AcDbArc
 50
270.0
 51
0.0
  0
ARC
  5
4D3
330
A
100
AcDbEntity
  8
1
  6
Continuous
 62
     7
100
AcDbCircle
 10
775.3625773480523
 20
93.95565263342565
 30
0.0
 40
0.5
100
AcDbArc
 50
0.0
 51
90.0
  0
CIRCLE
  5
4D4
330
A
100
AcDbEntity
  8
1
  6
Continuous
 62
     7
100
AcDbCircle
 10
776.3625773480523
 20
94.95565263342564
 30
0.0
 40
4.0
  0
ARC
  5
4D5
330
A
100
AcDbEntity
  8
1
  6
Continuous
 62
     7
100
AcDbCircle
 10
776.5625773480524
 20
199.5816118741381
 30
0.0
 40
8.69015278083166
100
AcDbArc
 50
243.6932856803499
 51
264.5312833983534
  0
ARC
  5
4D6
330
A
100
AcDbEntity
  8
1
  6
Continuous
 62
     7
100
AcDbCircle
 10
774.5625773480524
 20
94.95565263342564
 30
0.0
 40
5.0
100
AcDbArc
 50
180.0
 51
270.0
  0
ARC
  5
4D7
330
A
100
AcDbEntity
  8
1
  6
Continuous
 62
     7
100
AcDbCircle
 10
774.5625773480524
 20
94.95565263342564
 30
0.0
 40
5.0
100
AcDbArc
 50
90.0
 51
180.0
  0
ARC
  5
4D8
330
A
100
AcDbEntity
  8
1
  6
Continuous
 62
     7
100
AcDbCircle
 10
773.562577348053
 20
94.95565263342564
 30
0.0
 40
2.00000000000015
100
AcDbArc
 50
111.8037479893981
 51
248.1962520106031
  0
LINE
  5
4DA
330
A
100
AcDbEntity
  8
1
  6
Continuous
 62
     7
100
AcDbLine
 10
788.8625773480525
 20
195.9914590933065
 30
0.0
 11
793.8625773480525
 21
195.9914590933065
 31
0.0
  0
LINE
  5
50F
330
A
100
AcDbEntity
  8
1
  6
Continuous
 62
     7
100
AcDbLine
 10
769.5625773480523
 20
195.9914590933065
 30
0.0
 11
775.5625773480524
 21
195.9914590933065
 31
0.0
  0
LINE
  5
510
330
A
100
AcDbEntity
  8
1
  6
Continuous
 62
     7
100
AcDbLine
 10
769.5625773480523
 20
195.9914590933065
 30
0.0
 11
769.5625773480523
 21
201.9914590933065
 31
0.0
  0
LINE
  5
511
330
A
100
AcDbEntity
  8
1
  6
Continuous
 62
     7
100
AcDbLine
 10
769.5625773480523
 20
195.9914590933065
 30
0.0
 11
769.5625773480523
 21
193.4914590933065
 31
0.0
  0
LINE
  5
512
330
A
100
AcDbEntity
  8
1
  6
Continuous
 62
     7
100
AcDbLine
 10
769.5625773480523
 20
193.4914590933065
 30
0.0
 11
775.5625773480524
 21
193.4914590933065
 31
0.0
  0
LINE
  5
513
330
A
100
AcDbEntity
  8
1
  6
Continuous
 62
     7
100
AcDbLine
 10
775.5625773480526
 20
191.4914590933065
 30
0.0
 11
775.5625773480524
 21
195.9914590933065
 31
0.0
  0
LINE
  5
514
330
A
100
AcDbEntity
  8
1
  6
Continuous
 62
     7
100
AcDbLine
 10
772.5625773480524
 20
193.4914590933065
 30
0.0
 11
775.5625773480524
 21
193.4914590933065
 31
0.0
  0
LINE
  5
515
330
A
100
AcDbEntity
  8
1
  6
Continuous
 62
     7
100
AcDbLine
 10
772.7113080760464
 20
191.7914590933064
 30
0.0
 11
772.5625773480524
 21
193.4914590933065
 31
0.0
  0
LINE
  5
516
330
A
100
AcDbEntity
  8
1
  6
Continuous
 62
     7
100
AcDbLine
 10
772.7113080760464
 20
191.7914590933064
 30
0.0
 11
775.5625773480524
 21
191.7914590933064
 31
0.0
  0
LINE
  5
517
330
A
100
AcDbEntity
  8
1
  6
Continuous
 62
     7
100
AcDbLine
 10
778.2625773480526
 20
194.1414590933064
 30
0.0
 11
778.2625773480526
 21
196.9914590933065
 31
0.0
  0
LINE
  5
518
330
A
100
AcDbEntity
  8
1
  6
Continuous
 62
     7
100
AcDbLine
 10
776.5625773480526
 20
194.1414590933064
 30
0.0
 11
778.2625773480526
 21
194.1414590933064
 31
0.0
  0
LINE
  5
519
330
A
100
AcDbEntity
  8
1
  6
Continuous
 62
     7
100
AcDbLine
 10
775.5625773480526
 20
201.9914590933065
 30
0.0
 11
775.5625773480526
 21
195.1414590933064
 31
0.0
  0
LINE
  5
51A
330
A
100
AcDbEntity
  8
1
  6
Continuous
 62
     7
100
AcDbLine
 10
778.2625773480526
 20
195.9914590933065
 30
0.0
 11
783.2625773480526
 21
195.9914590933065
 31
0.0
  0
LINE
  5
51B
330
A
100
AcDbEntity
  8
1
  6
Continuous
 62
     7
100
AcDbLine
 10
778.2625773480526
 20
196.9914590933065
 30
0.0
 11
793.8625773480525
 21
196.9914590933065
 31
0.0
  0
LINE
  5
51C
330
A
100
AcDbEntity
  8
1
  6
Continuous
 62
     7
100
AcDbLine
 10
769.5625773480523
 20
201.9914590933065
 30
0.0
 11
796.5625773480526
 21
201.9914590933065
 31
0.0
  0
LINE
  5
51D
330
A
100
AcDbEntity
  8
1
  6
Continuous
 62
     7
100
AcDbLine
 10
796.5625773480526
 20
201.9914590933065
 30
0.0
 11
796.5625773480526
 21
195.1414590933064
 31
0.0
  0
LINE
  5
51E
330
A
100
AcDbEntity
  8
1
  6
Continuous
 62
     7
100
AcDbLine
 10
796.5625773480524
 20
199.0914590933065
 30
0.0
 11
796.5625773480526
 21
191.4914590933065
 31
0.0
  0
LINE
  5
51F
330
A
100
AcDbEntity
  8
1
  6
Continuous
 62
     7
100
AcDbLine
 10
795.5625773480526
 20
190.4914590933065
 30
0.0
 11
776.5625773480526
 21
190.4914590933065
 31
0.0
  0
LINE
  5
520
330
A
100
AcDbEntity
  8
1
  6
Continuous
 62
     7
100
AcDbLine
 10
793.8625773480525
 20
194.1414590933064
 30
0.0
 11
795.5625773480526
 21
194.1414590933064
 31
0.0
  0
LINE
  5
521
330
A
100
AcDbEntity
  8
1
  6
Continuous
 62
     7
100
AcDbLine
 10
793.8625773480525
 20
194.1414590933064
 30
0.0
 11
793.8625773480525
 21
196.9914590933065
 31
0.0
  0
LINE
  5
522
330
A
100
AcDbEntity
  8
1
  6
Continuous
 62
     7
100
AcDbLine
 10
796.5625773480524
 20
197.6914590933064
 30
0.0
 11
798.0625773480523
 21
197.6914590933064
 31
0.0
  0
LINE
  5
523
330
A
100
AcDbEntity
  8
1
  6
Continuous
 62
     7
100
AcDbLine
 10
796.5625773480524
 20
193.9914590933065
 30
0.0
 11
797.5664126062588
 21
193.9914590933065
 31
0.0
  0
LINE
  5
524
330
A
100
AcDbEntity
  8
1
  6
Continuous
 62
     7
100
AcDbLine
 10
798.0625773480523
 20
196.4914590933065
 30
0.0
 11
797.5664126062588
 21
196.4914590933065
 31
0.0
  0
LINE
  5
525
330
A
100
AcDbEntity
  8
1
  6
Continuous
 62
     7
100
AcDbLine
 10
798.0625773480523
 20
197.6914590933064
 30
0.0
 11
798.0625773480523
 21
196.4914590933065
 31
0.0
  0
LINE
  5
526
330
A
100
AcDbEntity
  8
1
  6
Continuous
 62
     7
100
AcDbLine
 10
798.0625773480523
 20
192.7914590933064
 30
0.0
 11
796.5625773480524
 21
192.7914590933064
 31
0.0
  0
LINE
  5
527
330
A
100
AcDbEntity
  8
1
  6
Continuous
 62
     7
100
AcDbLine
 10
798.0625773480523
 20
193.9914590933065
 30
0.0
 11
798.0625773480523
 21
192.7914590933064
 31
0.0
  0
LINE
  5
528
330
A
100
AcDbEntity
  8
1
  6
Continuous
 62
     7
100
AcDbLine
 10
797.5664126062588
 20
193.9914590933065
 30
0.0
 11
797.5664126062588
 21
196.4914590933065
 31
0.0
  0
LINE
  5
529
330
A
100
AcDbEntity
  8
1
  6
Continuous
 62
     7
100
AcDbLine
 10
797.5664126062588
 20
193.9914590933065
 30
0.0
 11
798.0625773480523
 21
193.9914590933065
 31
0.0
  0
LINE
  5
52A
330
A
100
AcDbEntity
  8
1
  6
Continuous
 62
     7
100
AcDbLine
 10
797.5664126062588
 20
196.4914590933065
 30
0.0
 11
796.5625773480524
 21
196.4914590933065
 31
0.0
  0
LINE
  5
52B
330
A
100
AcDbEntity
  8
1
  6
PHANTOM
 62
     7
100
AcDbLine
 10
801.0664126062588
 20
196.4914590933065
 30
0.0
 11
800.5702478644655
 21
196.4914590933065
 31
0.0
  0
LINE
  5
52C
330
A
100
AcDbEntity
  8
1
  6
PHANTOM
 62
     7
100
AcDbLine
 10
801.0664126062588
 20
197.6914590933064
 30
0.0
 11
801.0664126062588
 21
196.4914590933065
 31
0.0
  0
LINE
  5
52D
330
A
100
AcDbEntity
  8
1
  6
PHANTOM
 62
     7
100
AcDbLine
 10
801.0664126062588
 20
193.9914590933065
 30
0.0
 11
801.0664126062588
 21
192.7914590933064
 31
0.0
  0
LINE
  5
52E
330
A
100
AcDbEntity
  8
1
  6
PHANTOM
 62
     7
100
AcDbLine
 10
800.5702478644655
 20
193.9914590933065
 30
0.0
 11
800.5702478644655
 21
196.4914590933065
 31
0.0
  0
LINE
  5
52F
330
A
100
AcDbEntity
  8
1
  6
PHANTOM
 62
     7
100
AcDbLine
 10
800.5702478644655
 20
193.9914590933065
 30
0.0
 11
801.0664126062588
 21
193.9914590933065
 31
0.0
  0
LINE
  5
530
330
A
100
AcDbEntity
  8
1
  6
PHANTOM
 62
     7
100
AcDbLine
 10
801.0664126062588
 20
192.7914590933064
 30
0.0
 11
798.0625773480523
 21
192.7914590933064
 31
0.0
  0
LINE
  5
531
330
A
100
AcDbEntity
  8
1
  6
PHANTOM
 62
     7
100
AcDbLine
 10
798.0625773480523
 20
193.9914590933065
 30
0.0
 11
800.5702478644655
 21
193.9914590933065
 31
0.0
  0
LINE
  5
532
330
A
100
AcDbEntity
  8
1
  6
PHANTOM
 62
     7
100
AcDbLine
 10
800.5702478644655
 20
196.4914590933065
 30
0.0
 11
798.0625773480523
 21
196.4914590933065
 31
0.0
  0
LINE
  5
533
330
A
100
AcDbEntity
  8
1
  6
PHANTOM
 62
     7
100
AcDbLine
 10
798.0625773480523
 20
197.6914590933064
 30
0.0
 11
801.0664126062588
 21
197.6914590933064
 31
0.0
  0
LINE
  5
534
330
A
100
AcDbEntity
  8
1
  6
Continuous
 62
     7
100
AcDbLine
 10
796.5625773480526
 20
117.9556526334256
 30
0.0
 11
796.5625773480526
 21
71.95565263342564
 31
0.0
  0
LINE
  5
535
330
A
100
AcDbEntity
  8
1
  6
Continuous
 62
     7
100
AcDbLine
 10
775.5625773480526
 20
106.9556526334256
 30
0.0
 11
796.5625773480524
 21
106.9556526334256
 31
0.0
  0
LINE
  5
536
330
A
100
AcDbEntity
  8
1
  6
Continuous
 62
     7
100
AcDbLine
 10
775.5625773480526
 20
82.95565263342565
 30
0.0
 11
796.5625773480524
 21
82.95565263342565
 31
0.0
  0
LINE
  5
537
330
A
100
AcDbEntity
  8
1
  6
Continuous
 62
     7
100
AcDbLine
 10
796.5625773480524
 20
102.9556526334256
 30
0.0
 11
798.0664126062588
 21
102.9556526334256
 31
0.0
  0
LINE
  5
538
330
A
100
AcDbEntity
  8
1
  6
Continuous
 62
     7
100
AcDbLine
 10
796.5625773480524
 20
86.95565263342563
 30
0.0
 11
798.0664126062588
 21
86.95565263342563
 31
0.0
  0
LINE
  5
539
330
A
100
AcDbEntity
  8
1
  6
Continuous
 62
     7
100
AcDbLine
 10
798.0664126062588
 20
86.95565263342563
 30
0.0
 11
798.0664126062588
 21
102.9556526334256
 31
0.0
  0
LINE
  5
53A
330
A
100
AcDbEntity
  8
1
  6
PHANTOM
 62
     7
100
AcDbLine
 10
798.0587420898457
 20
102.9556526334256
 30
0.0
 11
801.0664126062588
 21
102.9556526334256
 31
0.0
  0
LINE
  5
53B
330
A
100
AcDbEntity
  8
1
  6
PHANTOM
 62
     7
100
AcDbLine
 10
798.0587420898461
 20
86.95565263342563
 30
0.0
 11
801.0664126062588
 21
86.95565263342563
 31
0.0
  0
LINE
  5
53C
330
A
100
AcDbEntity
  8
1
  6
PHANTOM
 62
     7
100
AcDbLine
 10
801.0664126062588
 20
86.95565263342563
 30
0.0
 11
801.0664126062588
 21
102.9556526334256
 31
0.0
  0
LINE
  5
53D
330
A
100
AcDbEntity
  8
1
  6
Continuous
 62
     7
100
AcDbLine
 10
776.5625773480526
 20
82.95565263342565
 30
0.0
 11
795.5625773480526
 21
82.95565263342565
 31
0.0
  0
LINE
  5
53E
330
A
100
AcDbEntity
  8
1
  6
Continuous
 62
     7
100
AcDbLine
 10
796.5625773480526
 20
83.95565263342565
 30
0.0
 11
796.5625773480526
 21
105.9556526334256
 31
0.0
  0
LINE
  5
53F
330
A
100
AcDbEntity
  8
1
  6
Continuous
 62
     7
100
AcDbLine
 10
776.5625773480526
 20
106.9556526334256
 30
0.0
 11
795.5625773480526
 21
106.9556526334256
 31
0.0
  0
LINE
  5
540
330
A
100
AcDbEntity
  8
1
  6
PHANTOM
 62
     7
100
AcDbLine
 10
799.5625773480524
 20
83.95565263342565
 30
0.0
 11
799.5625773480524
 21
105.9556526334256
 31
0.0
  0
LINE
  5
541
330
A
100
AcDbEntity
  8
1
  6
PHANTOM
 62
     7
100
AcDbLine
 10
796.5625773480524
 20
106.9556526334256
 30
0.0
 11
798.5625773480523
 21
106.9556526334256
 31
0.0
  0
LINE
  5
542
330
A
100
AcDbEntity
  8
1
  6
PHANTOM
 62
     7
100
AcDbLine
 10
796.5625773480524
 20
82.95565263342565
 30
0.0
 11
798.5625773480523
 21
82.95565263342565
 31
0.0
  0
LINE
  5
543
330
A
100
AcDbEntity
  8
1
  6
Continuous
 62
     7
100
AcDbLine
 10
772.4895940018449
 20
95.95565263342564
 30
0.0
 11
775.8625773480523
 21
95.95565263342564
 31
0.0
  0
LINE
  5
544
330
A
100
AcDbEntity
  8
1
  6
Continuous
 62
     7
100
AcDbLine
 10
772.4895940018449
 20
93.95565263342565
 30
0.0
 11
775.8625773480523
 21
93.95565263342565
 31
0.0
  0
LINE
  5
545
330
A
100
AcDbEntity
  8
1
  6
Continuous
 62
     7
100
AcDbLine
 10
794.6125773480527
 20
119.9556526334256
 30
0.0
 11
777.5125773480527
 21
119.9556526334256
 31
0.0
  0
LINE
  5
546
330
A
100
AcDbEntity
  8
1
  6
Continuous
 62
     7
100
AcDbLine
 10
777.5125773480527
 20
119.9556526334256
 30
0.0
 11
777.5625773480526
 21
119.9556526334256
 31
0.0
  0
LINE
  5
547
330
A
100
AcDbEntity
  8
1
  6
Continuous
 62
     7
100
AcDbLine
 10
794.5625773480526
 20
119.9556526334256
 30
0.0
 11
794.6125773480527
 21
119.9556526334256
 31
0.0
  0
LINE
  5
548
330
A
100
AcDbEntity
  8
1
  6
Continuous
 62
     7
100
AcDbLine
 10
775.5625773480526
 20
71.95565263342564
 30
0.0
 11
775.5625773480524
 21
89.95565263342564
 31
0.0
  0
LINE
  5
549
330
A
100
AcDbEntity
  8
1
  6
Continuous
 62
     7
100
AcDbLine
 10
774.5625773480524
 20
99.95565263342564
 30
0.0
 11
775.5625773480524
 21
99.95565263342564
 31
0.0
  0
LINE
  5
54A
330
A
100
AcDbEntity
  8
1
  6
Continuous
 62
     7
100
AcDbLine
 10
775.5625773480524
 20
99.95565263342564
 30
0.0
 11
775.5625773480526
 21
117.9556526334256
 31
0.0
  0
LINE
  5
54B
330
A
100
AcDbEntity
  8
1
  6
Continuous
 62
     7
100
AcDbLine
 10
774.5625773480524
 20
89.95565263342564
 30
0.0
 11
775.5625773480524
 21
89.95565263342564
 31
0.0
  0
LINE
  5
54C
330
A
100
AcDbEntity
  8
1
  6
Continuous
 62
     7
100
AcDbLine
 10
777.5625773480526
 20
69.95565263342564
 30
0.0
 11
794.5625773480526
 21
69.95565263342564
 31
0.0
  0
LINE
  5
54D
330
A
100
AcDbEntity
  8
1
  6
Continuous
 62
     7
100
AcDbLine
 10
778.2625773480527
 20
82.05565263342569
 30
0.0
 11
793.8625773480528
 21
82.05565263342569
 31
0.0
  0
LINE
  5
54E
330
A
100
AcDbEntity
  8
1
  6
Continuous
 62
     7
100
AcDbLine
 10
793.8625773480525
 20
69.95565263342564
 30
0.0
 11
793.8625773480524
 21
82.95565263342565
 31
0.0
  0
LINE
  5
54F
330
A
100
AcDbEntity
  8
1
  6
Continuous
 62
     7
100
AcDbLine
 10
778.2625773480527
 20
69.95565263342564
 30
0.0
 11
778.2625773480527
 21
82.95565263342565
 31
0.0
  0
LINE
  5
550
330
A
100
AcDbEntity
  8
1
  6
Continuous
 62
     7
100
AcDbLine
 10
778.2625773480527
 20
107.8556526334256
 30
0.0
 11
793.8625773480528
 21
107.8556526334256
 31
0.0
  0
LINE
  5
551
330
A
100
AcDbEntity
  8
1
  6
Continuous
 62
     7
100
AcDbLine
 10
793.8625773480525
 20
106.9556526334256
 30
0.0
 11
793.8625773480525
 21
119.9556526334256
 31
0.0
  0
LINE
  5
552
330
A
100
AcDbEntity
  8
1
  6
Continuous
 62
     7
100
AcDbLine
 10
778.2625773480527
 20
106.9556526334256
 30
0.0
 11
778.2625773480527
 21
119.9556526334256
 31
0.0
  0
LINE
  5
553
330
A
100
AcDbEntity
  8
1
  6
Continuous
 62
     7
100
AcDbLine
 10
775.5625773480524
 20
89.95565263342564
 30
0.0
 11
775.5625773480526
 21
83.95565263342565
 31
0.0
  0
LINE
  5
554
330
A
100
AcDbEntity
  8
1
  6
Continuous
 62
     7
100
AcDbLine
 10
775.5625773480524
 20
99.95565263342564
 30
0.0
 11
775.5625773480526
 21
105.9556526334256
 31
0.0
  0
LINE
  5
555
330
A
100
AcDbEntity
  8
1
  6
Continuous
 62
     7
100
AcDbLine
 10
774.5625773480524
 20
89.95565263342564
 30
0.0
 11
778.5625773480524
 21
89.95565263342564
 31
0.0
  0
LINE
  5
556
330
A
100
AcDbEntity
  8
1
  6
Continuous
 62
     7
100
AcDbLine
 10
780.5625773480524
 20
91.95565263342563
 30
0.0
 11
780.5625773480524
 21
97.95565263342565
 31
0.0
  0
LINE
  5
557
330
A
100
AcDbEntity
  8
1
  6
Continuous
 62
     7
100
AcDbLine
 10
778.5625773480524
 20
99.95565263342564
 30
0.0
 11
774.5625773480524
 21
99.95565263342564
 31
0.0
  0
LINE
  5
558
330
A
100
AcDbEntity
  8
1
  6
Continuous
 62
     7
100
AcDbLine
 10
778.6125773480523
 20
95.45565263342565
 30
0.0
 11
777.3625773480524
 21
95.45565263342565
 31
0.0
  0
LINE
  5
559
330
A
100
AcDbEntity
  8
1
  6
Continuous
 62
     7
100
AcDbLine
 10
778.6125773480523
 20
94.45565263342563
 30
0.0
 11
778.6125773480523
 21
95.45565263342565
 31
0.0
  0
LINE
  5
55A
330
A
100
AcDbEntity
  8
1
  6
Continuous
 62
     7
100
AcDbLine
 10
777.3625773480524
 20
94.45565263342563
 30
0.0
 11
778.6125773480523
 21
94.45565263342563
 31
0.0
  0
LINE
  5
55B
330
A
100
AcDbEntity
  8
1
  6
Continuous
 62
     7
100
AcDbLine
 10
774.1125773480523
 20
95.45565263342565
 30
0.0
 11
775.3625773480523
 21
95.45565263342565
 31
0.0
  0
LINE
  5
55C
330
A
100
AcDbEntity
  8
1
  6
Continuous
 62
     7
100
AcDbLine
 10
774.1125773480523
 20
94.45565263342563
 30
0.0
 11
774.1125773480523
 21
95.45565263342565
 31
0.0
  0
LINE
  5
55D
330
A
100
AcDbEntity
  8
1
  6
Continuous
 62
     7
100
AcDbLine
 10
775.3625773480523
 20
94.45565263342563
 30
0.0
 11
774.1125773480523
 21
94.45565263342563
 31
0.0
  0
LINE
  5
55E
330
A
100
AcDbEntity
  8
1
  6
Continuous
 62
     7
100
AcDbLine
 10
775.8625773480523
 20
95.95565263342564
 30
0.0
 11
775.8625773480523
 21
97.20565263342564
 31
0.0
  0
LINE
  5
55F
330
A
100
AcDbEntity
  8
1
  6
Continuous
 62
     7
100
AcDbLine
 10
775.8625773480523
 20
97.20565263342564
 30
0.0
 11
776.8625773480523
 21
97.20565263342564
 31
0.0
  0
LINE
  5
560
330
A
100
AcDbEntity
  8
1
  6
Continuous
 62
     7
100
AcDbLine
 10
776.8625773480523
 20
95.95565263342564
 30
0.0
 11
776.8625773480523
 21
97.20565263342564
 31
0.0
  0
LINE
  5
561
330
A
100
AcDbEntity
  8
1
  6
Continuous
 62
     7
100
AcDbLine
 10
776.8625773480523
 20
95.95565263342564
 30
0.0
 11
780.2355606942598
 21
95.95565263342564
 31
0.0
  0
LINE
  5
562
330
A
100
AcDbEntity
  8
1
  6
Continuous
 62
     7
100
AcDbLine
 10
776.8625773480523
 20
93.95565263342565
 30
0.0
 11
776.8625773480523
 21
92.70565263342565
 31
0.0
  0
LINE
  5
563
330
A
100
AcDbEntity
  8
1
  6
Continuous
 62
     7
100
AcDbLine
 10
776.8625773480523
 20
92.70565263342565
 30
0.0
 11
775.8625773480523
 21
92.70565263342565
 31
0.0
  0
LINE
  5
564
330
A
100
AcDbEntity
  8
1
  6
Continuous
 62
     7
100
AcDbLine
 10
775.8625773480523
 20
92.70565263342565
 30
0.0
 11
775.8625773480523
 21
93.95565263342565
 31
0.0
  0
LINE
  5
565
330
A
100
AcDbEntity
  8
1
  6
Continuous
 62
     7
100
AcDbLine
 10
780.2355606942598
 20
93.95565263342565
 30
0.0
 11
776.8625773480523
 21
93.95565263342565
 31
0.0
  0
ARC
  5
56E
330
A
100
AcDbEntity
  8
1
  6
Continuous
 62
     7
100
AcDbCircle
 10
825.0625773480527
 20
117.9556526334256
 30
0.0
 40
2.0
100
AcDbArc
 50
0.0
 51
90.0
  0
ARC
  5
56F
330
A
100
AcDbEntity
  8
1
  6
Continuous
 62
     7
100
AcDbCircle
 10
825.0625773480527
 20
71.95565263342567
 30
0.0
 40
2.0
100
AcDbArc
 50
270.0
 51
0.0
  0
ARC
  5
570
330
A
100
AcDbEntity
  8
1
  6
Continuous
 62
     7
100
AcDbCircle
 10
774.5625773480526
 20
74.95565263342567
 30
0.0
 40
5.0
100
AcDbArc
 50
180.0
 51
270.0
  0
ARC
  5
571
330
A
100
AcDbEntity
  8
1
  6
Continuous
 62
     7
100
AcDbCircle
 10
774.5625773480526
 20
114.9556526334256
 30
0.0
 40
5.0
100
AcDbArc
 50
90.0
 51
180.0
  0
ARC
  5
572
330
A
100
AcDbEntity
  8
1
  6
Continuous
 62
     7
100
AcDbCircle
 10
796.5625773480526
 20
210.9914590933065
 30
0.0
 40
2.0
100
AcDbArc
 50
90.0
 51
180.0
  0
ARC
  5
573
330
A
100
AcDbEntity
  8
1
  6
Continuous
 62
     7
100
AcDbCircle
 10
794.5625773480523
 20
203.9914590933065
 30
0.0
 40
2.0
100
AcDbArc
 50
270.0
 51
0.0
  0
ARC
  5
574
330
A
100
AcDbEntity
  8
1
  6
Continuous
 62
     7
100
AcDbCircle
 10
819.5625773480525
 20
217.9914590933065
 30
0.0
 40
1.0
100
AcDbArc
 50
0.0
 51
90.0
  0
ARC
  5
575
330
A
100
AcDbEntity
  8
1
  6
Continuous
 62
     7
100
AcDbCircle
 10
810.5625773480525
 20
217.9914590933065
 30
0.0
 40
1.0
100
AcDbArc
 50
90.0
 51
180.0
  0
LINE
  5
576
330
A
100
AcDbEntity
  8
1
  6
Continuous
 62
     7
100
AcDbLine
 10
820.5625773480523
 20
210.9914590933065
 30
0.0
 11
809.5625773480525
 21
210.9914590933065
 31
0.0
  0
LINE
  5
577
330
A
100
AcDbEntity
  8
1
  6
Continuous
 62
     7
100
AcDbLine
 10
809.5625773480525
 20
210.9914590933065
 30
0.0
 11
796.5625773480526
 21
210.9914590933065
 31
0.0
  0
LINE
  5
578
330
A
100
AcDbEntity
  8
1
  6
Continuous
 62
     7
100
AcDbLine
 10
796.5625773480526
 20
69.95565263342567
 30
0.0
 11
807.5625773480526
 21
69.95565263342567
 31
0.0
  0
LINE
  5
579
330
A
100
AcDbEntity
  8
1
  6
DOT_CENTER
 62
     2
100
AcDbLine
 10
786.0625773480526
 20
207.9914590933065
 30
0.0
 11
786.0625773480526
 21
192.9914590933065
 31
0.0
  0
LINE
  5
57A
330
A
100
AcDbEntity
  8
1
  6
Continuous
 62
     7
100
AcDbLine
 10
820.5625773480527
 20
71.95565263342567
 30
0.0
 11
822.5625773480526
 21
71.95565263342567
 31
0.0
  0
LINE
  5
57B
330
A
100
AcDbEntity
  8
1
  6
Continuous
 62
     7
100
AcDbLine
 10
809.5625773480525
 20
117.9556526334256
 30
0.0
 11
807.5625773480526
 21
117.9556526334256
 31
0.0
  0
LINE
  5
589
330
A
100
AcDbEntity
  8
1
  6
Continuous
 62
     7
100
AcDbLine
 10
769.5625773480526
 20
114.9556526334256
 30
0.0
 11
769.5625773480526
 21
74.95565263342567
 31
0.0
  0
LINE
  5
58A
330
A
100
AcDbEntity
  8
1
  6
Continuous
 62
     7
100
AcDbLine
 10
822.5625773480524
 20
69.95565263342567
 30
0.0
 11
825.0625773480527
 21
69.95565263342567
 31
0.0
  0
LINE
  5
58B
330
A
100
AcDbEntity
  8
1
  6
Continuous
 62
     7
100
AcDbLine
 10
809.5625773480525
 20
69.95565263342567
 30
0.0
 11
820.5625773480523
 21
69.95565263342567
 31
0.0
  0
LINE
  5
58C
330
A
100
AcDbEntity
  8
1
  6
Continuous
 62
     7
100
AcDbLine
 10
820.5625773480523
 20
119.9556526334256
 30
0.0
 11
809.5625773480525
 21
119.9556526334256
 31
0.0
  0
LINE
  5
58D
330
A
100
AcDbEntity
  8
1
  6
Continuous
 62
     7
100
AcDbLine
 10
825.0625773480527
 20
119.9556526334256
 30
0.0
 11
822.5625773480524
 21
119.9556526334256
 31
0.0
  0
LINE
  5
58E
330
A
100
AcDbEntity
  8
1
  6
Continuous
 62
     7
100
AcDbLine
 10
827.0625773480526
 20
117.9556526334256
 30
0.0
 11
827.0625773480526
 21
71.95565263342567
 31
0.0
  0
LINE
  5
58F
330
A
100
AcDbEntity
  8
1
  6
Continuous
 62
     7
100
AcDbLine
 10
822.5625773480526
 20
117.9556526334256
 30
0.0
 11
822.5625773480524
 21
119.9556526334256
 31
0.0
  0
LINE
  5
590
330
A
100
AcDbEntity
  8
1
  6
Continuous
 62
     7
100
AcDbLine
 10
820.5625773480523
 20
119.9556526334256
 30
0.0
 11
820.5625773480527
 21
117.9556526334256
 31
0.0
  0
LINE
  5
591
330
A
100
AcDbEntity
  8
1
  6
Continuous
 62
     7
100
AcDbLine
 10
809.5625773480525
 20
117.9556526334256
 30
0.0
 11
809.5625773480525
 21
119.9556526334256
 31
0.0
  0
LINE
  5
592
330
A
100
AcDbEntity
  8
1
  6
Continuous
 62
     7
100
AcDbLine
 10
807.5625773480526
 20
119.9556526334256
 30
0.0
 11
807.5625773480526
 21
117.9556526334256
 31
0.0
  0
LINE
  5
593
330
A
100
AcDbEntity
  8
1
  6
Continuous
 62
     7
100
AcDbLine
 10
807.5625773480526
 20
71.95565263342567
 30
0.0
 11
807.5625773480526
 21
69.95565263342567
 31
0.0
  0
LINE
  5
594
330
A
100
AcDbEntity
  8
1
  6
Continuous
 62
     7
100
AcDbLine
 10
809.5625773480525
 20
69.95565263342567
 30
0.0
 11
809.5625773480525
 21
71.95565263342567
 31
0.0
  0
LINE
  5
595
330
A
100
AcDbEntity
  8
1
  6
Continuous
 62
     7
100
AcDbLine
 10
820.5625773480527
 20
71.95565263342567
 30
0.0
 11
820.5625773480523
 21
69.95565263342567
 31
0.0
  0
LINE
  5
596
330
A
100
AcDbEntity
  8
1
  6
Continuous
 62
     7
100
AcDbLine
 10
822.5625773480524
 20
69.95565263342567
 30
0.0
 11
822.5625773480526
 21
71.95565263342567
 31
0.0
  0
LINE
  5
597
330
A
100
AcDbEntity
  8
1
  6
Continuous
 62
     7
100
AcDbLine
 10
807.5625773480526
 20
71.95565263342567
 30
0.0
 11
809.5625773480525
 21
71.95565263342567
 31
0.0
  0
LINE
  5
598
330
A
100
AcDbEntity
  8
1
  6
Continuous
 62
     7
100
AcDbLine
 10
822.5625773480526
 20
117.9556526334256
 30
0.0
 11
820.5625773480527
 21
117.9556526334256
 31
0.0
  0
LINE
  5
599
330
A
100
AcDbEntity
  8
1
  6
DOT_CENTER
 62
     2
100
AcDbLine
 10
766.5625773480526
 20
94.95565263342564
 30
0.0
 11
830.0625773480525
 21
94.95565263342564
 31
0.0
  0
LINE
  5
59A
330
A
100
AcDbEntity
  8
1
  6
Continuous
 62
     7
100
AcDbLine
 10
796.5625773480526
 20
119.9556526334256
 30
0.0
 11
796.5625773480526
 21
69.95565263342567
 31
0.0
  0
LINE
  5
59B
330
A
100
AcDbEntity
  8
1
  6
Continuous
 62
     7
100
AcDbLine
 10
774.5625773480526
 20
69.95565263342567
 30
0.0
 11
796.5625773480526
 21
69.95565263342567
 31
0.0
  0
LINE
  5
59C
330
A
100
AcDbEntity
  8
1
  6
Continuous
 62
     7
100
AcDbLine
 10
807.5625773480526
 20
119.9556526334256
 30
0.0
 11
774.5625773480526
 21
119.9556526334256
 31
0.0
  0
LINE
  5
59D
330
A
100
AcDbEntity
  8
1
  6
Continuous
 62
     7
100
AcDbLine
 10
827.0625773480526
 20
210.9914590933065
 30
0.0
 11
827.0625773480526
 21
212.9914590933065
 31
0.0
  0
LINE
  5
59E
330
A
100
AcDbEntity
  8
1
  6
Continuous
 62
     7
100
AcDbLine
 10
822.5625773480524
 20
212.9914590933065
 30
0.0
 11
822.5625773480524
 21
210.9914590933065
 31
0.0
  0
LINE
  5
59F
330
A
100
AcDbEntity
  8
1
  6
Continuous
 62
     7
100
AcDbLine
 10
807.5625773480526
 20
210.9914590933065
 30
0.0
 11
807.5625773480526
 21
212.9914590933065
 31
0.0
  0
LINE
  5
5A0
330
A
100
AcDbEntity
  8
1
  6
Continuous
 62
     7
100
AcDbLine
 10
769.5625773480526
 20
203.9914590933065
 30
0.0
 11
769.5625773480526
 21
201.9914590933065
 31
0.0
  0
LINE
  5
5A1
330
A
100
AcDbEntity
  8
1
  6
Continuous
 62
     7
100
AcDbLine
 10
796.5625773480526
 20
203.9914590933065
 30
0.0
 11
796.5625773480526
 21
210.9914590933065
 31
0.0
  0
LINE
  5
5A2
330
A
100
AcDbEntity
  8
1
  6
Continuous
 62
     7
100
AcDbLine
 10
794.5625773480523
 20
203.9914590933065
 30
0.0
 11
794.5625773480523
 21
210.9914590933065
 31
0.0
  0
LINE
  5
5A3
330
A
100
AcDbEntity
  8
1
  6
Continuous
 62
     7
100
AcDbLine
 10
827.0625773480526
 20
210.9914590933065
 30
0.0
 11
820.5625773480523
 21
210.9914590933065
 31
0.0
  0
LINE
  5
5A4
330
A
100
AcDbEntity
  8
1
  6
Continuous
 62
     7
100
AcDbLine
 10
809.5625773480525
 20
213.4198862180527
 30
0.0
 11
809.1341502233063
 21
212.9914590933065
 31
0.0
  0
LINE
  5
5A5
330
A
100
AcDbEntity
  8
1
  6
Continuous
 62
     7
100
AcDbLine
 10
820.9910044727987
 20
212.9914590933065
 30
0.0
 11
820.5625773480527
 21
213.4198862180527
 31
0.0
  0
LINE
  5
5A6
330
A
100
AcDbEntity
  8
1
  6
Continuous
 62
     7
100
AcDbLine
 10
827.0625773480526
 20
212.9914590933065
 30
0.0
 11
820.5625773480523
 21
212.9914590933065
 31
0.0
  0
LINE
  5
5A7
330
A
100
AcDbEntity
  8
1
  6
Continuous
 62
     7
100
AcDbLine
 10
820.5625773480523
 20
210.9914590933065
 30
0.0
 11
820.5625773480527
 21
217.9914590933065
 31
0.0
  0
LINE
  5
5A8
330
A
100
AcDbEntity
  8
1
  6
Continuous
 62
     7
100
AcDbLine
 10
809.5625773480525
 20
210.9914590933065
 30
0.0
 11
809.5625773480525
 21
217.9914590933065
 31
0.0
  0
LINE
  5
5A9
330
A
100
AcDbEntity
  8
1
  6
Continuous
 62
     7
100
AcDbLine
 10
809.5625773480525
 20
212.9914590933065
 30
0.0
 11
796.5625773480526
 21
212.9914590933065
 31
0.0
  0
LINE
  5
5AA
330
A
100
AcDbEntity
  8
1
  6
Continuous
 62
     7
100
AcDbLine
 10
819.5625773480525
 20
218.9914590933065
 30
0.0
 11
810.5625773480525
 21
218.9914590933065
 31
0.0
  0
LINE
  5
5AB
330
A
100
AcDbEntity
  8
1
  6
DOT_CENTER
 62
     2
100
AcDbLine
 10
815.0625773480525
 20
102.8840797581719
 30
0.0
 11
815.0625773480525
 21
87.02722550867942
 31
0.0
  0
LINE
  5
5AC
330
A
100
AcDbEntity
  8
1
  6
DOT_CENTER
 62
     2
100
AcDbLine
 10
815.0625773480525
 20
225.8701824975618
 30
0.0
 11
815.0625773480525
 21
207.9914590933065
 31
0.0
  0
LINE
  5
5AD
330
A
100
AcDbEntity
  8
1
  6
Continuous
 62
     7
100
AcDbLine
 10
769.5625773480526
 20
203.9914590933065
 30
0.0
 11
794.5625773480523
 21
203.9914590933065
 31
0.0
  0
LINE
  5
5AE
330
A
100
AcDbEntity
  8
1
  6
Continuous
 62
     7
100
AcDbLine
 10
794.5625773480523
 20
201.9914590933065
 30
0.0
 11
769.5625773480526
 21
201.9914590933065
 31
0.0
  0
ARC
  5
5AF
330
A
100
AcDbEntity
  8
1
  6
DOTTED
 62
     7
100
AcDbCircle
 10
815.0625773480525
 20
107.4556526334261
 30
0.0
 40
5.499999999999899
100
AcDbArc
 50
89.99999999999882
 51
180.0
  0
ARC
  5
5B0
330
A
100
AcDbEntity
  8
1
  6
DOTTED
 62
     7
100
AcDbCircle
 10
815.0625773480525
 20
82.45565263342568
 30
0.0
 40
5.499999999999888
100
AcDbArc
 50
269.9999999999988
 51
0.0
  0
ARC
  5
5B1
330
A
100
AcDbEntity
  8
1
  6
DOTTED
 62
     7
100
AcDbCircle
 10
815.0625773480525
 20
82.45565263342568
 30
0.0
 40
5.500000000000111
100
AcDbArc
 50
180.0
 51
269.9999999999988
  0
ARC
  5
5B2
330
A
100
AcDbEntity
  8
1
  6
DOTTED
 62
     7
100
AcDbCircle
 10
815.0625773480525
 20
107.4556526334261
 30
0.0
 40
5.500000000000111
100
AcDbArc
 50
0.0
 51
89.99999999999882
  0
LINE
  5
5B3
330
A
100
AcDbEntity
  8
1
  6
Continuous
 62
     7
100
AcDbLine
 10
809.5625773480525
 20
222.559787467744
 30
0.0
 11
809.5625773480525
 21
219.659787467744
 31
0.0
  0
LINE
  5
5B4
330
A
100
AcDbEntity
  8
1
  6
Continuous
 62
     7
100
AcDbLine
 10
820.5625773480527
 20
219.659787467744
 30
0.0
 11
820.5625773480527
 21
222.559787467744
 31
0.0
  0
LINE
  5
5B5
330
A
100
AcDbEntity
  8
1
  6
Continuous
 62
     7
100
AcDbLine
 10
820.5625773480527
 20
222.559787467744
 30
0.0
 11
809.5625773480525
 21
222.559787467744
 31
0.0
  0
LINE
  5
5B6
330
A
100
AcDbEntity
  8
1
  6
Continuous
 62
     7
100
AcDbLine
 10
809.5625773480525
 20
219.659787467744
 30
0.0
 11
820.5625773480527
 21
219.659787467744
 31
0.0
  0
LINE
  5
5BB
330
A
100
AcDbEntity
  8
1
  6
DOTTED
 62
     7
100
AcDbLine
 10
809.5625773480525
 20
107.4556526334261
 30
0.0
 11
809.5625773480525
 21
82.45565263342568
 31
0.0
  0
LINE
  5
5BC
330
A
100
AcDbEntity
  8
1
  6
DOTTED
 62
     7
100
AcDbLine
 10
820.5625773480527
 20
82.45565263342568
 30
0.0
 11
820.5625773480527
 21
107.4556526334261
 31
0.0
  0
CIRCLE
  5
5CB
330
A
100
AcDbEntity
  8
1
  6
Continuous
 62
     7
100
AcDbCircle
 10
815.0625773480525
 20
94.95565263342564
 30
0.0
 40
4.85000000000002
  0
LINE
  5
5D4
330
A
100
AcDbEntity
  8
1
  6
Continuous
 62
     7
100
AcDbLine
 10
817.5625773480525
 20
222.559787467744
 30
0.0
 11
817.5625773480525
 21
222.8701824975618
 31
0.0
  0
LINE
  5
5D5
330
A
100
AcDbEntity
  8
1
  6
Continuous
 62
     7
100
AcDbLine
 10
817.1295773480526
 20
222.559787467744
 30
0.0
 11
817.1295773480526
 21
222.8701824975618
 31
0.0
  0
LINE
  5
5D6
330
A
100
AcDbEntity
  8
1
  6
Continuous
 62
     7
100
AcDbLine
 10
812.9955773480526
 20
222.559787467744
 30
0.0
 11
812.9955773480526
 21
222.8701824975618
 31
0.0
  0
LINE
  5
5D7
330
A
100
AcDbEntity
  8
1
  6
Continuous
 62
     7
100
AcDbLine
 10
812.5625773480527
 20
219.659787467744
 30
0.0
 11
812.5625773480527
 21
218.9914590933065
 31
0.0
  0
LINE
  5
5D8
330
A
100
AcDbEntity
  8
1
  6
Continuous
 62
     7
100
AcDbLine
 10
812.9955773480526
 20
218.9914590933065
 30
0.0
 11
812.9955773480526
 21
219.659787467744
 31
0.0
  0
LINE
  5
5D9
330
A
100
AcDbEntity
  8
1
  6
Continuous
 62
     7
100
AcDbLine
 10
817.1295773480526
 20
218.9914590933065
 30
0.0
 11
817.1295773480526
 21
219.659787467744
 31
0.0
  0
LINE
  5
5DA
330
A
100
AcDbEntity
  8
1
  6
Continuous
 62
     7
100
AcDbLine
 10
817.5625773480525
 20
218.9914590933065
 30
0.0
 11
817.5625773480525
 21
219.659787467744
 31
0.0
  0
LINE
  5
5DB
330
A
100
AcDbEntity
  8
1
  6
Continuous
 62
     7
100
AcDbLine
 10
810.2125773480526
 20
210.9914590933065
 30
0.0
 11
810.2125773480526
 21
210.8701824975618
 31
0.0
  0
LINE
  5
5E2
330
A
100
AcDbEntity
  8
1
  6
Continuous
 62
     7
100
AcDbLine
 10
810.2125773480526
 20
210.8701824975618
 30
0.0
 11
819.9125773480526
 21
210.8701824975618
 31
0.0
  0
LINE
  5
5E3
330
A
100
AcDbEntity
  8
1
  6
Continuous
 62
     7
100
AcDbLine
 10
819.9125773480526
 20
210.8701824975618
 30
0.0
 11
819.9125773480526
 21
210.9914590933065
 31
0.0
  0
LINE
  5
5E4
330
A
100
AcDbEntity
  8
1
  6
Continuous
 62
     7
100
AcDbLine
 10
812.9955773480526
 20
222.8701824975618
 30
0.0
 11
812.5625773480527
 21
222.8701824975618
 31
0.0
  0
LINE
  5
5E5
330
A
100
AcDbEntity
  8
1
  6
Continuous
 62
     7
100
AcDbLine
 10
817.1295773480526
 20
222.8701824975618
 30
0.0
 11
812.9955773480526
 21
222.8701824975618
 31
0.0
  0
LINE
  5
5E6
330
A
100
AcDbEntity
  8
1
  6
Continuous
 62
     7
100
AcDbLine
 10
812.5625773480527
 20
222.8701824975618
 30
0.0
 11
812.5625773480527
 21
222.559787467744
 31
0.0
  0
LINE
  5
5E7
330
A
100
AcDbEntity
  8
1
  6
Continuous
 62
     7
100
AcDbLine
 10
817.5625773480525
 20
222.8701824975618
 30
0.0
 11
817.1295773480526
 21
222.8701824975618
 31
0.0
  0
LINE
  5
5E8
330
A
100
AcDbEntity
  8
1
  6
Continuous
 62
     7
100
AcDbLine
 10
814.1625773480527
 20
95.85565263342562
 30
0.0
 11
814.5225773480527
 21
97.65565263342564
 31
0.0
  0
LINE
  5
5E9
330
A
100
AcDbEntity
  8
1
  6
Continuous
 62
     7
100
AcDbLine
 10
812.3625773480524
 20
95.49565263342564
 30
0.0
 11
814.1625773480527
 21
95.85565263342562
 31
0.0
  0
LINE
  5
5EA
330
A
100
AcDbEntity
  8
1
  6
Continuous
 62
     7
100
AcDbLine
 10
812.3625773480524
 20
94.41565263342562
 30
0.0
 11
812.3625773480524
 21
95.49565263342564
 31
0.0
  0
LINE
  5
5EB
330
A
100
AcDbEntity
  8
1
  6
Continuous
 62
     7
100
AcDbLine
 10
814.1625773480527
 20
94.0556526334257
 30
0.0
 11
812.3625773480524
 21
94.41565263342562
 31
0.0
  0
LINE
  5
5EC
330
A
100
AcDbEntity
  8
1
  6
Continuous
 62
     7
100
AcDbLine
 10
814.5225773480527
 20
92.25565263342565
 30
0.0
 11
814.1625773480527
 21
94.0556526334257
 31
0.0
  0
LINE
  5
5ED
330
A
100
AcDbEntity
  8
1
  6
Continuous
 62
     7
100
AcDbLine
 10
815.6025773480527
 20
92.25565263342565
 30
0.0
 11
814.5225773480527
 21
92.25565263342565
 31
0.0
  0
LINE
  5
5EE
330
A
100
AcDbEntity
  8
1
  6
Continuous
 62
     7
100
AcDbLine
 10
815.9625773480527
 20
94.0556526334257
 30
0.0
 11
815.6025773480527
 21
92.25565263342565
 31
0.0
  0
LINE
  5
5EF
330
A
100
AcDbEntity
  8
1
  6
Continuous
 62
     7
100
AcDbLine
 10
817.7625773480526
 20
94.41565263342562
 30
0.0
 11
815.9625773480527
 21
94.0556526334257
 31
0.0
  0
LINE
  5
5F0
330
A
100
AcDbEntity
  8
1
  6
Continuous
 62
     7
100
AcDbLine
 10
817.7625773480526
 20
95.49565263342564
 30
0.0
 11
817.7625773480526
 21
94.41565263342562
 31
0.0
  0
LINE
  5
5F1
330
A
100
AcDbEntity
  8
1
  6
Continuous
 62
     7
100
AcDbLine
 10
815.9625773480527
 20
95.85565263342562
 30
0.0
 11
817.7625773480526
 21
95.49565263342564
 31
0.0
  0
LINE
  5
5F2
330
A
100
AcDbEntity
  8
1
  6
Continuous
 62
     7
100
AcDbLine
 10
815.6025773480527
 20
97.65565263342564
 30
0.0
 11
815.9625773480527
 21
95.85565263342562
 31
0.0
  0
LINE
  5
5F3
330
A
100
AcDbEntity
  8
1
  6
Continuous
 62
     7
100
AcDbLine
 10
814.5225773480527
 20
97.65565263342564
 30
0.0
 11
815.6025773480527
 21
97.65565263342564
 31
0.0
  0
CIRCLE
  5
5F4
330
A
100
AcDbEntity
  8
1
  6
Continuous
 62
     7
100
AcDbCircle
 10
786.0625773480526
 20
74.95565263342564
 30
0.0
 40
2.79999999999995
  0
CIRCLE
  5
5F5
330
A
100
AcDbEntity
  8
1
  6
Continuous
 62
     7
100
AcDbCircle
 10
786.0625773480526
 20
114.9556526334256
 30
0.0
 40
2.79999999999995
  0
ARC
  5
5F7
330
A
100
AcDbEntity
  8
1
  6
Continuous
 62
     7
100
AcDbCircle
 10
786.0625773480526
 20
199.5914590933065
 30
0.0
 40
4.99999999999999
100
AcDbArc
 50
275.7391704772668
 51
304.0557977425674
  0
ARC
  5
5FB
330
A
100
AcDbEntity
  8
1
  6
Continuous
 62
     7
100
AcDbCircle
 10
786.0625773480526
 20
199.5914590933065
 30
0.0
 40
4.99999999999998
100
AcDbArc
 50
235.9442022574326
 51
264.2608295227332
  0
LINE
  5
5FD
330
A
100
AcDbEntity
  8
1
  6
Continuous
 62
     7
100
AcDbLine
 10
784.8330773480527
 20
203.9914590933065
 30
0.0
 11
784.8330773480527
 21
204.9914590933065
 31
0.0
  0
LINE
  5
5FE
330
A
100
AcDbEntity
  8
1
  6
Continuous
 62
     7
100
AcDbLine
 10
787.2920773480525
 20
203.9914590933065
 30
0.0
 11
787.2920773480526
 21
204.9914590933065
 31
0.0
  0
LINE
  5
5FF
330
A
100
AcDbEntity
  8
1
  6
Continuous
 62
     7
100
AcDbLine
 10
787.5625773480526
 20
203.9914590933065
 30
0.0
 11
787.5625773480526
 21
204.9914590933065
 31
0.0
  0
LINE
  5
600
330
A
100
AcDbEntity
  8
1
  6
Continuous
 62
     7
100
AcDbLine
 10
788.8625773480525
 20
195.4489960578649
 30
0.0
 11
788.8625773480525
 21
196.9914590933065
 31
0.0
  0
LINE
  5
608
330
A
100
AcDbEntity
  8
1
  6
Continuous
 62
     7
100
AcDbLine
 10
785.7125773480527
 20
194.9165219077733
 30
0.0
 11
785.5625773480526
 21
194.6165219077734
 31
0.0
  0
LINE
  5
609
330
A
100
AcDbEntity
  8
1
  6
Continuous
 62
     7
100
AcDbLine
 10
786.4125773480526
 20
194.9165219077733
 30
0.0
 11
785.7125773480527
 21
194.9165219077733
 31
0.0
  0
LINE
  5
60A
330
A
100
AcDbEntity
  8
1
  6
Continuous
 62
     7
100
AcDbLine
 10
786.5625773480526
 20
194.6165219077734
 30
0.0
 11
786.4125773480526
 21
194.9165219077733
 31
0.0
  0
LINE
  5
60B
330
A
100
AcDbEntity
  8
1
  6
Continuous
 62
     7
100
AcDbLine
 10
783.2625773480526
 20
196.9914590933065
 30
0.0
 11
783.2625773480526
 21
195.4489960578649
 31
0.0
  0
LINE
  5
60C
330
A
100
AcDbEntity
  8
1
  6
Continuous
 62
     7
100
AcDbLine
 10
788.8625773480525
 20
196.9914590933065
 30
0.0
 11
783.2625773480526
 21
196.9914590933065
 31
0.0
  0
LINE
  5
60D
330
A
100
AcDbEntity
  8
1
  6
Continuous
 62
     7
100
AcDbLine
 10
784.5625773480526
 20
204.9914590933065
 30
0.0
 11
784.5625773480526
 21
203.9914590933065
 31
0.0
  0
LINE
  5
60E
330
A
100
AcDbEntity
  8
1
  6
Continuous
 62
     7
100
AcDbLine
 10
787.5625773480526
 20
204.9914590933065
 30
0.0
 11
784.5625773480526
 21
204.9914590933065
 31
0.0
  0
LINE
  5
60F
330
A
100
AcDbEntity
  8
1
  6
DOT_CENTER
 62
     2
100
AcDbLine
 10
786.0625773480526
 20
78.45565263342567
 30
0.0
 11
786.0625773480526
 21
71.45565263342567
 31
0.0
  0
LINE
  5
610
330
A
100
AcDbEntity
  8
1
  6
DOT_CENTER
 62
     2
100
AcDbLine
 10
782.5625773480526
 20
74.95565263342567
 30
0.0
 11
789.5625773480526
 21
74.95565263342567
 31
0.0
  0
LINE
  5
611
330
A
100
AcDbEntity
  8
1
  6
Continuous
 62
     7
100
AcDbLine
 10
785.5625773480526
 20
75.45565263342564
 30
0.0
 11
785.7625773480527
 21
76.45565263342565
 31
0.0
  0
LINE
  5
612
330
A
100
AcDbEntity
  8
1
  6
Continuous
 62
     7
100
AcDbLine
 10
784.5625773480526
 20
75.25565263342565
 30
0.0
 11
785.5625773480526
 21
75.45565263342564
 31
0.0
  0
LINE
  5
613
330
A
100
AcDbEntity
  8
1
  6
Continuous
 62
     7
100
AcDbLine
 10
784.5625773480526
 20
74.65565263342563
 30
0.0
 11
784.5625773480526
 21
75.25565263342565
 31
0.0
  0
LINE
  5
614
330
A
100
AcDbEntity
  8
1
  6
Continuous
 62
     7
100
AcDbLine
 10
785.5625773480526
 20
74.45565263342564
 30
0.0
 11
784.5625773480526
 21
74.65565263342563
 31
0.0
  0
LINE
  5
615
330
A
100
AcDbEntity
  8
1
  6
Continuous
 62
     7
100
AcDbLine
 10
785.7625773480527
 20
73.45565263342564
 30
0.0
 11
785.5625773480526
 21
74.45565263342564
 31
0.0
  0
LINE
  5
616
330
A
100
AcDbEntity
  8
1
  6
Continuous
 62
     7
100
AcDbLine
 10
786.3625773480524
 20
73.45565263342564
 30
0.0
 11
785.7625773480527
 21
73.45565263342564
 31
0.0
  0
LINE
  5
617
330
A
100
AcDbEntity
  8
1
  6
Continuous
 62
     7
100
AcDbLine
 10
786.5625773480526
 20
74.45565263342564
 30
0.0
 11
786.3625773480524
 21
73.45565263342564
 31
0.0
  0
LINE
  5
618
330
A
100
AcDbEntity
  8
1
  6
Continuous
 62
     7
100
AcDbLine
 10
787.5625773480526
 20
74.65565263342563
 30
0.0
 11
786.5625773480526
 21
74.45565263342564
 31
0.0
  0
LINE
  5
619
330
A
100
AcDbEntity
  8
1
  6
Continuous
 62
     7
100
AcDbLine
 10
787.5625773480526
 20
75.25565263342565
 30
0.0
 11
787.5625773480526
 21
74.65565263342563
 31
0.0
  0
LINE
  5
61A
330
A
100
AcDbEntity
  8
1
  6
Continuous
 62
     7
100
AcDbLine
 10
786.5625773480526
 20
75.45565263342564
 30
0.0
 11
787.5625773480526
 21
75.25565263342565
 31
0.0
  0
LINE
  5
61B
330
A
100
AcDbEntity
  8
1
  6
Continuous
 62
     7
100
AcDbLine
 10
786.3625773480524
 20
76.45565263342565
 30
0.0
 11
786.5625773480526
 21
75.45565263342564
 31
0.0
  0
LINE
  5
61C
330
A
100
AcDbEntity
  8
1
  6
Continuous
 62
     7
100
AcDbLine
 10
785.7625773480527
 20
76.45565263342565
 30
0.0
 11
786.3625773480524
 21
76.45565263342565
 31
0.0
  0
LINE
  5
61D
330
A
100
AcDbEntity
  8
1
  6
DOT_CENTER
 62
     2
100
AcDbLine
 10
782.5625773480526
 20
114.9556526334256
 30
0.0
 11
789.5625773480526
 21
114.9556526334256
 31
0.0
  0
LINE
  5
61E
330
A
100
AcDbEntity
  8
1
  6
DOT_CENTER
 62
     2
100
AcDbLine
 10
786.0625773480526
 20
118.4556526334256
 30
0.0
 11
786.0625773480526
 21
111.4556526334256
 31
0.0
  0
LINE
  5
61F
330
A
100
AcDbEntity
  8
1
  6
Continuous
 62
     7
100
AcDbLine
 10
785.5625773480526
 20
115.4556526334256
 30
0.0
 11
785.7625773480527
 21
116.4556526334256
 31
0.0
  0
LINE
  5
620
330
A
100
AcDbEntity
  8
1
  6
Continuous
 62
     7
100
AcDbLine
 10
784.5625773480526
 20
115.2556526334257
 30
0.0
 11
785.5625773480526
 21
115.4556526334256
 31
0.0
  0
LINE
  5
621
330
A
100
AcDbEntity
  8
1
  6
Continuous
 62
     7
100
AcDbLine
 10
784.5625773480526
 20
114.6556526334256
 30
0.0
 11
784.5625773480526
 21
115.2556526334257
 31
0.0
  0
LINE
  5
622
330
A
100
AcDbEntity
  8
1
  6
Continuous
 62
     7
100
AcDbLine
 10
785.5625773480526
 20
114.4556526334256
 30
0.0
 11
784.5625773480526
 21
114.6556526334256
 31
0.0
  0
LINE
  5
623
330
A
100
AcDbEntity
  8
1
  6
Continuous
 62
     7
100
AcDbLine
 10
785.7625773480527
 20
113.4556526334256
 30
0.0
 11
785.5625773480526
 21
114.4556526334256
 31
0.0
  0
LINE
  5
624
330
A
100
AcDbEntity
  8
1
  6
Continuous
 62
     7
100
AcDbLine
 10
786.3625773480524
 20
113.4556526334256
 30
0.0
 11
785.7625773480527
 21
113.4556526334256
 31
0.0
  0
LINE
  5
625
330
A
100
AcDbEntity
  8
1
  6
Continuous
 62
     7
100
AcDbLine
 10
786.5625773480526
 20
114.4556526334256
 30
0.0
 11
786.3625773480524
 21
113.4556526334256
 31
0.0
  0
LINE
  5
626
330
A
100
AcDbEntity
  8
1
  6
Continuous
 62
     7
100
AcDbLine
 10
787.5625773480526
 20
114.6556526334256
 30
0.0
 11
786.5625773480526
 21
114.4556526334256
 31
0.0
  0
LINE
  5
627
330
A
100
AcDbEntity
  8
1
  6
Continuous
 62
     7
100
AcDbLine
 10
787.5625773480526
 20
115.2556526334257
 30
0.0
 11
787.5625773480526
 21
114.6556526334256
 31
0.0
  0
LINE
  5
628
330
A
100
AcDbEntity
  8
1
  6
Continuous
 62
     7
100
AcDbLine
 10
786.5625773480526
 20
115.4556526334256
 30
0.0
 11
787.5625773480526
 21
115.2556526334257
 31
0.0
  0
LINE
  5
629
330
A
100
AcDbEntity
  8
1
  6
Continuous
 62
     7
100
AcDbLine
 10
786.3625773480524
 20
116.4556526334256
 30
0.0
 11
786.5625773480526
 21
115.4556526334256
 31
0.0
  0
LINE
  5
62A
330
A
100
AcDbEntity
  8
1
  6
Continuous
 62
     7
100
AcDbLine
 10
785.7625773480527
 20
116.4556526334256
 30
0.0
 11
786.3625773480524
 21
116.4556526334256
 31
0.0
  0
LINE
  5
62C
330
A
100
AcDbEntity
  8
0
 62
     2
100
AcDbLine
 10
826.5703105438886
 20
70.64159760787522
 30
0.0
 11
828.8486061878478
 21
69.52677516955262
 31
0.0
  0
LINE
  5
62D
330
A
100
AcDbEntity
  8
0
 62
     2
100
AcDbLine
 10
826.5703105438886
 20
70.64159760787522
 30
0.0
 11
827.9859612297272
 21
68.53698523359932
 31
0.0
  0
ENDSEC
  0
SECTION
  2
OBJECTS
  0
DICTIONARY
  5
19
330
0
100
AcDbDictionary
281
     1
  3
ACAD_CIP_PREVIOUS_PRODUCT_INFO
350
4B9
  3
ACAD_COLOR
350
49B
  3
ACAD_GROUP
350
1A
  3
ACAD_LAYOUT
350
4B2
  3
ACAD_MATERIAL
350
469
  3
ACAD_MLEADERSTYLE
350
4B0
  3
ACAD_MLINESTYLE
350
1B
  3
ACAD_PLOTSETTINGS
350
4B3
  3
ACAD_PLOTSTYLENAME
350
467
  3
ACAD_SCALELIST
350
49E
  3
ACAD_TABLESTYLE
350
49C
  3
ACAD_VISUALSTYLE
350
482
  3
ACDB_RECOMPOSE_DATA
350
658
  3
AcDbVariableDictionary
350
64D
  3
ASE_INDEX_DICTIONARY
350
64A
  3
DWGPROPS
350
659
  0
DICTIONARY
  5
645
330
14
100
AcDbDictionary
280
     1
281
     1
  3
ADSK_XREC_LAYER_RECONCILED
360
646
  0
DICTIONARY
  5
647
330
24
100
AcDbDictionary
280
     1
281
     1
  3
ADSK_XREC_LAYER_RECONCILED
360
648
  0
DICTIONARY
  5
566
330
A
100
AcDbDictionary
280
     1
281
     1
  3
ACAD_SORTENTS
360
567
  0
DICTIONARY
  5
6A8
330
24F
100
AcDbDictionary
280
     1
281
     1
  3
ACAD_MTEXT_RT
360
6A9
  0
DICTIONARY
  5
6A6
330
24E
100
AcDbDictionary
280
     1
281
     1
  3
ACAD_MTEXT_RT
360
6A7
  0
DICTIONARY
  5
6A4
330
24D
100
AcDbDictionary
280
     1
281
     1
  3
ACAD_MTEXT_RT
360
6A5
  0
DICTIONARY
  5
6A2
330
24B
100
AcDbDictionary
280
     1
281
     1
  3
ACAD_MTEXT_RT
360
6A3
  0
DICTIONARY
  5
6A0
330
24A
100
AcDbDictionary
280
     1
281
     1
  3
ACAD_MTEXT_RT
360
6A1
  0
DICTIONARY
  5
69E
330
248
100
AcDbDictionary
280
     1
281
     1
  3
ACAD_MTEXT_RT
360
69F
  0
DICTIONARY
  5
69C
330
247
100
AcDbDictionary
280
     1
281
     1
  3
ACAD_MTEXT_RT
360
69D
  0
DICTIONARY
  5
69A
330
246
100
AcDbDictionary
280
     1
281
     1
  3
ACAD_MTEXT_RT
360
69B
  0
DICTIONARY
  5
698
330
245
100
AcDbDictionary
280
     1
281
     1
  3
ACAD_MTEXT_RT
360
699
  0
DICTIONARY
  5
696
330
244
100
AcDbDictionary
280
     1
281
     1
  3
ACAD_MTEXT_RT
360
697
  0
DICTIONARY
  5
694
330
243
100
AcDbDictionary
280
     1
281
     1
  3
ACAD_MTEXT_RT
360
695
  0
DICTIONARY
  5
692
330
242
100
AcDbDictionary
280
     1
281
     1
  3
ACAD_MTEXT_RT
360
693
  0
DICTIONARY
  5
690
330
241
100
AcDbDictionary
280
     1
281
     1
  3
ACAD_MTEXT_RT
360
691
  0
DICTIONARY
  5
68E
330
240
100
AcDbDictionary
280
     1
281
     1
  3
ACAD_MTEXT_RT
360
68F
  0
DICTIONARY
  5
68C
330
23F
100
AcDbDictionary
280
     1
281
     1
  3
ACAD_MTEXT_RT
360
68D
  0
DICTIONARY
  5
68A
330
23E
100
AcDbDictionary
280
     1
281
     1
  3
ACAD_MTEXT_RT
360
68B
  0
DICTIONARY
  5
688
330
23D
100
AcDbDictionary
280
     1
281
     1
  3
ACAD_MTEXT_RT
360
689
  0
DICTIONARY
  5
686
330
23C
100
AcDbDictionary
280
     1
281
     1
  3
ACAD_MTEXT_RT
360
687
  0
DICTIONARY
  5
684
330
23B
100
AcDbDictionary
280
     1
281
     1
  3
ACAD_MTEXT_RT
360
685
  0
DICTIONARY
  5
682
330
23A
100
AcDbDictionary
280
     1
281
     1
  3
ACAD_MTEXT_RT
360
683
  0
DICTIONARY
  5
680
330
239
100
AcDbDictionary
280
     1
281
     1
  3
ACAD_MTEXT_RT
360
681
  0
DICTIONARY
  5
67E
330
236
100
AcDbDictionary
280
     1
281
     1
  3
ACAD_MTEXT_RT
360
67F
  0
DICTIONARY
  5
67C
330
223
100
AcDbDictionary
280
     1
281
     1
  3
ACAD_MTEXT_RT
360
67D
  0
DICTIONARY
  5
67A
330
222
100
AcDbDictionary
280
     1
281
     1
  3
ACAD_MTEXT_RT
360
67B
  0
DICTIONARY
  5
678
330
221
100
AcDbDictionary
280
     1
281
     1
  3
ACAD_MTEXT_RT
360
679
  0
DICTIONARY
  5
676
330
220
100
AcDbDictionary
280
     1
281
     1
  3
ACAD_MTEXT_RT
360
677
  0
DICTIONARY
  5
674
330
21A
100
AcDbDictionary
280
     1
281
     1
  3
ACAD_MTEXT_RT
360
675
  0
DICTIONARY
  5
672
330
218
100
AcDbDictionary
280
     1
281
     1
  3
ACAD_MTEXT_RT
360
673
  0
DICTIONARY
  5
670
330
217
100
AcDbDictionary
280
     1
281
     1
  3
ACAD_MTEXT_RT
360
671
  0
DICTIONARY
  5
66E
330
216
100
AcDbDictionary
280
     1
281
     1
  3
ACAD_MTEXT_RT
360
66F
  0
DICTIONARY
  5
66C
330
215
100
AcDbDictionary
280
     1
281
     1
  3
ACAD_MTEXT_RT
360
66D
  0
DICTIONARY
  5
66A
330
214
100
AcDbDictionary
280
     1
281
     1
  3
ACAD_MTEXT_RT
360
66B
  0
DICTIONARY
  5
668
330
213
100
AcDbDictionary
280
     1
281
     1
  3
ACAD_MTEXT_RT
360
669
  0
DICTIONARY
  5
666
330
212
100
AcDbDictionary
280
     1
281
     1
  3
ACAD_MTEXT_RT
360
667
  0
DICTIONARY
  5
664
330
211
100
AcDbDictionary
280
     1
281
     1
  3
ACAD_MTEXT_RT
360
665
  0
DICTIONARY
  5
662
330
210
100
AcDbDictionary
280
     1
281
     1
  3
ACAD_MTEXT_RT
360
663
  0
DICTIONARY
  5
660
330
20F
100
AcDbDictionary
280
     1
281
     1
  3
ACAD_MTEXT_RT
360
661
  0
DICTIONARY
  5
65E
330
20E
100
AcDbDictionary
280
     1
281
     1
  3
ACAD_MTEXT_RT
360
65F
  0
DICTIONARY
  5
65C
330
20D
100
AcDbDictionary
280
     1
281
     1
  3
ACAD_MTEXT_RT
360
65D
  0
DICTIONARY
  5
65A
330
20C
100
AcDbDictionary
280
     1
281
     1
  3
ACAD_MTEXT_RT
360
65B
  0
DICTIONARY
  5
6AA
330
334
100
AcDbDictionary
280
     1
281
     1
  3
ACAD_MTEXT_RT
360
6AB
  0
XRECORD
  5
4B9
102
{ACAD_REACTORS
330
19
102
}
330
19
100
AcDbXrecord
280
     1
300
ACD
300
2012
300
ACD_F_S
  0
DICTIONARY
  5
49B
102
{ACAD_REACTORS
330
19
102
}
330
19
100
AcDbDictionary
281
     1
  0
DICTIONARY
  5
1A
102
{ACAD_REACTORS
330
19
102
}
330
19
100
AcDbDictionary
281
     1
  0
DICTIONARY
  5
4B2
102
{ACAD_REACTORS
330
19
102
}
330
19
100
AcDbDictionary
281
     1
  3
Model
350
4B4
  3
レイアウト1
350
4B5
  0
DICTIONARY
  5
469
102
{ACAD_REACTORS
330
19
102
}
330
19
100
AcDbDictionary
281
     1
  3
ByBlock
350
472
  3
ByLayer
350
46A
  3
Global
350
47A
  0
DICTIONARY
  5
4B0
102
{ACAD_REACTORS
330
19
102
}
330
19
100
AcDbDictionary
281
     1
  3
Standard
350
4B1
  0
DICTIONARY
  5
1B
102
{ACAD_REACTORS
330
19
102
}
330
19
100
AcDbDictionary
281
     1
  3
STANDARD
350
1C
  0
DICTIONARY
  5
4B3
102
{ACAD_REACTORS
330
19
102
}
330
19
100
AcDbDictionary
281
     1
  0
ACDBDICTIONARYWDFLT
  5
467
102
{ACAD_REACTORS
330
19
102
}
330
19
100
AcDbDictionary
281
     1
  3
Normal
350
468
100
AcDbDictionaryWithDefault
340
468
  0
DICTIONARY
  5
49E
102
{ACAD_REACTORS
330
19
102
}
330
19
100
AcDbDictionary
281
     1
  3
A0
350
49F
  3
A1
350
4A0
  3
A2
350
4A1
  3
A3
350
4A2
  3
A4
350
4A3
  3
A5
350
4A4
  3
A6
350
4A5
  3
A7
350
4A6
  3
A8
350
4A7
  3
A9
350
4A8
  3
B0
350
4A9
  3
B1
350
4AA
  3
B2
350
4AB
  3
B3
350
4AC
  3
B4
350
4AD
  3
B5
350
4AE
  3
B6
350
4AF
  0
DICTIONARY
  5
49C
102
{ACAD_REACTORS
330
19
102
}
330
19
100
AcDbDictionary
281
     1
  3
Standard
350
49D
  0
DICTIONARY
  5
482
102
{ACAD_REACTORS
330
19
102
}
330
19
100
AcDbDictionary
281
     1
  3
2dWireframe
350
488
  3
Basic
350
487
  3
Brighten
350
48E
  3
ColorChange
350
492
  3
Conceptual
350
48B
  3
Dim
350
48D
  3
EdgeColorOff
350
49A
  3
Facepattern
350
491
  3
Flat
350
483
  3
FlatWithEdges
350
484
  3
Gouraud
350
485
  3
GouraudWithEdges
350
486
  3
Hidden
350
48A
  3
JitterOff
350
498
  3
Linepattern
350
490
  3
OverhangOff
350
499
  3
Realistic
350
48C
  3
Shaded
350
497
  3
Shaded with edges
350
496
  3
Shades of Gray
350
493
  3
Sketchy
350
494
  3
Thicken
350
48F
  3
Wireframe
350
489
  3
X-Ray
350
495
  0
XRECORD
  5
658
102
{ACAD_REACTORS
330
19
102
}
330
19
100
AcDbXrecord
280
     1
 90
        1
330
49D
  0
DICTIONARY
  5
64D
102
{ACAD_REACTORS
330
19
102
}
330
19
100
AcDbDictionary
281
     1
  3
CANNOSCALE
350
650
  3
CMLEADERSTYLE
350
64F
  3
CTABLESTYLE
350
64E
  3
DIMASSOC
350
653
  3
INDEXCTL
350
652
  3
SORTENTS
350
651
  3
XCLIPFRAME
350
654
  0
DICTIONARY
  5
64A
102
{ACAD_REACTORS
330
19
102
}
330
19
100
AcDbDictionary
281
     1
  3
ASEBlockHierarchyIndexRecord
350
64C
1001
DCO15
1040
1881980186.046
  0
XRECORD
  5
659
102
{ACAD_REACTORS
330
19
102
}
330
19
100
AcDbXrecord
280
     1
  1
DWGPROPS COOKIE
  2

  3

  4

  6

  7

  8
0035sekine
  9

300
=
301
=
302
=
303
=
304
=
305
=
306
=
307
=
308
=
309
=
 40
0.001117962962963
 41
2305814.417110764
 42
2457585.389931088
  1

 90
        0
  0
XRECORD
  5
646
102
{ACAD_REACTORS
330
645
102
}
330
645
100
AcDbXrecord
280
     1
290
     1
  0
XRECORD
  5
648
102
{ACAD_REACTORS
330
647
102
}
330
647
100
AcDbXrecord
280
     1
290
     1
  0
SORTENTSTABLE
  5
567
102
{ACAD_REACTORS
330
566
102
}
330
566
100
AcDbSortentsTable
330
A
331
548
  5
5D7
331
59B
  5
522
331
515
  5
5A2
331
559
  5
5E8
331
537
  5
5C6
331
614
  5
4CF
331
58A
  5
511
331
5F2
  5
3A6
331
5AC
  5
534
331
4CF
  5
554
331
526
  5
5B5
331
625
  5
4E0
331
57B
  5
502
331
599
  5
520
331
5BB
  5
4F3
331
513
  5
59F
331
557
  5
5E6
331
535
  5
5C4
331
612
  5
4CD
331
5F0
  5
381
331
5AA
  5
532
331
579
  5
500
331
4CD
  5
552
331
524
  5
5B3
331
546
  5
5D5
331
623
  5
4DE
331
5EE
  5
364
331
46
  5
4E6
331
511
  5
59C
331
555
  5
5E4
331
533
  5
5C2
331
610
  5
4CB
331
5DB
  5
318
331
4CB
  5
550
331
5A8
  5
52F
331
577
  5
4FE
331
50F
  5
599
331
522
  5
5B1
331
544
  5
5D3
331
621
  5
4DC
331
5FF
  5
45B
331
597
  5
51E
331
5EC
  5
34A
331
4DA
  5
55F
331
553
  5
5E2
331
531
  5
5C0
331
60E
  5
4C9
331
5D9
  5
316
331
4C9
  5
54E
331
5A6
  5
52D
331
575
  5
4FC
331
520
  5
5AF
331
564
  5
5F3
331
542
  5
5D1
331
61F
  5
4DA
331
595
  5
51C
331
5FD
  5
446
331
5EA
  5
327
331
4D8
  5
55D
331
551
  5
5E0
331
52F
  5
5BE
331
60C
  5
4C7
331
4C7
  5
54B
331
5A4
  5
52B
331
573
  5
4FA
331
51E
  5
5AD
331
562
  5
5F1
331
540
  5
5CF
331
61D
  5
4D8
331
5FB
  5
42A
331
5E8
  5
325
331
593
  5
51A
331
5B5
  5
4ED
331
5D7
  5
314
331
62C
  5
642
331
54F
  5
5DE
331
52D
  5
5BC
331
60A
  5
4C5
331
4C5
  5
549
331
5A2
  5
529
331
571
  5
4F8
331
51C
  5
5AB
331
560
  5
5EF
331
53E
  5
5CD
331
61B
  5
4D6
331
591
  5
518
331
5B3
  5
4EB
331
5E6
  5
323
331
4D6
  5
55B
331
5D5
  5
312
331
608
  5
4C3
331
54D
  5
5DC
331
52B
  5
5BA
331
62A
  5
4E5
331
4C3
  5
547
331
5A0
  5
527
331
56F
  5
4F6
331
51A
  5
5A9
331
55E
  5
5ED
331
53C
  5
5CB
331
619
  5
4D4
331
5F7
  5
3F6
331
58F
  5
516
331
5E4
  5
321
331
5B1
  5
4E9
331
4D4
  5
559
331
54B
  5
5DA
331
529
  5
5B8
331
628
  5
4E3
331
4C1
  5
545
331
59E
  5
525
331
518
  5
5A6
331
53A
  5
5C9
331
617
  5
4D2
331
55C
  5
5EB
331
5F5
  5
3DA
331
5E2
  5
31F
331
58D
  5
514
331
5AF
  5
4E7
331
4D2
  5
557
331
549
  5
5D8
331
59C
  5
523
331
516
  5
5A3
331
55A
  5
5E9
331
538
  5
5C7
331
615
  5
4D0
331
58B
  5
512
331
5F3
  5
3B3
331
5AD
  5
535
331
4D0
  5
555
331
527
  5
5B6
331
626
  5
4E1
331
59A
  5
521
331
5BC
  5
4F4
331
514
  5
5A1
331
558
  5
5E7
331
536
  5
5C5
331
613
  5
4CE
331
589
  5
510
331
5AB
  5
533
331
57A
  5
501
331
5F1
  5
397
331
4CE
  5
553
331
525
  5
5B4
331
547
  5
5D6
331
624
  5
4DF
331
5EF
  5
371
331
598
  5
51F
331
512
  5
59E
331
556
  5
5E5
331
534
  5
5C3
331
611
  5
4CC
331
578
  5
4FF
331
5A9
  5
531
331
4CC
  5
551
331
5CB
  5
308
331
600
  5
463
331
523
  5
5B2
331
545
  5
5D4
331
622
  5
4DD
331
5ED
  5
357
331
510
  5
59B
331
554
  5
5E3
331
532
  5
5C1
331
60F
  5
4CA
331
5DA
  5
317
331
4CA
  5
54F
331
5A7
  5
52E
331
576
  5
4FD
331
521
  5
5B0
331
565
  5
5F4
331
543
  5
5D2
331
620
  5
4DB
331
5FE
  5
453
331
596
  5
51D
331
5EB
  5
33D
331
552
  5
5E1
331
530
  5
5BF
331
60D
  5
4C8
331
5D8
  5
315
331
4C8
  5
54D
331
5A5
  5
52C
331
574
  5
4FB
331
51F
  5
5AE
331
563
  5
5F2
331
541
  5
5D0
331
61E
  5
4D9
331
594
  5
51B
331
5B6
  5
4EE
331
5E9
  5
326
331
62D
  5
643
331
550
  5
5DF
331
52E
  5
5BD
331
60B
  5
4C6
331
4C6
  5
54A
331
5A3
  5
52A
331
572
  5
4F9
331
51D
  5
5AC
331
561
  5
5F0
331
53F
  5
5CE
331
61C
  5
4D7
331
592
  5
519
331
5B4
  5
4EC
331
5E7
  5
324
331
4D7
  5
55C
331
5D6
  5
313
331
54E
  5
5DD
331
52C
  5
5BB
331
609
  5
4C4
331
570
  5
4F7
331
4C4
  5
548
331
5A1
  5
528
331
51B
  5
5AA
331
55F
  5
5EE
331
53D
  5
5CC
331
61A
  5
4D5
331
590
  5
517
331
5B2
  5
4EA
331
5E5
  5
322
331
4D5
  5
55A
331
5D4
  5
311
331
54C
  5
5DB
331
52A
  5
5B9
331
629
  5
4E4
331
4C2
  5
546
331
59F
  5
526
331
56E
  5
4F5
331
519
  5
5A8
331
55D
  5
5EC
331
53B
  5
5CA
331
618
  5
4D3
331
5E3
  5
320
331
58E
  5
515
331
5B0
  5
4E8
331
4D3
  5
558
331
528
  5
5B7
331
54A
  5
5D9
331
4C0
  5
544
331
59D
  5
524
331
517
  5
5A5
331
616
  5
4D1
331
55B
  5
5EA
331
539
  5
5C8
331
5F4
  5
3CD
331
5AE
  5
536
331
58C
  5
513
331
4D1
  5
556
331
627
  5
4E2
  0
XRECORD
  5
6A9
102
{ACAD_REACTORS
330
6A8
102
}
330
6A8
100
AcDbXrecord
280
     1
 40
25044.0
  1
\U+02C6\U+00CF\U+008D\U+00E3
  0
XRECORD
  5
6A7
102
{ACAD_REACTORS
330
6A6
102
}
330
6A6
100
AcDbXrecord
280
     1
 40
23804.0
  1
\U+2019\U+2020\U+201C\U+2021
  0
XRECORD
  5
6A5
102
{ACAD_REACTORS
330
6A4
102
}
330
6A4
100
AcDbXrecord
280
     1
 40
24787.0
  1
\U+008F\U+008F\U+2022\U+00AB
  0
XRECORD
  5
6A3
102
{ACAD_REACTORS
330
6A2
102
}
330
6A2
100
AcDbXrecord
280
     1
 40
23171.0
  1
\U+2018g%%d\U+00CF\U+0090}
  0
XRECORD
  5
6A1
102
{ACAD_REACTORS
330
6A0
102
}
330
6A0
100
AcDbXrecord
280
     1
 40
611875.0
  1
HR-350\U+0081i\U+0152\U+00F9\U+201C\U+00B2\U+201A%%c\U+0192}\U+0192O\U+0192l\U+0192b\U+0192g\U+0192L\U+0192\U+0192\U+0192b\U+0192`\U+0081j
  0
XRECORD
  5
69F
102
{ACAD_REACTORS
330
69E
102
}
330
69E
100
AcDbXrecord
280
     1
 40
18800.0
  1
\U+2022i\P\U+00B2\U+00A5
  0
XRECORD
  5
69D
102
{ACAD_REACTORS
330
69C
102
}
330
69C
100
AcDbXrecord
280
     1
 40
18980.0
  1
\U+0090}\P\U+00B2\U+00A5
  0
XRECORD
  5
69B
102
{ACAD_REACTORS
330
69A
102
}
330
69A
100
AcDbXrecord
280
     1
 40
19134.0
  1
\U+0090}\P\U+201D\U+00E5
  0
XRECORD
  5
699
102
{ACAD_REACTORS
330
698
102
}
330
698
100
AcDbXrecord
280
     1
 40
16741.0
  1
\U+2022i \U+201D\U+00E5
  0
XRECORD
  5
697
102
{ACAD_REACTORS
330
696
102
}
330
696
100
AcDbXrecord
280
     1
 40
25568.0
  1
\U+2022i        \U+00B2\U+00A5
  0
XRECORD
  5
695
102
{ACAD_REACTORS
330
694
102
}
330
694
100
AcDbXrecord
280
     1
 40
29091.0
  1
\U+008D\U+00DF   \U+017D\U+00A2
  0
XRECORD
  5
693
102
{ACAD_REACTORS
330
692
102
}
330
692
100
AcDbXrecord
280
     1
 40
13191.0
  1
\U+0090\U+201D %%d%%d
  0
XRECORD
  5
691
102
{ACAD_REACTORS
330
690
102
}
330
690
100
AcDbXrecord
280
     1
 40
53004.0
  1
\U+017Dd   \U+008F\U+00D0   \U+201A\U+00AF
  0
XRECORD
  5
68F
102
{ACAD_REACTORS
330
68E
102
}
330
68E
100
AcDbXrecord
280
     1
 40
18923.0
  1
\U+2039L   \U+017D\U+00B2
  0
XRECORD
  5
68D
102
{ACAD_REACTORS
330
68C
102
}
330
68C
100
AcDbXrecord
280
     1
 40
17447.0
  1
\U+008F\U+00B0  \U+201DF
  0
XRECORD
  5
68B
102
{ACAD_REACTORS
330
68A
102
}
330
68A
100
AcDbXrecord
280
     1
 40
18174.0
  1
\U+0152\U+0081  \U+0090}
  0
XRECORD
  5
689
102
{ACAD_REACTORS
330
688
102
}
330
688
100
AcDbXrecord
280
     1
 40
17643.0
  1
\U+2019S  \U+201C\U+00B2
  0
XRECORD
  5
687
102
{ACAD_REACTORS
330
686
102
}
330
686
100
AcDbXrecord
280
     1
 40
16619.0
  1
\U+017D\U+00D6\U+201Cx
  0
XRECORD
  5
685
102
{ACAD_REACTORS
330
684
102
}
330
684
100
AcDbXrecord
280
     1
 40
391180.0
  1
\U+008D\U+201A\U+2039\U+00C7\U+2039\U+00C1\U+2022\U+00B4\U+0160\U+201D\U+017D\U+00DB\U+2030\U+00FF\U+017D\U+00C5
  0
XRECORD
  5
683
102
{ACAD_REACTORS
330
682
102
}
330
682
100
AcDbXrecord
280
     1
 40
15843.0
  1
\U+00B2{\U+017D\U+00C5
  0
XRECORD
  5
681
102
{ACAD_REACTORS
330
680
102
}
330
680
100
AcDbXrecord
280
     1
 40
274718.0
  1
\U+201C\U+0152\U+2039\U+20AC\U+201Cs\U+2018\U+00F0\U+201C\U+0152\U+2039\U+00CC\U+201C*\U+2019J
  0
XRECORD
  5
67F
102
{ACAD_REACTORS
330
67E
102
}
330
67E
100
AcDbXrecord
280
     1
 40
6388.0
  1
\U+0081\U+00CF
  0
XRECORD
  5
67D
102
{ACAD_REACTORS
330
67C
102
}
330
67C
100
AcDbXrecord
280
     1
 40
21404.0
  1
\U+017Dw\U+2019%%c\U+0090F
  0
XRECORD
  5
67B
102
{ACAD_REACTORS
330
67A
102
}
330
67A
100
AcDbXrecord
280
     1
 40
21404.0
  1
\U+017Dw\U+2019%%c\U+0090F
  0
XRECORD
  5
679
102
{ACAD_REACTORS
330
678
102
}
330
678
100
AcDbXrecord
280
     1
 40
86044.0
  1
\U+0192N\U+0192\U+008D\U+0192\U+0081\U+0081[\U+0192g
  0
XRECORD
  5
677
102
{ACAD_REACTORS
330
676
102
}
330
676
100
AcDbXrecord
280
     1
 40
21404.0
  1
\U+017Dw\U+2019%%c\U+0090F
  0
XRECORD
  5
675
102
{ACAD_REACTORS
330
674
102
}
330
674
100
AcDbXrecord
280
     1
 40
10189.0
  1
ABS,\U+2018\U+00A5
  0
XRECORD
  5
673
102
{ACAD_REACTORS
330
672
102
}
330
672
100
AcDbXrecord
280
     1
 40
135746.0
  1
\U+0152\U+00F9\U+201C\U+00B2\U+201A%%c\U+2039\U+00C1\U+2039\U+00FF
  0
XRECORD
  5
671
102
{ACAD_REACTORS
330
670
102
}
330
670
100
AcDbXrecord
280
     1
 40
528189.0
  1
\U+0192X\U+0192\U+2030\U+0192C\U+0192h\U+0192x\U+0192X\U+0192g\U+0192}\U+0192O\U+0192l\U+0192b\U+0192g\U+0081i\U+008F~\U+0081j
  0
XRECORD
  5
66F
102
{ACAD_REACTORS
330
66E
102
}
330
66E
100
AcDbXrecord
280
     1
 40
219685.0
  1
\U+008F\\U+017D\U+00DF\U+0152\U+0160\U+2022t\U+201A\U+00A8\U+008F~\U+0192l\U+0192W
  0
XRECORD
  5
66D
102
{ACAD_REACTORS
330
66C
102
}
330
66C
100
AcDbXrecord
280
     1
 40
47982.0
  1
\U+201D\U+00F4\U+0192i\U+0192b\U+0192g
  0
XRECORD
  5
66B
102
{ACAD_REACTORS
330
66A
102
}
330
66A
100
AcDbXrecord
280
     1
 40
219685.0
  1
\U+008F\\U+017D\U+00DF\U+0152\U+0160\U+2022t\U+201A\U+00A8\U+008F~\U+0192l\U+0192W
  0
XRECORD
  5
669
102
{ACAD_REACTORS
330
668
102
}
330
668
100
AcDbXrecord
280
     1
 40
66158.0
  1
\U+0192X\U+0192g\U+0192\U+2030\U+0192C\U+0192N
  0
XRECORD
  5
667
102
{ACAD_REACTORS
330
666
102
}
330
666
100
AcDbXrecord
280
     1
 40
246831.0
  1
\U+008F\\U+017D\U+00DF\U+0152\U+0160\U+2022t\U+201A\U+00A8\U+00B2\U+00C4\U+0192l\U+0192W
  0
XRECORD
  5
665
102
{ACAD_REACTORS
330
664
102
}
330
664
100
AcDbXrecord
280
     1
 40
25415.0
  1
\U+201A\U+201D\U+0081\U+00812
  0
XRECORD
  5
663
102
{ACAD_REACTORS
330
662
102
}
330
662
100
AcDbXrecord
280
     1
 40
28562.0
  1
\U+201A\U+201D\U+0081\U+00812.9
  0
XRECORD
  5
661
102
{ACAD_REACTORS
330
660
102
}
330
660
100
AcDbXrecord
280
     1
 40
78641.0
  1
\U+0192o\U+0192C\U+0192\U+201C\U+0192hM3\U+0081~8
  0
XRECORD
  5
65F
102
{ACAD_REACTORS
330
65E
102
}
330
65E
100
AcDbXrecord
280
     1
 40
28440.0
  1
\U+201A\U+201D\U+0081\U+00811.6
  0
XRECORD
  5
65D
102
{ACAD_REACTORS
330
65C
102
}
330
65C
100
AcDbXrecord
280
     1
 40
36830.0
  1
\U+0192T\U+0192\U+2030M5\U+0081~12
  0
XRECORD
  5
65B
102
{ACAD_REACTORS
330
65A
102
}
330
65A
100
AcDbXrecord
280
     1
 40
38022.0
  1
\U+0192T\U+0192\U+20302.4\U+0081~13
  0
XRECORD
  5
6AB
102
{ACAD_REACTORS
330
6AA
102
}
330
6AA
100
AcDbXrecord
280
     1
 40
190151.0
  1
\C3;\U+2019\U+00FD\U+0090\U+00DB\U+201D\U+00EB\U+02C6\U+00EB1.5\U+0081`\C3;4.5
  0
LAYOUT
  5
4B4
102
{ACAD_XDICTIONARY
360
6E1
102
}
102
{ACAD_REACTORS
330
4B2
102
}
330
4B2
100
AcDbPlotSettings
  1

  2
\\asrv0030\DocuCentre 230 - 本社９階　開発部
  4

  6

 40
0.0
 41
0.0
 42
0.0
 43
0.0
 44
0.0
 45
0.0
 46
0.0
 47
0.0
 48
0.0
 49
0.0
140
0.0
141
0.0
142
1.0
143
1.0
 70
  1712
 72
     0
 73
     0
 74
     0
  7

 75
     0
147
1.0
148
0.0
149
0.0
100
AcDbLayout
  1
Model
 70
     1
 71
     0
 10
0.0
 20
0.0
 11
12.0
 21
9.0
 12
0.0
 22
0.0
 32
0.0
 14
0.0
 24
0.0
 34
0.0
 15
0.0
 25
0.0
 35
0.0
146
0.0
 13
0.0
 23
0.0
 33
0.0
 16
1.0
 26
0.0
 36
0.0
 17
0.0
 27
1.0
 37
0.0
 76
     0
330
A
331
15
  0
LAYOUT
  5
4B5
102
{ACAD_XDICTIONARY
360
6E3
102
}
102
{ACAD_REACTORS
330
4B2
102
}
330
4B2
100
AcDbPlotSettings
  1

  2
\\asrv0030\DocuCentre 230 - 本社９階　開発部
  4

  6

 40
0.0
 41
0.0
 42
0.0
 43
0.0
 44
0.0
 45
0.0
 46
0.0
 47
0.0
 48
0.0
 49
0.0
140
0.0
141
0.0
142
1.0
143
1.0
 70
   688
 72
     0
 73
     0
 74
     5
  7

 75
    16
147
1.0
148
0.0
149
0.0
100
AcDbLayout
  1
レイアウト1
 70
     0
 71
     1
 10
0.0
 20
0.0
 11
12.0
 21
9.0
 12
0.0
 22
0.0
 32
0.0
 14
1.000000000000000E+20
 24
1.000000000000000E+20
 34
1.000000000000000E+20
 15
-1.000000000000000E+20
 25
-1.000000000000000E+20
 35
-1.000000000000000E+20
146
0.0
 13
0.0
 23
0.0
 33
0.0
 16
1.0
 26
0.0
 36
0.0
 17
0.0
 27
1.0
 37
0.0
 76
     0
330
B
  0
MATERIAL
  5
472
102
{ACAD_XDICTIONARY
360
473
102
}
102
{ACAD_REACTORS
330
469
102
}
330
469
100
AcDbMaterial
  1
ByBlock
 72
     0
 43
0.0208333333333333
 43
0.0
 43
0.0
 43
0.0
 43
0.0
 43
0.0208333333333333
 43
0.0
 43
0.0
 43
0.0
 43
0.0
 43
1.0
 43
0.0
 43
0.0
 43
0.0
 43
0.0
 43
1.0
 77
     0
 47
0.0208333333333333
 47
0.0
 47
0.0
 47
0.0
 47
0.0
 47
0.0208333333333333
 47
0.0
 47
0.0
 47
0.0
 47
0.0
 47
1.0
 47
0.0
 47
0.0
 47
0.0
 47
0.0
 47
1.0
171
     0
 49
0.0208333333333333
 49
0.0
 49
0.0
 49
0.0
 49
0.0
 49
0.0208333333333333
 49
0.0
 49
0.0
 49
0.0
 49
0.0
 49
1.0
 49
0.0
 49
0.0
 49
0.0
 49
0.0
 49
1.0
175
     0
142
0.0208333333333333
142
0.0
142
0.0
142
0.0
142
0.0
142
0.0208333333333333
142
0.0
142
0.0
142
0.0
142
0.0
142
1.0
142
0.0
142
0.0
142
0.0
142
0.0
142
1.0
179
     0
144
0.0208333333333333
144
0.0
144
0.0
144
0.0
144
0.0
144
0.0208333333333333
144
0.0
144
0.0
144
0.0
144
0.0
144
1.0
144
0.0
144
0.0
144
0.0
144
0.0
144
1.0
147
0.0208333333333333
147
0.0
147
0.0
147
0.0
147
0.0
147
0.0208333333333333
147
0.0
147
0.0
147
0.0
147
0.0
147
1.0
147
0.0
147
0.0
147
0.0
147
0.0
147
1.0
  0
MATERIAL
  5
46A
102
{ACAD_XDICTIONARY
360
46B
102
}
102
{ACAD_REACTORS
330
469
102
}
330
469
100
AcDbMaterial
  1
ByLayer
 72
     0
 43
0.0208333333333333
 43
0.0
 43
0.0
 43
0.0
 43
0.0
 43
0.0208333333333333
 43
0.0
 43
0.0
 43
0.0
 43
0.0
 43
1.0
 43
0.0
 43
0.0
 43
0.0
 43
0.0
 43
1.0
 77
     0
 47
0.0208333333333333
 47
0.0
 47
0.0
 47
0.0
 47
0.0
 47
0.0208333333333333
 47
0.0
 47
0.0
 47
0.0
 47
0.0
 47
1.0
 47
0.0
 47
0.0
 47
0.0
 47
0.0
 47
1.0
171
     0
 49
0.0208333333333333
 49
0.0
 49
0.0
 49
0.0
 49
0.0
 49
0.0208333333333333
 49
0.0
 49
0.0
 49
0.0
 49
0.0
 49
1.0
 49
0.0
 49
0.0
 49
0.0
 49
0.0
 49
1.0
175
     0
142
0.0208333333333333
142
0.0
142
0.0
142
0.0
142
0.0
142
0.0208333333333333
142
0.0
142
0.0
142
0.0
142
0.0
142
1.0
142
0.0
142
0.0
142
0.0
142
0.0
142
1.0
179
     0
144
0.0208333333333333
144
0.0
144
0.0
144
0.0
144
0.0
144
0.0208333333333333
144
0.0
144
0.0
144
0.0
144
0.0
144
1.0
144
0.0
144
0.0
144
0.0
144
0.0
144
1.0
147
0.0208333333333333
147
0.0
147
0.0
147
0.0
147
0.0
147
0.0208333333333333
147
0.0
147
0.0
147
0.0
147
0.0
147
1.0
147
0.0
147
0.0
147
0.0
147
0.0
147
1.0
  0
MATERIAL
  5
47A
102
{ACAD_XDICTIONARY
360
47B
102
}
102
{ACAD_REACTORS
330
469
102
}
330
469
100
AcDbMaterial
  1
Global
 72
     0
 43
0.0208333333333333
 43
0.0
 43
0.0
 43
0.0
 43
0.0
 43
0.0208333333333333
 43
0.0
 43
0.0
 43
0.0
 43
0.0
 43
1.0
 43
0.0
 43
0.0
 43
0.0
 43
0.0
 43
1.0
 77
     0
 47
0.0208333333333333
 47
0.0
 47
0.0
 47
0.0
 47
0.0
 47
0.0208333333333333
 47
0.0
 47
0.0
 47
0.0
 47
0.0
 47
1.0
 47
0.0
 47
0.0
 47
0.0
 47
0.0
 47
1.0
171
     0
 49
0.0208333333333333
 49
0.0
 49
0.0
 49
0.0
 49
0.0
 49
0.0208333333333333
 49
0.0
 49
0.0
 49
0.0
 49
0.0
 49
1.0
 49
0.0
 49
0.0
 49
0.0
 49
0.0
 49
1.0
175
     0
142
0.0208333333333333
142
0.0
142
0.0
142
0.0
142
0.0
142
0.0208333333333333
142
0.0
142
0.0
142
0.0
142
0.0
142
1.0
142
0.0
142
0.0
142
0.0
142
0.0
142
1.0
179
     0
144
0.0208333333333333
144
0.0
144
0.0
144
0.0
144
0.0
144
0.0208333333333333
144
0.0
144
0.0
144
0.0
144
0.0
144
1.0
144
0.0
144
0.0
144
0.0
144
0.0
144
1.0
147
0.0208333333333333
147
0.0
147
0.0
147
0.0
147
0.0
147
0.0208333333333333
147
0.0
147
0.0
147
0.0
147
0.0
147
1.0
147
0.0
147
0.0
147
0.0
147
0.0
147
1.0
  0
MLEADERSTYLE
  5
4B1
102
{ACAD_REACTORS
330
4B0
102
}
330
4B0
100
AcDbMLeaderStyle
170
     2
171
     1
172
     0
 90
        2
 40
0.0
 41
0.0
173
     1
 91
-1056964608
340
11
 92
       -2
290
     1
 42
2.0
291
     1
 43
0.36
  3
Standard
 44
4.0
300

342
17
174
     1
178
     6
175
     1
176
     0
 93
-1056964608
 45
4.0
292
     0
297
     0
 46
4.0
 94
-1056964608
 47
1.0
 49
1.0
140
1.0
293
     1
141
0.0
294
     1
177
     0
142
1.0
295
     0
296
     0
143
0.125
1001
ACAD_MLEADERVER
1070
     2
  0
MLINESTYLE
  5
1C
102
{ACAD_REACTORS
330
1B
102
}
330
1B
100
AcDbMlineStyle
  2
STANDARD
 70
     0
  3

 62
     0
 51
90.0
 52
90.0
 71
     2
 49
0.5
 62
   256
  6
BYLAYER
 49
-0.5
 62
   256
  6
BYLAYER
  0
ACDBPLACEHOLDER
  5
468
102
{ACAD_REACTORS
330
467
102
}
330
467
  0
SCALE
  5
49F
102
{ACAD_REACTORS
330
49E
102
}
330
49E
100
AcDbScale
 70
     0
300
1:1
140
1.0
141
1.0
290
     1
  0
SCALE
  5
4A0
102
{ACAD_REACTORS
330
49E
102
}
330
49E
100
AcDbScale
 70
     0
300
1:2
140
1.0
141
2.0
290
     0
  0
SCALE
  5
4A1
102
{ACAD_REACTORS
330
49E
102
}
330
49E
100
AcDbScale
 70
     0
300
1:4
140
1.0
141
4.0
290
     0
  0
SCALE
  5
4A2
102
{ACAD_REACTORS
330
49E
102
}
330
49E
100
AcDbScale
 70
     0
300
1:5
140
1.0
141
5.0
290
     0
  0
SCALE
  5
4A3
102
{ACAD_REACTORS
330
49E
102
}
330
49E
100
AcDbScale
 70
     0
300
1:8
140
1.0
141
8.0
290
     0
  0
SCALE
  5
4A4
102
{ACAD_REACTORS
330
49E
102
}
330
49E
100
AcDbScale
 70
     0
300
1:10
140
1.0
141
10.0
290
     0
  0
SCALE
  5
4A5
102
{ACAD_REACTORS
330
49E
102
}
330
49E
100
AcDbScale
 70
     0
300
1:16
140
1.0
141
16.0
290
     0
  0
SCALE
  5
4A6
102
{ACAD_REACTORS
330
49E
102
}
330
49E
100
AcDbScale
 70
     0
300
1:20
140
1.0
141
20.0
290
     0
  0
SCALE
  5
4A7
102
{ACAD_REACTORS
330
49E
102
}
330
49E
100
AcDbScale
 70
     0
300
1:30
140
1.0
141
30.0
290
     0
  0
SCALE
  5
4A8
102
{ACAD_REACTORS
330
49E
102
}
330
49E
100
AcDbScale
 70
     0
300
1:40
140
1.0
141
40.0
290
     0
  0
SCALE
  5
4A9
102
{ACAD_REACTORS
330
49E
102
}
330
49E
100
AcDbScale
 70
     0
300
1:50
140
1.0
141
50.0
290
     0
  0
SCALE
  5
4AA
102
{ACAD_REACTORS
330
49E
102
}
330
49E
100
AcDbScale
 70
     0
300
1:100
140
1.0
141
100.0
290
     0
  0
SCALE
  5
4AB
102
{ACAD_REACTORS
330
49E
102
}
330
49E
100
AcDbScale
 70
     0
300
2:1
140
2.0
141
1.0
290
     0
  0
SCALE
  5
4AC
102
{ACAD_REACTORS
330
49E
102
}
330
49E
100
AcDbScale
 70
     0
300
4:1
140
4.0
141
1.0
290
     0
  0
SCALE
  5
4AD
102
{ACAD_REACTORS
330
49E
102
}
330
49E
100
AcDbScale
 70
     0
300
8:1
140
8.0
141
1.0
290
     0
  0
SCALE
  5
4AE
102
{ACAD_REACTORS
330
49E
102
}
330
49E
100
AcDbScale
 70
     0
300
10:1
140
10.0
141
1.0
290
     0
  0
SCALE
  5
4AF
102
{ACAD_REACTORS
330
49E
102
}
330
49E
100
AcDbScale
 70
     0
300
100:1
140
100.0
141
1.0
290
     0
  0
TABLESTYLE
  5
49D
102
{ACAD_XDICTIONARY
360
656
102
}
102
{ACAD_REACTORS
330
49C
102
}
330
49C
100
AcDbTableStyle
  3
Standard
 70
     0
 71
     0
 40
1.5
 41
1.5
280
     0
281
     0
  7
STANDARD
140
4.5
170
     2
 62
     0
 63
     7
283
     0
274
    -2
284
     1
 64
     0
275
    -2
285
     1
 65
     0
276
    -2
286
     1
 66
     0
277
    -2
287
     1
 67
     0
278
    -2
288
     1
 68
     0
279
    -2
289
     1
 69
     0
  7
STANDARD
140
6.0
170
     5
 62
     0
 63
     7
283
     0
274
    -2
284
     1
 64
     0
275
    -2
285
     1
 65
     0
276
    -2
286
     1
 66
     0
277
    -2
287
     1
 67
     0
278
    -2
288
     1
 68
     0
279
    -2
289
     1
 69
     0
  7
STANDARD
140
4.5
170
     5
 62
     0
 63
     7
283
     0
274
    -2
284
     1
 64
     0
275
    -2
285
     1
 65
     0
276
    -2
286
     1
 66
     0
277
    -2
287
     1
 67
     0
278
    -2
288
     1
 68
     0
279
    -2
289
     1
 69
     0
  0
VISUALSTYLE
  5
488
102
{ACAD_XDICTIONARY
360
6B9
102
}
102
{ACAD_REACTORS
330
482
102
}
330
482
100
AcDbVisualStyle
  2
2dWireframe
 70
     4
 71
     0
 72
     2
 73
     0
 90
        0
 40
-0.6
 41
-30.0
 62
     5
 63
     7
 74
     1
 91
        4
 64
     7
 65
   257
 75
     1
175
     1
 42
1.0
 92
        0
 66
   257
 43
1.0
 76
     1
 77
     6
 78
     2
 67
     7
 79
     5
170
     0
171
     0
290
     0
174
     0
 93
        1
 44
0.0
173
     0
291
     0
 45
0.0
1001
ACAD
1000
AcDbSavedByObjectVersion
1070
     0
  0
VISUALSTYLE
  5
487
102
{ACAD_XDICTIONARY
360
6B7
102
}
102
{ACAD_REACTORS
330
482
102
}
330
482
100
AcDbVisualStyle
  2
Basic
 70
     7
 71
     1
 72
     0
 73
     1
 90
        0
 40
-0.6
 41
-30.0
 62
     5
 63
     7
 74
     0
 91
        4
 64
     7
 65
   257
 75
     1
175
     1
 42
1.0
 92
        8
 66
     7
 43
1.0
 76
     1
 77
     6
 78
     2
 67
     7
 79
     5
170
     0
171
     0
290
     0
174
     0
 93
        1
 44
0.0
173
     0
291
     1
 45
0.0
1001
ACAD
1000
AcDbSavedByObjectVersion
1070
     0
  0
VISUALSTYLE
  5
48E
102
{ACAD_XDICTIONARY
360
6C5
102
}
102
{ACAD_REACTORS
330
482
102
}
330
482
100
AcDbVisualStyle
  2
Brighten
 70
    12
 71
     2
 72
     2
 73
     0
 90
        0
 40
-0.6
 41
-30.0
 62
     5
 63
     7
 74
     1
 91
        4
 64
     7
 65
   257
 75
     1
175
     1
 42
1.0
 92
        8
 66
     7
 43
1.0
 76
     1
 77
     6
 78
     2
 67
     7
 79
     5
170
     0
171
     0
290
     0
174
     0
 93
        1
 44
50.0
173
     0
291
     1
 45
0.0
1001
ACAD
1000
AcDbSavedByObjectVersion
1070
     0
  0
VISUALSTYLE
  5
492
102
{ACAD_XDICTIONARY
360
6CD
102
}
102
{ACAD_REACTORS
330
482
102
}
330
482
100
AcDbVisualStyle
  2
ColorChange
 70
    16
 71
     2
 72
     2
 73
     3
 90
        0
 40
-0.6
 41
-30.0
 62
     5
 63
     8
 74
     1
 91
        4
 64
     7
 65
   257
 75
     1
175
     1
 42
1.0
 92
        8
 66
     8
 43
1.0
 76
     1
 77
     6
 78
     2
 67
     7
 79
     5
170
     0
171
     0
290
     0
174
     0
 93
        1
 44
0.0
173
     0
291
     1
 45
0.0
1001
ACAD
1000
AcDbSavedByObjectVersion
1070
     0
  0
VISUALSTYLE
  5
48B
102
{ACAD_XDICTIONARY
360
6BF
102
}
102
{ACAD_REACTORS
330
482
102
}
330
482
100
AcDbVisualStyle
  2
Conceptual
 70
     9
 71
     3
 72
     2
 73
     0
 90
        0
 40
-0.6
 41
-30.0
 62
     5
 63
     7
 74
     2
 91
        2
 64
     7
 65
   257
 75
     1
175
     1
 42
179.0
 92
        8
 66
     7
 43
1.0
 76
     1
 77
     6
 78
     2
 67
     7
 79
     3
170
     0
171
     0
290
     0
174
     0
 93
        1
 44
0.0
173
     0
291
     0
 45
0.0
1001
ACAD
1000
AcDbSavedByObjectVersion
1070
     0
  0
VISUALSTYLE
  5
48D
102
{ACAD_XDICTIONARY
360
6C3
102
}
102
{ACAD_REACTORS
330
482
102
}
330
482
100
AcDbVisualStyle
  2
Dim
 70
    11
 71
     2
 72
     2
 73
     0
 90
        0
 40
-0.6
 41
-30.0
 62
     5
 63
     7
 74
     1
 91
        4
 64
     7
 65
   257
 75
     1
175
     1
 42
1.0
 92
        8
 66
     7
 43
1.0
 76
     1
 77
     6
 78
     2
 67
     7
 79
     5
170
     0
171
     0
290
     0
174
     0
 93
        1
 44
-50.0
173
     0
291
     1
 45
0.0
1001
ACAD
1000
AcDbSavedByObjectVersion
1070
     0
  0
VISUALSTYLE
  5
49A
102
{ACAD_XDICTIONARY
360
6DD
102
}
102
{ACAD_REACTORS
330
482
102
}
330
482
100
AcDbVisualStyle
  2
EdgeColorOff
 70
    22
 71
     2
 72
     2
 73
     0
 90
        0
 40
-0.6
 41
-30.0
 62
     5
 63
     7
 74
     1
 91
        4
 64
     7
 65
   257
 75
     1
175
     1
 42
1.0
 92
        8
 66
     7
 43
1.0
 76
     1
 77
     6
 78
     2
 67
     7
 79
     5
170
     0
171
     0
290
     0
174
     0
 93
        1
 44
0.0
173
     0
291
     1
 45
0.0
1001
ACAD
1000
AcDbSavedByObjectVersion
1070
     0
  0
VISUALSTYLE
  5
491
102
{ACAD_XDICTIONARY
360
6CB
102
}
102
{ACAD_REACTORS
330
482
102
}
330
482
100
AcDbVisualStyle
  2
Facepattern
 70
    15
 71
     2
 72
     2
 73
     0
 90
        0
 40
-0.6
 41
-30.0
 62
     5
 63
     7
 74
     1
 91
        4
 64
     7
 65
   257
 75
     1
175
     1
 42
1.0
 92
        8
 66
     7
 43
1.0
 76
     1
 77
     6
 78
     2
 67
     7
 79
     5
170
     0
171
     0
290
     0
174
     0
 93
        1
 44
0.0
173
     0
291
     1
 45
0.0
1001
ACAD
1000
AcDbSavedByObjectVersion
1070
     0
  0
VISUALSTYLE
  5
483
102
{ACAD_XDICTIONARY
360
6AF
102
}
102
{ACAD_REACTORS
330
482
102
}
330
482
100
AcDbVisualStyle
  2
Flat
 70
     0
 71
     2
 72
     1
 73
     1
 90
        2
 40
-0.6
 41
30.0
 62
     5
 63
     7
 74
     0
 91
        0
 64
     7
 65
   257
 75
     1
175
     1
 42
1.0
 92
        8
 66
     7
 43
1.0
 76
     1
 77
     6
 78
     2
 67
     7
 79
     5
170
     0
171
     0
290
     0
174
     0
 93
       13
 44
0.0
173
     0
291
     1
 45
0.0
1001
ACAD
1000
AcDbSavedByObjectVersion
1070
     0
  0
VISUALSTYLE
  5
484
102
{ACAD_XDICTIONARY
360
6B1
102
}
102
{ACAD_REACTORS
330
482
102
}
330
482
100
AcDbVisualStyle
  2
FlatWithEdges
 70
     1
 71
     2
 72
     1
 73
     1
 90
        2
 40
-0.6
 41
30.0
 62
     5
 63
     7
 74
     1
 91
        0
 64
     7
 65
   257
 75
     1
175
     1
 42
1.0
 92
        0
 66
   257
 43
1.0
 76
     1
 77
     6
 78
     2
 67
     7
 79
     5
170
     0
171
     0
290
     0
174
     0
 93
       13
 44
0.0
173
     0
291
     1
 45
0.0
1001
ACAD
1000
AcDbSavedByObjectVersion
1070
     0
  0
VISUALSTYLE
  5
485
102
{ACAD_XDICTIONARY
360
6B3
102
}
102
{ACAD_REACTORS
330
482
102
}
330
482
100
AcDbVisualStyle
  2
Gouraud
 70
     2
 71
     2
 72
     2
 73
     1
 90
        2
 40
-0.6
 41
30.0
 62
     5
 63
     7
 74
     0
 91
        0
 64
     7
 65
   257
 75
     1
175
     1
 42
1.0
 92
        0
 66
     7
 43
1.0
 76
     1
 77
     6
 78
     2
 67
     7
 79
     5
170
     0
171
     0
290
     0
174
     0
 93
       13
 44
0.0
173
     0
291
     1
 45
0.0
1001
ACAD
1000
AcDbSavedByObjectVersion
1070
     0
  0
VISUALSTYLE
  5
486
102
{ACAD_XDICTIONARY
360
6B5
102
}
102
{ACAD_REACTORS
330
482
102
}
330
482
100
AcDbVisualStyle
  2
GouraudWithEdges
 70
     3
 71
     2
 72
     2
 73
     1
 90
        2
 40
-0.6
 41
30.0
 62
     5
 63
     7
 74
     1
 91
        0
 64
     7
 65
   257
 75
     1
175
     1
 42
1.0
 92
        0
 66
   257
 43
1.0
 76
     1
 77
     6
 78
     2
 67
     7
 79
     5
170
     0
171
     0
290
     0
174
     0
 93
       13
 44
0.0
173
     0
291
     1
 45
0.0
1001
ACAD
1000
AcDbSavedByObjectVersion
1070
     0
  0
VISUALSTYLE
  5
48A
102
{ACAD_XDICTIONARY
360
6BD
102
}
102
{ACAD_REACTORS
330
482
102
}
330
482
100
AcDbVisualStyle
  2
Hidden
 70
     6
 71
     1
 72
     2
 73
     2
 90
        0
 40
-0.6
 41
-30.0
 62
     5
 63
     7
 74
     2
 91
        2
 64
     7
 65
   257
 75
     2
175
     1
 42
40.0
 92
        0
 66
   257
 43
1.0
 76
     1
 77
     6
 78
     2
 67
     7
 79
     3
170
     0
171
     0
290
     0
174
     0
 93
        1
 44
0.0
173
     0
291
     0
 45
0.0
1001
ACAD
1000
AcDbSavedByObjectVersion
1070
     0
  0
VISUALSTYLE
  5
498
102
{ACAD_XDICTIONARY
360
6D9
102
}
102
{ACAD_REACTORS
330
482
102
}
330
482
100
AcDbVisualStyle
  2
JitterOff
 70
    20
 71
     2
 72
     2
 73
     0
 90
        0
 40
-0.6
 41
-30.0
 62
     5
 63
     7
 74
     1
 91
        4
 64
     7
 65
   257
 75
     1
175
     1
 42
1.0
 92
       10
 66
     7
 43
1.0
 76
     1
 77
     6
 78
     2
 67
     7
 79
     5
170
     0
171
     0
290
     0
174
     0
 93
        1
 44
0.0
173
     0
291
     1
 45
0.0
1001
ACAD
1000
AcDbSavedByObjectVersion
1070
     0
  0
VISUALSTYLE
  5
490
102
{ACAD_XDICTIONARY
360
6C9
102
}
102
{ACAD_REACTORS
330
482
102
}
330
482
100
AcDbVisualStyle
  2
Linepattern
 70
    14
 71
     2
 72
     2
 73
     0
 90
        0
 40
-0.6
 41
-30.0
 62
     5
 63
     7
 74
     1
 91
        4
 64
     7
 65
   257
 75
     7
175
     7
 42
1.0
 92
        8
 66
     7
 43
1.0
 76
     1
 77
     6
 78
     2
 67
     7
 79
     5
170
     0
171
     0
290
     0
174
     0
 93
        1
 44
0.0
173
     0
291
     1
 45
0.0
1001
ACAD
1000
AcDbSavedByObjectVersion
1070
     0
  0
VISUALSTYLE
  5
499
102
{ACAD_XDICTIONARY
360
6DB
102
}
102
{ACAD_REACTORS
330
482
102
}
330
482
100
AcDbVisualStyle
  2
OverhangOff
 70
    21
 71
     2
 72
     2
 73
     0
 90
        0
 40
-0.6
 41
-30.0
 62
     5
 63
     7
 74
     1
 91
        4
 64
     7
 65
   257
 75
     1
175
     1
 42
1.0
 92
        9
 66
     7
 43
1.0
 76
     1
 77
     6
 78
     2
 67
     7
 79
     5
170
     0
171
     0
290
     0
174
     0
 93
        1
 44
0.0
173
     0
291
     1
 45
0.0
1001
ACAD
1000
AcDbSavedByObjectVersion
1070
     0
  0
VISUALSTYLE
  5
48C
102
{ACAD_XDICTIONARY
360
6C1
102
}
102
{ACAD_REACTORS
330
482
102
}
330
482
100
AcDbVisualStyle
  2
Realistic
 70
     8
 71
     2
 72
     3
 73
     0
 90
        2
 40
-0.6
 41
30.0
 62
     5
 63
     7
 74
     0
 91
        0
 64
     7
 65
   257
 75
     1
175
     1
 42
1.0
 92
        8
 66
   257
 43
1.0
 76
     1
 77
     6
 78
     2
 67
     7
 79
     3
170
     0
171
     0
290
     0
174
     0
 93
       13
 44
0.0
173
     0
291
     0
 45
0.0
1001
ACAD
1000
AcDbSavedByObjectVersion
1070
     0
  0
VISUALSTYLE
  5
497
102
{ACAD_XDICTIONARY
360
6D7
102
}
102
{ACAD_REACTORS
330
482
102
}
330
482
100
AcDbVisualStyle
  2
Shaded
 70
    27
 71
     2
 72
     2
 73
     1
 90
        2
 40
-0.6
 41
30.0
 62
     5
 63
     7
 74
     0
 91
        4
 64
     7
 65
   257
 75
     1
175
     1
 42
1.0
 92
        8
 66
   257
 43
1.0
 76
     1
 77
     6
 78
     2
 67
     8
 79
     3
170
     0
171
     0
290
     0
174
     0
 93
        5
 44
0.0
173
     0
291
     0
 45
0.0
1001
ACAD
1000
AcDbSavedByObjectVersion
1070
     0
  0
VISUALSTYLE
  5
496
102
{ACAD_XDICTIONARY
360
6D5
102
}
102
{ACAD_REACTORS
330
482
102
}
330
482
100
AcDbVisualStyle
  2
Shaded with edges
 70
    26
 71
     2
 72
     2
 73
     1
 90
        2
 40
-0.6
 41
30.0
 62
     5
 63
     7
 74
     1
 91
       10
 64
     7
 65
   257
 75
     2
175
     1
 42
1.0
 92
        8
 66
   257
 43
1.0
 76
     1
 77
     6
 78
     2
 67
     7
 79
     3
170
     0
171
     0
290
     0
174
     0
 93
        5
 44
0.0
173
     0
291
     0
 45
0.0
1001
ACAD
1000
AcDbSavedByObjectVersion
1070
     0
  0
VISUALSTYLE
  5
493
102
{ACAD_XDICTIONARY
360
6CF
102
}
102
{ACAD_REACTORS
330
482
102
}
330
482
100
AcDbVisualStyle
  2
Shades of Gray
 70
    23
 71
     2
 72
     2
 73
     3
 90
        0
 40
-0.6
 41
-30.0
 62
     5
 63
     7
 74
     2
 91
        2
 64
     7
 65
     7
 75
     1
175
     1
 42
40.0
 92
        8
 66
     7
 43
1.0
 76
     1
 77
     6
 78
     2
 67
     7
 79
     3
170
     0
171
     0
290
     0
174
     0
 93
        1
 44
0.0
173
     0
291
     0
 45
0.0
1001
ACAD
1000
AcDbSavedByObjectVersion
1070
     0
  0
VISUALSTYLE
  5
494
102
{ACAD_XDICTIONARY
360
6D1
102
}
102
{ACAD_REACTORS
330
482
102
}
330
482
100
AcDbVisualStyle
  2
Sketchy
 70
    24
 71
     1
 72
     2
 73
     2
 90
        0
 40
-0.6
 41
-30.0
 62
     5
 63
     7
 74
     2
 91
        2
 64
     7
 65
     7
 75
     1
175
     1
 42
40.0
 92
       11
 66
     7
 43
1.0
 76
     1
 77
     6
 78
     2
 67
     7
 79
     6
170
     0
171
     0
290
     0
174
     0
 93
        1
 44
0.0
173
     0
291
     0
 45
0.0
1001
ACAD
1000
AcDbSavedByObjectVersion
1070
     0
  0
VISUALSTYLE
  5
48F
102
{ACAD_XDICTIONARY
360
6C7
102
}
102
{ACAD_REACTORS
330
482
102
}
330
482
100
AcDbVisualStyle
  2
Thicken
 70
    13
 71
     2
 72
     2
 73
     0
 90
        0
 40
-0.6
 41
-30.0
 62
     5
 63
     7
 74
     1
 91
        4
 64
     7
 65
   257
 75
     1
175
     1
 42
1.0
 92
       12
 66
     7
 43
1.0
 76
     1
 77
     6
 78
     2
 67
     7
 79
     5
170
     0
171
     0
290
     0
174
     0
 93
        1
 44
0.0
173
     0
291
     1
 45
0.0
1001
ACAD
1000
AcDbSavedByObjectVersion
1070
     0
  0
VISUALSTYLE
  5
489
102
{ACAD_XDICTIONARY
360
6BB
102
}
102
{ACAD_REACTORS
330
482
102
}
330
482
100
AcDbVisualStyle
  2
Wireframe
 70
     5
 71
     0
 72
     2
 73
     0
 90
        0
 40
-0.6
 41
-30.0
 62
     5
 63
     7
 74
     1
 91
        4
 64
     7
 65
   257
 75
     1
175
     1
 42
1.0
 92
        0
 66
   257
 43
1.0
 76
     1
 77
     6
 78
     2
 67
     7
 79
     3
170
     0
171
     0
290
     0
174
     0
 93
        1
 44
0.0
173
     0
291
     0
 45
0.0
1001
ACAD
1000
AcDbSavedByObjectVersion
1070
     0
  0
VISUALSTYLE
  5
495
102
{ACAD_XDICTIONARY
360
6D3
102
}
102
{ACAD_REACTORS
330
482
102
}
330
482
100
AcDbVisualStyle
  2
X-Ray
 70
    25
 71
     2
 72
     2
 73
     1
 90
        1
 40
0.5
 41
-30.0
 62
     5
 63
     7
 74
     1
 91
        0
 64
     7
 65
   257
 75
     1
175
     1
 42
1.0
 92
        8
 66
     7
 43
1.0
 76
     1
 77
     6
 78
     2
 67
     7
 79
     3
170
     0
171
     0
290
     0
174
     0
 93
       13
 44
0.0
173
     0
291
     0
 45
0.0
1001
ACAD
1000
AcDbSavedByObjectVersion
1070
     0
  0
DICTIONARYVAR
  5
650
102
{ACAD_REACTORS
330
64D
102
}
330
64D
100
DictionaryVariables
280
     0
  1
1:1
  0
DICTIONARYVAR
  5
64F
102
{ACAD_REACTORS
330
64D
102
}
330
64D
100
DictionaryVariables
280
     0
  1
STANDARD
  0
DICTIONARYVAR
  5
64E
102
{ACAD_REACTORS
330
64D
102
}
330
64D
100
DictionaryVariables
280
     0
  1
STANDARD
  0
DICTIONARYVAR
  5
653
102
{ACAD_REACTORS
330
64D
102
}
330
64D
100
DictionaryVariables
280
     0
  1
1
  0
DICTIONARYVAR
  5
652
102
{ACAD_REACTORS
330
64D
102
}
330
64D
100
DictionaryVariables
280
     0
  1
0
  0
DICTIONARYVAR
  5
651
102
{ACAD_REACTORS
330
64D
102
}
330
64D
100
DictionaryVariables
280
     0
  1
127
  0
DICTIONARYVAR
  5
654
102
{ACAD_REACTORS
330
64D
102
}
330
64D
100
DictionaryVariables
280
     0
  1
2
  0
XRECORD
  5
64C
102
{ACAD_REACTORS
330
64A
102
}
330
64A
100
AcDbXrecord
280
     1
330
46
330
29
330
2E
330
31
330
34
330
35
330
40
  0
DICTIONARY
  5
6E1
330
4B4
100
AcDbDictionary
280
     1
281
     1
  3
ACAD_XREC_ROUNDTRIP
360
6E2
  0
DICTIONARY
  5
6E3
330
4B5
100
AcDbDictionary
280
     1
281
     1
  3
ACAD_XREC_ROUNDTRIP
360
6E4
  0
DICTIONARY
  5
473
330
472
100
AcDbDictionary
280
     1
281
     1
  3
ACAD_XREC_ROUNDTRIP
360
6AD
  3
BUMPTILE
360
475
  3
DIFFUSETILE
360
474
  3
OPACITYTILE
360
478
  3
REFLECTIONTILE
360
477
  3
REFRACTIONTILE
360
479
  3
SPECULARTILE
360
476
  0
DICTIONARY
  5
46B
330
46A
100
AcDbDictionary
280
     1
281
     1
  3
ACAD_XREC_ROUNDTRIP
360
6AC
  3
BUMPTILE
360
46D
  3
DIFFUSETILE
360
46C
  3
OPACITYTILE
360
470
  3
REFLECTIONTILE
360
46F
  3
REFRACTIONTILE
360
471
  3
SPECULARTILE
360
46E
  0
DICTIONARY
  5
47B
330
47A
100
AcDbDictionary
280
     1
281
     1
  3
ACAD_XREC_ROUNDTRIP
360
6AE
  3
BUMPTILE
360
47D
  3
DIFFUSETILE
360
47C
  3
OPACITYTILE
360
480
  3
REFLECTIONTILE
360
47F
  3
REFRACTIONTILE
360
481
  3
SPECULARTILE
360
47E
  0
DICTIONARY
  5
656
330
49D
100
AcDbDictionary
280
     1
281
     1
  3
ACAD_ROUNDTRIP_2008_TABLESTYLE_CELLSTYLEMAP
360
657
  3
ACAD_XREC_ROUNDTRIP
360
6DF
  0
DICTIONARY
  5
6B9
330
488
100
AcDbDictionary
280
     1
281
     1
  3
ACAD_XREC_ROUNDTRIP
360
6BA
  0
DICTIONARY
  5
6B7
330
487
100
AcDbDictionary
280
     1
281
     1
  3
ACAD_XREC_ROUNDTRIP
360
6B8
  0
DICTIONARY
  5
6C5
330
48E
100
AcDbDictionary
280
     1
281
     1
  3
ACAD_XREC_ROUNDTRIP
360
6C6
  0
DICTIONARY
  5
6CD
330
492
100
AcDbDictionary
280
     1
281
     1
  3
ACAD_XREC_ROUNDTRIP
360
6CE
  0
DICTIONARY
  5
6BF
330
48B
100
AcDbDictionary
280
     1
281
     1
  3
ACAD_XREC_ROUNDTRIP
360
6C0
  0
DICTIONARY
  5
6C3
330
48D
100
AcDbDictionary
280
     1
281
     1
  3
ACAD_XREC_ROUNDTRIP
360
6C4
  0
DICTIONARY
  5
6DD
330
49A
100
AcDbDictionary
280
     1
281
     1
  3
ACAD_XREC_ROUNDTRIP
360
6DE
  0
DICTIONARY
  5
6CB
330
491
100
AcDbDictionary
280
     1
281
     1
  3
ACAD_XREC_ROUNDTRIP
360
6CC
  0
DICTIONARY
  5
6AF
330
483
100
AcDbDictionary
280
     1
281
     1
  3
ACAD_XREC_ROUNDTRIP
360
6B0
  0
DICTIONARY
  5
6B1
330
484
100
AcDbDictionary
280
     1
281
     1
  3
ACAD_XREC_ROUNDTRIP
360
6B2
  0
DICTIONARY
  5
6B3
330
485
100
AcDbDictionary
280
     1
281
     1
  3
ACAD_XREC_ROUNDTRIP
360
6B4
  0
DICTIONARY
  5
6B5
330
486
100
AcDbDictionary
280
     1
281
     1
  3
ACAD_XREC_ROUNDTRIP
360
6B6
  0
DICTIONARY
  5
6BD
330
48A
100
AcDbDictionary
280
     1
281
     1
  3
ACAD_XREC_ROUNDTRIP
360
6BE
  0
DICTIONARY
  5
6D9
330
498
100
AcDbDictionary
280
     1
281
     1
  3
ACAD_XREC_ROUNDTRIP
360
6DA
  0
DICTIONARY
  5
6C9
330
490
100
AcDbDictionary
280
     1
281
     1
  3
ACAD_XREC_ROUNDTRIP
360
6CA
  0
DICTIONARY
  5
6DB
330
499
100
AcDbDictionary
280
     1
281
     1
  3
ACAD_XREC_ROUNDTRIP
360
6DC
  0
DICTIONARY
  5
6C1
330
48C
100
AcDbDictionary
280
     1
281
     1
  3
ACAD_XREC_ROUNDTRIP
360
6C2
  0
DICTIONARY
  5
6D7
330
497
100
AcDbDictionary
280
     1
281
     1
  3
ACAD_XREC_ROUNDTRIP
360
6D8
  0
DICTIONARY
  5
6D5
330
496
100
AcDbDictionary
280
     1
281
     1
  3
ACAD_XREC_ROUNDTRIP
360
6D6
  0
DICTIONARY
  5
6CF
330
493
100
AcDbDictionary
280
     1
281
     1
  3
ACAD_XREC_ROUNDTRIP
360
6D0
  0
DICTIONARY
  5
6D1
330
494
100
AcDbDictionary
280
     1
281
     1
  3
ACAD_XREC_ROUNDTRIP
360
6D2
  0
DICTIONARY
  5
6C7
330
48F
100
AcDbDictionary
280
     1
281
     1
  3
ACAD_XREC_ROUNDTRIP
360
6C8
  0
DICTIONARY
  5
6BB
330
489
100
AcDbDictionary
280
     1
281
     1
  3
ACAD_XREC_ROUNDTRIP
360
6BC
  0
DICTIONARY
  5
6D3
330
495
100
AcDbDictionary
280
     1
281
     1
  3
ACAD_XREC_ROUNDTRIP
360
6D4
  0
XRECORD
  5
6E2
102
{ACAD_REACTORS
330
6E1
102
}
330
6E1
100
AcDbXrecord
280
     1
102
SHADEPLOT
 70
     0
102
SHADEPLOTRESLEVEL
 70
     2
102
SHADEPLOTCUSTOMDPI
 70
   300
  0
XRECORD
  5
6E4
102
{ACAD_REACTORS
330
6E3
102
}
330
6E3
100
AcDbXrecord
280
     1
102
SHADEPLOT
 70
     0
102
SHADEPLOTRESLEVEL
 70
     2
102
SHADEPLOTCUSTOMDPI
 70
   300
  0
XRECORD
  5
6AD
102
{ACAD_REACTORS
330
473
102
}
330
473
100
AcDbXrecord
280
     1
102
MATERIAL
148
0.0
149
0.0
149
0.0
 93
        0
 94
      127
282
     0
 72
     0
 77
     0
171
     0
175
     0
179
     0
273
     0
  0
XRECORD
  5
475
102
{ACAD_REACTORS
330
473
102
}
330
473
100
AcDbXrecord
280
     1
270
     1
271
     1
  0
XRECORD
  5
474
102
{ACAD_REACTORS
330
473
102
}
330
473
100
AcDbXrecord
280
     1
270
     1
271
     1
  0
XRECORD
  5
478
102
{ACAD_REACTORS
330
473
102
}
330
473
100
AcDbXrecord
280
     1
270
     1
271
     1
  0
XRECORD
  5
477
102
{ACAD_REACTORS
330
473
102
}
330
473
100
AcDbXrecord
280
     1
270
     1
271
     1
  0
XRECORD
  5
479
102
{ACAD_REACTORS
330
473
102
}
330
473
100
AcDbXrecord
280
     1
270
     1
271
     1
  0
XRECORD
  5
476
102
{ACAD_REACTORS
330
473
102
}
330
473
100
AcDbXrecord
280
     1
270
     1
271
     1
  0
XRECORD
  5
6AC
102
{ACAD_REACTORS
330
46B
102
}
330
46B
100
AcDbXrecord
280
     1
102
MATERIAL
148
0.0
149
0.0
149
0.0
 93
        0
 94
      127
282
     0
 72
     0
 77
     0
171
     0
175
     0
179
     0
273
     0
  0
XRECORD
  5
46D
102
{ACAD_REACTORS
330
46B
102
}
330
46B
100
AcDbXrecord
280
     1
270
     1
271
     1
  0
XRECORD
  5
46C
102
{ACAD_REACTORS
330
46B
102
}
330
46B
100
AcDbXrecord
280
     1
270
     1
271
     1
  0
XRECORD
  5
470
102
{ACAD_REACTORS
330
46B
102
}
330
46B
100
AcDbXrecord
280
     1
270
     1
271
     1
  0
XRECORD
  5
46F
102
{ACAD_REACTORS
330
46B
102
}
330
46B
100
AcDbXrecord
280
     1
270
     1
271
     1
  0
XRECORD
  5
471
102
{ACAD_REACTORS
330
46B
102
}
330
46B
100
AcDbXrecord
280
     1
270
     1
271
     1
  0
XRECORD
  5
46E
102
{ACAD_REACTORS
330
46B
102
}
330
46B
100
AcDbXrecord
280
     1
270
     1
271
     1
  0
XRECORD
  5
6AE
102
{ACAD_REACTORS
330
47B
102
}
330
47B
100
AcDbXrecord
280
     1
102
MATERIAL
148
0.0
149
0.0
149
0.0
 93
        0
 94
      127
282
     0
 72
     0
 77
     0
171
     0
175
     0
179
     0
273
     0
  0
XRECORD
  5
47D
102
{ACAD_REACTORS
330
47B
102
}
330
47B
100
AcDbXrecord
280
     1
270
     1
271
     1
  0
XRECORD
  5
47C
102
{ACAD_REACTORS
330
47B
102
}
330
47B
100
AcDbXrecord
280
     1
270
     1
271
     1
  0
XRECORD
  5
480
102
{ACAD_REACTORS
330
47B
102
}
330
47B
100
AcDbXrecord
280
     1
270
     1
271
     1
  0
XRECORD
  5
47F
102
{ACAD_REACTORS
330
47B
102
}
330
47B
100
AcDbXrecord
280
     1
270
     1
271
     1
  0
XRECORD
  5
481
102
{ACAD_REACTORS
330
47B
102
}
330
47B
100
AcDbXrecord
280
     1
270
     1
271
     1
  0
XRECORD
  5
47E
102
{ACAD_REACTORS
330
47B
102
}
330
47B
100
AcDbXrecord
280
     1
270
     1
271
     1
  0
CELLSTYLEMAP
  5
657
102
{ACAD_REACTORS
330
656
102
}
330
656
100
AcDbCellStyleMap
 90
        3
300
CELLSTYLE
  1
TABLEFORMAT_BEGIN
 90
        5
170
     1
 91
        0
 92
    32768
 62
   257
 93
        1
300
CONTENTFORMAT
  1
CONTENTFORMAT_BEGIN
 90
        0
 91
        0
 92
      512
 93
        0
300

 40
0.0
140
1.0
 94
        5
 62
     0
340
17
144
6.0
309
CONTENTFORMAT_END
171
     1
301
MARGIN
  1
CELLMARGIN_BEGIN
 40
1.5
 40
1.5
 40
1.5
 40
1.5
 40
4.5
 40
4.5
309
CELLMARGIN_END
 94
        6
 95
        1
302
GRIDFORMAT
  1
GRIDFORMAT_BEGIN
 90
        0
 91
        1
 62
     0
 92
       -2
340
0
 93
        0
 40
1.125
309
GRIDFORMAT_END
 95
        2
302
GRIDFORMAT
  1
GRIDFORMAT_BEGIN
 90
        0
 91
        1
 62
     0
 92
       -2
340
0
 93
        0
 40
1.125
309
GRIDFORMAT_END
 95
        4
302
GRIDFORMAT
  1
GRIDFORMAT_BEGIN
 90
        0
 91
        1
 62
     0
 92
       -2
340
0
 93
        0
 40
1.125
309
GRIDFORMAT_END
 95
        8
302
GRIDFORMAT
  1
GRIDFORMAT_BEGIN
 90
        0
 91
        1
 62
     0
 92
       -2
340
0
 93
        0
 40
1.125
309
GRIDFORMAT_END
 95
       16
302
GRIDFORMAT
  1
GRIDFORMAT_BEGIN
 90
        0
 91
        1
 62
     0
 92
       -2
340
0
 93
        0
 40
1.125
309
GRIDFORMAT_END
 95
       32
302
GRIDFORMAT
  1
GRIDFORMAT_BEGIN
 90
        0
 91
        1
 62
     0
 92
       -2
340
0
 93
        0
 40
1.125
309
GRIDFORMAT_END
309
TABLEFORMAT_END
  1
CELLSTYLE_BEGIN
 90
        1
 91
        1
300
_TITLE
309
CELLSTYLE_END
300
CELLSTYLE
  1
TABLEFORMAT_BEGIN
 90
        5
170
     1
 91
        0
 92
        0
 62
   257
 93
        1
300
CONTENTFORMAT
  1
CONTENTFORMAT_BEGIN
 90
        0
 91
        0
 92
      512
 93
        0
300

 40
0.0
140
1.0
 94
        5
 62
     0
340
17
144
4.5
309
CONTENTFORMAT_END
171
     1
301
MARGIN
  1
CELLMARGIN_BEGIN
 40
1.5
 40
1.5
 40
1.5
 40
1.5
 40
4.5
 40
4.5
309
CELLMARGIN_END
 94
        6
 95
        1
302
GRIDFORMAT
  1
GRIDFORMAT_BEGIN
 90
        0
 91
        1
 62
     0
 92
       -2
340
0
 93
        0
 40
1.125
309
GRIDFORMAT_END
 95
        2
302
GRIDFORMAT
  1
GRIDFORMAT_BEGIN
 90
        0
 91
        1
 62
     0
 92
       -2
340
0
 93
        0
 40
1.125
309
GRIDFORMAT_END
 95
        4
302
GRIDFORMAT
  1
GRIDFORMAT_BEGIN
 90
        0
 91
        1
 62
     0
 92
       -2
340
0
 93
        0
 40
1.125
309
GRIDFORMAT_END
 95
        8
302
GRIDFORMAT
  1
GRIDFORMAT_BEGIN
 90
        0
 91
        1
 62
     0
 92
       -2
340
0
 93
        0
 40
1.125
309
GRIDFORMAT_END
 95
       16
302
GRIDFORMAT
  1
GRIDFORMAT_BEGIN
 90
        0
 91
        1
 62
     0
 92
       -2
340
0
 93
        0
 40
1.125
309
GRIDFORMAT_END
 95
       32
302
GRIDFORMAT
  1
GRIDFORMAT_BEGIN
 90
        0
 91
        1
 62
     0
 92
       -2
340
0
 93
        0
 40
1.125
309
GRIDFORMAT_END
309
TABLEFORMAT_END
  1
CELLSTYLE_BEGIN
 90
        2
 91
        1
300
_HEADER
309
CELLSTYLE_END
300
CELLSTYLE
  1
TABLEFORMAT_BEGIN
 90
        5
170
     1
 91
        0
 92
        0
 62
   257
 93
        1
300
CONTENTFORMAT
  1
CONTENTFORMAT_BEGIN
 90
        0
 91
        0
 92
      512
 93
        0
300

 40
0.0
140
1.0
 94
        2
 62
     0
340
17
144
4.5
309
CONTENTFORMAT_END
171
     1
301
MARGIN
  1
CELLMARGIN_BEGIN
 40
1.5
 40
1.5
 40
1.5
 40
1.5
 40
4.5
 40
4.5
309
CELLMARGIN_END
 94
        6
 95
        1
302
GRIDFORMAT
  1
GRIDFORMAT_BEGIN
 90
        0
 91
        1
 62
     0
 92
       -2
340
0
 93
        0
 40
1.125
309
GRIDFORMAT_END
 95
        2
302
GRIDFORMAT
  1
GRIDFORMAT_BEGIN
 90
        0
 91
        1
 62
     0
 92
       -2
340
0
 93
        0
 40
1.125
309
GRIDFORMAT_END
 95
        4
302
GRIDFORMAT
  1
GRIDFORMAT_BEGIN
 90
        0
 91
        1
 62
     0
 92
       -2
340
0
 93
        0
 40
1.125
309
GRIDFORMAT_END
 95
        8
302
GRIDFORMAT
  1
GRIDFORMAT_BEGIN
 90
        0
 91
        1
 62
     0
 92
       -2
340
0
 93
        0
 40
1.125
309
GRIDFORMAT_END
 95
       16
302
GRIDFORMAT
  1
GRIDFORMAT_BEGIN
 90
        0
 91
        1
 62
     0
 92
       -2
340
0
 93
        0
 40
1.125
309
GRIDFORMAT_END
 95
       32
302
GRIDFORMAT
  1
GRIDFORMAT_BEGIN
 90
        0
 91
        1
 62
     0
 92
       -2
340
0
 93
        0
 40
1.125
309
GRIDFORMAT_END
309
TABLEFORMAT_END
  1
CELLSTYLE_BEGIN
 90
        3
 91
        2
300
_DATA
309
CELLSTYLE_END
  0
XRECORD
  5
6DF
102
{ACAD_REACTORS
330
656
102
}
330
656
100
AcDbXrecord
280
     1
102
ACAD_ROUNDTRIP_PRE2007_TABLESTYLE
 90
      512
 91
        0
  1

 92
      512
 93
        0
  2

 94
      512
 95
        0
  3

  0
XRECORD
  5
6BA
102
{ACAD_REACTORS
330
6B9
102
}
330
6B9
100
AcDbXrecord
280
     1
102
RTVSPropertyOp0
 70
     1
102
RTVSPropertyOp1
 70
     1
102
RTVSPropertyOp2
 70
     1
102
RTVSPropertyOp3
 70
     1
102
RTVSPropertyOp4
 70
     1
102
RTVSPropertyOp5
 70
     1
102
RTVSPropertyOp6
 70
     1
102
RTVSPropertyOp7
 70
     1
102
RTVSPropertyOp8
 70
     1
102
RTVSPropertyOp9
 70
     1
102
RTVSPropertyOp10
 70
     1
102
RTVSPropertyOp11
 70
     1
102
RTVSPropertyOp12
 70
     1
102
RTVSPropertyOp13
 70
     1
102
RTVSPropertyOp14
 70
     1
102
RTVSPropertyOp15
 70
     1
102
RTVSPropertyOp16
 70
     1
102
RTVSPropertyOp17
 70
     1
102
RTVSPropertyOp18
 70
     1
102
RTVSPropertyOp19
 70
     1
102
RTVSPropertyOp20
 70
     1
102
RTVSPropertyOp21
 70
     1
102
RTVSPropertyOp22
 70
     1
102
RTVSPropertyOp23
 70
     1
102
RTVSPropertyOp24
 70
     1
102
RTVSPropertyOp25
 70
     1
102
RTVSPropertyOp26
 70
     1
102
RTVSPropertyOp27
 70
     1
102
RTVSPropertyOp28
 70
     1
102
RTVSPropertyOp29
 70
     1
102
RTVSPropertyOp30
 70
     1
102
RTVSPropertyOp31
 70
     1
102
RTVSPropertyOp32
 70
     1
  0
XRECORD
  5
6B8
102
{ACAD_REACTORS
330
6B7
102
}
330
6B7
100
AcDbXrecord
280
     1
102
RTVSPropertyOp0
 70
     1
102
RTVSPropertyOp1
 70
     1
102
RTVSPropertyOp2
 70
     1
102
RTVSPropertyOp3
 70
     1
102
RTVSPropertyOp4
 70
     1
102
RTVSPropertyOp5
 70
     1
102
RTVSPropertyOp6
 70
     1
102
RTVSPropertyOp7
 70
     1
102
RTVSPropertyOp8
 70
     1
102
RTVSPropertyOp9
 70
     1
102
RTVSPropertyOp10
 70
     1
102
RTVSPropertyOp11
 70
     1
102
RTVSPropertyOp12
 70
     1
102
RTVSPropertyOp13
 70
     1
102
RTVSPropertyOp14
 70
     1
102
RTVSPropertyOp15
 70
     1
102
RTVSPropertyOp16
 70
     1
102
RTVSPropertyOp17
 70
     1
102
RTVSPropertyOp18
 70
     1
102
RTVSPropertyOp19
 70
     1
102
RTVSPropertyOp20
 70
     1
102
RTVSPropertyOp21
 70
     1
102
RTVSPropertyOp22
 70
     1
102
RTVSPropertyOp23
 70
     1
102
RTVSPropertyOp24
 70
     1
102
RTVSPropertyOp25
 70
     1
102
RTVSPropertyOp26
 70
     1
102
RTVSPropertyOp27
 70
     1
102
RTVSPropertyOp28
 70
     1
102
RTVSPropertyOp29
 70
     1
102
RTVSPropertyOp30
 70
     1
102
RTVSPropertyOp31
 70
     1
102
RTVSPropertyOp32
 70
     1
  0
XRECORD
  5
6C6
102
{ACAD_REACTORS
330
6C5
102
}
330
6C5
100
AcDbXrecord
280
     1
102
RTVSPropertyOp0
 70
     1
102
RTVSPropertyOp1
 70
     1
102
RTVSPropertyOp2
 70
     1
102
RTVSPropertyOp3
 70
     1
102
RTVSPropertyOp4
 70
     1
102
RTVSPropertyOp5
 70
     1
102
RTVSPropertyOp6
 70
     1
102
RTVSPropertyOp7
 70
     1
102
RTVSPropertyOp8
 70
     1
102
RTVSPropertyOp9
 70
     1
102
RTVSPropertyOp10
 70
     1
102
RTVSPropertyOp11
 70
     1
102
RTVSPropertyOp12
 70
     1
102
RTVSPropertyOp13
 70
     1
102
RTVSPropertyOp14
 70
     1
102
RTVSPropertyOp15
 70
     1
102
RTVSPropertyOp16
 70
     1
102
RTVSPropertyOp17
 70
     1
102
RTVSPropertyOp18
 70
     1
102
RTVSPropertyOp19
 70
     1
102
RTVSPropertyOp20
 70
     1
102
RTVSPropertyOp21
 70
     1
102
RTVSPropertyOp22
 70
     1
102
RTVSPropertyOp23
 70
     1
102
RTVSPropertyOp24
 70
     1
102
RTVSPropertyOp25
 70
     1
102
RTVSPropertyOp26
 70
     1
102
RTVSPropertyOp27
 70
     1
102
RTVSPropertyOp28
 70
     1
102
RTVSPropertyOp29
 70
     1
102
RTVSPropertyOp30
 70
     1
102
RTVSPropertyOp31
 70
     1
102
RTVSPropertyOp32
 70
     1
  0
XRECORD
  5
6CE
102
{ACAD_REACTORS
330
6CD
102
}
330
6CD
100
AcDbXrecord
280
     1
102
RTVSPropertyOp0
 70
     1
102
RTVSPropertyOp1
 70
     1
102
RTVSPropertyOp2
 70
     1
102
RTVSPropertyOp3
 70
     1
102
RTVSPropertyOp4
 70
     1
102
RTVSPropertyOp5
 70
     1
102
RTVSPropertyOp6
 70
     1
102
RTVSPropertyOp7
 70
     1
102
RTVSPropertyOp8
 70
     1
102
RTVSPropertyOp9
 70
     1
102
RTVSPropertyOp10
 70
     1
102
RTVSPropertyOp11
 70
     1
102
RTVSPropertyOp12
 70
     1
102
RTVSPropertyOp13
 70
     1
102
RTVSPropertyOp14
 70
     1
102
RTVSPropertyOp15
 70
     1
102
RTVSPropertyOp16
 70
     1
102
RTVSPropertyOp17
 70
     1
102
RTVSPropertyOp18
 70
     1
102
RTVSPropertyOp19
 70
     1
102
RTVSPropertyOp20
 70
     1
102
RTVSPropertyOp21
 70
     1
102
RTVSPropertyOp22
 70
     1
102
RTVSPropertyOp23
 70
     1
102
RTVSPropertyOp24
 70
     1
102
RTVSPropertyOp25
 70
     1
102
RTVSPropertyOp26
 70
     1
102
RTVSPropertyOp27
 70
     1
102
RTVSPropertyOp28
 70
     1
102
RTVSPropertyOp29
 70
     1
102
RTVSPropertyOp30
 70
     1
102
RTVSPropertyOp31
 70
     1
102
RTVSPropertyOp32
 70
     1
  0
XRECORD
  5
6C0
102
{ACAD_REACTORS
330
6BF
102
}
330
6BF
100
AcDbXrecord
280
     1
102
RTVSPropertyOp0
 70
     1
102
RTVSPropertyOp1
 70
     1
102
RTVSPropertyOp2
 70
     1
102
RTVSPropertyOp3
 70
     1
102
RTVSPropertyOp4
 70
     1
102
RTVSPropertyOp5
 70
     1
102
RTVSPropertyOp6
 70
     1
102
RTVSPropertyOp7
 70
     1
102
RTVSPropertyOp8
 70
     1
102
RTVSPropertyOp9
 70
     1
102
RTVSPropertyOp10
 70
     1
102
RTVSPropertyOp11
 70
     1
102
RTVSPropertyOp12
 70
     1
102
RTVSPropertyOp13
 70
     1
102
RTVSPropertyOp14
 70
     1
102
RTVSPropertyOp15
 70
     1
102
RTVSPropertyOp16
 70
     1
102
RTVSPropertyOp17
 70
     1
102
RTVSPropertyOp18
 70
     1
102
RTVSPropertyOp19
 70
     1
102
RTVSPropertyOp20
 70
     1
102
RTVSPropertyOp21
 70
     1
102
RTVSPropertyOp22
 70
     1
102
RTVSPropertyOp23
 70
     1
102
RTVSPropertyOp24
 70
     1
102
RTVSPropertyOp25
 70
     1
102
RTVSPropertyOp26
 70
     1
102
RTVSPropertyOp27
 70
     1
102
RTVSPropertyOp28
 70
     1
102
RTVSPropertyOp29
 70
     1
102
RTVSPropertyOp30
 70
     1
102
RTVSPropertyOp31
 70
     1
102
RTVSPropertyOp32
 70
     1
  0
XRECORD
  5
6C4
102
{ACAD_REACTORS
330
6C3
102
}
330
6C3
100
AcDbXrecord
280
     1
102
RTVSPropertyOp0
 70
     1
102
RTVSPropertyOp1
 70
     1
102
RTVSPropertyOp2
 70
     1
102
RTVSPropertyOp3
 70
     1
102
RTVSPropertyOp4
 70
     1
102
RTVSPropertyOp5
 70
     1
102
RTVSPropertyOp6
 70
     1
102
RTVSPropertyOp7
 70
     1
102
RTVSPropertyOp8
 70
     1
102
RTVSPropertyOp9
 70
     1
102
RTVSPropertyOp10
 70
     1
102
RTVSPropertyOp11
 70
     1
102
RTVSPropertyOp12
 70
     1
102
RTVSPropertyOp13
 70
     1
102
RTVSPropertyOp14
 70
     1
102
RTVSPropertyOp15
 70
     1
102
RTVSPropertyOp16
 70
     1
102
RTVSPropertyOp17
 70
     1
102
RTVSPropertyOp18
 70
     1
102
RTVSPropertyOp19
 70
     1
102
RTVSPropertyOp20
 70
     1
102
RTVSPropertyOp21
 70
     1
102
RTVSPropertyOp22
 70
     1
102
RTVSPropertyOp23
 70
     1
102
RTVSPropertyOp24
 70
     1
102
RTVSPropertyOp25
 70
     1
102
RTVSPropertyOp26
 70
     1
102
RTVSPropertyOp27
 70
     1
102
RTVSPropertyOp28
 70
     1
102
RTVSPropertyOp29
 70
     1
102
RTVSPropertyOp30
 70
     1
102
RTVSPropertyOp31
 70
     1
102
RTVSPropertyOp32
 70
     1
  0
XRECORD
  5
6DE
102
{ACAD_REACTORS
330
6DD
102
}
330
6DD
100
AcDbXrecord
280
     1
102
RTVSPropertyOp0
 70
     0
102
RTVSPropertyOp1
 70
     0
102
RTVSPropertyOp2
 70
     0
102
RTVSPropertyOp3
 70
     0
102
RTVSPropertyOp4
 70
     0
102
RTVSPropertyOp5
 70
     0
102
RTVSPropertyOp6
 70
     0
102
RTVSPropertyOp7
 70
     0
102
RTVSPropertyOp8
 70
     0
102
RTVSPropertyOp9
 70
     0
102
RTVSPropertyOp10
 70
     0
102
RTVSPropertyOp11
 70
     0
102
RTVSPropertyOp12
 70
     0
102
RTVSPropertyOp13
 70
     0
102
RTVSPropertyOp14
 70
     2
102
RTVSPropertyOp15
 70
     0
102
RTVSPropertyOp16
 70
     0
102
RTVSPropertyOp17
 70
     0
102
RTVSPropertyOp18
 70
     0
102
RTVSPropertyOp19
 70
     0
102
RTVSPropertyOp20
 70
     0
102
RTVSPropertyOp21
 70
     0
102
RTVSPropertyOp22
 70
     0
102
RTVSPropertyOp23
 70
     0
102
RTVSPropertyOp24
 70
     0
102
RTVSPropertyOp25
 70
     0
102
RTVSPropertyOp26
 70
     0
102
RTVSPropertyOp27
 70
     0
102
RTVSPropertyOp28
 70
     0
102
RTVSPropertyOp29
 70
     0
102
RTVSPropertyOp30
 70
     0
102
RTVSPropertyOp31
 70
     0
102
RTVSPropertyOp32
 70
     0
  0
XRECORD
  5
6CC
102
{ACAD_REACTORS
330
6CB
102
}
330
6CB
100
AcDbXrecord
280
     1
102
RTVSPropertyOp0
 70
     1
102
RTVSPropertyOp1
 70
     1
102
RTVSPropertyOp2
 70
     1
102
RTVSPropertyOp3
 70
     1
102
RTVSPropertyOp4
 70
     1
102
RTVSPropertyOp5
 70
     1
102
RTVSPropertyOp6
 70
     1
102
RTVSPropertyOp7
 70
     1
102
RTVSPropertyOp8
 70
     1
102
RTVSPropertyOp9
 70
     1
102
RTVSPropertyOp10
 70
     1
102
RTVSPropertyOp11
 70
     1
102
RTVSPropertyOp12
 70
     1
102
RTVSPropertyOp13
 70
     1
102
RTVSPropertyOp14
 70
     1
102
RTVSPropertyOp15
 70
     1
102
RTVSPropertyOp16
 70
     1
102
RTVSPropertyOp17
 70
     1
102
RTVSPropertyOp18
 70
     1
102
RTVSPropertyOp19
 70
     1
102
RTVSPropertyOp20
 70
     1
102
RTVSPropertyOp21
 70
     1
102
RTVSPropertyOp22
 70
     1
102
RTVSPropertyOp23
 70
     1
102
RTVSPropertyOp24
 70
     1
102
RTVSPropertyOp25
 70
     1
102
RTVSPropertyOp26
 70
     1
102
RTVSPropertyOp27
 70
     1
102
RTVSPropertyOp28
 70
     1
102
RTVSPropertyOp29
 70
     1
102
RTVSPropertyOp30
 70
     1
102
RTVSPropertyOp31
 70
     1
102
RTVSPropertyOp32
 70
     1
  0
XRECORD
  5
6B0
102
{ACAD_REACTORS
330
6AF
102
}
330
6AF
100
AcDbXrecord
280
     1
102
RTVSPropertyOp0
 70
     1
102
RTVSPropertyOp1
 70
     1
102
RTVSPropertyOp2
 70
     1
102
RTVSPropertyOp3
 70
     1
102
RTVSPropertyOp4
 70
     1
102
RTVSPropertyOp5
 70
     1
102
RTVSPropertyOp6
 70
     1
102
RTVSPropertyOp7
 70
     1
102
RTVSPropertyOp8
 70
     1
102
RTVSPropertyOp9
 70
     1
102
RTVSPropertyOp10
 70
     1
102
RTVSPropertyOp11
 70
     1
102
RTVSPropertyOp12
 70
     1
102
RTVSPropertyOp13
 70
     1
102
RTVSPropertyOp14
 70
     1
102
RTVSPropertyOp15
 70
     1
102
RTVSPropertyOp16
 70
     1
102
RTVSPropertyOp17
 70
     1
102
RTVSPropertyOp18
 70
     1
102
RTVSPropertyOp19
 70
     1
102
RTVSPropertyOp20
 70
     1
102
RTVSPropertyOp21
 70
     1
102
RTVSPropertyOp22
 70
     1
102
RTVSPropertyOp23
 70
     1
102
RTVSPropertyOp24
 70
     1
102
RTVSPropertyOp25
 70
     1
102
RTVSPropertyOp26
 70
     1
102
RTVSPropertyOp27
 70
     1
102
RTVSPropertyOp28
 70
     1
102
RTVSPropertyOp29
 70
     1
102
RTVSPropertyOp30
 70
     1
102
RTVSPropertyOp31
 70
     1
102
RTVSPropertyOp32
 70
     1
  0
XRECORD
  5
6B2
102
{ACAD_REACTORS
330
6B1
102
}
330
6B1
100
AcDbXrecord
280
     1
102
RTVSPropertyOp0
 70
     1
102
RTVSPropertyOp1
 70
     1
102
RTVSPropertyOp2
 70
     1
102
RTVSPropertyOp3
 70
     1
102
RTVSPropertyOp4
 70
     1
102
RTVSPropertyOp5
 70
     1
102
RTVSPropertyOp6
 70
     1
102
RTVSPropertyOp7
 70
     1
102
RTVSPropertyOp8
 70
     1
102
RTVSPropertyOp9
 70
     1
102
RTVSPropertyOp10
 70
     1
102
RTVSPropertyOp11
 70
     1
102
RTVSPropertyOp12
 70
     1
102
RTVSPropertyOp13
 70
     1
102
RTVSPropertyOp14
 70
     1
102
RTVSPropertyOp15
 70
     1
102
RTVSPropertyOp16
 70
     1
102
RTVSPropertyOp17
 70
     1
102
RTVSPropertyOp18
 70
     1
102
RTVSPropertyOp19
 70
     1
102
RTVSPropertyOp20
 70
     1
102
RTVSPropertyOp21
 70
     1
102
RTVSPropertyOp22
 70
     1
102
RTVSPropertyOp23
 70
     1
102
RTVSPropertyOp24
 70
     1
102
RTVSPropertyOp25
 70
     1
102
RTVSPropertyOp26
 70
     1
102
RTVSPropertyOp27
 70
     1
102
RTVSPropertyOp28
 70
     1
102
RTVSPropertyOp29
 70
     1
102
RTVSPropertyOp30
 70
     1
102
RTVSPropertyOp31
 70
     1
102
RTVSPropertyOp32
 70
     1
  0
XRECORD
  5
6B4
102
{ACAD_REACTORS
330
6B3
102
}
330
6B3
100
AcDbXrecord
280
     1
102
RTVSPropertyOp0
 70
     1
102
RTVSPropertyOp1
 70
     1
102
RTVSPropertyOp2
 70
     1
102
RTVSPropertyOp3
 70
     1
102
RTVSPropertyOp4
 70
     1
102
RTVSPropertyOp5
 70
     1
102
RTVSPropertyOp6
 70
     1
102
RTVSPropertyOp7
 70
     1
102
RTVSPropertyOp8
 70
     1
102
RTVSPropertyOp9
 70
     1
102
RTVSPropertyOp10
 70
     1
102
RTVSPropertyOp11
 70
     1
102
RTVSPropertyOp12
 70
     1
102
RTVSPropertyOp13
 70
     1
102
RTVSPropertyOp14
 70
     1
102
RTVSPropertyOp15
 70
     1
102
RTVSPropertyOp16
 70
     1
102
RTVSPropertyOp17
 70
     1
102
RTVSPropertyOp18
 70
     1
102
RTVSPropertyOp19
 70
     1
102
RTVSPropertyOp20
 70
     1
102
RTVSPropertyOp21
 70
     1
102
RTVSPropertyOp22
 70
     1
102
RTVSPropertyOp23
 70
     1
102
RTVSPropertyOp24
 70
     1
102
RTVSPropertyOp25
 70
     1
102
RTVSPropertyOp26
 70
     1
102
RTVSPropertyOp27
 70
     1
102
RTVSPropertyOp28
 70
     1
102
RTVSPropertyOp29
 70
     1
102
RTVSPropertyOp30
 70
     1
102
RTVSPropertyOp31
 70
     1
102
RTVSPropertyOp32
 70
     1
  0
XRECORD
  5
6B6
102
{ACAD_REACTORS
330
6B5
102
}
330
6B5
100
AcDbXrecord
280
     1
102
RTVSPropertyOp0
 70
     1
102
RTVSPropertyOp1
 70
     1
102
RTVSPropertyOp2
 70
     1
102
RTVSPropertyOp3
 70
     1
102
RTVSPropertyOp4
 70
     1
102
RTVSPropertyOp5
 70
     1
102
RTVSPropertyOp6
 70
     1
102
RTVSPropertyOp7
 70
     1
102
RTVSPropertyOp8
 70
     1
102
RTVSPropertyOp9
 70
     1
102
RTVSPropertyOp10
 70
     1
102
RTVSPropertyOp11
 70
     1
102
RTVSPropertyOp12
 70
     1
102
RTVSPropertyOp13
 70
     1
102
RTVSPropertyOp14
 70
     1
102
RTVSPropertyOp15
 70
     1
102
RTVSPropertyOp16
 70
     1
102
RTVSPropertyOp17
 70
     1
102
RTVSPropertyOp18
 70
     1
102
RTVSPropertyOp19
 70
     1
102
RTVSPropertyOp20
 70
     1
102
RTVSPropertyOp21
 70
     1
102
RTVSPropertyOp22
 70
     1
102
RTVSPropertyOp23
 70
     1
102
RTVSPropertyOp24
 70
     1
102
RTVSPropertyOp25
 70
     1
102
RTVSPropertyOp26
 70
     1
102
RTVSPropertyOp27
 70
     1
102
RTVSPropertyOp28
 70
     1
102
RTVSPropertyOp29
 70
     1
102
RTVSPropertyOp30
 70
     1
102
RTVSPropertyOp31
 70
     1
102
RTVSPropertyOp32
 70
     1
  0
XRECORD
  5
6BE
102
{ACAD_REACTORS
330
6BD
102
}
330
6BD
100
AcDbXrecord
280
     1
102
RTVSPropertyOp0
 70
     1
102
RTVSPropertyOp1
 70
     1
102
RTVSPropertyOp2
 70
     1
102
RTVSPropertyOp3
 70
     1
102
RTVSPropertyOp4
 70
     1
102
RTVSPropertyOp5
 70
     1
102
RTVSPropertyOp6
 70
     1
102
RTVSPropertyOp7
 70
     1
102
RTVSPropertyOp8
 70
     1
102
RTVSPropertyOp9
 70
     1
102
RTVSPropertyOp10
 70
     1
102
RTVSPropertyOp11
 70
     1
102
RTVSPropertyOp12
 70
     1
102
RTVSPropertyOp13
 70
     1
102
RTVSPropertyOp14
 70
     1
102
RTVSPropertyOp15
 70
     1
102
RTVSPropertyOp16
 70
     1
102
RTVSPropertyOp17
 70
     1
102
RTVSPropertyOp18
 70
     1
102
RTVSPropertyOp19
 70
     1
102
RTVSPropertyOp20
 70
     1
102
RTVSPropertyOp21
 70
     1
102
RTVSPropertyOp22
 70
     1
102
RTVSPropertyOp23
 70
     1
102
RTVSPropertyOp24
 70
     1
102
RTVSPropertyOp25
 70
     1
102
RTVSPropertyOp26
 70
     1
102
RTVSPropertyOp27
 70
     1
102
RTVSPropertyOp28
 70
     1
102
RTVSPropertyOp29
 70
     1
102
RTVSPropertyOp30
 70
     1
102
RTVSPropertyOp31
 70
     1
102
RTVSPropertyOp32
 70
     1
  0
XRECORD
  5
6DA
102
{ACAD_REACTORS
330
6D9
102
}
330
6D9
100
AcDbXrecord
280
     1
102
RTVSPropertyOp0
 70
     0
102
RTVSPropertyOp1
 70
     0
102
RTVSPropertyOp2
 70
     0
102
RTVSPropertyOp3
 70
     0
102
RTVSPropertyOp4
 70
     0
102
RTVSPropertyOp5
 70
     0
102
RTVSPropertyOp6
 70
     0
102
RTVSPropertyOp7
 70
     0
102
RTVSPropertyOp8
 70
     0
102
RTVSPropertyOp9
 70
     0
102
RTVSPropertyOp10
 70
     0
102
RTVSPropertyOp11
 70
     0
102
RTVSPropertyOp12
 70
     0
102
RTVSPropertyOp13
 70
     0
102
RTVSPropertyOp14
 70
     2
102
RTVSPropertyOp15
 70
     0
102
RTVSPropertyOp16
 70
     0
102
RTVSPropertyOp17
 70
     0
102
RTVSPropertyOp18
 70
     0
102
RTVSPropertyOp19
 70
     0
102
RTVSPropertyOp20
 70
     0
102
RTVSPropertyOp21
 70
     0
102
RTVSPropertyOp22
 70
     0
102
RTVSPropertyOp23
 70
     0
102
RTVSPropertyOp24
 70
     0
102
RTVSPropertyOp25
 70
     0
102
RTVSPropertyOp26
 70
     0
102
RTVSPropertyOp27
 70
     0
102
RTVSPropertyOp28
 70
     0
102
RTVSPropertyOp29
 70
     0
102
RTVSPropertyOp30
 70
     0
102
RTVSPropertyOp31
 70
     0
102
RTVSPropertyOp32
 70
     0
  0
XRECORD
  5
6CA
102
{ACAD_REACTORS
330
6C9
102
}
330
6C9
100
AcDbXrecord
280
     1
102
RTVSPropertyOp0
 70
     1
102
RTVSPropertyOp1
 70
     1
102
RTVSPropertyOp2
 70
     1
102
RTVSPropertyOp3
 70
     1
102
RTVSPropertyOp4
 70
     1
102
RTVSPropertyOp5
 70
     1
102
RTVSPropertyOp6
 70
     1
102
RTVSPropertyOp7
 70
     1
102
RTVSPropertyOp8
 70
     1
102
RTVSPropertyOp9
 70
     1
102
RTVSPropertyOp10
 70
     1
102
RTVSPropertyOp11
 70
     1
102
RTVSPropertyOp12
 70
     1
102
RTVSPropertyOp13
 70
     1
102
RTVSPropertyOp14
 70
     1
102
RTVSPropertyOp15
 70
     1
102
RTVSPropertyOp16
 70
     1
102
RTVSPropertyOp17
 70
     1
102
RTVSPropertyOp18
 70
     1
102
RTVSPropertyOp19
 70
     1
102
RTVSPropertyOp20
 70
     1
102
RTVSPropertyOp21
 70
     1
102
RTVSPropertyOp22
 70
     1
102
RTVSPropertyOp23
 70
     1
102
RTVSPropertyOp24
 70
     1
102
RTVSPropertyOp25
 70
     1
102
RTVSPropertyOp26
 70
     1
102
RTVSPropertyOp27
 70
     1
102
RTVSPropertyOp28
 70
     1
102
RTVSPropertyOp29
 70
     1
102
RTVSPropertyOp30
 70
     1
102
RTVSPropertyOp31
 70
     1
102
RTVSPropertyOp32
 70
     1
  0
XRECORD
  5
6DC
102
{ACAD_REACTORS
330
6DB
102
}
330
6DB
100
AcDbXrecord
280
     1
102
RTVSPropertyOp0
 70
     0
102
RTVSPropertyOp1
 70
     0
102
RTVSPropertyOp2
 70
     0
102
RTVSPropertyOp3
 70
     0
102
RTVSPropertyOp4
 70
     0
102
RTVSPropertyOp5
 70
     0
102
RTVSPropertyOp6
 70
     0
102
RTVSPropertyOp7
 70
     0
102
RTVSPropertyOp8
 70
     0
102
RTVSPropertyOp9
 70
     0
102
RTVSPropertyOp10
 70
     0
102
RTVSPropertyOp11
 70
     0
102
RTVSPropertyOp12
 70
     0
102
RTVSPropertyOp13
 70
     0
102
RTVSPropertyOp14
 70
     2
102
RTVSPropertyOp15
 70
     0
102
RTVSPropertyOp16
 70
     0
102
RTVSPropertyOp17
 70
     0
102
RTVSPropertyOp18
 70
     0
102
RTVSPropertyOp19
 70
     0
102
RTVSPropertyOp20
 70
     0
102
RTVSPropertyOp21
 70
     0
102
RTVSPropertyOp22
 70
     0
102
RTVSPropertyOp23
 70
     0
102
RTVSPropertyOp24
 70
     0
102
RTVSPropertyOp25
 70
     0
102
RTVSPropertyOp26
 70
     0
102
RTVSPropertyOp27
 70
     0
102
RTVSPropertyOp28
 70
     0
102
RTVSPropertyOp29
 70
     0
102
RTVSPropertyOp30
 70
     0
102
RTVSPropertyOp31
 70
     0
102
RTVSPropertyOp32
 70
     0
  0
XRECORD
  5
6C2
102
{ACAD_REACTORS
330
6C1
102
}
330
6C1
100
AcDbXrecord
280
     1
102
RTVSPropertyOp0
 70
     1
102
RTVSPropertyOp1
 70
     1
102
RTVSPropertyOp2
 70
     1
102
RTVSPropertyOp3
 70
     1
102
RTVSPropertyOp4
 70
     1
102
RTVSPropertyOp5
 70
     1
102
RTVSPropertyOp6
 70
     1
102
RTVSPropertyOp7
 70
     1
102
RTVSPropertyOp8
 70
     1
102
RTVSPropertyOp9
 70
     1
102
RTVSPropertyOp10
 70
     1
102
RTVSPropertyOp11
 70
     1
102
RTVSPropertyOp12
 70
     1
102
RTVSPropertyOp13
 70
     1
102
RTVSPropertyOp14
 70
     1
102
RTVSPropertyOp15
 70
     1
102
RTVSPropertyOp16
 70
     1
102
RTVSPropertyOp17
 70
     1
102
RTVSPropertyOp18
 70
     1
102
RTVSPropertyOp19
 70
     1
102
RTVSPropertyOp20
 70
     1
102
RTVSPropertyOp21
 70
     1
102
RTVSPropertyOp22
 70
     1
102
RTVSPropertyOp23
 70
     1
102
RTVSPropertyOp24
 70
     1
102
RTVSPropertyOp25
 70
     1
102
RTVSPropertyOp26
 70
     1
102
RTVSPropertyOp27
 70
     1
102
RTVSPropertyOp28
 70
     1
102
RTVSPropertyOp29
 70
     1
102
RTVSPropertyOp30
 70
     1
102
RTVSPropertyOp31
 70
     1
102
RTVSPropertyOp32
 70
     1
  0
XRECORD
  5
6D8
102
{ACAD_REACTORS
330
6D7
102
}
330
6D7
100
AcDbXrecord
280
     1
102
RTVSPropertyOp0
 70
     1
102
RTVSPropertyOp1
 70
     1
102
RTVSPropertyOp2
 70
     1
102
RTVSPropertyOp3
 70
     1
102
RTVSPropertyOp4
 70
     1
102
RTVSPropertyOp5
 70
     1
102
RTVSPropertyOp6
 70
     1
102
RTVSPropertyOp7
 70
     1
102
RTVSPropertyOp8
 70
     1
102
RTVSPropertyOp9
 70
     1
102
RTVSPropertyOp10
 70
     1
102
RTVSPropertyOp11
 70
     1
102
RTVSPropertyOp12
 70
     1
102
RTVSPropertyOp13
 70
     1
102
RTVSPropertyOp14
 70
     1
102
RTVSPropertyOp15
 70
     1
102
RTVSPropertyOp16
 70
     1
102
RTVSPropertyOp17
 70
     1
102
RTVSPropertyOp18
 70
     1
102
RTVSPropertyOp19
 70
     1
102
RTVSPropertyOp20
 70
     1
102
RTVSPropertyOp21
 70
     1
102
RTVSPropertyOp22
 70
     1
102
RTVSPropertyOp23
 70
     1
102
RTVSPropertyOp24
 70
     1
102
RTVSPropertyOp25
 70
     1
102
RTVSPropertyOp26
 70
     1
102
RTVSPropertyOp27
 70
     1
102
RTVSPropertyOp28
 70
     1
102
RTVSPropertyOp29
 70
     1
102
RTVSPropertyOp30
 70
     1
102
RTVSPropertyOp31
 70
     1
102
RTVSPropertyOp32
 70
     1
  0
XRECORD
  5
6D6
102
{ACAD_REACTORS
330
6D5
102
}
330
6D5
100
AcDbXrecord
280
     1
102
RTVSPropertyOp0
 70
     1
102
RTVSPropertyOp1
 70
     1
102
RTVSPropertyOp2
 70
     1
102
RTVSPropertyOp3
 70
     1
102
RTVSPropertyOp4
 70
     1
102
RTVSPropertyOp5
 70
     1
102
RTVSPropertyOp6
 70
     1
102
RTVSPropertyOp7
 70
     1
102
RTVSPropertyOp8
 70
     1
102
RTVSPropertyOp9
 70
     1
102
RTVSPropertyOp10
 70
     1
102
RTVSPropertyOp11
 70
     1
102
RTVSPropertyOp12
 70
     1
102
RTVSPropertyOp13
 70
     1
102
RTVSPropertyOp14
 70
     1
102
RTVSPropertyOp15
 70
     1
102
RTVSPropertyOp16
 70
     1
102
RTVSPropertyOp17
 70
     1
102
RTVSPropertyOp18
 70
     1
102
RTVSPropertyOp19
 70
     1
102
RTVSPropertyOp20
 70
     1
102
RTVSPropertyOp21
 70
     1
102
RTVSPropertyOp22
 70
     1
102
RTVSPropertyOp23
 70
     1
102
RTVSPropertyOp24
 70
     1
102
RTVSPropertyOp25
 70
     1
102
RTVSPropertyOp26
 70
     1
102
RTVSPropertyOp27
 70
     1
102
RTVSPropertyOp28
 70
     1
102
RTVSPropertyOp29
 70
     1
102
RTVSPropertyOp30
 70
     1
102
RTVSPropertyOp31
 70
     1
102
RTVSPropertyOp32
 70
     1
  0
XRECORD
  5
6D0
102
{ACAD_REACTORS
330
6CF
102
}
330
6CF
100
AcDbXrecord
280
     1
102
RTVSPropertyOp0
 70
     1
102
RTVSPropertyOp1
 70
     1
102
RTVSPropertyOp2
 70
     1
102
RTVSPropertyOp3
 70
     1
102
RTVSPropertyOp4
 70
     1
102
RTVSPropertyOp5
 70
     1
102
RTVSPropertyOp6
 70
     1
102
RTVSPropertyOp7
 70
     1
102
RTVSPropertyOp8
 70
     1
102
RTVSPropertyOp9
 70
     1
102
RTVSPropertyOp10
 70
     1
102
RTVSPropertyOp11
 70
     1
102
RTVSPropertyOp12
 70
     1
102
RTVSPropertyOp13
 70
     1
102
RTVSPropertyOp14
 70
     1
102
RTVSPropertyOp15
 70
     1
102
RTVSPropertyOp16
 70
     1
102
RTVSPropertyOp17
 70
     1
102
RTVSPropertyOp18
 70
     1
102
RTVSPropertyOp19
 70
     1
102
RTVSPropertyOp20
 70
     1
102
RTVSPropertyOp21
 70
     1
102
RTVSPropertyOp22
 70
     1
102
RTVSPropertyOp23
 70
     1
102
RTVSPropertyOp24
 70
     1
102
RTVSPropertyOp25
 70
     1
102
RTVSPropertyOp26
 70
     1
102
RTVSPropertyOp27
 70
     1
102
RTVSPropertyOp28
 70
     1
102
RTVSPropertyOp29
 70
     1
102
RTVSPropertyOp30
 70
     1
102
RTVSPropertyOp31
 70
     1
102
RTVSPropertyOp32
 70
     1
  0
XRECORD
  5
6D2
102
{ACAD_REACTORS
330
6D1
102
}
330
6D1
100
AcDbXrecord
280
     1
102
RTVSPropertyOp0
 70
     1
102
RTVSPropertyOp1
 70
     1
102
RTVSPropertyOp2
 70
     1
102
RTVSPropertyOp3
 70
     1
102
RTVSPropertyOp4
 70
     1
102
RTVSPropertyOp5
 70
     1
102
RTVSPropertyOp6
 70
     1
102
RTVSPropertyOp7
 70
     1
102
RTVSPropertyOp8
 70
     1
102
RTVSPropertyOp9
 70
     1
102
RTVSPropertyOp10
 70
     1
102
RTVSPropertyOp11
 70
     1
102
RTVSPropertyOp12
 70
     1
102
RTVSPropertyOp13
 70
     1
102
RTVSPropertyOp14
 70
     1
102
RTVSPropertyOp15
 70
     1
102
RTVSPropertyOp16
 70
     1
102
RTVSPropertyOp17
 70
     1
102
RTVSPropertyOp18
 70
     1
102
RTVSPropertyOp19
 70
     1
102
RTVSPropertyOp20
 70
     1
102
RTVSPropertyOp21
 70
     1
102
RTVSPropertyOp22
 70
     1
102
RTVSPropertyOp23
 70
     1
102
RTVSPropertyOp24
 70
     1
102
RTVSPropertyOp25
 70
     1
102
RTVSPropertyOp26
 70
     1
102
RTVSPropertyOp27
 70
     1
102
RTVSPropertyOp28
 70
     1
102
RTVSPropertyOp29
 70
     1
102
RTVSPropertyOp30
 70
     1
102
RTVSPropertyOp31
 70
     1
102
RTVSPropertyOp32
 70
     1
  0
XRECORD
  5
6C8
102
{ACAD_REACTORS
330
6C7
102
}
330
6C7
100
AcDbXrecord
280
     1
102
RTVSPropertyOp0
 70
     1
102
RTVSPropertyOp1
 70
     1
102
RTVSPropertyOp2
 70
     1
102
RTVSPropertyOp3
 70
     1
102
RTVSPropertyOp4
 70
     1
102
RTVSPropertyOp5
 70
     1
102
RTVSPropertyOp6
 70
     1
102
RTVSPropertyOp7
 70
     1
102
RTVSPropertyOp8
 70
     1
102
RTVSPropertyOp9
 70
     1
102
RTVSPropertyOp10
 70
     1
102
RTVSPropertyOp11
 70
     1
102
RTVSPropertyOp12
 70
     1
102
RTVSPropertyOp13
 70
     1
102
RTVSPropertyOp14
 70
     1
102
RTVSPropertyOp15
 70
     1
102
RTVSPropertyOp16
 70
     1
102
RTVSPropertyOp17
 70
     1
102
RTVSPropertyOp18
 70
     1
102
RTVSPropertyOp19
 70
     1
102
RTVSPropertyOp20
 70
     1
102
RTVSPropertyOp21
 70
     1
102
RTVSPropertyOp22
 70
     1
102
RTVSPropertyOp23
 70
     1
102
RTVSPropertyOp24
 70
     1
102
RTVSPropertyOp25
 70
     1
102
RTVSPropertyOp26
 70
     1
102
RTVSPropertyOp27
 70
     1
102
RTVSPropertyOp28
 70
     1
102
RTVSPropertyOp29
 70
     1
102
RTVSPropertyOp30
 70
     1
102
RTVSPropertyOp31
 70
     1
102
RTVSPropertyOp32
 70
     1
  0
XRECORD
  5
6BC
102
{ACAD_REACTORS
330
6BB
102
}
330
6BB
100
AcDbXrecord
280
     1
102
RTVSPropertyOp0
 70
     1
102
RTVSPropertyOp1
 70
     1
102
RTVSPropertyOp2
 70
     1
102
RTVSPropertyOp3
 70
     1
102
RTVSPropertyOp4
 70
     1
102
RTVSPropertyOp5
 70
     1
102
RTVSPropertyOp6
 70
     1
102
RTVSPropertyOp7
 70
     1
102
RTVSPropertyOp8
 70
     1
102
RTVSPropertyOp9
 70
     1
102
RTVSPropertyOp10
 70
     1
102
RTVSPropertyOp11
 70
     1
102
RTVSPropertyOp12
 70
     1
102
RTVSPropertyOp13
 70
     1
102
RTVSPropertyOp14
 70
     1
102
RTVSPropertyOp15
 70
     1
102
RTVSPropertyOp16
 70
     1
102
RTVSPropertyOp17
 70
     1
102
RTVSPropertyOp18
 70
     1
102
RTVSPropertyOp19
 70
     1
102
RTVSPropertyOp20
 70
     1
102
RTVSPropertyOp21
 70
     1
102
RTVSPropertyOp22
 70
     1
102
RTVSPropertyOp23
 70
     1
102
RTVSPropertyOp24
 70
     1
102
RTVSPropertyOp25
 70
     1
102
RTVSPropertyOp26
 70
     1
102
RTVSPropertyOp27
 70
     1
102
RTVSPropertyOp28
 70
     1
102
RTVSPropertyOp29
 70
     1
102
RTVSPropertyOp30
 70
     1
102
RTVSPropertyOp31
 70
     1
102
RTVSPropertyOp32
 70
     1
  0
XRECORD
  5
6D4
102
{ACAD_REACTORS
330
6D3
102
}
330
6D3
100
AcDbXrecord
280
     1
102
RTVSPropertyOp0
 70
     1
102
RTVSPropertyOp1
 70
     1
102
RTVSPropertyOp2
 70
     1
102
RTVSPropertyOp3
 70
     1
102
RTVSPropertyOp4
 70
     1
102
RTVSPropertyOp5
 70
     1
102
RTVSPropertyOp6
 70
     1
102
RTVSPropertyOp7
 70
     1
102
RTVSPropertyOp8
 70
     1
102
RTVSPropertyOp9
 70
     1
102
RTVSPropertyOp10
 70
     1
102
RTVSPropertyOp11
 70
     1
102
RTVSPropertyOp12
 70
     1
102
RTVSPropertyOp13
 70
     1
102
RTVSPropertyOp14
 70
     1
102
RTVSPropertyOp15
 70
     1
102
RTVSPropertyOp16
 70
     1
102
RTVSPropertyOp17
 70
     1
102
RTVSPropertyOp18
 70
     1
102
RTVSPropertyOp19
 70
     1
102
RTVSPropertyOp20
 70
     1
102
RTVSPropertyOp21
 70
     1
102
RTVSPropertyOp22
 70
     1
102
RTVSPropertyOp23
 70
     1
102
RTVSPropertyOp24
 70
     1
102
RTVSPropertyOp25
 70
     1
102
RTVSPropertyOp26
 70
     1
102
RTVSPropertyOp27
 70
     1
102
RTVSPropertyOp28
 70
     1
102
RTVSPropertyOp29
 70
     1
102
RTVSPropertyOp30
 70
     1
102
RTVSPropertyOp31
 70
     1
102
RTVSPropertyOp32
 70
     1
  0
ENDSEC
  0
EOF
