  0
SECTION
  2
HEADER
  9
$ACADVER
  1
AC1015
  9
$ACADMAINTVER
 70
    20
  9
$DWGCODEPAGE
  3
ANSI_932
  9
$INSBASE
 10
0.0
 20
0.0
 30
0.0
  9
$EXTMIN
 10
-7.234054322319934
 20
-439.3646717194997
 30
0.0
  9
$EXTMAX
 10
373.6166278059192
 20
-169.3646717194997
 30
0.0
  9
$LIMMIN
 10
0.0
 20
0.0
  9
$LIMMAX
 10
0.0
 20
0.0
  9
$ORTHOMODE
 70
     0
  9
$REGENMODE
 70
     1
  9
$FILLMODE
 70
     1
  9
$QTEXTMODE
 70
     0
  9
$MIRRTEXT
 70
     1
  9
$LTSCALE
 40
1.0
  9
$ATTMODE
 70
     1
  9
$TEXTSIZE
 40
0.0
  9
$TRACEWID
 40
0.05
  9
$TEXTSTYLE
  7
STANDARD
  9
$CLAYER
  8
0
  9
$CELTYPE
  6
CONTINUOUS
  9
$CECOLOR
 62
   256
  9
$CELTSCALE
 40
1.0
  9
$DISPSILH
 70
     0
  9
$DIMSCALE
 40
1.0
  9
$DIMASZ
 40
0.18
  9
$DIMEXO
 40
0.0625
  9
$DIMDLI
 40
0.38
  9
$DIMRND
 40
0.0
  9
$DIMDLE
 40
0.0
  9
$DIMEXE
 40
0.18
  9
$DIMTP
 40
0.0
  9
$DIMTM
 40
0.0
  9
$DIMTXT
 40
0.18
  9
$DIMCEN
 40
0.09
  9
$DIMTSZ
 40
0.0
  9
$DIMTOL
 70
     0
  9
$DIMLIM
 70
     0
  9
$DIMTIH
 70
     1
  9
$DIMTOH
 70
     1
  9
$DIMSE1
 70
     0
  9
$DIMSE2
 70
     0
  9
$DIMTAD
 70
     0
  9
$DIMZIN
 70
     0
  9
$DIMBLK
  1

  9
$DIMASO
 70
     1
  9
$DIMSHO
 70
     1
  9
$DIMPOST
  1

  9
$DIMAPOST
  1

  9
$DIMALT
 70
     0
  9
$DIMALTD
 70
     2
  9
$DIMALTF
 40
25.4
  9
$DIMLFAC
 40
1.0
  9
$DIMTOFL
 70
     0
  9
$DIMTVP
 40
0.0
  9
$DIMTIX
 70
     0
  9
$DIMSOXD
 70
     0
  9
$DIMSAH
 70
     0
  9
$DIMBLK1
  1

  9
$DIMBLK2
  1

  9
$DIMSTYLE
  2
STANDARD
  9
$DIMCLRD
 70
     0
  9
$DIMCLRE
 70
     0
  9
$DIMCLRT
 70
     0
  9
$DIMTFAC
 40
1.0
  9
$DIMGAP
 40
0.09
  9
$DIMJUST
 70
     0
  9
$DIMSD1
 70
     0
  9
$DIMSD2
 70
     0
  9
$DIMTOLJ
 70
     1
  9
$DIMTZIN
 70
     0
  9
$DIMALTZ
 70
     0
  9
$DIMALTTZ
 70
     0
  9
$DIMUPT
 70
     0
  9
$DIMDEC
 70
     4
  9
$DIMTDEC
 70
     4
  9
$DIMALTU
 70
     2
  9
$DIMALTTD
 70
     2
  9
$DIMTXSTY
  7
STANDARD
  9
$DIMAUNIT
 70
     0
  9
$DIMADEC
 70
     0
  9
$DIMALTRND
 40
0.0
  9
$DIMAZIN
 70
     0
  9
$DIMDSEP
 70
    46
  9
$DIMATFIT
 70
     3
  9
$DIMFRAC
 70
     0
  9
$DIMLDRBLK
  1

  9
$DIMLUNIT
 70
     2
  9
$DIMLWD
 70
    -2
  9
$DIMLWE
 70
    -2
  9
$DIMTMOVE
 70
     0
  9
$LUNITS
 70
     2
  9
$LUPREC
 70
     4
  9
$SKETCHINC
 40
0.1
  9
$FILLETRAD
 40
0.0
  9
$AUNITS
 70
     0
  9
$AUPREC
 70
     0
  9
$MENU
  1
acad
  9
$ELEVATION
 40
0.0
  9
$PELEVATION
 40
0.0
  9
$THICKNESS
 40
0.0
  9
$LIMCHECK
 70
     0
  9
$CHAMFERA
 40
0.0
  9
$CHAMFERB
 40
0.0
  9
$CHAMFERC
 40
0.0
  9
$CHAMFERD
 40
0.0
  9
$SKPOLY
 70
     0
  9
$TDCREATE
 40
12367012.42918532
  9
$TDUCREATE
 40
6.0000000000
  9
$TDUPDATE
 40
2457585.388600370
  9
$TDUUPDATE
 40
2457585.013600370
  9
$TDINDWG
 40
0.0024292130
  9
$TDUSRTIMER
 40
0.0024288542
  9
$USRTIMER
 70
     1
  9
$ANGBASE
 50
0.0
  9
$ANGDIR
 70
     0
  9
$PDMODE
 70
     0
  9
$PDSIZE
 40
0.0
  9
$PLINEWID
 40
0.0
  9
$SPLFRAME
 70
     0
  9
$SPLINETYPE
 70
     6
  9
$SPLINESEGS
 70
     8
  9
$HANDSEED
  5
78E
  9
$SURFTAB1
 70
     6
  9
$SURFTAB2
 70
     6
  9
$SURFTYPE
 70
     6
  9
$SURFU
 70
     6
  9
$SURFV
 70
     6
  9
$UCSBASE
  2

  9
$UCSNAME
  2

  9
$UCSORG
 10
0.0
 20
0.0
 30
0.0
  9
$UCSXDIR
 10
1.0
 20
0.0
 30
0.0
  9
$UCSYDIR
 10
0.0
 20
1.0
 30
0.0
  9
$UCSORTHOREF
  2

  9
$UCSORTHOVIEW
 70
     0
  9
$UCSORGTOP
 10
0.0
 20
0.0
 30
0.0
  9
$UCSORGBOTTOM
 10
0.0
 20
0.0
 30
0.0
  9
$UCSORGLEFT
 10
0.0
 20
0.0
 30
0.0
  9
$UCSORGRIGHT
 10
0.0
 20
0.0
 30
0.0
  9
$UCSORGFRONT
 10
0.0
 20
0.0
 30
0.0
  9
$UCSORGBACK
 10
0.0
 20
0.0
 30
0.0
  9
$PUCSBASE
  2

  9
$PUCSNAME
  2

  9
$PUCSORG
 10
0.0
 20
0.0
 30
0.0
  9
$PUCSXDIR
 10
1.0
 20
0.0
 30
0.0
  9
$PUCSYDIR
 10
0.0
 20
1.0
 30
0.0
  9
$PUCSORTHOREF
  2

  9
$PUCSORTHOVIEW
 70
     0
  9
$PUCSORGTOP
 10
0.0
 20
0.0
 30
0.0
  9
$PUCSORGBOTTOM
 10
0.0
 20
0.0
 30
0.0
  9
$PUCSORGLEFT
 10
0.0
 20
0.0
 30
0.0
  9
$PUCSORGRIGHT
 10
0.0
 20
0.0
 30
0.0
  9
$PUCSORGFRONT
 10
0.0
 20
0.0
 30
0.0
  9
$PUCSORGBACK
 10
0.0
 20
0.0
 30
0.0
  9
$USERI1
 70
     0
  9
$USERI2
 70
     0
  9
$USERI3
 70
     0
  9
$USERI4
 70
     0
  9
$USERI5
 70
     0
  9
$USERR1
 40
12.01
  9
$USERR2
 40
0.0
  9
$USERR3
 40
0.0
  9
$USERR4
 40
0.0
  9
$USERR5
 40
0.0
  9
$WORLDVIEW
 70
     1
  9
$SHADEDGE
 70
     3
  9
$SHADEDIF
 70
    70
  9
$TILEMODE
 70
     1
  9
$MAXACTVP
 70
    16
  9
$PINSBASE
 10
0.0
 20
0.0
 30
0.0
  9
$PLIMCHECK
 70
     0
  9
$PEXTMIN
 10
1.000000000000000E+20
 20
1.000000000000000E+20
 30
1.000000000000000E+20
  9
$PEXTMAX
 10
-1.000000000000000E+20
 20
-1.000000000000000E+20
 30
-1.000000000000000E+20
  9
$PLIMMIN
 10
0.0
 20
0.0
  9
$PLIMMAX
 10
12.0
 20
9.0
  9
$UNITMODE
 70
     0
  9
$VISRETAIN
 70
     0
  9
$PLINEGEN
 70
     1
  9
$PSLTSCALE
 70
     0
  9
$TREEDEPTH
 70
  3020
  9
$CMLSTYLE
  2
STANDARD
  9
$CMLJUST
 70
     0
  9
$CMLSCALE
 40
1.0
  9
$PROXYGRAPHICS
 70
     0
  9
$MEASUREMENT
 70
     1
  9
$CELWEIGHT
370
    -1
  9
$ENDCAPS
280
     0
  9
$JOINSTYLE
280
     0
  9
$LWDISPLAY
290
     0
  9
$INSUNITS
 70
     0
  9
$HYPERLINKBASE
  1

  9
$STYLESHEET
  1

  9
$XEDIT
290
     1
  9
$CEPSNTYPE
380
     0
  9
$PSTYLEMODE
290
     1
  9
$FINGERPRINTGUID
  2
{C4C12B8C-7520-48E7-B266-53F9D7A17A2D}
  9
$VERSIONGUID
  2
{569FB340-0F24-4573-91C4-E1F3ABFF414A}
  9
$EXTNAMES
290
     1
  9
$PSVPSCALE
 40
0.0
  9
$OLESTARTUP
290
     0
  0
ENDSEC
  0
SECTION
  2
CLASSES
  0
CLASS
  1
IMAGE
  2
AcDbRasterImage
  3
ISM
 90
    34943
280
     0
281
     1
  0
CLASS
  1
DICTIONARYVAR
  2
AcDbDictionaryVar
  3
ObjectDBX Classes
 90
        0
280
     0
281
     0
  0
CLASS
  1
RASTERVARIABLES
  2
AcDbRasterVariables
  3
ISM
 90
    32768
280
     0
281
     0
  0
CLASS
  1
IMAGEDEF
  2
AcDbRasterImageDef
  3
ISM
 90
    32768
280
     0
281
     0
  0
CLASS
  1
IMAGEDEF_REACTOR
  2
AcDbRasterImageDefReactor
  3
ISM
 90
    32769
280
     0
281
     0
  0
CLASS
  1
IDBUFFER
  2
AcDbIdBuffer
  3
ObjectDBX Classes
 90
    32768
280
     0
281
     0
  0
CLASS
  1
SPATIAL_FILTER
  2
AcDbSpatialFilter
  3
ObjectDBX Classes
 90
    32768
280
     0
281
     0
  0
CLASS
  1
SORTENTSTABLE
  2
AcDbSortentsTable
  3
ObjectDBX Classes
 90
        0
280
     0
281
     0
  0
CLASS
  1
LAYER_INDEX
  2
AcDbLayerIndex
  3
ObjectDBX Classes
 90
    32768
280
     0
281
     0
  0
CLASS
  1
SPATIAL_INDEX
  2
AcDbSpatialIndex
  3
ObjectDBX Classes
 90
    32768
280
     0
281
     0
  0
CLASS
  1
OBJECT_PTR
  2
CAseDLPNTableRecord
  3
ASE-LPNTableRecord
 90
    32769
280
     0
281
     0
  0
CLASS
  1
LAYOUT
  2
AcDbLayout
  3
ObjectDBX Classes
 90
        0
280
     0
281
     0
  0
CLASS
  1
PLOTSETTINGS
  2
AcDbPlotSettings
  3
ObjectDBX Classes
 90
    32768
280
     0
281
     0
  0
CLASS
  1
ACDBDICTIONARYWDFLT
  2
AcDbDictionaryWithDefault
  3
ObjectDBX Classes
 90
        0
280
     0
281
     0
  0
CLASS
  1
ACDBPLACEHOLDER
  2
AcDbPlaceHolder
  3
ObjectDBX Classes
 90
        0
280
     0
281
     0
  0
CLASS
  1
MATERIAL
  2
AcDbMaterial
  3
ObjectDBX Classes
 90
     1153
280
     0
281
     0
  0
CLASS
  1
VISUALSTYLE
  2
AcDbVisualStyle
  3
ObjectDBX Classes
 90
     4095
280
     0
281
     0
  0
CLASS
  1
TABLESTYLE
  2
AcDbTableStyle
  3
ObjectDBX Classes
 90
     4095
280
     0
281
     0
  0
CLASS
  1
SCALE
  2
AcDbScale
  3
ObjectDBX Classes
 90
     1153
280
     0
281
     0
  0
CLASS
  1
MLEADERSTYLE
  2
AcDbMLeaderStyle
  3
ACDB_MLEADERSTYLE_CLASS
 90
     4095
280
     0
281
     0
  0
CLASS
  1
CELLSTYLEMAP
  2
AcDbCellStyleMap
  3
ObjectDBX Classes
 90
     1152
280
     0
281
     0
  0
ENDSEC
  0
SECTION
  2
TABLES
  0
TABLE
  2
VPORT
  5
7
330
0
100
AcDbSymbolTable
 70
     1
  0
VPORT
  5
15
330
7
100
AcDbSymbolTableRecord
100
AcDbViewportTableRecord
  2
*ACTIVE
 70
     0
 10
0.0
 20
0.0
 11
1.0
 21
1.0
 12
139.2623930402699
 22
-309.4258698877851
 13
0.0
 23
0.0
 14
1.0
 24
1.0
 15
0.0
 25
0.0
 16
0.0
 26
0.0
 36
1.0
 17
0.0
 27
0.0
 37
0.0
 40
109.1978045563583
 41
2.023923444976076
 42
50.0
 43
0.0
 44
0.0
 50
0.0
 51
0.0
 71
     0
 72
   100
 73
     1
 74
     1
 75
     0
 76
     0
 77
     0
 78
     0
281
     0
 65
     1
110
0.0
120
0.0
130
0.0
111
1.0
121
0.0
131
0.0
112
0.0
122
1.0
132
0.0
 79
     0
146
0.0
1001
ACAD_NAV_VCDISPLAY
1070
     3
  0
ENDTAB
  0
TABLE
  2
LTYPE
  5
4
330
0
100
AcDbSymbolTable
 70
     9
  0
LTYPE
  5
11
330
4
100
AcDbSymbolTableRecord
100
AcDbLinetypeTableRecord
  2
BYBLOCK
 70
     0
  3

 72
    65
 73
     0
 40
0.0
  0
LTYPE
  5
12
330
4
100
AcDbSymbolTableRecord
100
AcDbLinetypeTableRecord
  2
BYLAYER
 70
     0
  3

 72
    65
 73
     0
 40
0.0
  0
LTYPE
  5
13
330
4
100
AcDbSymbolTableRecord
100
AcDbLinetypeTableRecord
  2
CONTINUOUS
 70
     0
  3
Solid line
 72
    65
 73
     0
 40
0.0
  0
LTYPE
  5
1D
330
4
100
AcDbSymbolTableRecord
100
AcDbLinetypeTableRecord
  2
DASHED
 70
     0
  3
Dashed
 72
    65
 73
     2
 40
15.0
 49
7.0
 74
     0
 49
-8.0
 74
     0
  0
LTYPE
  5
1E
330
4
100
AcDbSymbolTableRecord
100
AcDbLinetypeTableRecord
  2
DOTTED
 70
     0
  3
Dotted
 72
    65
 73
     2
 40
1.0
 49
0.0
 74
     0
 49
-1.0
 74
     0
  0
LTYPE
  5
1F
330
4
100
AcDbSymbolTableRecord
100
AcDbLinetypeTableRecord
  2
DOT_CENTER
 70
     0
  3
Dot_Center
 72
    65
 73
     4
 40
14.0
 49
12.0
 74
     0
 49
-1.0
 74
     0
 49
0.0
 74
     0
 49
-1.0
 74
     0
  0
LTYPE
  5
20
330
4
100
AcDbSymbolTableRecord
100
AcDbLinetypeTableRecord
  2
LONG_DASHED
 70
     0
  3
Long_Dashed
 72
    65
 73
     2
 40
15.0
 49
10.0
 74
     0
 49
-5.0
 74
     0
  0
LTYPE
  5
21
330
4
100
AcDbSymbolTableRecord
100
AcDbLinetypeTableRecord
  2
DASH_CENTER
 70
     0
  3
Dash_Center
 72
    65
 73
     4
 40
14.0
 49
11.0
 74
     0
 49
-1.0
 74
     0
 49
1.0
 74
     0
 49
-1.0
 74
     0
  0
LTYPE
  5
22
330
4
100
AcDbSymbolTableRecord
100
AcDbLinetypeTableRecord
  2
PHANTOM
 70
     0
  3
Phantom
 72
    65
 73
     6
 40
13.0
 49
10.0
 74
     0
 49
-1.0
 74
     0
 49
0.0
 74
     0
 49
-1.0
 74
     0
 49
0.0
 74
     0
 49
-1.0
 74
     0
  0
LTYPE
  5
23
330
4
100
AcDbSymbolTableRecord
100
AcDbLinetypeTableRecord
  2
CENTER_DASH_DASH
 70
     0
  3
Center_Dash_Dash
 72
    65
 73
     6
 40
14.0
 49
9.0
 74
     0
 49
-1.0
 74
     0
 49
1.0
 74
     0
 49
-1.0
 74
     0
 49
1.0
 74
     0
 49
-1.0
 74
     0
  0
ENDTAB
  0
TABLE
  2
LAYER
  5
2
330
0
100
AcDbSymbolTable
 70
     2
  0
LAYER
  5
14
102
{ACAD_XDICTIONARY
360
704
102
}
330
2
100
AcDbSymbolTableRecord
100
AcDbLayerTableRecord
  2
0
 70
     0
 62
     7
  6
CONTINUOUS
370
    -3
390
46E
  0
LAYER
  5
24
102
{ACAD_XDICTIONARY
360
706
102
}
330
2
100
AcDbSymbolTableRecord
100
AcDbLayerTableRecord
  2
1
 70
     0
 62
     7
  6
CONTINUOUS
370
    -3
390
46E
  0
ENDTAB
  0
TABLE
  2
STYLE
  5
3
330
0
100
AcDbSymbolTable
 70
     6
  0
STYLE
  5
17
330
3
100
AcDbSymbolTableRecord
100
AcDbTextStyleTableRecord
  2
STANDARD
 70
     0
 40
0.0
 41
1.0
 50
0.0
 71
     0
 42
0.0
  3
txt
  4

  0
STYLE
  5
19C
330
3
100
AcDbSymbolTableRecord
100
AcDbTextStyleTableRecord
  2
CONVERTER_1
 70
     0
 40
0.0
 41
0.9
 50
0.0
 71
     0
 42
0.0
  3
txt.shx
  4

  0
STYLE
  5
1B0
330
3
100
AcDbSymbolTableRecord
100
AcDbTextStyleTableRecord
  2
CONVERTER_2
 70
     0
 40
0.0
 41
0.76
 50
0.0
 71
     0
 42
0.0
  3
complex.shx
  4

  0
STYLE
  5
1B3
330
3
100
AcDbSymbolTableRecord
100
AcDbTextStyleTableRecord
  2
CONVERTER_3
 70
     0
 40
0.0
 41
0.63
 50
0.0
 71
     0
 42
0.0
  3
txt.shx
  4

  0
STYLE
  5
1C5
330
3
100
AcDbSymbolTableRecord
100
AcDbTextStyleTableRecord
  2
CONVERTER_4
 70
     0
 40
0.0
 41
0.5400000000000001
 50
0.0
 71
     0
 42
0.0
  3
txt.shx
  4

  0
STYLE
  5
362
330
3
100
AcDbSymbolTableRecord
100
AcDbTextStyleTableRecord
  2
CONVERTER_5
 70
     0
 40
0.0
 41
0.6650000000000001
 50
0.0
 71
     0
 42
0.0
  3
simplex.shx
  4

  0
ENDTAB
  0
TABLE
  2
VIEW
  5
5
330
0
100
AcDbSymbolTable
 70
     0
  0
ENDTAB
  0
TABLE
  2
UCS
  5
6
330
0
100
AcDbSymbolTable
 70
     0
  0
ENDTAB
  0
TABLE
  2
APPID
  5
8
330
0
100
AcDbSymbolTable
 70
     5
  0
APPID
  5
16
330
8
100
AcDbSymbolTableRecord
100
AcDbRegAppTableRecord
  2
ACAD
 70
     0
  0
APPID
  5
6FD
330
8
100
AcDbSymbolTableRecord
100
AcDbRegAppTableRecord
  2
ACAD_EXEMPT_FROM_CAD_STANDARDS
 70
     0
  0
APPID
  5
70A
330
8
100
AcDbSymbolTableRecord
100
AcDbRegAppTableRecord
  2
DCO15
 70
     0
  0
APPID
  5
714
330
8
100
AcDbSymbolTableRecord
100
AcDbRegAppTableRecord
  2
ACAD_NAV_VCDISPLAY
 70
     0
  0
APPID
  5
789
330
8
100
AcDbSymbolTableRecord
100
AcDbRegAppTableRecord
  2
ACAD_MLEADERVER
 70
     0
  0
ENDTAB
  0
TABLE
  2
DIMSTYLE
  5
9
330
0
100
AcDbSymbolTable
 70
    21
100
AcDbDimStyleTable
 71
     1
340
18
  0
DIMSTYLE
105
18
330
9
100
AcDbSymbolTableRecord
100
AcDbDimStyleTableRecord
  2
STANDARD
 70
     0
340
17
  0
DIMSTYLE
105
36B
330
9
100
AcDbSymbolTableRecord
100
AcDbDimStyleTableRecord
  2
ME10_DIM_0
 70
     0
 41
2.45
 42
1.0
 44
1.0
 73
     0
 74
     0
 77
     1
 78
     8
140
3.5
147
0.625
172
     1
173
     1
176
     2
177
     2
178
     3
271
     2
340
362
341
365
343
365
344
365
  0
DIMSTYLE
105
378
330
9
100
AcDbSymbolTableRecord
100
AcDbDimStyleTableRecord
  2
ME10_DIM_1
 70
     0
 41
2.45
 42
1.0
 44
1.0
 73
     0
 74
     0
 77
     1
 78
     8
140
3.5
147
0.625
172
     1
173
     1
176
     2
177
     2
178
     3
271
     2
340
362
341
365
343
365
344
365
  0
DIMSTYLE
105
385
330
9
100
AcDbSymbolTableRecord
100
AcDbDimStyleTableRecord
  2
ME10_DIM_2
 70
     0
 41
2.45
 42
1.0
 44
1.0
 73
     0
 74
     0
 77
     1
 78
     8
140
3.5
147
0.625
172
     1
173
     1
176
     2
177
     2
178
     3
271
     2
340
362
341
365
343
365
344
365
  0
DIMSTYLE
105
392
330
9
100
AcDbSymbolTableRecord
100
AcDbDimStyleTableRecord
  2
ME10_DIM_3
 70
     0
 41
2.45
 42
1.0
 44
1.0
 73
     0
 74
     0
 77
     1
 78
     8
140
3.5
147
0.625
172
     1
173
     1
176
     2
177
     2
178
     3
271
     2
340
362
341
365
343
365
344
365
  0
DIMSTYLE
105
39F
330
9
100
AcDbSymbolTableRecord
100
AcDbDimStyleTableRecord
  2
ME10_DIM_4
 70
     0
 41
2.45
 42
1.0
 44
1.0
 73
     0
 74
     0
 77
     1
 78
     8
140
3.5
147
0.625
172
     1
173
     1
176
     2
177
     2
178
     3
271
     2
340
362
341
365
343
365
344
365
  0
DIMSTYLE
105
3AC
330
9
100
AcDbSymbolTableRecord
100
AcDbDimStyleTableRecord
  2
ME10_DIM_5
 70
     0
 41
2.45
 42
1.0
 44
1.0
 73
     0
 74
     0
 77
     1
 78
     8
140
3.5
147
0.625
172
     1
173
     1
176
     2
177
     2
178
     3
271
     2
340
362
341
365
343
365
344
365
  0
DIMSTYLE
105
3B9
330
9
100
AcDbSymbolTableRecord
100
AcDbDimStyleTableRecord
  2
ME10_DIM_6
 70
     0
 41
2.45
 42
1.0
 44
1.0
 73
     0
 74
     0
 77
     1
 78
     8
140
3.5
147
0.625
172
     1
173
     1
176
     2
177
     2
178
     3
271
     2
340
362
341
365
343
365
344
365
  0
DIMSTYLE
105
3C6
330
9
100
AcDbSymbolTableRecord
100
AcDbDimStyleTableRecord
  2
ME10_DIM_7
 70
     0
 41
2.45
 42
1.0
 44
1.0
 73
     0
 74
     0
 77
     1
 78
     8
140
3.5
147
0.625
172
     1
173
     1
176
     2
177
     2
178
     3
271
     2
340
362
341
365
343
365
344
365
  0
DIMSTYLE
105
3D5
330
9
100
AcDbSymbolTableRecord
100
AcDbDimStyleTableRecord
  2
ME10_DIM_8
 70
     0
 41
2.45
 42
1.0
 44
1.0
 73
     0
 74
     0
 77
     1
 78
     8
140
3.5
147
0.625
172
     1
173
     1
176
     2
177
     2
178
     3
271
     2
340
362
341
365
343
365
344
365
  0
DIMSTYLE
105
3E4
330
9
100
AcDbSymbolTableRecord
100
AcDbDimStyleTableRecord
  2
ME10_DIM_9
 70
     0
 41
2.45
 42
1.0
 44
1.0
 73
     0
 74
     0
 77
     1
 78
     8
140
3.5
147
0.625
172
     1
173
     1
176
     2
177
     2
178
     3
271
     2
340
362
341
365
343
365
344
365
  0
DIMSTYLE
105
3F1
330
9
100
AcDbSymbolTableRecord
100
AcDbDimStyleTableRecord
  2
ME10_DIM_10
 70
     0
 41
2.45
 42
1.0
 44
1.0
 73
     0
 74
     0
 77
     1
 78
     8
140
3.5
147
0.625
172
     1
173
     1
176
     2
177
     2
178
     3
271
     2
340
362
341
365
343
365
344
365
  0
DIMSTYLE
105
3FE
330
9
100
AcDbSymbolTableRecord
100
AcDbDimStyleTableRecord
  2
ME10_DIM_11
 70
     0
 41
2.45
 42
1.0
 44
1.0
 73
     0
 74
     0
 77
     1
 78
     8
140
3.5
147
0.625
172
     1
173
     1
176
     2
177
     2
178
     3
271
     2
340
362
341
365
343
365
344
365
  0
DIMSTYLE
105
40D
330
9
100
AcDbSymbolTableRecord
100
AcDbDimStyleTableRecord
  2
ME10_DIM_12
 70
     0
 41
2.45
 42
1.0
 44
1.0
 73
     0
 74
     0
 77
     1
 78
     8
140
3.5
147
0.625
172
     1
173
     1
176
     2
177
     2
178
     3
271
     2
340
362
341
365
343
365
344
365
  0
DIMSTYLE
105
41A
330
9
100
AcDbSymbolTableRecord
100
AcDbDimStyleTableRecord
  2
ME10_DIM_13
 70
     0
 41
2.45
 42
1.0
 44
1.0
 73
     0
 74
     0
 77
     1
 78
     8
140
3.5
147
0.625
172
     1
173
     1
176
     2
177
     2
178
     3
271
     2
340
362
341
365
343
365
344
365
  0
DIMSTYLE
105
427
330
9
100
AcDbSymbolTableRecord
100
AcDbDimStyleTableRecord
  2
ME10_DIM_14
 70
     0
 41
2.45
 42
1.0
 44
1.0
 73
     0
 74
     0
 77
     1
 78
     8
140
3.5
147
0.625
172
     1
173
     1
176
     2
177
     2
178
     3
271
     2
340
362
341
365
343
365
344
365
  0
DIMSTYLE
105
434
330
9
100
AcDbSymbolTableRecord
100
AcDbDimStyleTableRecord
  2
ME10_DIM_15
 70
     0
 41
2.45
 42
1.0
 44
1.0
 73
     0
 74
     0
 77
     1
 78
     8
140
3.5
147
0.625
172
     1
173
     1
176
     2
177
     2
178
     3
271
     2
340
362
341
365
343
365
344
365
  0
DIMSTYLE
105
443
330
9
100
AcDbSymbolTableRecord
100
AcDbDimStyleTableRecord
  2
ME10_DIM_16
 70
     0
 41
2.45
 42
1.0
 44
1.0
 73
     0
 74
     0
 77
     1
 78
     8
140
3.5
147
0.625
172
     1
173
     1
176
     2
177
     2
178
     3
271
     2
340
362
341
365
343
365
344
365
  0
DIMSTYLE
105
452
330
9
100
AcDbSymbolTableRecord
100
AcDbDimStyleTableRecord
  2
ME10_DIM_17
 70
     0
 41
2.45
 42
1.0
 44
1.0
 73
     0
 74
     0
 77
     1
 78
     8
140
3.5
147
0.625
172
     1
173
     1
176
     2
177
     2
178
     3
271
     2
340
362
341
365
343
365
344
365
  0
DIMSTYLE
105
45F
330
9
100
AcDbSymbolTableRecord
100
AcDbDimStyleTableRecord
  2
ME10_DIM_18
 70
     0
 41
2.45
 42
1.0
 44
1.0
 73
     0
 74
     0
 77
     1
 78
     8
140
3.5
147
0.625
172
     1
173
     1
176
     2
177
     2
178
     3
271
     2
340
362
341
365
343
365
344
365
  0
ENDTAB
  0
TABLE
  2
BLOCK_RECORD
  5
1
330
0
100
AcDbSymbolTable
 70
    29
  0
BLOCK_RECORD
  5
A
102
{ACAD_XDICTIONARY
360
548
102
}
330
1
100
AcDbSymbolTableRecord
100
AcDbBlockTableRecord
  2
*MODEL_SPACE
340
4BA
  0
BLOCK_RECORD
  5
B
330
1
100
AcDbSymbolTableRecord
100
AcDbBlockTableRecord
  2
*PAPER_SPACE
340
4BB
  0
BLOCK_RECORD
  5
25
330
1
100
AcDbSymbolTableRecord
100
AcDbBlockTableRecord
  2
_3
340
0
  0
BLOCK_RECORD
  5
27
330
1
100
AcDbSymbolTableRecord
100
AcDbBlockTableRecord
  2
______
340
0
102
{BLKREFS
331
2B
102
}
  0
BLOCK_RECORD
  5
29
330
1
100
AcDbSymbolTableRecord
100
AcDbBlockTableRecord
  2
FORMAT_A3
340
0
102
{BLKREFS
331
2E
102
}
  0
BLOCK_RECORD
  5
2C
330
1
100
AcDbSymbolTableRecord
100
AcDbBlockTableRecord
  2
TOP__1
340
0
  0
BLOCK_RECORD
  5
2F
330
1
100
AcDbSymbolTableRecord
100
AcDbBlockTableRecord
  2
_2
340
0
  0
BLOCK_RECORD
  5
31
330
1
100
AcDbSymbolTableRecord
100
AcDbBlockTableRecord
  2
_1
340
0
  0
BLOCK_RECORD
  5
33
330
1
100
AcDbSymbolTableRecord
100
AcDbBlockTableRecord
  2
_4
340
0
  0
BLOCK_RECORD
  5
359
330
1
100
AcDbSymbolTableRecord
100
AcDbBlockTableRecord
  2
*D7
340
0
  0
BLOCK_RECORD
  5
365
330
1
100
AcDbSymbolTableRecord
100
AcDbBlockTableRecord
  2
_OPEN30
340
0
  0
BLOCK_RECORD
  5
36D
330
1
100
AcDbSymbolTableRecord
100
AcDbBlockTableRecord
  2
*D9
340
0
  0
BLOCK_RECORD
  5
37A
330
1
100
AcDbSymbolTableRecord
100
AcDbBlockTableRecord
  2
*D10
340
0
  0
BLOCK_RECORD
  5
387
330
1
100
AcDbSymbolTableRecord
100
AcDbBlockTableRecord
  2
*D11
340
0
  0
BLOCK_RECORD
  5
394
330
1
100
AcDbSymbolTableRecord
100
AcDbBlockTableRecord
  2
*D12
340
0
  0
BLOCK_RECORD
  5
3A1
330
1
100
AcDbSymbolTableRecord
100
AcDbBlockTableRecord
  2
*D13
340
0
  0
BLOCK_RECORD
  5
3AE
330
1
100
AcDbSymbolTableRecord
100
AcDbBlockTableRecord
  2
*D14
340
0
  0
BLOCK_RECORD
  5
3BB
330
1
100
AcDbSymbolTableRecord
100
AcDbBlockTableRecord
  2
*D15
340
0
  0
BLOCK_RECORD
  5
3C8
330
1
100
AcDbSymbolTableRecord
100
AcDbBlockTableRecord
  2
*D16
340
0
  0
BLOCK_RECORD
  5
3D7
330
1
100
AcDbSymbolTableRecord
100
AcDbBlockTableRecord
  2
*D17
340
0
  0
BLOCK_RECORD
  5
3E6
330
1
100
AcDbSymbolTableRecord
100
AcDbBlockTableRecord
  2
*D18
340
0
  0
BLOCK_RECORD
  5
3F3
330
1
100
AcDbSymbolTableRecord
100
AcDbBlockTableRecord
  2
*D19
340
0
  0
BLOCK_RECORD
  5
400
330
1
100
AcDbSymbolTableRecord
100
AcDbBlockTableRecord
  2
*D20
340
0
  0
BLOCK_RECORD
  5
40F
330
1
100
AcDbSymbolTableRecord
100
AcDbBlockTableRecord
  2
*D21
340
0
  0
BLOCK_RECORD
  5
41C
330
1
100
AcDbSymbolTableRecord
100
AcDbBlockTableRecord
  2
*D22
340
0
  0
BLOCK_RECORD
  5
429
330
1
100
AcDbSymbolTableRecord
100
AcDbBlockTableRecord
  2
*D23
340
0
  0
BLOCK_RECORD
  5
436
330
1
100
AcDbSymbolTableRecord
100
AcDbBlockTableRecord
  2
*D24
340
0
  0
BLOCK_RECORD
  5
445
330
1
100
AcDbSymbolTableRecord
100
AcDbBlockTableRecord
  2
*D25
340
0
  0
BLOCK_RECORD
  5
454
330
1
100
AcDbSymbolTableRecord
100
AcDbBlockTableRecord
  2
*D26
340
0
  0
BLOCK_RECORD
  5
461
330
1
100
AcDbSymbolTableRecord
100
AcDbBlockTableRecord
  2
*D27
340
0
  0
ENDTAB
  0
ENDSEC
  0
SECTION
  2
BLOCKS
  0
BLOCK
  5
D
330
A
100
AcDbEntity
  8
0
100
AcDbBlockBegin
  2
*MODEL_SPACE
 70
     0
 10
0.0
 20
0.0
 30
0.0
  3
*MODEL_SPACE
  1

  0
ENDBLK
  5
E
330
A
100
AcDbEntity
  8
0
100
AcDbBlockEnd
  0
BLOCK
  5
F
330
B
100
AcDbEntity
 67
     1
  8
0
100
AcDbBlockBegin
  2
*PAPER_SPACE
 70
     0
 10
0.0
 20
0.0
 30
0.0
  3
*PAPER_SPACE
  1

  0
ENDBLK
  5
10
330
B
100
AcDbEntity
 67
     1
  8
0
100
AcDbBlockEnd
  0
BLOCK
  5
26
330
25
100
AcDbEntity
  8
0
100
AcDbBlockBegin
  2
_3
 70
     0
 10
30.0
 20
-340.0
 30
0.0
  3
_3
  1

  0
ARC
  5
CA
330
25
100
AcDbEntity
  8
1
  6
PHANTOM
 62
    21
100
AcDbCircle
 10
31.5
 20
-311.0
 30
0.0
 40
1.5
100
AcDbArc
 50
90.0
 51
180.0
  0
ARC
  5
C9
330
25
100
AcDbEntity
  8
1
  6
PHANTOM
 62
    21
100
AcDbCircle
 10
33.0
 20
-312.5
 30
0.0
 40
1.5
100
AcDbArc
 50
90.0
 51
180.0
  0
ARC
  5
C8
330
25
100
AcDbEntity
  8
1
  6
PHANTOM
 62
    21
100
AcDbCircle
 10
37.5
 20
-330.0
 30
0.0
 40
1.0
100
AcDbArc
 50
-90.0
 51
0.0
  0
ARC
  5
C7
330
25
100
AcDbEntity
  8
1
  6
PHANTOM
 62
    21
100
AcDbCircle
 10
30.5
 20
-330.5
 30
0.0
 40
0.5
100
AcDbArc
 50
180.0
 51
-90.0
  0
ARC
  5
C6
330
25
100
AcDbEntity
  8
1
  6
PHANTOM
 62
    21
100
AcDbCircle
 10
38.19999999999999
 20
-329.0
 30
0.0
 40
0.30000000000001
100
AcDbArc
 50
0.0
 51
121.8907918018528
  0
ARC
  5
C5
330
25
100
AcDbEntity
  8
1
  6
PHANTOM
 62
    21
100
AcDbCircle
 10
31.80000000000001
 20
-327.5215889859476
 30
0.0
 40
0.30000000000001
100
AcDbArc
 50
180.0
 51
-139.9922460865061
  0
ARC
  5
C4
330
25
100
AcDbEntity
  8
1
  6
PHANTOM
 62
    21
100
AcDbCircle
 10
40.40000000000001
 20
-311.3
 30
0.0
 40
0.30000000000001
100
AcDbArc
 50
90.0
 51
180.0
  0
ARC
  5
C3
330
25
100
AcDbEntity
  8
1
  6
PHANTOM
 62
    21
100
AcDbCircle
 10
37.90000000000001
 20
-312.0
 30
0.0
 40
1.0
100
AcDbArc
 50
0.0
 51
90.0
  0
ARC
  5
C2
330
25
100
AcDbEntity
  8
1
  6
PHANTOM
 62
    21
100
AcDbCircle
 10
39.20000000000003
 20
-312.7
 30
0.0
 40
0.3
100
AcDbArc
 50
180.0
 51
-90.0
  0
ARC
  5
C1
330
25
100
AcDbEntity
  8
1
  6
PHANTOM
 62
    21
100
AcDbCircle
 10
39.79999999999998
 20
-312.7
 30
0.0
 40
0.30000000000001
100
AcDbArc
 50
-90.0
 51
0.0
  0
ARC
  5
C0
330
25
100
AcDbEntity
  8
1
  6
PHANTOM
 62
    21
100
AcDbCircle
 10
56.50000000000006
 20
-311.0
 30
0.0
 40
1.5
100
AcDbArc
 50
0.0
 51
90.0
  0
ARC
  5
BF
330
25
100
AcDbEntity
  8
1
  6
PHANTOM
 62
    21
100
AcDbCircle
 10
55.00000000000007
 20
-312.5
 30
0.0
 40
1.5
100
AcDbArc
 50
0.0
 51
90.0
  0
ARC
  5
BE
330
25
100
AcDbEntity
  8
1
  6
PHANTOM
 62
    21
100
AcDbCircle
 10
50.50000000000006
 20
-330.0
 30
0.0
 40
1.0
100
AcDbArc
 50
180.0
 51
-90.0
  0
ARC
  5
BD
330
25
100
AcDbEntity
  8
1
  6
PHANTOM
 62
    21
100
AcDbCircle
 10
57.50000000000007
 20
-330.5
 30
0.0
 40
0.5
100
AcDbArc
 50
-90.0
 51
0.0
  0
ARC
  5
BC
330
25
100
AcDbEntity
  8
1
  6
PHANTOM
 62
    21
100
AcDbCircle
 10
49.80000000000007
 20
-329.0
 30
0.0
 40
0.29999999999993
100
AcDbArc
 50
58.10920819814605
 51
180.0
  0
ARC
  5
BB
330
25
100
AcDbEntity
  8
1
  6
PHANTOM
 62
    21
100
AcDbCircle
 10
56.20000000000004
 20
-327.5215889859476
 30
0.0
 40
0.30000000000004
100
AcDbArc
 50
-40.00775391349464
 51
0.0
  0
ARC
  5
BA
330
25
100
AcDbEntity
  8
1
  6
PHANTOM
 62
    21
100
AcDbCircle
 10
47.60000000000005
 20
-311.3
 30
0.0
 40
0.30000000000001
100
AcDbArc
 50
0.0
 51
90.0
  0
ARC
  5
B9
330
25
100
AcDbEntity
  8
1
  6
PHANTOM
 62
    21
100
AcDbCircle
 10
50.10000000000005
 20
-312.0
 30
0.0
 40
1.0
100
AcDbArc
 50
90.0
 51
180.0
  0
ARC
  5
B8
330
25
100
AcDbEntity
  8
1
  6
PHANTOM
 62
    21
100
AcDbCircle
 10
48.80000000000004
 20
-312.7
 30
0.0
 40
0.30000000000001
100
AcDbArc
 50
-90.0
 51
0.0
  0
ARC
  5
B7
330
25
100
AcDbEntity
  8
1
  6
PHANTOM
 62
    21
100
AcDbCircle
 10
48.20000000000007
 20
-312.7
 30
0.0
 40
0.3
100
AcDbArc
 50
180.0
 51
-90.0
  0
ARC
  5
B6
330
25
100
AcDbEntity
  8
1
  6
PHANTOM
 62
    21
100
AcDbCircle
 10
215.8681467152644
 20
-315.7
 30
0.0
 40
0.30000000000001
100
AcDbArc
 50
-90.0
 51
-54.77580501937321
  0
ARC
  5
B5
330
25
100
AcDbEntity
  8
1
  6
PHANTOM
 62
    21
100
AcDbCircle
 10
220.098682856312
 20
-315.0
 30
0.0
 40
0.30000000000001
100
AcDbArc
 50
90.0
 51
180.0
  0
ARC
  5
B4
330
25
100
AcDbEntity
  8
1
  6
PHANTOM
 62
    21
100
AcDbCircle
 10
220.298682856312
 20
-321.3
 30
0.0
 40
0.5
100
AcDbArc
 50
180.0
 51
-90.0
  0
ARC
  5
B3
330
25
100
AcDbEntity
  8
1
  6
PHANTOM
 62
    21
100
AcDbCircle
 10
218.098682856312
 20
-315.4822487097775
 30
0.0
 40
0.5
100
AcDbArc
 50
0.0
 51
107.2154444294833
  0
ARC
  5
B2
330
25
100
AcDbEntity
  8
1
  6
PHANTOM
 62
    21
100
AcDbCircle
 10
220.298682856312
 20
-321.3
 30
0.0
 40
1.700000000000019
100
AcDbArc
 50
180.0
 51
-90.0
  0
ARC
  5
B1
330
25
100
AcDbEntity
  8
1
  6
PHANTOM
 62
    21
100
AcDbCircle
 10
241.3292189973596
 20
-315.7
 30
0.0
 40
0.30000000000002
100
AcDbArc
 50
-125.2241949806268
 51
-90.0
  0
ARC
  5
B0
330
25
100
AcDbEntity
  8
1
  6
PHANTOM
 62
    21
100
AcDbCircle
 10
237.098682856312
 20
-315.0
 30
0.0
 40
0.30000000000001
100
AcDbArc
 50
0.0
 51
90.0
  0
ARC
  5
AF
330
25
100
AcDbEntity
  8
1
  6
PHANTOM
 62
    21
100
AcDbCircle
 10
236.898682856312
 20
-321.3
 30
0.0
 40
0.5
100
AcDbArc
 50
-90.0
 51
0.0
  0
ARC
  5
AE
330
25
100
AcDbEntity
  8
1
  6
PHANTOM
 62
    21
100
AcDbCircle
 10
239.098682856312
 20
-315.4822487097775
 30
0.0
 40
0.49999999999995
100
AcDbArc
 50
72.78455557051666
 51
180.0
  0
ARC
  5
AD
330
25
100
AcDbEntity
  8
1
  6
PHANTOM
 62
    21
100
AcDbCircle
 10
236.898682856312
 20
-321.3
 30
0.0
 40
1.699999999999989
100
AcDbArc
 50
-90.0
 51
0.0
  0
ARC
  5
AC
330
25
100
AcDbEntity
  8
1
  6
PHANTOM
 62
    21
100
AcDbCircle
 10
156.2454640323374
 20
-218.2479779293701
 30
0.0
 40
2.000000000000019
100
AcDbArc
 50
-20.55604521958375
 51
14.21818717860035
  0
ARC
  5
AB
330
25
100
AcDbEntity
  8
1
  6
PHANTOM
 62
    21
100
AcDbCircle
 10
157.5574561307765
 20
-226.1413373272893
 30
0.0
 40
2.000000000000019
100
AcDbArc
 50
159.4439547804162
 51
-147.9946167919182
  0
ARC
  5
AA
330
25
100
AcDbEntity
  8
1
  6
PHANTOM
 62
    21
100
AcDbCircle
 10
158.0679372171022
 20
-234.5052919710556
 30
0.0
 40
1.99999999999998
100
AcDbArc
 50
-24.8738266215915
 51
32.0053832080822
  0
ARC
  5
A9
330
25
100
AcDbEntity
  8
1
  6
PHANTOM
 62
    21
100
AcDbCircle
 10
156.2454640323374
 20
-311.0380119449005
 30
0.0
 40
2.00000000000001
100
AcDbArc
 50
-20.55604521958299
 51
14.21818717860114
  0
ARC
  5
A8
330
25
100
AcDbEntity
  8
1
  6
PHANTOM
 62
    21
100
AcDbCircle
 10
157.5574561307765
 20
-318.9313713428197
 30
0.0
 40
2.000000000000019
100
AcDbArc
 50
159.4439547804155
 51
-147.9946167919161
  0
ARC
  5
A7
330
25
100
AcDbEntity
  8
1
  6
PHANTOM
 62
    21
100
AcDbCircle
 10
158.0679372171022
 20
-327.295325986586
 30
0.0
 40
1.999999999999969
100
AcDbArc
 50
-24.87382662159076
 51
32.00538320808289
  0
ARC
  5
A6
330
25
100
AcDbEntity
  8
1
  6
PHANTOM
 62
    21
100
AcDbCircle
 10
340.508782310952
 20
-218.2479779293701
 30
0.0
 40
2.00000000000015
100
AcDbArc
 50
-20.55604521958232
 51
14.21818717859935
  0
ARC
  5
A5
330
25
100
AcDbEntity
  8
1
  6
PHANTOM
 62
    21
100
AcDbCircle
 10
341.8207744093912
 20
-226.1413373272893
 30
0.0
 40
2.000000000000039
100
AcDbArc
 50
159.4439547804165
 51
-147.9946167919182
  0
ARC
  5
A4
330
25
100
AcDbEntity
  8
1
  6
PHANTOM
 62
    21
100
AcDbCircle
 10
342.3312554957168
 20
-234.5052919710556
 30
0.0
 40
2.00000000000001
100
AcDbArc
 50
-24.87382662159116
 51
32.00538320808177
  0
ARC
  5
A3
330
25
100
AcDbEntity
  8
1
  6
PHANTOM
 62
    21
100
AcDbCircle
 10
341.8207744093912
 20
-310.9313713428197
 30
0.0
 40
2.00000000000005
100
AcDbArc
 50
159.4439547804157
 51
-147.9946167919161
  0
ARC
  5
A2
330
25
100
AcDbEntity
  8
1
  6
PHANTOM
 62
    21
100
AcDbCircle
 10
342.3312554957168
 20
-319.295325986586
 30
0.0
 40
2.0
100
AcDbArc
 50
-24.87382662159042
 51
32.00538320808246
  0
ARC
  5
A1
330
25
100
AcDbEntity
  8
1
  6
PHANTOM
 62
    21
100
AcDbCircle
 10
242.298682856312
 20
-315.7
 30
0.0
 40
0.30000000000001
100
AcDbArc
 50
-90.0
 51
0.0
  0
ARC
  5
A0
330
25
100
AcDbEntity
  8
1
  6
PHANTOM
 62
    21
100
AcDbCircle
 10
214.898682856312
 20
-315.7
 30
0.0
 40
0.2999999999994199
100
AcDbArc
 50
131.1275901419683
 51
180.0
  0
ARC
  5
9F
330
25
100
AcDbEntity
  8
1
  6
PHANTOM
 62
    21
100
AcDbCircle
 10
35.40000000000001
 20
-324.5
 30
0.0
 40
5.000000000000019
100
AcDbArc
 50
-139.9922460865147
 51
-58.10920819815495
  0
ARC
  5
9E
330
25
100
AcDbEntity
  8
1
  6
PHANTOM
 62
    21
100
AcDbCircle
 10
52.60000000000005
 20
-324.5
 30
0.0
 40
5.000000000000059
100
AcDbArc
 50
-121.890791801845
 51
-40.00775391348528
  0
ARC
  5
9D
330
25
100
AcDbEntity
  8
1
  6
PHANTOM
 62
    21
100
AcDbCircle
 10
222.498682856312
 20
-314.1
 30
0.0
 40
0.59999999999997
100
AcDbArc
 50
-90.0
 51
90.0
  0
ARC
  5
9C
330
25
100
AcDbEntity
  8
1
  6
PHANTOM
 62
    21
100
AcDbCircle
 10
219.9632657611531
 20
-321.5
 30
0.0
 40
8.0
100
AcDbArc
 50
90.0
 51
131.1275901419718
  0
ARC
  5
9B
330
25
100
AcDbEntity
  8
1
  6
PHANTOM
 62
    21
100
AcDbCircle
 10
214.898682856312
 20
-315.7
 30
0.0
 40
0.30000000000001
100
AcDbArc
 50
180.0
 51
-90.0
  0
ARC
  5
9A
330
25
100
AcDbEntity
  8
1
  6
PHANTOM
 62
    21
100
AcDbCircle
 10
219.9632657611531
 20
-321.5
 30
0.0
 40
6.79999999999999
100
AcDbArc
 50
107.2154444294802
 51
125.2241949806191
  0
ARC
  5
99
330
25
100
AcDbEntity
  8
1
  6
PHANTOM
 62
    21
100
AcDbCircle
 10
234.698682856312
 20
-314.1
 30
0.0
 40
0.6000000000000201
100
AcDbArc
 50
90.0
 51
-90.0
  0
ARC
  5
98
330
25
100
AcDbEntity
  8
1
  6
PHANTOM
 62
    21
100
AcDbCircle
 10
237.2340999514709
 20
-321.5
 30
0.0
 40
7.999999999999981
100
AcDbArc
 50
48.87240985802832
 51
90.0
  0
ARC
  5
97
330
25
100
AcDbEntity
  8
1
  6
PHANTOM
 62
    21
100
AcDbCircle
 10
242.298682856312
 20
-315.7
 30
0.0
 40
0.29999999999939
100
AcDbArc
 50
0.0
 51
48.87240985803572
  0
ARC
  5
96
330
25
100
AcDbEntity
  8
1
  6
PHANTOM
 62
    21
100
AcDbCircle
 10
237.2340999514709
 20
-321.5
 30
0.0
 40
6.799999999999999
100
AcDbArc
 50
54.77580501938113
 51
72.78455557052002
  0
LINE
  5
95
330
25
100
AcDbEntity
  8
1
  6
PHANTOM
 62
    21
100
AcDbLine
 10
105.3353645776973
 20
-221.9599659844696
 30
0.0
 11
156.9894694480045
 21
-221.9599659844695
 31
0.0
  0
LINE
  5
94
330
25
100
AcDbEntity
  8
1
  6
PHANTOM
 62
    21
100
AcDbLine
 10
107.3353645776973
 20
-232.9599659844696
 30
0.0
 11
159.4606037585001
 21
-232.9599659844696
 31
0.0
  0
LINE
  5
93
330
25
100
AcDbEntity
  8
1
  6
PHANTOM
 62
    21
100
AcDbLine
 10
159.4606037585001
 20
-232.9599659844696
 30
0.0
 11
159.7639338251124
 21
-233.4452940910493
 31
0.0
  0
LINE
  5
92
330
25
100
AcDbEntity
  8
1
  6
PHANTOM
 62
    21
100
AcDbLine
 10
92.33536457769732
 20
-232.9599659844696
 30
0.0
 11
99.33536457769733
 21
-232.9599659844696
 31
0.0
  0
LINE
  5
91
330
25
100
AcDbEntity
  8
1
  6
PHANTOM
 62
    21
100
AcDbLine
 10
156.9894694480045
 20
-221.9599659844695
 30
0.0
 11
155.6847977756384
 21
-225.4390904441125
 31
0.0
  0
LINE
  5
90
330
25
100
AcDbEntity
  8
1
  6
PHANTOM
 62
    21
100
AcDbLine
 10
92.33536457769732
 20
-221.9599659844696
 30
0.0
 11
97.33536457769732
 21
-221.9599659844696
 31
0.0
  0
LINE
  5
8F
330
25
100
AcDbEntity
  8
1
  6
DOT_CENTER
 62
     2
100
AcDbLine
 10
44.0
 20
-304.5
 30
0.0
 11
44.0
 21
-340.0
 31
0.0
  0
LINE
  5
8E
330
25
100
AcDbEntity
  8
1
  6
PHANTOM
 62
    21
100
AcDbLine
 10
38.5
 20
-329.0
 30
0.0
 11
38.5
 21
-330.0
 31
0.0
  0
LINE
  5
8D
330
25
100
AcDbEntity
  8
1
  6
PHANTOM
 62
    21
100
AcDbLine
 10
30.0
 20
-311.0
 30
0.0
 11
30.0
 21
-330.5
 31
0.0
  0
LINE
  5
8C
330
25
100
AcDbEntity
  8
1
  6
PHANTOM
 62
    21
100
AcDbLine
 10
31.5
 20
-327.5215889859476
 30
0.0
 11
31.5
 21
-312.5
 31
0.0
  0
LINE
  5
8B
330
25
100
AcDbEntity
  8
1
  6
PHANTOM
 62
    21
100
AcDbLine
 10
56.50000000000006
 20
-309.5
 30
0.0
 11
31.5
 21
-309.5
 31
0.0
  0
LINE
  5
8A
330
25
100
AcDbEntity
  8
1
  6
PHANTOM
 62
    21
100
AcDbLine
 10
44.0
 20
-310.7
 30
0.0
 11
43.69999999999999
 21
-311.0
 31
0.0
  0
LINE
  5
89
330
25
100
AcDbEntity
  8
1
  6
PHANTOM
 62
    21
100
AcDbLine
 10
43.69999999999999
 20
-311.0
 30
0.0
 11
40.40000000000001
 21
-311.0
 31
0.0
  0
LINE
  5
88
330
25
100
AcDbEntity
  8
1
  6
PHANTOM
 62
    21
100
AcDbLine
 10
39.79999999999998
 20
-313.0
 30
0.0
 11
39.20000000000003
 21
-313.0
 31
0.0
  0
LINE
  5
87
330
25
100
AcDbEntity
  8
1
  6
PHANTOM
 62
    21
100
AcDbLine
 10
37.90000000000001
 20
-311.0
 30
0.0
 11
33.0
 21
-311.0
 31
0.0
  0
LINE
  5
86
330
25
100
AcDbEntity
  8
1
  6
PHANTOM
 62
    21
100
AcDbLine
 10
38.90000000000001
 20
-312.0
 30
0.0
 11
38.90000000000001
 21
-312.7
 31
0.0
  0
LINE
  5
85
330
25
100
AcDbEntity
  8
1
  6
PHANTOM
 62
    21
100
AcDbLine
 10
40.09999999999998
 20
-312.7
 30
0.0
 11
40.09999999999998
 21
-311.3
 31
0.0
  0
LINE
  5
84
330
25
100
AcDbEntity
  8
1
  6
PHANTOM
 62
    21
100
AcDbLine
 10
37.5
 20
-331.0
 30
0.0
 11
30.5
 21
-331.0
 31
0.0
  0
LINE
  5
83
330
25
100
AcDbEntity
  8
1
  6
PHANTOM
 62
    21
100
AcDbLine
 10
49.50000000000006
 20
-330.0
 30
0.0
 11
49.50000000000006
 21
-329.0
 31
0.0
  0
LINE
  5
82
330
25
100
AcDbEntity
  8
1
  6
PHANTOM
 62
    21
100
AcDbLine
 10
58.00000000000006
 20
-330.5
 30
0.0
 11
58.00000000000006
 21
-311.0
 31
0.0
  0
LINE
  5
81
330
25
100
AcDbEntity
  8
1
  6
PHANTOM
 62
    21
100
AcDbLine
 10
56.50000000000006
 20
-312.5
 30
0.0
 11
56.50000000000006
 21
-327.5215889859476
 31
0.0
  0
LINE
  5
80
330
25
100
AcDbEntity
  8
1
  6
PHANTOM
 62
    21
100
AcDbLine
 10
44.30000000000006
 20
-311.0
 30
0.0
 11
44.0
 21
-310.7
 31
0.0
  0
LINE
  5
7F
330
25
100
AcDbEntity
  8
1
  6
PHANTOM
 62
    21
100
AcDbLine
 10
47.60000000000005
 20
-311.0
 30
0.0
 11
44.30000000000006
 21
-311.0
 31
0.0
  0
LINE
  5
7E
330
25
100
AcDbEntity
  8
1
  6
PHANTOM
 62
    21
100
AcDbLine
 10
48.80000000000004
 20
-313.0
 30
0.0
 11
48.20000000000007
 21
-313.0
 31
0.0
  0
LINE
  5
7D
330
25
100
AcDbEntity
  8
1
  6
PHANTOM
 62
    21
100
AcDbLine
 10
55.00000000000007
 20
-311.0
 30
0.0
 11
50.10000000000005
 21
-311.0
 31
0.0
  0
LINE
  5
7C
330
25
100
AcDbEntity
  8
1
  6
PHANTOM
 62
    21
100
AcDbLine
 10
49.10000000000005
 20
-312.7
 30
0.0
 11
49.10000000000005
 21
-312.0
 31
0.0
  0
LINE
  5
7B
330
25
100
AcDbEntity
  8
1
  6
PHANTOM
 62
    21
100
AcDbLine
 10
47.90000000000007
 20
-311.3
 30
0.0
 11
47.90000000000007
 21
-312.7
 31
0.0
  0
LINE
  5
7A
330
25
100
AcDbEntity
  8
1
  6
PHANTOM
 62
    21
100
AcDbLine
 10
57.50000000000007
 20
-331.0
 30
0.0
 11
50.50000000000006
 21
-331.0
 31
0.0
  0
LINE
  5
79
330
25
100
AcDbEntity
  8
1
  6
PHANTOM
 62
    21
100
AcDbLine
 10
228.598682856312
 20
-322.1
 30
0.0
 11
228.298682856312
 21
-321.8
 31
0.0
  0
LINE
  5
78
330
25
100
AcDbEntity
  8
1
  6
PHANTOM
 62
    21
100
AcDbLine
 10
228.298682856312
 20
-321.8
 30
0.0
 11
220.298682856312
 21
-321.8
 31
0.0
  0
LINE
  5
77
330
25
100
AcDbEntity
  8
1
  6
PHANTOM
 62
    21
100
AcDbLine
 10
220.298682856312
 20
-323.0
 30
0.0
 11
236.898682856312
 21
-323.0
 31
0.0
  0
LINE
  5
76
330
25
100
AcDbEntity
  8
1
  6
DOT_CENTER
 62
     2
100
AcDbLine
 10
228.598682856312
 20
-308.5
 30
0.0
 11
228.598682856312
 21
-328.0
 31
0.0
  0
LINE
  5
75
330
25
100
AcDbEntity
  8
1
  6
PHANTOM
 62
    21
100
AcDbLine
 10
219.798682856312
 20
-321.3
 30
0.0
 11
219.798682856312
 21
-315.0
 31
0.0
  0
LINE
  5
74
330
25
100
AcDbEntity
  8
1
  6
PHANTOM
 62
    21
100
AcDbLine
 10
222.498682856312
 20
-314.7
 30
0.0
 11
220.098682856312
 21
-314.7
 31
0.0
  0
LINE
  5
73
330
25
100
AcDbEntity
  8
1
  6
PHANTOM
 62
    21
100
AcDbLine
 10
222.498682856312
 20
-313.5
 30
0.0
 11
219.9632657611531
 21
-313.5
 31
0.0
  0
LINE
  5
72
330
25
100
AcDbEntity
  8
1
  6
PHANTOM
 62
    21
100
AcDbLine
 10
215.8681467152644
 20
-316.0
 30
0.0
 11
214.898682856312
 21
-316.0
 31
0.0
  0
LINE
  5
71
330
25
100
AcDbEntity
  8
1
  6
PHANTOM
 62
    21
100
AcDbLine
 10
218.598682856312
 20
-315.4822487097775
 30
0.0
 11
218.598682856312
 21
-321.3
 31
0.0
  0
LINE
  5
70
330
25
100
AcDbEntity
  8
1
  6
PHANTOM
 62
    21
100
AcDbLine
 10
228.898682856312
 20
-321.8
 30
0.0
 11
228.598682856312
 21
-322.1
 31
0.0
  0
LINE
  5
6F
330
25
100
AcDbEntity
  8
1
  6
PHANTOM
 62
    21
100
AcDbLine
 10
236.898682856312
 20
-321.8
 30
0.0
 11
228.898682856312
 21
-321.8
 31
0.0
  0
LINE
  5
6E
330
25
100
AcDbEntity
  8
1
  6
PHANTOM
 62
    21
100
AcDbLine
 10
237.398682856312
 20
-315.0
 30
0.0
 11
237.398682856312
 21
-321.3
 31
0.0
  0
LINE
  5
6D
330
25
100
AcDbEntity
  8
1
  6
PHANTOM
 62
    21
100
AcDbLine
 10
237.098682856312
 20
-314.7
 30
0.0
 11
234.698682856312
 21
-314.7
 31
0.0
  0
LINE
  5
6C
330
25
100
AcDbEntity
  8
1
  6
PHANTOM
 62
    21
100
AcDbLine
 10
237.2340999514709
 20
-313.5
 30
0.0
 11
234.698682856312
 21
-313.5
 31
0.0
  0
LINE
  5
6B
330
25
100
AcDbEntity
  8
1
  6
PHANTOM
 62
    21
100
AcDbLine
 10
242.298682856312
 20
-316.0
 30
0.0
 11
241.3292189973596
 21
-316.0
 31
0.0
  0
LINE
  5
6A
330
25
100
AcDbEntity
  8
1
  6
PHANTOM
 62
    21
100
AcDbLine
 10
238.598682856312
 20
-321.3
 30
0.0
 11
238.598682856312
 21
-315.4822487097775
 31
0.0
  0
LINE
  5
69
330
25
100
AcDbEntity
  8
1
  6
PHANTOM
 62
    21
100
AcDbLine
 10
156.3353645776973
 20
-210.4599659844696
 30
0.0
 11
158.1841989004923
 21
-217.7567477277332
 31
0.0
  0
LINE
  5
68
330
25
100
AcDbEntity
  8
1
  6
PHANTOM
 62
    21
100
AcDbLine
 10
158.1181223874754
 20
-218.9502248125469
 30
0.0
 11
156.9894694480045
 21
-221.9599659844695
 31
0.0
  0
LINE
  5
67
330
25
100
AcDbEntity
  8
1
  6
PHANTOM
 62
    21
100
AcDbLine
 10
155.8614595227663
 20
-227.2013352072956
 30
0.0
 11
159.4606037585001
 21
-232.9599659844696
 31
0.0
  0
LINE
  5
66
330
25
100
AcDbEntity
  8
1
  6
PHANTOM
 62
    21
100
AcDbLine
 10
159.8824097245046
 20
-235.3465348134504
 30
0.0
 11
155.6571548854263
 21
-244.4599659844696
 31
0.0
  0
LINE
  5
65
330
25
100
AcDbEntity
  8
1
  6
PHANTOM
 62
    21
100
AcDbLine
 10
156.3353645776973
 20
-303.25
 30
0.0
 11
158.1841989004923
 21
-310.5467817432636
 31
0.0
  0
LINE
  5
64
330
25
100
AcDbEntity
  8
1
  6
PHANTOM
 62
    21
100
AcDbLine
 10
158.1181223874754
 20
-311.7402588280772
 30
0.0
 11
155.6847977756384
 21
-318.2291244596429
 31
0.0
  0
LINE
  5
63
330
25
100
AcDbEntity
  8
1
  6
PHANTOM
 62
    21
100
AcDbLine
 10
155.8614595227663
 20
-319.9913692228261
 30
0.0
 11
159.7639338251124
 21
-326.2353281065797
 31
0.0
  0
LINE
  5
62
330
25
100
AcDbEntity
  8
1
  6
PHANTOM
 62
    21
100
AcDbLine
 10
159.8824097245046
 20
-328.1365688289808
 30
0.0
 11
155.6571548854263
 21
-337.25
 31
0.0
  0
LINE
  5
61
330
25
100
AcDbEntity
  8
1
  6
PHANTOM
 62
    21
100
AcDbLine
 10
158.5548387817196
 20
-331.0
 30
0.0
 11
110.3353645776973
 21
-331.0
 31
0.0
  0
LINE
  5
60
330
25
100
AcDbEntity
  8
1
  6
PHANTOM
 62
    21
100
AcDbLine
 10
159.6211864555556
 20
-328.7
 30
0.0
 11
110.3353645776973
 21
-328.7
 31
0.0
  0
LINE
  5
5F
330
25
100
AcDbEntity
  8
1
  6
PHANTOM
 62
    21
100
AcDbLine
 10
157.9189688191338
 20
-309.5
 30
0.0
 11
92.33536457769732
 21
-309.5
 31
0.0
  0
LINE
  5
5E
330
25
100
AcDbEntity
  8
1
  6
PHANTOM
 62
    21
100
AcDbLine
 10
92.33536457769732
 20
-311.0
 30
0.0
 11
158.2451027727215
 21
-311.0
 31
0.0
  0
LINE
  5
5D
330
25
100
AcDbEntity
  8
1
  6
PHANTOM
 62
    21
100
AcDbLine
 10
92.33536457769732
 20
-241.4599659844696
 30
0.0
 11
157.0480431556471
 21
-241.4599659844696
 31
0.0
  0
LINE
  5
5C
330
25
100
AcDbEntity
  8
1
  6
PHANTOM
 62
    21
100
AcDbLine
 10
157.7434872907575
 20
-239.9599659844696
 30
0.0
 11
92.33536457769732
 21
-239.9599659844696
 31
0.0
  0
LINE
  5
5B
330
25
100
AcDbEntity
  8
1
  6
PHANTOM
 62
    21
100
AcDbLine
 10
157.0954946135868
 20
-213.4599659844696
 30
0.0
 11
92.33536457769732
 21
-213.4599659844696
 31
0.0
  0
LINE
  5
5A
330
25
100
AcDbEntity
  8
1
  6
PHANTOM
 62
    21
100
AcDbLine
 10
92.33536457769732
 20
-214.9599659844696
 30
0.0
 11
157.4755596315316
 21
-214.9599659844696
 31
0.0
  0
LINE
  5
59
330
25
100
AcDbEntity
  8
1
  6
PHANTOM
 62
    21
100
AcDbLine
 10
92.33536457769732
 20
-213.4599659844696
 30
0.0
 11
92.33536457769732
 21
-241.4599659844696
 31
0.0
  0
LINE
  5
58
330
25
100
AcDbEntity
  8
1
  6
PHANTOM
 62
    21
100
AcDbLine
 10
92.33536457769732
 20
-309.5
 30
0.0
 11
92.33536457769732
 21
-329.8
 31
0.0
  0
LINE
  5
57
330
25
100
AcDbEntity
  8
1
  6
PHANTOM
 62
    21
100
AcDbLine
 10
340.598682856312
 20
-210.4599659844696
 30
0.0
 11
341.3588128922017
 21
-213.4599659844701
 31
0.0
  0
LINE
  5
56
330
25
100
AcDbEntity
  8
1
  6
PHANTOM
 62
    21
100
AcDbLine
 10
342.3814406660902
 20
-218.9502248125469
 30
0.0
 11
341.2527877266192
 21
-221.9599659844696
 31
0.0
  0
LINE
  5
55
330
25
100
AcDbEntity
  8
1
  6
PHANTOM
 62
    21
100
AcDbLine
 10
340.124777801381
 20
-227.2013352072956
 30
0.0
 11
344.0272521037271
 21
-233.4452940910493
 31
0.0
  0
LINE
  5
54
330
25
100
AcDbEntity
  8
1
  6
PHANTOM
 62
    21
100
AcDbLine
 10
344.1457280031194
 20
-235.3465348134504
 30
0.0
 11
341.3113614342618
 21
-241.4599659844696
 31
0.0
  0
LINE
  5
53
330
25
100
AcDbEntity
  8
1
  6
PHANTOM
 62
    21
100
AcDbLine
 10
340.124777801381
 20
-311.9913692228261
 30
0.0
 11
341.0676720371147
 21
-313.5
 31
0.0
  0
LINE
  5
52
330
25
100
AcDbEntity
  8
1
  6
PHANTOM
 62
    21
100
AcDbLine
 10
344.1457280031194
 20
-320.1365688289808
 30
0.0
 11
343.3745123684226
 21
-321.8
 31
0.0
  0
LINE
  5
51
330
25
100
AcDbEntity
  8
1
  6
PHANTOM
 62
    21
100
AcDbLine
 10
341.0676720371147
 20
-313.5
 30
0.0
 11
294.5986828563119
 21
-313.5
 31
0.0
  0
LINE
  5
50
330
25
100
AcDbEntity
  8
1
  6
PHANTOM
 62
    21
100
AcDbLine
 10
341.0676720371147
 20
-313.5
 30
0.0
 11
341.8176720371147
 21
-314.7
 31
0.0
  0
LINE
  5
4F
330
25
100
AcDbEntity
  8
1
  6
PHANTOM
 62
    21
100
AcDbLine
 10
341.8176720371147
 20
-314.7
 30
0.0
 11
344.0272521037271
 21
-318.2353281065797
 31
0.0
  0
LINE
  5
4E
330
25
100
AcDbEntity
  8
1
  6
PHANTOM
 62
    21
100
AcDbLine
 10
343.3745123684226
 20
-321.8
 30
0.0
 11
276.598682856312
 21
-321.8
 31
0.0
  0
LINE
  5
4D
330
25
100
AcDbEntity
  8
1
  6
PHANTOM
 62
    21
100
AcDbLine
 10
343.3745123684226
 20
-321.8
 30
0.0
 11
342.8181570603343
 21
-323.0
 31
0.0
  0
LINE
  5
4C
330
25
100
AcDbEntity
  8
1
  6
PHANTOM
 62
    21
100
AcDbLine
 10
276.598682856312
 20
-323.0
 30
0.0
 11
342.8181570603343
 21
-323.0
 31
0.0
  0
LINE
  5
4B
330
25
100
AcDbEntity
  8
1
  6
PHANTOM
 62
    21
100
AcDbLine
 10
342.8181570603343
 20
-323.0
 30
0.0
 11
340.5477293358849
 21
-328.0
 31
0.0
  0
LINE
  5
4A
330
25
100
AcDbEntity
  8
1
  6
PHANTOM
 62
    21
100
AcDbLine
 10
341.3588128922017
 20
-213.4599659844701
 30
0.0
 11
276.598682856312
 21
-213.4599659844701
 31
0.0
  0
LINE
  5
49
330
25
100
AcDbEntity
  8
1
  6
PHANTOM
 62
    21
100
AcDbLine
 10
341.3588128922017
 20
-213.4599659844701
 30
0.0
 11
342.4475171791071
 21
-217.7567477277332
 31
0.0
  0
LINE
  5
48
330
25
100
AcDbEntity
  8
1
  6
PHANTOM
 62
    21
100
AcDbLine
 10
341.2527877266192
 20
-221.9599659844696
 30
0.0
 11
339.9481160542531
 21
-225.4390904441125
 31
0.0
  0
LINE
  5
47
330
25
100
AcDbEntity
  8
1
  6
PHANTOM
 62
    21
100
AcDbLine
 10
341.3113614342618
 20
-241.4599659844696
 30
0.0
 11
276.598682856312
 21
-241.4599659844696
 31
0.0
  0
LINE
  5
46
330
25
100
AcDbEntity
  8
1
  6
PHANTOM
 62
    21
100
AcDbLine
 10
341.3113614342618
 20
-241.4599659844696
 30
0.0
 11
339.9204731640411
 21
-244.4599659844696
 31
0.0
  0
LINE
  5
45
330
25
100
AcDbEntity
  8
1
  6
PHANTOM
 62
    21
100
AcDbLine
 10
276.598682856312
 20
-213.4599659844701
 30
0.0
 11
276.598682856312
 21
-220.4599659844696
 31
0.0
  0
LINE
  5
44
330
25
100
AcDbEntity
  8
1
  6
PHANTOM
 62
    21
100
AcDbLine
 10
276.598682856312
 20
-323.0
 30
0.0
 11
276.598682856312
 21
-314.7
 31
0.0
  0
LINE
  5
43
330
25
100
AcDbEntity
  8
1
  6
PHANTOM
 62
    21
100
AcDbLine
 10
318.5112627705488
 20
-232.9599659844696
 30
0.0
 11
343.7239220371147
 21
-232.9599659844696
 31
0.0
  0
LINE
  5
42
330
25
100
AcDbEntity
  8
1
  6
PHANTOM
 62
    21
100
AcDbLine
 10
318.5110428013884
 20
-221.9599659844696
 30
0.0
 11
341.2527877266192
 21
-221.9599659844696
 31
0.0
  0
LINE
  5
41
330
25
100
AcDbEntity
  8
1
  6
PHANTOM
 62
    21
100
AcDbLine
 10
276.598682856312
 20
-234.4599659844696
 30
0.0
 11
276.598682856312
 21
-241.4599659844696
 31
0.0
  0
LINE
  5
40
330
25
100
AcDbEntity
  8
1
  6
PHANTOM
 62
    21
100
AcDbLine
 10
294.5986828563119
 20
-314.7
 30
0.0
 11
341.8176720371147
 21
-314.7
 31
0.0
  0
LINE
  5
3F
330
25
100
AcDbEntity
  8
1
  6
PHANTOM
 62
    21
100
AcDbLine
 10
281.598682856312
 20
-314.7
 30
0.0
 11
291.5986828563119
 21
-314.7
 31
0.0
  0
LINE
  5
3E
330
25
100
AcDbEntity
  8
1
  6
PHANTOM
 62
    21
100
AcDbLine
 10
340.5965377266192
 20
-308.5
 30
0.0
 11
339.9481160542531
 21
-310.2291244596429
 31
0.0
  0
LINE
  5
3D
330
25
100
AcDbEntity
  8
1
  6
PHANTOM
 62
    21
100
AcDbLine
 10
107.3353645776973
 20
-328.7
 30
0.0
 11
97.33536457769732
 21
-328.7
 31
0.0
  0
LINE
  5
3C
330
25
100
AcDbEntity
  8
1
  6
PHANTOM
 62
    21
100
AcDbLine
 10
94.33536457769731
 20
-328.7
 30
0.0
 11
92.33536457769732
 21
-328.7
 31
0.0
  0
ENDBLK
  5
CB
330
25
100
AcDbEntity
  8
0
100
AcDbBlockEnd
  0
BLOCK
  5
28
330
27
100
AcDbEntity
  8
0
100
AcDbBlockBegin
  2
______
 70
     0
 10
-61.44074712830536
 20
-1656.888985611974
 30
0.0
  3
______
  1

  0
MTEXT
  5
1CF
102
{ACAD_XDICTIONARY
360
753
102
}
330
27
100
AcDbEntity
  8
1
 62
     3
100
AcDbMText
 10
-3286.860710837364
 20
290.4825589545014
 30
0.0
 40
3.5
 41
0.0
 71
     4
 72
     1
  1
\U+0192W\U+0192\U+2026\U+0192\U+2030\U+0192R\U+0192\U+201C
  7
CONVERTER_3
 73
     1
 44
1.0
1001
ACAD
1000
MTEXTBEGIN
1070
    73
1070
     1
1070
    44
1040
1.0
1070
    74
1070
     0
1000
MTEXTEND
  0
MTEXT
  5
1CE
330
27
100
AcDbEntity
  8
1
 62
     3
100
AcDbMText
 10
-3336.860710837364
 20
274.9825589545014
 30
0.0
 40
6.0
 41
0.0
 71
     5
 72
     1
  1
1 : 1
  7
CONVERTER_3
 73
     1
 44
1.0
1001
ACAD
1000
MTEXTBEGIN
1070
    73
1070
     1
1070
    44
1040
1.0
1070
    74
1070
     0
1000
MTEXTEND
  0
MTEXT
  5
1CD
102
{ACAD_XDICTIONARY
360
751
102
}
330
27
100
AcDbEntity
  8
1
 62
     3
100
AcDbMText
 10
-3310.860710837364
 20
267.4825589545014
 30
0.0
 40
6.0
 41
0.0
 71
     5
 72
     1
  1
\U+02C6\U+00CF\U+008D\U+00E3
  7
CONVERTER_3
 73
     1
 44
1.0
1001
ACAD
1000
MTEXTBEGIN
1070
    73
1070
     1
1070
    44
1040
1.0
1070
    74
1070
     0
1000
MTEXTEND
  0
MTEXT
  5
1CC
330
27
100
AcDbEntity
  8
1
 62
     3
100
AcDbMText
 10
-3310.860710837364
 20
258.4825589545014
 30
0.0
 40
3.5
 41
0.0
 71
     5
 72
     1
  1
98.10.15.
  7
CONVERTER_3
 73
     1
 44
1.0
1001
ACAD
1000
MTEXTBEGIN
1070
    73
1070
     1
1070
    44
1040
1.0
1070
    74
1070
     0
1000
MTEXTEND
  0
MTEXT
  5
1CB
330
27
100
AcDbEntity
  8
1
 62
     3
100
AcDbMText
 10
-3290.860710837364
 20
258.4825589545014
 30
0.0
 40
3.5
 41
0.0
 71
     5
 72
     1
  1
98.10.15.
  7
CONVERTER_3
 73
     1
 44
1.0
1001
ACAD
1000
MTEXTBEGIN
1070
    73
1070
     1
1070
    44
1040
1.0
1070
    74
1070
     0
1000
MTEXTEND
  0
MTEXT
  5
1CA
102
{ACAD_XDICTIONARY
360
74F
102
}
330
27
100
AcDbEntity
  8
1
 62
     3
100
AcDbMText
 10
-3290.860710837364
 20
267.4825589545014
 30
0.0
 40
6.0
 41
0.0
 71
     5
 72
     1
  1
\U+2019\U+2020\U+201C\U+2021
  7
CONVERTER_3
 73
     1
 44
1.0
1001
ACAD
1000
MTEXTBEGIN
1070
    73
1070
     1
1070
    44
1040
1.0
1070
    74
1070
     0
1000
MTEXTEND
  0
MTEXT
  5
1C9
102
{ACAD_XDICTIONARY
360
74D
102
}
330
27
100
AcDbEntity
  8
1
 62
     3
100
AcDbMText
 10
-3270.860710837364
 20
267.4825589545014
 30
0.0
 40
6.0
 41
0.0
 71
     5
 72
     1
  1
\U+008F\U+008F\U+2022\U+00AB
  7
CONVERTER_3
 73
     1
 44
1.0
1001
ACAD
1000
MTEXTBEGIN
1070
    73
1070
     1
1070
    44
1040
1.0
1070
    74
1070
     0
1000
MTEXTEND
  0
MTEXT
  5
1C8
330
27
100
AcDbEntity
  8
1
 62
     3
100
AcDbMText
 10
-3270.860710837364
 20
258.4825589545014
 30
0.0
 40
3.5
 41
0.0
 71
     5
 72
     1
  1
98.10.15.
  7
CONVERTER_3
 73
     1
 44
1.0
1001
ACAD
1000
MTEXTBEGIN
1070
    73
1070
     1
1070
    44
1040
1.0
1070
    74
1070
     0
1000
MTEXTEND
  0
MTEXT
  5
1C7
102
{ACAD_XDICTIONARY
360
74B
102
}
330
27
100
AcDbEntity
  8
1
 62
     3
100
AcDbMText
 10
-3201.860710837364
 20
297.4825589545014
 30
0.0
 40
3.5
 41
0.0
 71
     4
 72
     1
  1
t\U+0081\U+00812
  7
CONVERTER_3
 73
     1
 44
1.0
1001
ACAD
1000
MTEXTBEGIN
1070
    73
1070
     1
1070
    44
1040
1.0
1070
    74
1070
     0
1000
MTEXTEND
  0
MTEXT
  5
1C6
102
{ACAD_XDICTIONARY
360
749
102
}
330
27
100
AcDbEntity
  8
1
 62
     3
100
AcDbMText
 10
-3201.860710837364
 20
304.4825589545014
 30
0.0
 40
3.5
 41
0.0
 71
     4
 72
     1
  1
\U+0192_\U+0192C\U+0192\U+201E\U+0192X\U+0192N\U+0192\U+0160\U+0192\U+2026\U+0081[M4\U+0081~10
  7
CONVERTER_4
 73
     1
 44
1.0
1001
ACAD
1000
MTEXTBEGIN
1070
    73
1070
     1
1070
    44
1040
1.0
1070
    74
1070
     0
1000
MTEXTEND
  0
MTEXT
  5
1C4
102
{ACAD_XDICTIONARY
360
747
102
}
330
27
100
AcDbEntity
  8
1
 62
     3
100
AcDbMText
 10
-3241.860710837364
 20
304.4825589545014
 30
0.0
 40
3.5
 41
0.0
 71
     4
 72
     1
  1
\U+0192N\U+0192\U+008D\U+0192\U+0081\U+0081[\U+0192g
  7
CONVERTER_3
 73
     1
 44
1.0
1001
ACAD
1000
MTEXTBEGIN
1070
    73
1070
     1
1070
    44
1040
1.0
1070
    74
1070
     0
1000
MTEXTEND
  0
MTEXT
  5
1C3
102
{ACAD_XDICTIONARY
360
745
102
}
330
27
100
AcDbEntity
  8
1
 62
     3
100
AcDbMText
 10
-3241.860710837364
 20
297.4825589545014
 30
0.0
 40
3.5
 41
0.0
 71
     4
 72
     1
  1
\U+0192N\U+0192\U+008D\U+0192\U+0081\U+0081[\U+0192g
  7
CONVERTER_3
 73
     1
 44
1.0
1001
ACAD
1000
MTEXTBEGIN
1070
    73
1070
     1
1070
    44
1040
1.0
1070
    74
1070
     0
1000
MTEXTEND
  0
MTEXT
  5
1C2
102
{ACAD_XDICTIONARY
360
743
102
}
330
27
100
AcDbEntity
  8
1
 62
     3
100
AcDbMText
 10
-3241.860710837364
 20
290.4825589545014
 30
0.0
 40
3.5
 41
0.0
 71
     4
 72
     1
  1
DG\U+0090F\U+0081i\U+0192f\U+0192B\U+0081[\U+0192v\U+0192O\U+0192\U+0152\U+0081[\U+0081j
  7
CONVERTER_3
 73
     1
 44
1.0
1001
ACAD
1000
MTEXTBEGIN
1070
    73
1070
     1
1070
    44
1040
1.0
1070
    74
1070
     0
1000
MTEXTEND
  0
MTEXT
  5
1C1
330
27
100
AcDbEntity
  8
1
 62
     3
100
AcDbMText
 10
-3286.860710837364
 20
297.4825589545014
 30
0.0
 40
3.5
 41
0.0
 71
     4
 72
     1
  1
SPCC
  7
CONVERTER_3
 73
     1
 44
1.0
1001
ACAD
1000
MTEXTBEGIN
1070
    73
1070
     1
1070
    44
1040
1.0
1070
    74
1070
     0
1000
MTEXTEND
  0
MTEXT
  5
1C0
330
27
100
AcDbEntity
  8
1
 62
     3
100
AcDbMText
 10
-3286.860710837364
 20
304.4825589545014
 30
0.0
 40
3.5
 41
0.0
 71
     4
 72
     1
  1
SWCH
  7
CONVERTER_3
 73
     1
 44
1.0
1001
ACAD
1000
MTEXTBEGIN
1070
    73
1070
     1
1070
    44
1040
1.0
1070
    74
1070
     0
1000
MTEXTEND
  0
MTEXT
  5
1BF
102
{ACAD_XDICTIONARY
360
741
102
}
330
27
100
AcDbEntity
  8
1
 62
     3
100
AcDbMText
 10
-3336.860710837364
 20
304.4825589545014
 30
0.0
 40
3.5
 41
0.0
 71
     4
 72
     1
  1
\U+008F\ \U+017DM\U+008F~\U+0192l\U+0192W
  7
CONVERTER_3
 73
     1
 44
1.0
1001
ACAD
1000
MTEXTBEGIN
1070
    73
1070
     1
1070
    44
1040
1.0
1070
    74
1070
     0
1000
MTEXTEND
  0
MTEXT
  5
1BE
102
{ACAD_XDICTIONARY
360
73F
102
}
330
27
100
AcDbEntity
  8
1
 62
     3
100
AcDbMText
 10
-3336.860710837364
 20
297.4825589545014
 30
0.0
 40
3.5
 41
0.0
 71
     4
 72
     1
  1
\U+201D\U+00F4\U+0192i\U+0192b\U+0192g
  7
CONVERTER_3
 73
     1
 44
1.0
1001
ACAD
1000
MTEXTBEGIN
1070
    73
1070
     1
1070
    44
1040
1.0
1070
    74
1070
     0
1000
MTEXTEND
  0
MTEXT
  5
1BD
102
{ACAD_XDICTIONARY
360
73D
102
}
330
27
100
AcDbEntity
  8
1
 62
     3
100
AcDbMText
 10
-3336.860710837364
 20
290.4825589545014
 30
0.0
 40
3.5
 41
0.0
 71
     4
 72
     1
  1
\U+0192X\U+0192g\U+0192b\U+0192p\U+0081[
  7
CONVERTER_3
 73
     1
 44
1.0
1001
ACAD
1000
MTEXTBEGIN
1070
    73
1070
     1
1070
    44
1040
1.0
1070
    74
1070
     0
1000
MTEXTEND
  0
MTEXT
  5
1BC
330
27
100
AcDbEntity
  8
1
 62
     3
100
AcDbMText
 10
-3251.360710837364
 20
242.4825589545014
 30
0.0
 40
6.0
 41
0.0
 71
     4
 72
     1
  1
GDFD-HR3-A01
  7
CONVERTER_3
 73
     1
 44
1.0
1001
ACAD
1000
MTEXTBEGIN
1070
    73
1070
     1
1070
    44
1040
1.0
1070
    74
1070
     0
1000
MTEXTEND
  0
MTEXT
  5
1BB
102
{ACAD_XDICTIONARY
360
73B
102
}
330
27
100
AcDbEntity
  8
1
 62
     3
100
AcDbMText
 10
-3251.360710837364
 20
257.4825589545014
 30
0.0
 40
6.0
 41
0.0
 71
     4
 72
     1
  1
\U+2018g%%d\U+00CF\U+0090}\U+0081E\U+017D\U+00CC\U+2022t\U+0090}
  7
CONVERTER_3
 73
     1
 44
1.0
1001
ACAD
1000
MTEXTBEGIN
1070
    73
1070
     1
1070
    44
1040
1.0
1070
    74
1070
     0
1000
MTEXTEND
  0
MTEXT
  5
1BA
330
27
100
AcDbEntity
  8
1
 62
     3
100
AcDbMText
 10
-3251.360710837364
 20
272.4825589545014
 30
0.0
 40
6.0
 41
0.0
 71
     4
 72
     1
  1
HR-300
  7
CONVERTER_3
 73
     1
 44
1.0
1001
ACAD
1000
MTEXTBEGIN
1070
    73
1070
     1
1070
    44
1040
1.0
1070
    74
1070
     0
1000
MTEXTEND
  0
MTEXT
  5
1B9
330
27
100
AcDbEntity
  8
1
 62
     3
100
AcDbMText
 10
-3251.360710837364
 20
304.4825589545014
 30
0.0
 40
3.5
 41
0.0
 71
     5
 72
     1
  1
1
  7
CONVERTER_3
 73
     1
 44
1.0
1001
ACAD
1000
MTEXTBEGIN
1070
    73
1070
     1
1070
    44
1040
1.0
1070
    74
1070
     0
1000
MTEXTEND
  0
MTEXT
  5
1B8
330
27
100
AcDbEntity
  8
1
 62
     3
100
AcDbMText
 10
-3251.360710837364
 20
297.4825589545014
 30
0.0
 40
3.5
 41
0.0
 71
     5
 72
     1
  1
1
  7
CONVERTER_3
 73
     1
 44
1.0
1001
ACAD
1000
MTEXTBEGIN
1070
    73
1070
     1
1070
    44
1040
1.0
1070
    74
1070
     0
1000
MTEXTEND
  0
MTEXT
  5
1B7
330
27
100
AcDbEntity
  8
1
 62
     3
100
AcDbMText
 10
-3251.360710837364
 20
290.4825589545014
 30
0.0
 40
3.5
 41
0.0
 71
     5
 72
     1
  1
1
  7
CONVERTER_3
 73
     1
 44
1.0
1001
ACAD
1000
MTEXTBEGIN
1070
    73
1070
     1
1070
    44
1040
1.0
1070
    74
1070
     0
1000
MTEXTEND
  0
MTEXT
  5
1B6
330
27
100
AcDbEntity
  8
1
 62
     3
100
AcDbMText
 10
-3346.360710837364
 20
304.4825589545014
 30
0.0
 40
3.5
 41
0.0
 71
     5
 72
     1
  1
3
  7
CONVERTER_3
 73
     1
 44
1.0
1001
ACAD
1000
MTEXTBEGIN
1070
    73
1070
     1
1070
    44
1040
1.0
1070
    74
1070
     0
1000
MTEXTEND
  0
MTEXT
  5
1B5
330
27
100
AcDbEntity
  8
1
 62
     3
100
AcDbMText
 10
-3346.360710837364
 20
297.4825589545014
 30
0.0
 40
3.5
 41
0.0
 71
     5
 72
     1
  1
2
  7
CONVERTER_3
 73
     1
 44
1.0
1001
ACAD
1000
MTEXTBEGIN
1070
    73
1070
     1
1070
    44
1040
1.0
1070
    74
1070
     0
1000
MTEXTEND
  0
MTEXT
  5
1B4
330
27
100
AcDbEntity
  8
1
 62
     3
100
AcDbMText
 10
-3346.360710837364
 20
290.4825589545014
 30
0.0
 40
3.5
 41
0.0
 71
     5
 72
     1
  1
1
  7
CONVERTER_3
 73
     1
 44
1.0
1001
ACAD
1000
MTEXTBEGIN
1070
    73
1070
     1
1070
    44
1040
1.0
1070
    74
1070
     0
1000
MTEXTEND
  0
MTEXT
  5
1B2
330
27
100
AcDbEntity
  8
1
 62
     4
100
AcDbMText
 10
-3306.56200104001
 20
244.895751477264
 30
0.0
 40
2.0
 41
0.0
 71
     5
 72
     1
  1
110
  7
CONVERTER_1
 73
     1
 44
1.0
1001
ACAD
1000
MTEXTBEGIN
1070
    73
1070
     1
1070
    44
1040
1.0
1070
    74
1070
     0
1000
MTEXTEND
  0
MTEXT
  5
1B1
330
27
100
AcDbEntity
  8
1
 62
     4
100
AcDbMText
 10
-3307.739899203901
 20
239.7915586964532
 30
0.0
 40
2.0
 41
0.0
 71
     5
 72
     1
  1
TEL
  7
CONVERTER_2
 73
     1
 44
1.0
1001
ACAD
1000
MTEXTBEGIN
1070
    73
1070
     1
1070
    44
1040
1.0
1070
    74
1070
     0
1000
MTEXTEND
  0
MTEXT
  5
1AF
102
{ACAD_XDICTIONARY
360
739
102
}
330
27
100
AcDbEntity
  8
1
 62
     4
100
AcDbMText
 10
-3310.710922024377
 20
244.8332943918067
 30
0.0
 40
2.5
 41
0.0
 71
     5
 72
     1
  1
\U+0081\U+00CF
  7
CONVERTER_1
 73
     1
 44
1.0
1001
ACAD
1000
MTEXTBEGIN
1070
    73
1070
     1
1070
    44
1040
1.0
1070
    74
1070
     0
1000
MTEXTEND
  0
MTEXT
  5
1AE
330
27
100
AcDbEntity
  8
1
 62
     4
100
AcDbMText
 10
-3292.074506150481
 20
239.771620685573
 30
0.0
 40
2.0
 41
0.0
 71
     5
 72
     1
  1
03 (3876) 0600
  7
CONVERTER_1
 73
     1
 44
1.0
1001
ACAD
1000
MTEXTBEGIN
1070
    73
1070
     1
1070
    44
1040
1.0
1070
    74
1070
     0
1000
MTEXTEND
  0
MTEXT
  5
1AD
330
27
100
AcDbEntity
  8
1
 62
     4
100
AcDbMText
 10
-3272.948807909524
 20
244.9488658020678
 30
0.0
 40
2.0
 41
0.0
 71
     5
 72
     1
  1
1-27-4
  7
CONVERTER_1
 73
     1
 44
1.0
1001
ACAD
1000
MTEXTBEGIN
1070
    73
1070
     1
1070
    44
1040
1.0
1070
    74
1070
     0
1000
MTEXTEND
  0
MTEXT
  5
1AC
102
{ACAD_XDICTIONARY
360
737
102
}
330
27
100
AcDbEntity
  8
1
 62
     4
100
AcDbMText
 10
-3289.224854227733
 20
244.9304480916326
 30
0.0
 40
2.5
 41
0.0
 71
     5
 72
     1
  1
\U+201C\U+0152\U+2039\U+20AC\U+201Cs\U+2018\U+00F0\U+201C\U+0152\U+2039\U+00CC\U+201C*\U+2019J
  7
CONVERTER_1
 73
     1
 44
1.0
1001
ACAD
1000
MTEXTBEGIN
1070
    73
1070
     1
1070
    44
1040
1.0
1070
    74
1070
     0
1000
MTEXTEND
  0
MTEXT
  5
1AB
102
{ACAD_XDICTIONARY
360
735
102
}
330
27
100
AcDbEntity
  8
1
 62
     4
100
AcDbMText
 10
-3309.37099870977
 20
249.6593545717117
 30
0.0
 40
3.0
 41
0.0
 71
     5
 72
     1
  1
\U+00B2{\U+017D\U+00C5
  7
CONVERTER_1
 73
     1
 44
1.0
1001
ACAD
1000
MTEXTBEGIN
1070
    73
1070
     1
1070
    44
1040
1.0
1070
    74
1070
     0
1000
MTEXTEND
  0
MTEXT
  5
1AA
102
{ACAD_XDICTIONARY
360
733
102
}
330
27
100
AcDbEntity
  8
1
 62
     4
100
AcDbMText
 10
-3336.935796007773
 20
239.3889292440347
 30
0.0
 40
4.0
 41
0.0
 71
     5
 72
     1
  1
\U+008D\U+201A\U+2039\U+00C7\U+2039\U+00C1\U+2022\U+00B4\U+0160\U+201D\U+017D\U+00DB\U+2030\U+00FF\U+017D\U+00C5
  7
CONVERTER_1
 73
     1
 44
1.0
1001
ACAD
1000
MTEXTBEGIN
1070
    73
1070
     1
1070
    44
1040
1.0
1070
    74
1070
     0
1000
MTEXTEND
  0
MTEXT
  5
1A9
102
{ACAD_XDICTIONARY
360
731
102
}
330
27
100
AcDbEntity
  8
1
 62
     4
100
AcDbMText
 10
-3349.673639338832
 20
277.4757029309951
 30
0.0
 40
4.0
 41
0.0
 71
     5
 72
     1
  1
\U+017D\U+00D6\U+201Cx
  7
CONVERTER_1
 73
     1
 44
1.0
1001
ACAD
1000
MTEXTBEGIN
1070
    73
1070
     1
1070
    44
1040
1.0
1070
    74
1070
     0
1000
MTEXTEND
  0
MTEXT
  5
1A8
102
{ACAD_XDICTIONARY
360
72F
102
}
330
27
100
AcDbEntity
  8
1
 62
     4
100
AcDbMText
 10
-3270.860710837364
 20
276.4825589545014
 30
0.0
 40
4.0
 41
0.0
 71
     5
 72
     1
  1
\U+2019S  \U+201C\U+00B2
  7
CONVERTER_1
 73
     1
 44
1.0
1001
ACAD
1000
MTEXTBEGIN
1070
    73
1070
     1
1070
    44
1040
1.0
1070
    74
1070
     0
1000
MTEXTEND
  0
MTEXT
  5
1A7
102
{ACAD_XDICTIONARY
360
72D
102
}
330
27
100
AcDbEntity
  8
1
 62
     4
100
AcDbMText
 10
-3290.860710837364
 20
276.4825589545014
 30
0.0
 40
4.0
 41
0.0
 71
     5
 72
     1
  1
\U+0152\U+0081  \U+0090}
  7
CONVERTER_1
 73
     1
 44
1.0
1001
ACAD
1000
MTEXTBEGIN
1070
    73
1070
     1
1070
    44
1040
1.0
1070
    74
1070
     0
1000
MTEXTEND
  0
MTEXT
  5
1A6
102
{ACAD_XDICTIONARY
360
72B
102
}
330
27
100
AcDbEntity
  8
1
 62
     4
100
AcDbMText
 10
-3310.860710837364
 20
276.4825589545014
 30
0.0
 40
4.0
 41
0.0
 71
     5
 72
     1
  1
\U+008F\U+00B0  \U+201DF
  7
CONVERTER_1
 73
     1
 44
1.0
1001
ACAD
1000
MTEXTBEGIN
1070
    73
1070
     1
1070
    44
1040
1.0
1070
    74
1070
     0
1000
MTEXTEND
  0
MTEXT
  5
1A5
102
{ACAD_XDICTIONARY
360
729
102
}
330
27
100
AcDbEntity
  8
1
 62
     4
100
AcDbMText
 10
-3188.860710837364
 20
283.4825589545014
 30
0.0
 40
4.0
 41
0.0
 71
     5
 72
     1
  1
\U+2039L   \U+017D\U+00B2
  7
CONVERTER_1
 73
     1
 44
1.0
1001
ACAD
1000
MTEXTBEGIN
1070
    73
1070
     1
1070
    44
1040
1.0
1070
    74
1070
     0
1000
MTEXTEND
  0
MTEXT
  5
1A4
102
{ACAD_XDICTIONARY
360
727
102
}
330
27
100
AcDbEntity
  8
1
 62
     4
100
AcDbMText
 10
-3223.860710837364
 20
283.4825589545014
 30
0.0
 40
4.0
 41
0.0
 71
     5
 72
     1
  1
\U+017Dd   \U+008F\U+00D0   \U+201A\U+00AF
  7
CONVERTER_1
 73
     1
 44
1.0
1001
ACAD
1000
MTEXTBEGIN
1070
    73
1070
     1
1070
    44
1040
1.0
1070
    74
1070
     0
1000
MTEXTEND
  0
MTEXT
  5
1A3
102
{ACAD_XDICTIONARY
360
725
102
}
330
27
100
AcDbEntity
  8
1
 62
     4
100
AcDbMText
 10
-3251.360710837364
 20
283.4825589545014
 30
0.0
 40
4.0
 41
0.0
 71
     5
 72
     1
  1
\U+0090\U+201D %%d%%d
  7
CONVERTER_1
 73
     1
 44
1.0
1001
ACAD
1000
MTEXTBEGIN
1070
    73
1070
     1
1070
    44
1040
1.0
1070
    74
1070
     0
1000
MTEXTEND
  0
MTEXT
  5
1A2
102
{ACAD_XDICTIONARY
360
723
102
}
330
27
100
AcDbEntity
  8
1
 62
     4
100
AcDbMText
 10
-3273.860710837364
 20
283.4825589545014
 30
0.0
 40
4.0
 41
0.0
 71
     5
 72
     1
  1
\U+008D\U+00DF   \U+017D\U+00A2
  7
CONVERTER_1
 73
     1
 44
1.0
1001
ACAD
1000
MTEXTBEGIN
1070
    73
1070
     1
1070
    44
1040
1.0
1070
    74
1070
     0
1000
MTEXTEND
  0
MTEXT
  5
1A1
102
{ACAD_XDICTIONARY
360
721
102
}
330
27
100
AcDbEntity
  8
1
 62
     4
100
AcDbMText
 10
-3313.860710837364
 20
283.4825589545014
 30
0.0
 40
4.0
 41
0.0
 71
     5
 72
     1
  1
\U+2022i        \U+00B2\U+00A5
  7
CONVERTER_1
 73
     1
 44
1.0
1001
ACAD
1000
MTEXTBEGIN
1070
    73
1070
     1
1070
    44
1040
1.0
1070
    74
1070
     0
1000
MTEXTEND
  0
MTEXT
  5
1A0
102
{ACAD_XDICTIONARY
360
71F
102
}
330
27
100
AcDbEntity
  8
1
 62
     4
100
AcDbMText
 10
-3346.360710837364
 20
283.4825589545014
 30
0.0
 40
4.0
 41
0.0
 71
     5
 72
     1
  1
\U+2022i \U+201D\U+00E5
  7
CONVERTER_1
 73
     1
 44
1.0
1001
ACAD
1000
MTEXTBEGIN
1070
    73
1070
     1
1070
    44
1040
1.0
1070
    74
1070
     0
1000
MTEXTEND
  0
MTEXT
  5
19F
102
{ACAD_XDICTIONARY
360
71D
102
}
330
27
100
AcDbEntity
  8
1
 62
     4
100
AcDbMText
 10
-3260.960710837364
 20
242.4825589545014
 30
0.0
 40
4.0
 41
0.0
 71
     4
 72
     1
  1
\U+0090}\P\U+201D\U+00E5
  7
CONVERTER_1
 73
     1
 44
1.0
1001
ACAD
1000
MTEXTBEGIN
1070
    73
1070
     1
1070
    44
1040
1.0
1070
    74
1070
     0
1000
MTEXTEND
  0
MTEXT
  5
19E
102
{ACAD_XDICTIONARY
360
71B
102
}
330
27
100
AcDbEntity
  8
1
 62
     4
100
AcDbMText
 10
-3260.960710837364
 20
257.4825589545014
 30
0.0
 40
4.0
 41
0.0
 71
     4
 72
     1
  1
\U+0090}\P\U+00B2\U+00A5
  7
CONVERTER_1
 73
     1
 44
1.0
1001
ACAD
1000
MTEXTBEGIN
1070
    73
1070
     1
1070
    44
1040
1.0
1070
    74
1070
     0
1000
MTEXTEND
  0
MTEXT
  5
19D
102
{ACAD_XDICTIONARY
360
719
102
}
330
27
100
AcDbEntity
  8
1
 62
     4
100
AcDbMText
 10
-3260.960710837364
 20
272.4825589545014
 30
0.0
 40
4.0
 41
0.0
 71
     4
 72
     1
  1
\U+2022i\P\U+00B2\U+00A5
  7
CONVERTER_1
 73
     1
 44
1.0
1001
ACAD
1000
MTEXTBEGIN
1070
    73
1070
     1
1070
    44
1040
1.0
1070
    74
1070
     0
1000
MTEXTEND
  0
ARC
  5
19B
330
27
100
AcDbEntity
  8
1
  6
Continuous
 62
     7
100
AcDbCircle
 10
-3322.791588380982
 20
244.4151548798761
 30
0.0
 40
0.26152226372187
100
AcDbArc
 50
180.0
 51
-90.0
  0
ARC
  5
19A
330
27
100
AcDbEntity
  8
1
  6
Continuous
 62
     7
100
AcDbCircle
 10
-3325.09298430174
 20
244.4151548798761
 30
0.0
 40
0.2615222637223
100
AcDbArc
 50
-90.0
 51
0.0
  0
ARC
  5
199
330
27
100
AcDbEntity
  8
1
  6
Continuous
 62
     7
100
AcDbCircle
 10
-3322.791588380982
 20
250.0640357762823
 30
0.0
 40
0.2615222637223
100
AcDbArc
 50
90.0
 51
180.0
  0
ARC
  5
198
330
27
100
AcDbEntity
  8
1
  6
Continuous
 62
     7
100
AcDbCircle
 10
-3324.988375396252
 20
250.1734757882323
 30
0.0
 40
0.15691335823385
100
AcDbArc
 50
0.0
 51
165.0000000000168
  0
ARC
  5
197
330
27
100
AcDbEntity
  8
1
  6
Continuous
 62
     7
100
AcDbCircle
 10
-3326.505204525842
 20
247.7460146012929
 30
0.0
 40
0.15691335823271
100
AcDbArc
 50
-164.9999999999738
 51
-14.99999999989728
  0
ARC
  5
196
330
27
100
AcDbEntity
  8
1
  6
Continuous
 62
     7
100
AcDbCircle
 10
-3329.329644974045
 20
250.2034143792066
 30
0.0
 40
0.1569133582332
100
AcDbArc
 50
15.0000000000534
 51
180.0
  0
ARC
  5
195
330
27
100
AcDbEntity
  8
1
  6
Continuous
 62
     7
100
AcDbCircle
 10
-3329.329644974045
 20
244.3105459743872
 30
0.0
 40
0.15691335823385
100
AcDbArc
 50
180.0
 51
-90.0
  0
ARC
  5
194
330
27
100
AcDbEntity
  8
1
  6
Continuous
 62
     7
100
AcDbCircle
 10
-3330.166516217956
 20
244.3105459743872
 30
0.0
 40
0.1569133582334
100
AcDbArc
 50
-90.0
 51
0.0
  0
ARC
  5
193
330
27
100
AcDbEntity
  8
1
  6
Continuous
 62
     7
100
AcDbCircle
 10
-3330.166516217956
 20
250.1686446817712
 30
0.0
 40
0.15691335823294
100
AcDbArc
 50
0.0
 51
90.0
  0
ARC
  5
192
330
27
100
AcDbEntity
  8
1
  6
Continuous
 62
     7
100
AcDbCircle
 10
-3329.172731615812
 20
244.0490237106646
 30
0.0
 40
0.10460890548893
100
AcDbArc
 50
0.0
 51
90.0
  0
ARC
  5
191
330
27
100
AcDbEntity
  8
1
  6
Continuous
 62
     7
100
AcDbCircle
 10
-3330.42803848168
 20
244.0490237106646
 30
0.0
 40
0.10460890548919
100
AcDbArc
 50
90.0
 51
180.0
  0
ARC
  5
190
330
27
100
AcDbEntity
  8
1
  6
Continuous
 62
     7
100
AcDbCircle
 10
-3325.302202112718
 20
244.0490237106646
 30
0.0
 40
0.10460890548919
100
AcDbArc
 50
90.0
 51
180.0
  0
ARC
  5
18F
330
27
100
AcDbEntity
  8
1
  6
Continuous
 62
     7
100
AcDbCircle
 10
-3322.582370570005
 20
244.0490237106646
 30
0.0
 40
0.10460890548893
100
AcDbArc
 50
0.0
 51
90.0
  0
ARC
  5
18E
330
27
100
AcDbEntity
  8
1
  6
Continuous
 62
     7
100
AcDbCircle
 10
-3322.582370570005
 20
250.4301669454937
 30
0.0
 40
0.1046089054891
100
AcDbArc
 50
-90.0
 51
0.0
  0
ARC
  5
18D
330
27
100
AcDbEntity
  8
1
  6
Continuous
 62
     7
100
AcDbCircle
 10
-3330.42803848168
 20
250.4301669454937
 30
0.0
 40
0.10460890548893
100
AcDbArc
 50
180.0
 51
-90.0
  0
ARC
  5
18C
330
27
100
AcDbEntity
  8
1
  6
Continuous
 62
     7
100
AcDbCircle
 10
-3343.347238309571
 20
244.0490237106646
 30
0.0
 40
0.10460890548919
100
AcDbArc
 50
90.0
 51
180.0
  0
ARC
  5
18B
330
27
100
AcDbEntity
  8
1
  6
Continuous
 62
     7
100
AcDbCircle
 10
-3340.418188955879
 20
244.0490237106646
 30
0.0
 40
0.10460890548984
100
AcDbArc
 50
0.0
 51
90.0
  0
ARC
  5
18A
330
27
100
AcDbEntity
  8
1
  6
Continuous
 62
     7
100
AcDbCircle
 10
-3340.627406766856
 20
244.4151548798761
 30
0.0
 40
0.26152226372324
100
AcDbArc
 50
180.0
 51
-90.0
  0
ARC
  5
189
330
27
100
AcDbEntity
  8
1
  6
Continuous
 62
     7
100
AcDbCircle
 10
-3343.138020498593
 20
244.4151548798761
 30
0.0
 40
0.2615222637223
100
AcDbArc
 50
-90.0
 51
0.0
  0
ARC
  5
188
330
27
100
AcDbEntity
  8
1
  6
Continuous
 62
     7
100
AcDbCircle
 10
-3343.393133715468
 20
249.5932957015816
 30
0.0
 40
0.7322623384229999
100
AcDbArc
 50
90.0
 51
162.527114729691
  0
ARC
  5
187
330
27
100
AcDbEntity
  8
1
  6
Continuous
 62
     7
100
AcDbCircle
 10
-3340.372293549981
 20
249.5932957015816
 30
0.0
 40
0.7322623384229901
100
AcDbArc
 50
17.47288527030901
 51
90.0
  0
ARC
  5
186
330
27
100
AcDbEntity
  8
1
  6
Continuous
 62
     7
100
AcDbCircle
 10
-3340.522797861368
 20
249.9594268707933
 30
0.0
 40
0.36613116921131
100
AcDbArc
 50
90.0
 51
180.0
  0
ARC
  5
185
330
27
100
AcDbEntity
  8
1
  6
Continuous
 62
     7
100
AcDbCircle
 10
-3343.242629404083
 20
249.9594268707933
 30
0.0
 40
0.36613116921217
100
AcDbArc
 50
0.0
 51
90.0
  0
ARC
  5
184
330
27
100
AcDbEntity
  8
1
  6
Continuous
 62
     7
100
AcDbCircle
 10
-3344.445631817205
 20
244.0490237106646
 30
0.0
 40
0.10460890548893
100
AcDbArc
 50
0.0
 51
90.0
  0
ARC
  5
183
330
27
100
AcDbEntity
  8
1
  6
Continuous
 62
     7
100
AcDbCircle
 10
-3347.374681170897
 20
244.0490237106646
 30
0.0
 40
0.10460890548919
100
AcDbArc
 50
90.0
 51
180.0
  0
ARC
  5
182
330
27
100
AcDbEntity
  8
1
  6
Continuous
 62
     7
100
AcDbCircle
 10
-3349.780685997144
 20
244.0490237106646
 30
0.0
 40
0.10460890548893
100
AcDbArc
 50
0.0
 51
90.0
  0
ARC
  5
181
330
27
100
AcDbEntity
  8
1
  6
Continuous
 62
     7
100
AcDbCircle
 10
-3351.245210673991
 20
244.0490237106646
 30
0.0
 40
0.10460890548919
100
AcDbArc
 50
90.0
 51
180.0
  0
ARC
  5
180
330
27
100
AcDbEntity
  8
1
  6
Continuous
 62
     7
100
AcDbCircle
 10
-3344.803900239813
 20
244.4151548798761
 30
0.0
 40
0.26152226372115
100
AcDbArc
 50
-162.9999999999306
 51
-90.0
  0
ARC
  5
17F
330
27
100
AcDbEntity
  8
1
  6
Continuous
 62
     7
100
AcDbCircle
 10
-3350.988888316301
 20
244.4151548798761
 30
0.0
 40
0.2615222637223
100
AcDbArc
 50
-90.0
 51
-16.99999999998196
  0
ARC
  5
17E
330
27
100
AcDbEntity
  8
1
  6
Continuous
 62
     7
100
AcDbCircle
 10
-3347.085071236457
 20
244.3628504271317
 30
0.0
 40
0.20921781097789
100
AcDbArc
 50
-90.0
 51
17.00000000006319
  0
ARC
  5
17D
330
27
100
AcDbEntity
  8
1
  6
Continuous
 62
     7
100
AcDbCircle
 10
-3347.596785667845
 20
246.0365929149557
 30
0.0
 40
0.20921781097761
100
AcDbArc
 50
17.00000000000365
 51
90.0
  0
ARC
  5
17C
330
27
100
AcDbEntity
  8
1
  6
Continuous
 62
     7
100
AcDbCircle
 10
-3350.036372437139
 20
244.3105459743872
 30
0.0
 40
0.15691335823364
100
AcDbArc
 50
163.0000000000474
 51
-90.0
  0
ARC
  5
17B
330
27
100
AcDbEntity
  8
1
  6
Continuous
 62
     7
100
AcDbCircle
 10
-3349.492675853788
 20
246.0888973677002
 30
0.0
 40
0.1569133582336
100
AcDbArc
 50
90.0
 51
162.9999999999878
  0
ARC
  5
17A
330
27
100
AcDbEntity
  8
1
  6
Continuous
 62
     7
100
AcDbCircle
 10
-3347.813939624457
 20
246.9257686116121
 30
0.0
 40
0.15691335823342
100
AcDbArc
 50
-90.0
 51
17.00000000001216
  0
ARC
  5
179
330
27
100
AcDbEntity
  8
1
  6
Continuous
 62
     7
100
AcDbCircle
 10
-3349.236818638094
 20
246.9257686116121
 30
0.0
 40
0.15691335823369
100
AcDbArc
 50
162.9999999999878
 51
-90.0
  0
ARC
  5
178
330
27
100
AcDbEntity
  8
1
  6
Continuous
 62
     7
100
AcDbCircle
 10
-3348.525379131277
 20
249.2527823853807
 30
0.0
 40
0.15691335823364
100
AcDbArc
 50
16.99999999995261
 51
163.0000000000474
  0
CIRCLE
  5
177
330
27
100
AcDbEntity
  8
1
  6
Continuous
 62
     5
100
AcDbCircle
 10
-3345.785264376046
 20
262.4825589545014
 30
0.0
 40
4.0
  0
CIRCLE
  5
176
330
27
100
AcDbEntity
  8
1
  6
Continuous
 62
     5
100
AcDbCircle
 10
-3345.785264376046
 20
262.4825589545014
 30
0.0
 40
2.0
  0
CIRCLE
  5
175
330
27
100
AcDbEntity
  8
1
  6
Continuous
 62
     7
100
AcDbCircle
 10
-3334.873916964962
 20
247.2395953280793
 30
0.0
 40
3.81822505034916
  0
ARC
  5
174
330
27
100
AcDbEntity
  8
1
  6
Continuous
 62
     7
100
AcDbCircle
 10
-3336.61220412639
 20
245.5013081666505
 30
0.0
 40
0.8368712439116599
100
AcDbArc
 50
134.9999999999669
 51
-45.00000000000138
  0
ARC
  5
173
330
27
100
AcDbEntity
  8
1
  6
Continuous
 62
     7
100
AcDbCircle
 10
-3333.135629803532
 20
248.9778824895079
 30
0.0
 40
0.83687124391198
100
AcDbArc
 50
-45.000000000011
 51
134.9999999999986
  0
ARC
  5
172
330
27
100
AcDbEntity
  8
1
  6
Continuous
 62
     7
100
AcDbCircle
 10
-3344.550240722694
 20
249.2271645323701
 30
0.0
 40
0.26152226372287
100
AcDbArc
 50
178.1475627146441
 51
-17.47288527024726
  0
ARC
  5
171
330
27
100
AcDbEntity
  8
1
  6
Continuous
 62
     7
100
AcDbCircle
 10
-3339.215186542755
 20
249.2271645323701
 30
0.0
 40
0.26152226372292
100
AcDbArc
 50
-162.5271147297527
 51
1.852437285355869
  0
LINE
  5
170
330
27
100
AcDbEntity
  8
1
  6
Continuous
 62
     5
100
AcDbLine
 10
-3353.860710837364
 20
300.9825589545014
 30
0.0
 11
-3353.860710837364
 21
307.9825589545014
 31
0.0
  0
LINE
  5
16F
330
27
100
AcDbEntity
  8
1
  6
Continuous
 62
     5
100
AcDbLine
 10
-3353.860710837364
 20
293.9825589545014
 30
0.0
 11
-3353.860710837364
 21
300.9825589545014
 31
0.0
  0
LINE
  5
16E
330
27
100
AcDbEntity
  8
1
  6
Continuous
 62
     5
100
AcDbLine
 10
-3353.860710837364
 20
307.9825589545014
 30
0.0
 11
-3338.860710837364
 21
307.9825589545014
 31
0.0
  0
LINE
  5
16D
330
27
100
AcDbEntity
  8
1
  6
Continuous
 62
     5
100
AcDbLine
 10
-3338.860710837364
 20
307.9825589545014
 30
0.0
 11
-3288.860710837364
 21
307.9825589545014
 31
0.0
  0
LINE
  5
16C
330
27
100
AcDbEntity
  8
1
  6
Continuous
 62
     5
100
AcDbLine
 10
-3338.860710837364
 20
300.9825589545014
 30
0.0
 11
-3288.860710837364
 21
300.9825589545014
 31
0.0
  0
LINE
  5
16B
330
27
100
AcDbEntity
  8
1
  6
Continuous
 62
     5
100
AcDbLine
 10
-3353.860710837364
 20
300.9825589545014
 30
0.0
 11
-3338.860710837364
 21
300.9825589545014
 31
0.0
  0
LINE
  5
16A
330
27
100
AcDbEntity
  8
1
  6
Continuous
 62
     5
100
AcDbLine
 10
-3338.860710837364
 20
307.9825589545014
 30
0.0
 11
-3338.860710837364
 21
300.9825589545014
 31
0.0
  0
LINE
  5
169
330
27
100
AcDbEntity
  8
1
  6
Continuous
 62
     5
100
AcDbLine
 10
-3338.860710837364
 20
300.9825589545014
 30
0.0
 11
-3338.860710837364
 21
293.9825589545014
 31
0.0
  0
LINE
  5
168
330
27
100
AcDbEntity
  8
1
  6
Continuous
 62
     5
100
AcDbLine
 10
-3288.860710837364
 20
307.9825589545014
 30
0.0
 11
-3288.860710837364
 21
300.9825589545014
 31
0.0
  0
LINE
  5
167
330
27
100
AcDbEntity
  8
1
  6
Continuous
 62
     5
100
AcDbLine
 10
-3288.860710837364
 20
300.9825589545014
 30
0.0
 11
-3288.860710837364
 21
293.9825589545014
 31
0.0
  0
LINE
  5
166
330
27
100
AcDbEntity
  8
1
  6
Continuous
 62
     5
100
AcDbLine
 10
-3288.860710837364
 20
307.9825589545014
 30
0.0
 11
-3258.860710837364
 21
307.9825589545014
 31
0.0
  0
LINE
  5
165
330
27
100
AcDbEntity
  8
1
  6
Continuous
 62
     5
100
AcDbLine
 10
-3288.860710837364
 20
300.9825589545014
 30
0.0
 11
-3258.860710837364
 21
300.9825589545014
 31
0.0
  0
LINE
  5
164
330
27
100
AcDbEntity
  8
1
  6
Continuous
 62
     5
100
AcDbLine
 10
-3258.860710837364
 20
307.9825589545014
 30
0.0
 11
-3243.860710837364
 21
307.9825589545014
 31
0.0
  0
LINE
  5
163
330
27
100
AcDbEntity
  8
1
  6
Continuous
 62
     5
100
AcDbLine
 10
-3258.860710837364
 20
300.9825589545014
 30
0.0
 11
-3243.860710837364
 21
300.9825589545014
 31
0.0
  0
LINE
  5
162
330
27
100
AcDbEntity
  8
1
  6
Continuous
 62
     5
100
AcDbLine
 10
-3258.860710837364
 20
307.9825589545014
 30
0.0
 11
-3258.860710837364
 21
300.9825589545014
 31
0.0
  0
LINE
  5
161
330
27
100
AcDbEntity
  8
1
  6
Continuous
 62
     5
100
AcDbLine
 10
-3258.860710837364
 20
300.9825589545014
 30
0.0
 11
-3258.860710837364
 21
293.9825589545014
 31
0.0
  0
LINE
  5
160
330
27
100
AcDbEntity
  8
1
  6
Continuous
 62
     5
100
AcDbLine
 10
-3243.860710837364
 20
307.9825589545014
 30
0.0
 11
-3243.860710837364
 21
300.9825589545014
 31
0.0
  0
LINE
  5
15F
330
27
100
AcDbEntity
  8
1
  6
Continuous
 62
     5
100
AcDbLine
 10
-3243.860710837364
 20
300.9825589545014
 30
0.0
 11
-3243.860710837364
 21
293.9825589545014
 31
0.0
  0
LINE
  5
15E
330
27
100
AcDbEntity
  8
1
  6
Continuous
 62
     5
100
AcDbLine
 10
-3203.860710837364
 20
307.9825589545014
 30
0.0
 11
-3173.860710837364
 21
307.9825589545014
 31
0.0
  0
LINE
  5
15D
330
27
100
AcDbEntity
  8
1
  6
Continuous
 62
     5
100
AcDbLine
 10
-3203.860710837364
 20
300.9825589545014
 30
0.0
 11
-3173.860710837364
 21
300.9825589545014
 31
0.0
  0
LINE
  5
15C
330
27
100
AcDbEntity
  8
1
  6
Continuous
 62
     5
100
AcDbLine
 10
-3203.860710837364
 20
307.9825589545014
 30
0.0
 11
-3203.860710837364
 21
300.9825589545014
 31
0.0
  0
LINE
  5
15B
330
27
100
AcDbEntity
  8
1
  6
Continuous
 62
     5
100
AcDbLine
 10
-3203.860710837364
 20
300.9825589545014
 30
0.0
 11
-3203.860710837364
 21
293.9825589545014
 31
0.0
  0
LINE
  5
15A
330
27
100
AcDbEntity
  8
1
  6
Continuous
 62
     5
100
AcDbLine
 10
-3243.860710837364
 20
307.9825589545014
 30
0.0
 11
-3203.860710837364
 21
307.9825589545014
 31
0.0
  0
LINE
  5
159
330
27
100
AcDbEntity
  8
1
  6
Continuous
 62
     5
100
AcDbLine
 10
-3243.860710837364
 20
300.9825589545014
 30
0.0
 11
-3203.860710837364
 21
300.9825589545014
 31
0.0
  0
LINE
  5
158
330
27
100
AcDbEntity
  8
1
  6
Continuous
 62
     5
100
AcDbLine
 10
-3345.785264376046
 20
261.2873096069507
 30
0.0
 11
-3345.785264376046
 21
256.4853888086104
 31
0.0
  0
LINE
  5
157
330
27
100
AcDbEntity
  8
1
  6
Continuous
 62
     5
100
AcDbLine
 10
-3345.785264376046
 20
263.2766767948347
 30
0.0
 11
-3345.785264376046
 21
261.7675016867847
 31
0.0
  0
LINE
  5
156
330
27
100
AcDbEntity
  8
1
  6
Continuous
 62
     5
100
AcDbLine
 10
-3345.785264376046
 20
268.0785975931748
 30
0.0
 11
-3345.785264376046
 21
263.7225694403946
 31
0.0
  0
LINE
  5
155
330
27
100
AcDbEntity
  8
1
  6
Continuous
 62
     5
100
AcDbLine
 10
-3330.035076614653
 20
262.4825589545014
 30
0.0
 11
-3323.586782971166
 21
262.4825589545014
 31
0.0
  0
LINE
  5
154
330
27
100
AcDbEntity
  8
1
  6
Continuous
 62
     5
100
AcDbLine
 10
-3331.647150025523
 20
262.4825589545014
 30
0.0
 11
-3330.789664168677
 21
262.4825589545014
 31
0.0
  0
LINE
  5
153
330
27
100
AcDbEntity
  8
1
  6
Continuous
 62
     5
100
AcDbLine
 10
-3344.235042404029
 20
262.4825589545014
 30
0.0
 11
-3332.161641539631
 21
262.4825589545014
 31
0.0
  0
LINE
  5
152
330
27
100
AcDbEntity
  8
1
  6
Continuous
 62
     5
100
AcDbLine
 10
-3346.670302237473
 20
262.4825589545014
 30
0.0
 11
-3344.715234483863
 21
262.4825589545014
 31
0.0
  0
LINE
  5
151
330
27
100
AcDbEntity
  8
1
  6
Continuous
 62
     5
100
AcDbLine
 10
-3351.266426430171
 20
262.4825589545014
 30
0.0
 11
-3347.219093185855
 21
262.4825589545014
 31
0.0
  0
LINE
  5
150
330
27
100
AcDbEntity
  8
1
  6
Continuous
 62
     5
100
AcDbLine
 10
-3325.979027940316
 20
258.4825589545014
 30
0.0
 11
-3335.810384431965
 21
260.4825589545014
 31
0.0
  0
LINE
  5
14F
330
27
100
AcDbEntity
  8
1
  6
Continuous
 62
     5
100
AcDbLine
 10
-3325.979027940316
 20
266.4825589545014
 30
0.0
 11
-3325.979027940316
 21
258.4825589545014
 31
0.0
  0
LINE
  5
14E
330
27
100
AcDbEntity
  8
1
  6
Continuous
 62
     5
100
AcDbLine
 10
-3335.810384431965
 20
264.4825589545014
 30
0.0
 11
-3325.979027940316
 21
266.4825589545014
 31
0.0
  0
LINE
  5
14D
330
27
100
AcDbEntity
  8
1
  6
Continuous
 62
     5
100
AcDbLine
 10
-3335.810384431965
 20
260.4825589545014
 30
0.0
 11
-3335.810384431965
 21
264.4825589545014
 31
0.0
  0
LINE
  5
14C
330
27
100
AcDbEntity
  8
1
  6
Continuous
 62
     7
100
AcDbLine
 10
-3324.831462038017
 20
250.1734757882323
 30
0.0
 11
-3324.831462038017
 21
244.4151548798761
 31
0.0
  0
LINE
  5
14B
330
27
100
AcDbEntity
  8
1
  6
Continuous
 62
     7
100
AcDbLine
 10
-3326.903985533674
 20
243.6305880887087
 30
0.0
 11
-3325.139942061458
 21
250.214087953774
 31
0.0
  0
LINE
  5
14A
330
27
100
AcDbEntity
  8
1
  6
Continuous
 62
     7
100
AcDbLine
 10
-3329.178078308838
 20
250.2440265447485
 30
0.0
 11
-3327.406012815348
 21
243.6305880887087
 31
0.0
  0
LINE
  5
149
330
27
100
AcDbEntity
  8
1
  6
Continuous
 62
     7
100
AcDbLine
 10
-3329.486558332278
 20
244.3105459743872
 30
0.0
 11
-3329.486558332278
 21
250.2034143792066
 31
0.0
  0
LINE
  5
148
330
27
100
AcDbEntity
  8
1
  6
Continuous
 62
     7
100
AcDbLine
 10
-3326.903985533674
 20
243.6305880887087
 30
0.0
 11
-3327.406012815348
 21
243.6305880887087
 31
0.0
  0
LINE
  5
147
330
27
100
AcDbEntity
  8
1
  6
Continuous
 62
     7
100
AcDbLine
 10
-3325.302202112718
 20
244.1536326161538
 30
0.0
 11
-3325.09298430174
 21
244.1536326161538
 31
0.0
  0
LINE
  5
146
330
27
100
AcDbEntity
  8
1
  6
Continuous
 62
     7
100
AcDbLine
 10
-3325.406811018207
 20
243.6305880887087
 30
0.0
 11
-3325.406811018207
 21
244.0490237106646
 31
0.0
  0
LINE
  5
145
330
27
100
AcDbEntity
  8
1
  6
Continuous
 62
     7
100
AcDbLine
 10
-3322.477761664515
 20
243.6305880887087
 30
0.0
 11
-3325.406811018207
 21
243.6305880887087
 31
0.0
  0
LINE
  5
144
330
27
100
AcDbEntity
  8
1
  6
Continuous
 62
     7
100
AcDbLine
 10
-3322.477761664515
 20
244.0490237106646
 30
0.0
 11
-3322.477761664515
 21
243.6305880887087
 31
0.0
  0
LINE
  5
143
330
27
100
AcDbEntity
  8
1
  6
Continuous
 62
     7
100
AcDbLine
 10
-3322.791588380982
 20
244.1536326161538
 30
0.0
 11
-3322.582370570005
 21
244.1536326161538
 31
0.0
  0
LINE
  5
142
330
27
100
AcDbEntity
  8
1
  6
Continuous
 62
     7
100
AcDbLine
 10
-3323.053110644704
 20
250.0640357762823
 30
0.0
 11
-3323.053110644704
 21
244.4151548798761
 31
0.0
  0
LINE
  5
141
330
27
100
AcDbEntity
  8
1
  6
Continuous
 62
     7
100
AcDbLine
 10
-3322.582370570005
 20
250.3255580400046
 30
0.0
 11
-3322.791588380982
 21
250.3255580400046
 31
0.0
  0
LINE
  5
140
330
27
100
AcDbEntity
  8
1
  6
Continuous
 62
     7
100
AcDbLine
 10
-3322.477761664515
 20
250.8486025674497
 30
0.0
 11
-3322.477761664515
 21
250.4301669454937
 31
0.0
  0
LINE
  5
13F
330
27
100
AcDbEntity
  8
1
  6
Continuous
 62
     7
100
AcDbLine
 10
-3325.511419923696
 20
250.8486025674497
 30
0.0
 11
-3322.477761664515
 21
250.8486025674497
 31
0.0
  0
LINE
  5
13E
330
27
100
AcDbEntity
  8
1
  6
Continuous
 62
     7
100
AcDbLine
 10
-3330.532647387168
 20
250.8486025674497
 30
0.0
 11
-3327.498989127987
 21
250.8486025674497
 31
0.0
  0
LINE
  5
13D
330
27
100
AcDbEntity
  8
1
  6
Continuous
 62
     7
100
AcDbLine
 10
-3330.532647387168
 20
250.4301669454937
 30
0.0
 11
-3330.532647387168
 21
250.8486025674497
 31
0.0
  0
LINE
  5
13C
330
27
100
AcDbEntity
  8
1
  6
Continuous
 62
     7
100
AcDbLine
 10
-3330.166516217956
 20
250.3255580400046
 30
0.0
 11
-3330.42803848168
 21
250.3255580400046
 31
0.0
  0
LINE
  5
13B
330
27
100
AcDbEntity
  8
1
  6
Continuous
 62
     7
100
AcDbLine
 10
-3330.009602859723
 20
244.3105459743872
 30
0.0
 11
-3330.009602859723
 21
250.1686446817712
 31
0.0
  0
LINE
  5
13A
330
27
100
AcDbEntity
  8
1
  6
Continuous
 62
     7
100
AcDbLine
 10
-3330.42803848168
 20
244.1536326161538
 30
0.0
 11
-3330.166516217956
 21
244.1536326161538
 31
0.0
  0
LINE
  5
139
330
27
100
AcDbEntity
  8
1
  6
Continuous
 62
     7
100
AcDbLine
 10
-3330.532647387168
 20
243.6305880887087
 30
0.0
 11
-3330.532647387168
 21
244.0490237106646
 31
0.0
  0
LINE
  5
138
330
27
100
AcDbEntity
  8
1
  6
Continuous
 62
     7
100
AcDbLine
 10
-3329.068122710322
 20
243.6305880887087
 30
0.0
 11
-3330.532647387168
 21
243.6305880887087
 31
0.0
  0
LINE
  5
137
330
27
100
AcDbEntity
  8
1
  6
Continuous
 62
     7
100
AcDbLine
 10
-3329.068122710322
 20
244.0490237106646
 30
0.0
 11
-3329.068122710322
 21
243.6305880887087
 31
0.0
  0
LINE
  5
136
330
27
100
AcDbEntity
  8
1
  6
Continuous
 62
     7
100
AcDbLine
 10
-3329.329644974045
 20
244.1536326161538
 30
0.0
 11
-3329.172731615812
 21
244.1536326161538
 31
0.0
  0
LINE
  5
135
330
27
100
AcDbEntity
  8
1
  6
Continuous
 62
     7
100
AcDbLine
 10
-3326.353637860634
 20
247.7054024357512
 30
0.0
 11
-3325.511419923696
 21
250.8486025674497
 31
0.0
  0
LINE
  5
134
330
27
100
AcDbEntity
  8
1
  6
Continuous
 62
     7
100
AcDbLine
 10
-3327.498989127987
 20
250.8486025674497
 30
0.0
 11
-3326.65677119105
 21
247.7054024357512
 31
0.0
  0
LINE
  5
133
330
27
100
AcDbEntity
  8
1
  6
Continuous
 62
     7
100
AcDbLine
 10
-3337.20396145794
 20
246.0930654982008
 30
0.0
 11
-3333.727387135083
 21
249.569639821058
 31
0.0
  0
LINE
  5
132
330
27
100
AcDbEntity
  8
1
  6
Continuous
 62
     7
100
AcDbLine
 10
-3332.543872471983
 20
248.3861251579576
 30
0.0
 11
-3336.02044679484
 21
244.9095508351004
 31
0.0
  0
LINE
  5
131
330
27
100
AcDbEntity
  8
1
  6
Continuous
 62
     7
100
AcDbLine
 10
-3341.882713632725
 20
243.6305880887087
 30
0.0
 11
-3343.451847215059
 21
243.6305880887087
 31
0.0
  0
LINE
  5
130
330
27
100
AcDbEntity
  8
1
  6
Continuous
 62
     7
100
AcDbLine
 10
-3343.451847215059
 20
243.6305880887087
 30
0.0
 11
-3343.451847215059
 21
244.0490237106646
 31
0.0
  0
LINE
  5
12F
330
27
100
AcDbEntity
  8
1
  6
Continuous
 62
     7
100
AcDbLine
 10
-3343.347238309571
 20
244.1536326161538
 30
0.0
 11
-3343.138020498593
 21
244.1536326161538
 31
0.0
  0
LINE
  5
12E
330
27
100
AcDbEntity
  8
1
  6
Continuous
 62
     7
100
AcDbLine
 10
-3342.87649823487
 20
244.4151548798761
 30
0.0
 11
-3342.87649823487
 21
249.9594268707933
 31
0.0
  0
LINE
  5
12D
330
27
100
AcDbEntity
  8
1
  6
Continuous
 62
     7
100
AcDbLine
 10
-3343.242629404083
 20
250.3255580400046
 30
0.0
 11
-3343.393133715468
 21
250.3255580400046
 31
0.0
  0
LINE
  5
12C
330
27
100
AcDbEntity
  8
1
  6
Continuous
 62
     7
100
AcDbLine
 10
-3344.091608847433
 20
249.8131607108508
 30
0.0
 11
-3344.300785318421
 21
249.1486413147741
 31
0.0
  0
LINE
  5
12B
330
27
100
AcDbEntity
  8
1
  6
Continuous
 62
     7
100
AcDbLine
 10
-3344.811626313456
 20
249.2356183696466
 30
0.0
 11
-3344.759458533672
 21
250.8486025674497
 31
0.0
  0
LINE
  5
12A
330
27
100
AcDbEntity
  8
1
  6
Continuous
 62
     7
100
AcDbLine
 10
-3344.759458533672
 20
250.8486025674497
 30
0.0
 11
-3341.882713632725
 21
250.8486025674497
 31
0.0
  0
LINE
  5
129
330
27
100
AcDbEntity
  8
1
  6
Continuous
 62
     7
100
AcDbLine
 10
-3340.313580050389
 20
243.6305880887087
 30
0.0
 11
-3341.882713632725
 21
243.6305880887087
 31
0.0
  0
LINE
  5
128
330
27
100
AcDbEntity
  8
1
  6
Continuous
 62
     7
100
AcDbLine
 10
-3340.313580050389
 20
244.0490237106646
 30
0.0
 11
-3340.313580050389
 21
243.6305880887087
 31
0.0
  0
LINE
  5
127
330
27
100
AcDbEntity
  8
1
  6
Continuous
 62
     7
100
AcDbLine
 10
-3340.627406766856
 20
244.1536326161538
 30
0.0
 11
-3340.418188955879
 21
244.1536326161538
 31
0.0
  0
LINE
  5
126
330
27
100
AcDbEntity
  8
1
  6
Continuous
 62
     7
100
AcDbLine
 10
-3340.88892903058
 20
249.9594268707933
 30
0.0
 11
-3340.88892903058
 21
244.4151548798761
 31
0.0
  0
LINE
  5
125
330
27
100
AcDbEntity
  8
1
  6
Continuous
 62
     7
100
AcDbLine
 10
-3340.372293549981
 20
250.3255580400046
 30
0.0
 11
-3340.522797861368
 21
250.3255580400046
 31
0.0
  0
LINE
  5
124
330
27
100
AcDbEntity
  8
1
  6
Continuous
 62
     7
100
AcDbLine
 10
-3339.464641947028
 20
249.1486413147741
 30
0.0
 11
-3339.673818418017
 21
249.8131607108508
 31
0.0
  0
LINE
  5
123
330
27
100
AcDbEntity
  8
1
  6
Continuous
 62
     7
100
AcDbLine
 10
-3339.005968731777
 20
250.8486025674497
 30
0.0
 11
-3338.953800951993
 21
249.2356183696466
 31
0.0
  0
LINE
  5
122
330
27
100
AcDbEntity
  8
1
  6
Continuous
 62
     7
100
AcDbLine
 10
-3341.882713632725
 20
250.8486025674497
 30
0.0
 11
-3339.005968731777
 21
250.8486025674497
 31
0.0
  0
LINE
  5
121
330
27
100
AcDbEntity
  8
1
  6
Continuous
 62
     7
100
AcDbLine
 10
-3347.663882633705
 20
246.9716456376527
 30
0.0
 11
-3348.375322140523
 21
249.2986594114211
 31
0.0
  0
LINE
  5
120
330
27
100
AcDbEntity
  8
1
  6
Continuous
 62
     7
100
AcDbLine
 10
-3349.236818638094
 20
246.7688552533787
 30
0.0
 11
-3347.813939624457
 21
246.7688552533787
 31
0.0
  0
LINE
  5
11F
330
27
100
AcDbEntity
  8
1
  6
Continuous
 62
     7
100
AcDbLine
 10
-3348.675436122029
 20
249.2986594114211
 30
0.0
 11
-3349.386875628847
 21
246.9716456376527
 31
0.0
  0
LINE
  5
11E
330
27
100
AcDbEntity
  8
1
  6
Continuous
 62
     7
100
AcDbLine
 10
-3349.676077091655
 20
244.0490237106646
 30
0.0
 11
-3349.676077091655
 21
243.6305880887087
 31
0.0
  0
LINE
  5
11D
330
27
100
AcDbEntity
  8
1
  6
Continuous
 62
     7
100
AcDbLine
 10
-3350.036372437139
 20
244.1536326161538
 30
0.0
 11
-3349.780685997144
 21
244.1536326161538
 31
0.0
  0
LINE
  5
11C
330
27
100
AcDbEntity
  8
1
  6
Continuous
 62
     7
100
AcDbLine
 10
-3349.642732844542
 20
246.1347743937408
 30
0.0
 11
-3350.186429427892
 21
244.3564230004276
 31
0.0
  0
LINE
  5
11B
330
27
100
AcDbEntity
  8
1
  6
Continuous
 62
     7
100
AcDbLine
 10
-3347.596785667845
 20
246.2458107259338
 30
0.0
 11
-3349.492675853788
 21
246.2458107259338
 31
0.0
  0
LINE
  5
11A
330
27
100
AcDbEntity
  8
1
  6
Continuous
 62
     7
100
AcDbLine
 10
-3346.884995248785
 20
244.4240197951858
 30
0.0
 11
-3347.396709680175
 21
246.0977622830096
 31
0.0
  0
LINE
  5
119
330
27
100
AcDbEntity
  8
1
  6
Continuous
 62
     7
100
AcDbLine
 10
-3347.374681170897
 20
244.1536326161538
 30
0.0
 11
-3347.085071236457
 21
244.1536326161538
 31
0.0
  0
LINE
  5
118
330
27
100
AcDbEntity
  8
1
  6
Continuous
 62
     7
100
AcDbLine
 10
-3347.479290076386
 20
243.6305880887087
 30
0.0
 11
-3347.479290076386
 21
244.0490237106646
 31
0.0
  0
LINE
  5
117
330
27
100
AcDbEntity
  8
1
  6
Continuous
 62
     7
100
AcDbLine
 10
-3344.341022911716
 20
243.6305880887087
 30
0.0
 11
-3347.479290076386
 21
243.6305880887087
 31
0.0
  0
LINE
  5
116
330
27
100
AcDbEntity
  8
1
  6
Continuous
 62
     7
100
AcDbLine
 10
-3344.341022911716
 20
244.0490237106646
 30
0.0
 11
-3344.341022911716
 21
243.6305880887087
 31
0.0
  0
LINE
  5
115
330
27
100
AcDbEntity
  8
1
  6
Continuous
 62
     7
100
AcDbLine
 10
-3344.803900239813
 20
244.1536326161538
 30
0.0
 11
-3344.445631817205
 21
244.1536326161538
 31
0.0
  0
LINE
  5
114
330
27
100
AcDbEntity
  8
1
  6
Continuous
 62
     7
100
AcDbLine
 10
-3347.044274260775
 20
250.8486025674497
 30
0.0
 11
-3345.0539952244
 21
244.3386931698087
 31
0.0
  0
LINE
  5
113
330
27
100
AcDbEntity
  8
1
  6
Continuous
 62
     7
100
AcDbLine
 10
-3348.748514295339
 20
250.8486025674497
 30
0.0
 11
-3347.044274260775
 21
250.8486025674497
 31
0.0
  0
LINE
  5
112
330
27
100
AcDbEntity
  8
1
  6
Continuous
 62
     7
100
AcDbLine
 10
-3350.738793331714
 20
244.3386931698087
 30
0.0
 11
-3348.748514295339
 21
250.8486025674497
 31
0.0
  0
LINE
  5
111
330
27
100
AcDbEntity
  8
1
  6
Continuous
 62
     7
100
AcDbLine
 10
-3351.245210673991
 20
244.1536326161538
 30
0.0
 11
-3350.988888316301
 21
244.1536326161538
 31
0.0
  0
LINE
  5
110
330
27
100
AcDbEntity
  8
1
  6
Continuous
 62
     7
100
AcDbLine
 10
-3351.349819579479
 20
243.6305880887087
 30
0.0
 11
-3351.349819579479
 21
244.0490237106646
 31
0.0
  0
LINE
  5
10F
330
27
100
AcDbEntity
  8
1
  6
Continuous
 62
     7
100
AcDbLine
 10
-3349.676077091655
 20
243.6305880887087
 30
0.0
 11
-3351.349819579479
 21
243.6305880887087
 31
0.0
  0
LINE
  5
10E
330
27
100
AcDbEntity
  8
1
  6
Continuous
 62
     7
100
AcDbLine
 10
-3260.860710837364
 20
261.9825589545014
 30
0.0
 11
-3260.860710837364
 21
254.9825589545014
 31
0.0
  0
LINE
  5
10D
330
27
100
AcDbEntity
  8
1
  6
Continuous
 62
     7
100
AcDbLine
 10
-3320.860710837364
 20
261.9825589545014
 30
0.0
 11
-3320.860710837364
 21
254.9825589545014
 31
0.0
  0
LINE
  5
10C
330
27
100
AcDbEntity
  8
1
  6
Continuous
 62
     5
100
AcDbLine
 10
-3320.860710837364
 20
261.9825589545014
 30
0.0
 11
-3260.860710837364
 21
261.9825589545014
 31
0.0
  0
LINE
  5
10B
330
27
100
AcDbEntity
  8
1
  6
Continuous
 62
     5
100
AcDbLine
 10
-3338.860710837364
 20
293.9825589545014
 30
0.0
 11
-3288.860710837364
 21
293.9825589545014
 31
0.0
  0
LINE
  5
10A
330
27
100
AcDbEntity
  8
1
  6
Continuous
 62
     5
100
AcDbLine
 10
-3338.860710837364
 20
293.9825589545014
 30
0.0
 11
-3338.860710837364
 21
286.9825589545014
 31
0.0
  0
LINE
  5
109
330
27
100
AcDbEntity
  8
1
  6
Continuous
 62
     5
100
AcDbLine
 10
-3288.860710837364
 20
293.9825589545014
 30
0.0
 11
-3258.860710837364
 21
293.9825589545014
 31
0.0
  0
LINE
  5
108
330
27
100
AcDbEntity
  8
1
  6
Continuous
 62
     5
100
AcDbLine
 10
-3288.860710837364
 20
293.9825589545014
 30
0.0
 11
-3288.860710837364
 21
286.9825589545014
 31
0.0
  0
LINE
  5
107
330
27
100
AcDbEntity
  8
1
  6
Continuous
 62
     5
100
AcDbLine
 10
-3258.860710837364
 20
293.9825589545014
 30
0.0
 11
-3243.860710837364
 21
293.9825589545014
 31
0.0
  0
LINE
  5
106
330
27
100
AcDbEntity
  8
1
  6
Continuous
 62
     5
100
AcDbLine
 10
-3258.860710837364
 20
293.9825589545014
 30
0.0
 11
-3258.860710837364
 21
286.9825589545014
 31
0.0
  0
LINE
  5
105
330
27
100
AcDbEntity
  8
1
  6
Continuous
 62
     5
100
AcDbLine
 10
-3243.860710837364
 20
293.9825589545014
 30
0.0
 11
-3203.860710837364
 21
293.9825589545014
 31
0.0
  0
LINE
  5
104
330
27
100
AcDbEntity
  8
1
  6
Continuous
 62
     5
100
AcDbLine
 10
-3243.860710837364
 20
293.9825589545014
 30
0.0
 11
-3243.860710837364
 21
286.9825589545014
 31
0.0
  0
LINE
  5
103
330
27
100
AcDbEntity
  8
1
  6
Continuous
 62
     5
100
AcDbLine
 10
-3203.860710837364
 20
293.9825589545014
 30
0.0
 11
-3173.860710837364
 21
293.9825589545014
 31
0.0
  0
LINE
  5
102
330
27
100
AcDbEntity
  8
1
  6
Continuous
 62
     5
100
AcDbLine
 10
-3203.860710837364
 20
293.9825589545014
 30
0.0
 11
-3203.860710837364
 21
286.9825589545014
 31
0.0
  0
LINE
  5
101
330
27
100
AcDbEntity
  8
1
  6
Continuous
 62
     5
100
AcDbLine
 10
-3173.860710837364
 20
293.9825589545014
 30
0.0
 11
-3173.860710837364
 21
286.9825589545014
 31
0.0
  0
LINE
  5
100
330
27
100
AcDbEntity
  8
1
  6
Continuous
 62
     5
100
AcDbLine
 10
-3353.860710837364
 20
293.9825589545014
 30
0.0
 11
-3338.860710837364
 21
293.9825589545014
 31
0.0
  0
LINE
  5
FF
330
27
100
AcDbEntity
  8
1
  6
Continuous
 62
     5
100
AcDbLine
 10
-3353.860710837364
 20
286.9825589545014
 30
0.0
 11
-3353.860710837364
 21
293.9825589545014
 31
0.0
  0
LINE
  5
FE
330
27
100
AcDbEntity
  8
1
  6
Continuous
 62
     7
100
AcDbLine
 10
-3338.860710837364
 20
279.9825589545014
 30
0.0
 11
-3320.860710837364
 21
279.9825589545014
 31
0.0
  0
LINE
  5
FD
330
27
100
AcDbEntity
  8
1
  6
Continuous
 62
     7
100
AcDbLine
 10
-3338.860710837364
 20
286.9825589545014
 30
0.0
 11
-3353.860710837364
 21
286.9825589545014
 31
0.0
  0
LINE
  5
FC
330
27
100
AcDbEntity
  8
1
  6
Continuous
 62
     7
100
AcDbLine
 10
-3338.860710837364
 20
286.9825589545014
 30
0.0
 11
-3338.860710837364
 21
279.9825589545014
 31
0.0
  0
LINE
  5
FB
330
27
100
AcDbEntity
  8
1
  6
Continuous
 62
     7
100
AcDbLine
 10
-3288.860710837364
 20
279.9825589545014
 30
0.0
 11
-3280.860710837365
 21
279.9825589545014
 31
0.0
  0
LINE
  5
FA
330
27
100
AcDbEntity
  8
1
  6
Continuous
 62
     7
100
AcDbLine
 10
-3288.860710837364
 20
286.9825589545014
 30
0.0
 11
-3338.860710837364
 21
286.9825589545014
 31
0.0
  0
LINE
  5
F9
330
27
100
AcDbEntity
  8
1
  6
Continuous
 62
     7
100
AcDbLine
 10
-3288.860710837364
 20
286.9825589545014
 30
0.0
 11
-3288.860710837364
 21
279.9825589545014
 31
0.0
  0
LINE
  5
F8
330
27
100
AcDbEntity
  8
1
  6
Continuous
 62
     7
100
AcDbLine
 10
-3258.860710837364
 20
279.9825589545014
 30
0.0
 11
-3253.860710837364
 21
279.9825589545014
 31
0.0
  0
LINE
  5
F7
330
27
100
AcDbEntity
  8
1
  6
Continuous
 62
     7
100
AcDbLine
 10
-3258.860710837364
 20
286.9825589545014
 30
0.0
 11
-3288.860710837364
 21
286.9825589545014
 31
0.0
  0
LINE
  5
F6
330
27
100
AcDbEntity
  8
1
  6
Continuous
 62
     7
100
AcDbLine
 10
-3258.860710837364
 20
286.9825589545014
 30
0.0
 11
-3258.860710837364
 21
279.9825589545014
 31
0.0
  0
LINE
  5
F5
330
27
100
AcDbEntity
  8
1
  6
Continuous
 62
     7
100
AcDbLine
 10
-3243.860710837364
 20
279.9825589545014
 30
0.0
 11
-3203.860710837364
 21
279.9825589545014
 31
0.0
  0
LINE
  5
F4
330
27
100
AcDbEntity
  8
1
  6
Continuous
 62
     7
100
AcDbLine
 10
-3243.860710837364
 20
286.9825589545014
 30
0.0
 11
-3258.860710837364
 21
286.9825589545014
 31
0.0
  0
LINE
  5
F3
330
27
100
AcDbEntity
  8
1
  6
Continuous
 62
     7
100
AcDbLine
 10
-3243.860710837364
 20
286.9825589545014
 30
0.0
 11
-3243.860710837364
 21
279.9825589545014
 31
0.0
  0
LINE
  5
F2
330
27
100
AcDbEntity
  8
1
  6
Continuous
 62
     7
100
AcDbLine
 10
-3203.860710837364
 20
279.9825589545014
 30
0.0
 11
-3173.860710837364
 21
279.9825589545014
 31
0.0
  0
LINE
  5
F1
330
27
100
AcDbEntity
  8
1
  6
Continuous
 62
     7
100
AcDbLine
 10
-3203.860710837364
 20
286.9825589545014
 30
0.0
 11
-3243.860710837364
 21
286.9825589545014
 31
0.0
  0
LINE
  5
F0
330
27
100
AcDbEntity
  8
1
  6
Continuous
 62
     7
100
AcDbLine
 10
-3203.860710837364
 20
286.9825589545014
 30
0.0
 11
-3203.860710837364
 21
279.9825589545014
 31
0.0
  0
LINE
  5
EF
330
27
100
AcDbEntity
  8
1
  6
Continuous
 62
     7
100
AcDbLine
 10
-3320.860710837364
 20
269.9825589545014
 30
0.0
 11
-3320.860710837364
 21
261.9825589545014
 31
0.0
  0
LINE
  5
EE
330
27
100
AcDbEntity
  8
1
  6
Continuous
 62
     7
100
AcDbLine
 10
-3353.860710837364
 20
269.9825589545014
 30
0.0
 11
-3353.860710837364
 21
254.9825589545014
 31
0.0
  0
LINE
  5
ED
330
27
100
AcDbEntity
  8
1
  6
Continuous
 62
     7
100
AcDbLine
 10
-3353.860710837364
 20
269.9825589545014
 30
0.0
 11
-3320.860710837364
 21
269.9825589545014
 31
0.0
  0
LINE
  5
EC
330
27
100
AcDbEntity
  8
1
  6
Continuous
 62
     7
100
AcDbLine
 10
-3280.860710837365
 20
254.9825589545014
 30
0.0
 11
-3260.860710837364
 21
254.9825589545014
 31
0.0
  0
LINE
  5
EB
330
27
100
AcDbEntity
  8
1
  6
Continuous
 62
     7
100
AcDbLine
 10
-3280.860710837365
 20
279.9825589545014
 30
0.0
 11
-3260.860710837364
 21
279.9825589545014
 31
0.0
  0
LINE
  5
EA
330
27
100
AcDbEntity
  8
1
  6
Continuous
 62
     7
100
AcDbLine
 10
-3280.860710837365
 20
279.9825589545014
 30
0.0
 11
-3280.860710837365
 21
254.9825589545014
 31
0.0
  0
LINE
  5
E9
330
27
100
AcDbEntity
  8
1
  6
Continuous
 62
     7
100
AcDbLine
 10
-3300.860710837364
 20
254.9825589545014
 30
0.0
 11
-3280.860710837365
 21
254.9825589545014
 31
0.0
  0
LINE
  5
E8
330
27
100
AcDbEntity
  8
1
  6
Continuous
 62
     7
100
AcDbLine
 10
-3300.860710837364
 20
279.9825589545014
 30
0.0
 11
-3288.860710837364
 21
279.9825589545014
 31
0.0
  0
LINE
  5
E7
330
27
100
AcDbEntity
  8
1
  6
Continuous
 62
     7
100
AcDbLine
 10
-3300.860710837364
 20
279.9825589545014
 30
0.0
 11
-3300.860710837364
 21
254.9825589545014
 31
0.0
  0
LINE
  5
E6
330
27
100
AcDbEntity
  8
1
  6
Continuous
 62
     7
100
AcDbLine
 10
-3260.860710837364
 20
272.9825589545014
 30
0.0
 11
-3260.860710837364
 21
264.9825589545014
 31
0.0
  0
LINE
  5
E5
330
27
100
AcDbEntity
  8
1
  6
Continuous
 62
     7
100
AcDbLine
 10
-3320.860710837364
 20
272.9825589545014
 30
0.0
 11
-3320.860710837364
 21
269.9825589545014
 31
0.0
  0
LINE
  5
E4
330
27
100
AcDbEntity
  8
1
  6
Continuous
 62
     7
100
AcDbLine
 10
-3320.860710837364
 20
272.9825589545014
 30
0.0
 11
-3260.860710837364
 21
272.9825589545014
 31
0.0
  0
LINE
  5
E3
330
27
100
AcDbEntity
  8
1
  6
Continuous
 62
     7
100
AcDbLine
 10
-3260.860710837364
 20
254.9825589545014
 30
0.0
 11
-3260.860710837364
 21
249.9825589545014
 31
0.0
  0
LINE
  5
E2
330
27
100
AcDbEntity
  8
1
  6
Continuous
 62
     7
100
AcDbLine
 10
-3353.860710837364
 20
254.9825589545014
 30
0.0
 11
-3353.860710837364
 21
234.9825589545014
 31
0.0
  0
LINE
  5
E1
330
27
100
AcDbEntity
  8
1
  6
Continuous
 62
     7
100
AcDbLine
 10
-3353.860710837364
 20
254.9825589545014
 30
0.0
 11
-3300.860710837364
 21
254.9825589545014
 31
0.0
  0
LINE
  5
E0
330
27
100
AcDbEntity
  8
1
  6
Continuous
 62
     7
100
AcDbLine
 10
-3320.860710837364
 20
279.9825589545014
 30
0.0
 11
-3300.860710837364
 21
279.9825589545014
 31
0.0
  0
LINE
  5
DF
330
27
100
AcDbEntity
  8
1
  6
Continuous
 62
     7
100
AcDbLine
 10
-3320.860710837364
 20
279.9825589545014
 30
0.0
 11
-3320.860710837364
 21
272.9825589545014
 31
0.0
  0
LINE
  5
DE
330
27
100
AcDbEntity
  8
1
  6
Continuous
 62
     7
100
AcDbLine
 10
-3173.860710837364
 20
249.9825589545014
 30
0.0
 11
-3173.860710837364
 21
264.9825589545014
 31
0.0
  0
LINE
  5
DD
330
27
100
AcDbEntity
  8
1
  6
Continuous
 62
     7
100
AcDbLine
 10
-3260.860710837364
 20
249.9825589545014
 30
0.0
 11
-3260.860710837364
 21
234.9825589545014
 31
0.0
  0
LINE
  5
DC
330
27
100
AcDbEntity
  8
1
  6
Continuous
 62
     7
100
AcDbLine
 10
-3260.860710837364
 20
249.9825589545014
 30
0.0
 11
-3173.860710837364
 21
249.9825589545014
 31
0.0
  0
LINE
  5
DB
330
27
100
AcDbEntity
  8
1
  6
Continuous
 62
     7
100
AcDbLine
 10
-3173.860710837364
 20
264.9825589545014
 30
0.0
 11
-3173.860710837364
 21
279.9825589545014
 31
0.0
  0
LINE
  5
DA
330
27
100
AcDbEntity
  8
1
  6
Continuous
 62
     7
100
AcDbLine
 10
-3260.860710837364
 20
264.9825589545014
 30
0.0
 11
-3260.860710837364
 21
261.9825589545014
 31
0.0
  0
LINE
  5
D9
330
27
100
AcDbEntity
  8
1
  6
Continuous
 62
     7
100
AcDbLine
 10
-3260.860710837364
 20
264.9825589545014
 30
0.0
 11
-3173.860710837364
 21
264.9825589545014
 31
0.0
  0
LINE
  5
D8
330
27
100
AcDbEntity
  8
1
  6
Continuous
 62
     7
100
AcDbLine
 10
-3253.860710837364
 20
234.9825589545014
 30
0.0
 11
-3173.860710837364
 21
234.9825589545014
 31
0.0
  0
LINE
  5
D7
330
27
100
AcDbEntity
  8
1
  6
Continuous
 62
     7
100
AcDbLine
 10
-3253.860710837364
 20
279.9825589545014
 30
0.0
 11
-3243.860710837364
 21
279.9825589545014
 31
0.0
  0
LINE
  5
D6
330
27
100
AcDbEntity
  8
1
  6
Continuous
 62
     7
100
AcDbLine
 10
-3253.860710837364
 20
279.9825589545014
 30
0.0
 11
-3253.860710837364
 21
234.9825589545014
 31
0.0
  0
LINE
  5
D5
330
27
100
AcDbEntity
  8
1
  6
Continuous
 62
     7
100
AcDbLine
 10
-3260.860710837364
 20
234.9825589545014
 30
0.0
 11
-3253.860710837364
 21
234.9825589545014
 31
0.0
  0
LINE
  5
D4
330
27
100
AcDbEntity
  8
1
  6
Continuous
 62
     7
100
AcDbLine
 10
-3260.860710837364
 20
279.9825589545014
 30
0.0
 11
-3258.860710837364
 21
279.9825589545014
 31
0.0
  0
LINE
  5
D3
330
27
100
AcDbEntity
  8
1
  6
Continuous
 62
     7
100
AcDbLine
 10
-3260.860710837364
 20
279.9825589545014
 30
0.0
 11
-3260.860710837364
 21
272.9825589545014
 31
0.0
  0
LINE
  5
D2
330
27
100
AcDbEntity
  8
1
  6
Continuous
 62
     7
100
AcDbLine
 10
-3173.860710837364
 20
279.9825589545014
 30
0.0
 11
-3173.860710837364
 21
286.9825589545014
 31
0.0
  0
LINE
  5
D1
330
27
100
AcDbEntity
  8
1
  6
Continuous
 62
     7
100
AcDbLine
 10
-3353.860710837364
 20
279.9825589545014
 30
0.0
 11
-3353.860710837364
 21
269.9825589545014
 31
0.0
  0
LINE
  5
D0
330
27
100
AcDbEntity
  8
1
  6
Continuous
 62
     7
100
AcDbLine
 10
-3353.860710837364
 20
279.9825589545014
 30
0.0
 11
-3338.860710837364
 21
279.9825589545014
 31
0.0
  0
LINE
  5
CF
330
27
100
AcDbEntity
  8
1
  6
Continuous
 62
     7
100
AcDbLine
 10
-3353.860710837364
 20
286.9825589545014
 30
0.0
 11
-3353.860710837364
 21
279.9825589545014
 31
0.0
  0
LINE
  5
CE
330
27
100
AcDbEntity
  8
1
  6
Continuous
 62
     7
100
AcDbLine
 10
-3173.860710837364
 20
286.9825589545014
 30
0.0
 11
-3203.860710837364
 21
286.9825589545014
 31
0.0
  0
LINE
  5
CD
330
27
100
AcDbEntity
  8
1
  6
Continuous
 62
     7
100
AcDbLine
 10
-3173.860710837364
 20
234.9825589545014
 30
0.0
 11
-3173.860710837364
 21
249.9825589545014
 31
0.0
  0
LINE
  5
CC
330
27
100
AcDbEntity
  8
1
  6
Continuous
 62
     7
100
AcDbLine
 10
-3353.860710837364
 20
234.9825589545014
 30
0.0
 11
-3260.860710837364
 21
234.9825589545014
 31
0.0
  0
ENDBLK
  5
1D0
330
27
100
AcDbEntity
  8
0
100
AcDbBlockEnd
  0
BLOCK
  5
2A
330
29
100
AcDbEntity
  8
0
100
AcDbBlockBegin
  2
FORMAT_A3
 70
     0
 10
-362.8607108373639
 20
-1133.017441045499
 30
0.0
  3
FORMAT_A3
  1

  0
LINE
  5
1D4
330
29
100
AcDbEntity
  8
1
  6
Continuous
 62
     7
100
AcDbLine
 10
-3548.860710837364
 20
504.9825589545014
 30
0.0
 11
-3548.860710837364
 21
234.9825589545023
 31
0.0
  0
LINE
  5
1D3
330
29
100
AcDbEntity
  8
1
  6
Continuous
 62
     7
100
AcDbLine
 10
-3173.860710837363
 20
504.9825589545005
 30
0.0
 11
-3548.860710837364
 21
504.9825589545014
 31
0.0
  0
LINE
  5
1D2
330
29
100
AcDbEntity
  8
1
  6
Continuous
 62
     7
100
AcDbLine
 10
-3173.860710837364
 20
286.9825589545014
 30
0.0
 11
-3173.860710837363
 21
504.9825589545005
 31
0.0
  0
LINE
  5
1D1
330
29
100
AcDbEntity
  8
1
  6
Continuous
 62
     7
100
AcDbLine
 10
-3353.860710837364
 20
234.9825589545019
 30
0.0
 11
-3548.860710837364
 21
234.9825589545023
 31
0.0
  0
INSERT
  5
2B
330
29
100
AcDbEntity
  8
0
100
AcDbBlockReference
  2
______
 10
-61.44074712830536
 20
-1656.888985611974
 30
0.0
  0
ENDBLK
  5
1D5
330
29
100
AcDbEntity
  8
0
100
AcDbBlockEnd
  0
BLOCK
  5
2D
330
2C
100
AcDbEntity
  8
0
100
AcDbBlockBegin
  2
TOP__1
 70
     0
 10
-2533.38794785617
 20
-1362.84206173586
 30
0.0
  3
TOP__1
  1

  0
INSERT
  5
2E
330
2C
100
AcDbEntity
  8
0
100
AcDbBlockReference
  2
FORMAT_A3
 10
3178.76594567768
 20
-1807.3646717195
 30
0.0
  0
ENDBLK
  5
1D6
330
2C
100
AcDbEntity
  8
0
100
AcDbBlockEnd
  0
BLOCK
  5
30
330
2F
100
AcDbEntity
  8
0
100
AcDbBlockBegin
  2
_2
 70
     0
 10
36.00000000000004
 20
-328.7000459403909
 30
0.0
  3
_2
  1

  0
ARC
  5
212
330
2F
100
AcDbEntity
  8
1
  6
Continuous
 62
     7
100
AcDbCircle
 10
102.3353645776973
 20
-227.4599659844696
 30
0.0
 40
7.999999999999929
100
AcDbArc
 50
67.97568716295763
 51
90.0
  0
ARC
  5
211
330
2F
100
AcDbEntity
  8
1
  6
Continuous
 62
     7
100
AcDbCircle
 10
102.3353645776973
 20
-227.4599659844696
 30
0.0
 40
8.00000000000003
100
AcDbArc
 50
-112.024312837042
 51
-90.0
  0
LWPOLYLINE
  5
210
330
2F
100
AcDbEntity
  8
1
  6
Continuous
 62
     3
100
AcDbPolyline
 90
        2
 70
     1
 43
0.0
 10
102.3353645776973
 20
-225.8389659844696
 42
1.0
 10
102.3353645776973
 20
-229.0809659844696
 42
1.0
  0
LWPOLYLINE
  5
20F
330
2F
100
AcDbEntity
  8
1
  6
Continuous
 62
     2
100
AcDbPolyline
 90
        2
 70
     1
 43
0.0
 10
102.3353645776973
 20
-225.4599659844696
 42
1.0
 10
102.3353645776973
 20
-229.4599659844696
 42
1.0
  0
ARC
  5
20E
330
2F
100
AcDbEntity
  8
1
  6
Continuous
 62
     7
100
AcDbCircle
 10
102.3353645776973
 20
-227.4599659844696
 30
0.0
 40
8.0
100
AcDbArc
 50
-90.0
 51
-51.31781254651065
  0
ARC
  5
20D
330
2F
100
AcDbEntity
  8
1
  6
Continuous
 62
     7
100
AcDbCircle
 10
102.3353645776973
 20
-227.4599659844696
 30
0.0
 40
5.500000000000018
100
AcDbArc
 50
-155.380022671342
 51
-123.0557311508535
  0
ARC
  5
20C
330
2F
100
AcDbEntity
  8
1
  6
Continuous
 62
     7
100
AcDbCircle
 10
102.3353645776973
 20
-227.4599659844696
 30
0.0
 40
8.0
100
AcDbArc
 50
90.0
 51
128.6821874534894
  0
ARC
  5
20B
330
2F
100
AcDbEntity
  8
1
  6
Continuous
 62
     7
100
AcDbCircle
 10
102.3353645776973
 20
-227.4599659844696
 30
0.0
 40
5.49999999999995
100
AcDbArc
 50
24.61997732865601
 51
56.9442688491457
  0
LINE
  5
20A
330
2F
100
AcDbEntity
  8
1
  6
Continuous
 62
     7
100
AcDbLine
 10
283.898682856312
 20
-315.0
 30
0.0
 11
289.298682856312
 21
-315.0
 31
0.0
  0
LINE
  5
209
330
2F
100
AcDbEntity
  8
1
  6
Continuous
 62
     7
100
AcDbLine
 10
231.598682856312
 20
-317.0
 30
0.0
 11
220.598682856312
 21
-317.0
 31
0.0
  0
LINE
  5
208
330
2F
100
AcDbEntity
  8
1
  6
Continuous
 62
     7
100
AcDbLine
 10
231.598682856312
 20
-315.0
 30
0.0
 11
224.598682856312
 21
-315.0
 31
0.0
  0
LINE
  5
207
330
2F
100
AcDbEntity
  8
1
  6
Continuous
 62
     7
100
AcDbLine
 10
233.598682856312
 20
-314.7
 30
0.0
 11
236.0148813434076
 21
-314.7
 31
0.0
  0
LINE
  5
206
330
2F
100
AcDbEntity
  8
1
  6
Continuous
 62
     7
100
AcDbLine
 10
236.1292870817377
 20
-315.0
 30
0.0
 11
236.5986828563119
 21
-315.0
 31
0.0
  0
LINE
  5
205
330
2F
100
AcDbEntity
  8
1
  6
Continuous
 62
     7
100
AcDbLine
 10
105.0353645776973
 20
-328.4
 30
0.0
 11
99.63536457769732
 21
-328.4
 31
0.0
  0
LINE
  5
204
330
2F
100
AcDbEntity
  8
1
  6
Continuous
 62
     7
100
AcDbLine
 10
36.4693957745743
 20
-328.4000459403908
 30
0.0
 11
36.00000000000004
 21
-328.4000459403908
 31
0.0
  0
LINE
  5
203
330
2F
100
AcDbEntity
  8
1
  6
Continuous
 62
     7
100
AcDbLine
 10
41.0
 20
-326.4000459403908
 30
0.0
 11
52.00000000000001
 21
-326.4000459403908
 31
0.0
  0
LINE
  5
202
330
2F
100
AcDbEntity
  8
1
  6
Continuous
 62
     7
100
AcDbLine
 10
39.0
 20
-328.7000459403908
 30
0.0
 11
36.58380151290435
 21
-328.7000459403908
 31
0.0
  0
LINE
  5
201
330
2F
100
AcDbEntity
  8
1
  6
Continuous
 62
     7
100
AcDbLine
 10
41.0
 20
-328.4000459403908
 30
0.0
 11
47.99999999999999
 21
-328.4000459403908
 31
0.0
  0
LINE
  5
200
330
2F
100
AcDbEntity
  8
1
  6
Continuous
 62
     7
100
AcDbLine
 10
236.5986828563119
 20
-317.0
 30
0.0
 11
233.598682856312
 21
-317.0
 31
0.0
  0
LINE
  5
1FF
330
2F
100
AcDbEntity
  8
1
  6
Continuous
 62
     7
100
AcDbLine
 10
220.598682856312
 20
-317.0
 30
0.0
 11
220.598682856312
 21
-315.0
 31
0.0
  0
LINE
  5
1FE
330
2F
100
AcDbEntity
  8
1
  6
Continuous
 62
     7
100
AcDbLine
 10
220.598682856312
 20
-315.0
 30
0.0
 11
221.0680786308862
 21
-315.0
 31
0.0
  0
LINE
  5
1FD
330
2F
100
AcDbEntity
  8
1
  6
Continuous
 62
     7
100
AcDbLine
 10
221.1824843692163
 20
-314.7
 30
0.0
 11
221.0680786308862
 21
-315.0
 31
0.0
  0
LINE
  5
1FC
330
2F
100
AcDbEntity
  8
1
  6
Continuous
 62
     7
100
AcDbLine
 10
221.1824843692163
 20
-314.7
 30
0.0
 11
224.598682856312
 21
-314.7
 31
0.0
  0
LINE
  5
1FB
330
2F
100
AcDbEntity
  8
1
  6
Continuous
 62
     7
100
AcDbLine
 10
236.5986828563119
 20
-317.0
 30
0.0
 11
236.5986828563119
 21
-315.0
 31
0.0
  0
LINE
  5
1FA
330
2F
100
AcDbEntity
  8
1
  6
Continuous
 62
     7
100
AcDbLine
 10
224.598682856312
 20
-314.7
 30
0.0
 11
224.598682856312
 21
-315.0
 31
0.0
  0
LINE
  5
1F9
330
2F
100
AcDbEntity
  8
1
  6
Continuous
 62
     7
100
AcDbLine
 10
236.1292870817377
 20
-315.0
 30
0.0
 11
236.0148813434076
 21
-314.7
 31
0.0
  0
LINE
  5
1F8
330
2F
100
AcDbEntity
  8
1
  6
Continuous
 62
     7
100
AcDbLine
 10
36.00000000000004
 20
-326.4000459403908
 30
0.0
 11
39.0
 21
-326.4000459403908
 31
0.0
  0
LINE
  5
1F7
330
2F
100
AcDbEntity
  8
1
  6
Continuous
 62
     7
100
AcDbLine
 10
52.00000000000001
 20
-326.4000459403908
 30
0.0
 11
52.00000000000001
 21
-328.4000459403908
 31
0.0
  0
LINE
  5
1F6
330
2F
100
AcDbEntity
  8
1
  6
Continuous
 62
     7
100
AcDbLine
 10
52.00000000000001
 20
-328.4000459403908
 30
0.0
 11
51.53060422542576
 21
-328.4000459403908
 31
0.0
  0
LINE
  5
1F5
330
2F
100
AcDbEntity
  8
1
  6
Continuous
 62
     7
100
AcDbLine
 10
51.41619848709567
 20
-328.7000459403909
 30
0.0
 11
51.53060422542576
 21
-328.4000459403908
 31
0.0
  0
LINE
  5
1F4
330
2F
100
AcDbEntity
  8
1
  6
Continuous
 62
     7
100
AcDbLine
 10
51.41619848709567
 20
-328.7000459403909
 30
0.0
 11
47.99999999999999
 21
-328.7000459403909
 31
0.0
  0
LINE
  5
1F3
330
2F
100
AcDbEntity
  8
1
  6
Continuous
 62
     7
100
AcDbLine
 10
36.00000000000004
 20
-326.4000459403908
 30
0.0
 11
36.00000000000004
 21
-328.4000459403908
 31
0.0
  0
LINE
  5
1F2
330
2F
100
AcDbEntity
  8
1
  6
Continuous
 62
     7
100
AcDbLine
 10
47.99999999999999
 20
-328.7000459403909
 30
0.0
 11
47.99999999999999
 21
-328.4000459403908
 31
0.0
  0
LINE
  5
1F1
330
2F
100
AcDbEntity
  8
1
  6
Continuous
 62
     7
100
AcDbLine
 10
36.4693957745743
 20
-328.4000459403908
 30
0.0
 11
36.58380151290435
 21
-328.7000459403908
 31
0.0
  0
LINE
  5
1F0
330
2F
100
AcDbEntity
  8
1
  6
Continuous
 62
     7
100
AcDbLine
 10
107.3353645776973
 20
-326.4
 30
0.0
 11
97.33536457769732
 21
-326.4
 31
0.0
  0
LINE
  5
1EF
330
2F
100
AcDbEntity
  8
1
  6
Continuous
 62
     7
100
AcDbLine
 10
97.33536457769732
 20
-326.4
 30
0.0
 11
97.33536457769732
 21
-328.7
 31
0.0
  0
LINE
  5
1EE
330
2F
100
AcDbEntity
  8
1
  6
Continuous
 62
     7
100
AcDbLine
 10
107.3353645776973
 20
-326.4
 30
0.0
 11
107.3353645776973
 21
-328.7
 31
0.0
  0
LINE
  5
1ED
330
2F
100
AcDbEntity
  8
1
  6
Continuous
 62
     7
100
AcDbLine
 10
107.0353645776973
 20
-328.4
 30
0.0
 11
105.3353645776973
 21
-328.4
 31
0.0
  0
LINE
  5
1EC
330
2F
100
AcDbEntity
  8
1
  6
Continuous
 62
     7
100
AcDbLine
 10
99.33536457769733
 20
-328.4
 30
0.0
 11
97.63536457769731
 21
-328.4
 31
0.0
  0
LINE
  5
1EB
330
2F
100
AcDbEntity
  8
1
  6
Continuous
 62
     7
100
AcDbLine
 10
99.33536457769733
 20
-326.4
 30
0.0
 11
99.33536457769733
 21
-328.7
 31
0.0
  0
LINE
  5
1EA
330
2F
100
AcDbEntity
  8
1
  6
Continuous
 62
     7
100
AcDbLine
 10
107.3353645776973
 20
-328.7
 30
0.0
 11
107.0353645776973
 21
-328.4
 31
0.0
  0
LINE
  5
1E9
330
2F
100
AcDbEntity
  8
1
  6
Continuous
 62
     7
100
AcDbLine
 10
99.33536457769733
 20
-328.7
 30
0.0
 11
99.63536457769732
 21
-328.4
 31
0.0
  0
LINE
  5
1E8
330
2F
100
AcDbEntity
  8
1
  6
Continuous
 62
     7
100
AcDbLine
 10
97.33536457769732
 20
-328.7
 30
0.0
 11
97.63536457769731
 21
-328.4
 31
0.0
  0
LINE
  5
1E7
330
2F
100
AcDbEntity
  8
1
  6
Continuous
 62
     7
100
AcDbLine
 10
105.3353645776973
 20
-328.7
 30
0.0
 11
105.0353645776973
 21
-328.4
 31
0.0
  0
LINE
  5
1E6
330
2F
100
AcDbEntity
  8
1
  6
Continuous
 62
     7
100
AcDbLine
 10
105.3353645776973
 20
-328.7
 30
0.0
 11
105.3353645776973
 21
-328.4
 31
0.0
  0
LINE
  5
1E5
330
2F
100
AcDbEntity
  8
1
  6
Continuous
 62
     7
100
AcDbLine
 10
99.33536457769733
 20
-232.0697382131161
 30
0.0
 11
99.33536457769733
 21
-234.8761644715653
 31
0.0
  0
LINE
  5
1E4
330
2F
100
AcDbEntity
  8
1
  6
Continuous
 62
     7
100
AcDbLine
 10
97.33536457769732
 20
-221.2149679860712
 30
0.0
 11
97.33536457769732
 21
-229.7512538319476
 31
0.0
  0
LINE
  5
1E3
330
2F
100
AcDbEntity
  8
1
  6
Continuous
 62
     7
100
AcDbLine
 10
105.3353645776973
 20
-222.8501937558232
 30
0.0
 11
105.3353645776973
 21
-220.043767497374
 31
0.0
  0
LINE
  5
1E2
330
2F
100
AcDbEntity
  8
1
  6
Continuous
 62
     7
100
AcDbLine
 10
107.3353645776973
 20
-233.704963982868
 30
0.0
 11
107.3353645776973
 21
-225.1686781369917
 31
0.0
  0
LINE
  5
1E1
330
2F
100
AcDbEntity
  8
1
  6
Continuous
 62
     7
100
AcDbLine
 10
281.598682856312
 20
-317.0
 30
0.0
 11
291.598682856312
 21
-317.0
 31
0.0
  0
LINE
  5
1E0
330
2F
100
AcDbEntity
  8
1
  6
Continuous
 62
     7
100
AcDbLine
 10
291.598682856312
 20
-317.0
 30
0.0
 11
291.598682856312
 21
-314.7
 31
0.0
  0
LINE
  5
1DF
330
2F
100
AcDbEntity
  8
1
  6
Continuous
 62
     7
100
AcDbLine
 10
281.598682856312
 20
-317.0
 30
0.0
 11
281.598682856312
 21
-314.7
 31
0.0
  0
LINE
  5
1DE
330
2F
100
AcDbEntity
  8
1
  6
Continuous
 62
     7
100
AcDbLine
 10
281.898682856312
 20
-315.0
 30
0.0
 11
283.598682856312
 21
-315.0
 31
0.0
  0
LINE
  5
1DD
330
2F
100
AcDbEntity
  8
1
  6
Continuous
 62
     7
100
AcDbLine
 10
289.598682856312
 20
-315.0
 30
0.0
 11
291.298682856312
 21
-315.0
 31
0.0
  0
LINE
  5
1DC
330
2F
100
AcDbEntity
  8
1
  6
Continuous
 62
     7
100
AcDbLine
 10
289.598682856312
 20
-317.0
 30
0.0
 11
289.598682856312
 21
-314.7
 31
0.0
  0
LINE
  5
1DB
330
2F
100
AcDbEntity
  8
1
  6
Continuous
 62
     7
100
AcDbLine
 10
281.598682856312
 20
-314.7
 30
0.0
 11
281.898682856312
 21
-315.0
 31
0.0
  0
LINE
  5
1DA
330
2F
100
AcDbEntity
  8
1
  6
Continuous
 62
     7
100
AcDbLine
 10
289.598682856312
 20
-314.7
 30
0.0
 11
289.298682856312
 21
-315.0
 31
0.0
  0
LINE
  5
1D9
330
2F
100
AcDbEntity
  8
1
  6
Continuous
 62
     7
100
AcDbLine
 10
291.598682856312
 20
-314.7
 30
0.0
 11
291.298682856312
 21
-315.0
 31
0.0
  0
LINE
  5
1D8
330
2F
100
AcDbEntity
  8
1
  6
Continuous
 62
     7
100
AcDbLine
 10
283.598682856312
 20
-314.7
 30
0.0
 11
283.898682856312
 21
-315.0
 31
0.0
  0
LINE
  5
1D7
330
2F
100
AcDbEntity
  8
1
  6
Continuous
 62
     7
100
AcDbLine
 10
283.598682856312
 20
-314.7
 30
0.0
 11
283.598682856312
 21
-315.0
 31
0.0
  0
ENDBLK
  5
213
330
2F
100
AcDbEntity
  8
0
100
AcDbBlockEnd
  0
BLOCK
  5
32
330
31
100
AcDbEntity
  8
0
100
AcDbBlockBegin
  2
_1
 70
     0
 10
35.0
 20
-340.0
 30
0.0
  3
_1
  1

  0
ARC
  5
2BD
330
31
100
AcDbEntity
  8
1
  6
Continuous
 62
     7
100
AcDbCircle
 10
135.3353645776973
 20
-334.0
 30
0.0
 40
1.0
100
AcDbArc
 50
-90.0
 51
0.0
  0
ARC
  5
2BC
330
31
100
AcDbEntity
  8
1
  6
Continuous
 62
     7
100
AcDbCircle
 10
93.33536457769731
 20
-334.0
 30
0.0
 40
1.0
100
AcDbArc
 50
180.0
 51
-90.0
  0
ARC
  5
2BB
330
31
100
AcDbEntity
  8
1
  6
Continuous
 62
     7
100
AcDbCircle
 10
110.8353645776973
 20
-331.0
 30
0.0
 40
0.5
100
AcDbArc
 50
180.0
 51
-90.0
  0
ARC
  5
2BA
330
31
100
AcDbEntity
  8
1
  6
Continuous
 62
     7
100
AcDbCircle
 10
36.0
 20
-334.0
 30
0.0
 40
1.0
100
AcDbArc
 50
180.0
 51
-90.0
  0
ARC
  5
2B9
330
31
100
AcDbEntity
  8
1
  6
Continuous
 62
     7
100
AcDbCircle
 10
52.0
 20
-334.0
 30
0.0
 40
1.0
100
AcDbArc
 50
-90.0
 51
0.0
  0
ARC
  5
2B8
330
31
100
AcDbEntity
  8
1
  6
Continuous
 62
     7
100
AcDbCircle
 10
38.0
 20
-330.5
 30
0.0
 40
0.5
100
AcDbArc
 50
-90.0
 51
0.0
  0
ARC
  5
2B7
330
31
100
AcDbEntity
  8
1
  6
Continuous
 62
     7
100
AcDbCircle
 10
50.0
 20
-330.5
 30
0.0
 40
0.5
100
AcDbArc
 50
180.0
 51
-90.0
  0
ARC
  5
2B6
330
31
100
AcDbEntity
  8
1
  6
Continuous
 62
     7
100
AcDbCircle
 10
112.3353645776973
 20
-226.4849659844696
 30
0.0
 40
2.0
100
AcDbArc
 50
90.0
 51
180.0
  0
ARC
  5
2B5
330
31
100
AcDbEntity
  8
1
  6
Continuous
 62
     7
100
AcDbCircle
 10
94.33536457769731
 20
-220.4599659844696
 30
0.0
 40
2.0
100
AcDbArc
 50
90.0
 51
180.0
  0
ARC
  5
2B4
330
31
100
AcDbEntity
  8
1
  6
Continuous
 62
     7
100
AcDbCircle
 10
94.33536457769731
 20
-234.4599659844696
 30
0.0
 40
2.0
100
AcDbArc
 50
180.0
 51
-90.0
  0
ARC
  5
2B3
330
31
100
AcDbEntity
  8
1
  6
Continuous
 62
     7
100
AcDbCircle
 10
236.598682856312
 20
-310.5
 30
0.0
 40
1.0
100
AcDbArc
 50
0.0
 51
90.0
  0
ARC
  5
2B2
330
31
100
AcDbEntity
  8
1
  6
Continuous
 62
     7
100
AcDbCircle
 10
220.598682856312
 20
-310.5
 30
0.0
 40
1.0
100
AcDbArc
 50
90.0
 51
180.0
  0
ARC
  5
2B1
330
31
100
AcDbEntity
  8
1
  6
Continuous
 62
     7
100
AcDbCircle
 10
234.598682856312
 20
-314.0
 30
0.0
 40
0.5
100
AcDbArc
 50
90.0
 51
180.0
  0
ARC
  5
2B0
330
31
100
AcDbEntity
  8
1
  6
Continuous
 62
     7
100
AcDbCircle
 10
222.598682856312
 20
-314.0
 30
0.0
 40
0.5
100
AcDbArc
 50
0.0
 51
90.0
  0
ARC
  5
2AF
330
31
100
AcDbEntity
  8
1
  6
Continuous
 62
     7
100
AcDbCircle
 10
319.598682856312
 20
-310.5
 30
0.0
 40
1.0
100
AcDbArc
 50
0.0
 51
90.0
  0
ARC
  5
2AE
330
31
100
AcDbEntity
  8
1
  6
Continuous
 62
     7
100
AcDbCircle
 10
277.598682856312
 20
-310.5
 30
0.0
 40
1.0
100
AcDbArc
 50
90.0
 51
180.0
  0
ARC
  5
2AD
330
31
100
AcDbEntity
  8
1
  6
Continuous
 62
     7
100
AcDbCircle
 10
295.0986828563119
 20
-313.5
 30
0.0
 40
0.5
100
AcDbArc
 50
90.0
 51
180.0
  0
ARC
  5
2AC
330
31
100
AcDbEntity
  8
1
  6
Continuous
 62
     7
100
AcDbCircle
 10
296.598682856312
 20
-228.4349659844696
 30
0.0
 40
2.0
100
AcDbArc
 50
180.0
 51
-90.0
  0
ARC
  5
2AB
330
31
100
AcDbEntity
  8
1
  6
Continuous
 62
     7
100
AcDbCircle
 10
278.598682856312
 20
-234.4599659844696
 30
0.0
 40
2.0
100
AcDbArc
 50
180.0
 51
-90.0
  0
ARC
  5
2AA
330
31
100
AcDbEntity
  8
1
  6
Continuous
 62
     7
100
AcDbCircle
 10
278.598682856312
 20
-220.4599659844696
 30
0.0
 40
2.0
100
AcDbArc
 50
90.0
 51
180.0
  0
ARC
  5
2A9
330
31
100
AcDbEntity
  8
1
  6
Continuous
 62
     7
100
AcDbCircle
 10
314.3871636254765
 20
-230.9599659844696
 30
0.0
 40
1.499999999999969
100
AcDbArc
 50
44.84602670311413
 51
90.0
  0
ARC
  5
2A8
330
31
100
AcDbEntity
  8
1
  6
Continuous
 62
     7
100
AcDbCircle
 10
314.3871636254765
 20
-223.9599659844696
 30
0.0
 40
1.499999999999969
100
AcDbArc
 50
-128.5446403555299
 51
-90.0
  0
ARC
  5
2A7
330
31
100
AcDbEntity
  8
1
  6
Continuous
 62
     7
100
AcDbCircle
 10
319.5986828563121
 20
-219.4599659844696
 30
0.0
 40
0.9999999999999399
100
AcDbArc
 50
-45.02960588412967
 51
0.0
  0
ARC
  5
2A6
330
31
100
AcDbEntity
  8
1
  6
Continuous
 62
     7
100
AcDbCircle
 10
319.5986828563121
 20
-235.4599659844696
 30
0.0
 40
1.0
100
AcDbArc
 50
-90.0
 51
0.0
  0
ARC
  5
2A5
330
31
100
AcDbEntity
  8
1
  6
Continuous
 62
     7
100
AcDbCircle
 10
135.3353645776973
 20
-219.4599659844696
 30
0.0
 40
1.000000000000069
100
AcDbArc
 50
-45.02609383283136
 51
0.0
  0
ARC
  5
2A4
330
31
100
AcDbEntity
  8
1
  6
Continuous
 62
     7
100
AcDbCircle
 10
135.3353645776973
 20
-235.4599659844696
 30
0.0
 40
1.0
100
AcDbArc
 50
-90.0
 51
0.0
  0
ARC
  5
2A3
330
31
100
AcDbEntity
  8
1
  6
Continuous
 62
     7
100
AcDbCircle
 10
112.3353645776973
 20
-228.4599659844696
 30
0.0
 40
2.0
100
AcDbArc
 50
180.0
 51
-45.00000000000028
  0
ARC
  5
2A2
330
31
100
AcDbEntity
  8
1
  6
Continuous
 62
     7
100
AcDbCircle
 10
127.3353645776973
 20
-227.4599659844696
 30
0.0
 40
2.97500000000004
100
AcDbArc
 50
51.45535964446628
 51
90.0
  0
ARC
  5
2A1
330
31
100
AcDbEntity
  8
1
  6
Continuous
 62
     7
100
AcDbCircle
 10
130.1238453468618
 20
-223.9599659844696
 30
0.0
 40
1.499999999999989
100
AcDbArc
 50
-128.5446403555308
 51
-44.84602670311492
  0
ARC
  5
2A0
330
31
100
AcDbEntity
  8
1
  6
Continuous
 62
     7
100
AcDbCircle
 10
135.3353645776973
 20
-219.4599659844696
 30
0.0
 40
1.000000000000089
100
AcDbArc
 50
0.0
 51
90.0
  0
ARC
  5
29F
330
31
100
AcDbEntity
  8
1
  6
Continuous
 62
     7
100
AcDbCircle
 10
127.3353645776973
 20
-227.4599659844696
 30
0.0
 40
2.97499999999997
100
AcDbArc
 50
133.021944757024
 51
-51.45535964446663
  0
ARC
  5
29E
330
31
100
AcDbEntity
  8
1
  6
Continuous
 62
     7
100
AcDbCircle
 10
130.1238453468618
 20
-230.9599659844696
 30
0.0
 40
1.50000000000006
100
AcDbArc
 50
43.660291016136
 51
128.5446403555315
  0
ARC
  5
29D
330
31
100
AcDbEntity
  8
1
  6
Continuous
 62
     7
100
AcDbCircle
 10
135.3353645776973
 20
-235.4599659844696
 30
0.0
 40
1.000000000000089
100
AcDbArc
 50
0.0
 51
45.02960588412967
  0
LWPOLYLINE
  5
29C
330
31
100
AcDbEntity
  8
1
  6
Continuous
 62
     7
100
AcDbPolyline
 90
        2
 70
     1
 43
0.0
 10
286.598682856312
 20
-222.9599659844696
 42
1.0
 10
286.598682856312
 20
-231.9599659844696
 42
1.0
  0
ARC
  5
29B
330
31
100
AcDbEntity
  8
1
  6
Continuous
 62
     7
100
AcDbCircle
 10
296.598682856312
 20
-226.4599659844696
 30
0.0
 40
2.0
100
AcDbArc
 50
44.99999999999942
 51
180.0
  0
ARC
  5
29A
330
31
100
AcDbEntity
  8
1
  6
Continuous
 62
     7
100
AcDbCircle
 10
311.598682856312
 20
-227.4599659844696
 30
0.0
 40
2.97500000000002
100
AcDbArc
 50
-90.0
 51
-51.4553596444662
  0
ARC
  5
299
330
31
100
AcDbEntity
  8
1
  6
Continuous
 62
     7
100
AcDbCircle
 10
314.3871636254765
 20
-230.9599659844696
 30
0.0
 40
1.49999999999989
100
AcDbArc
 50
90.0
 51
128.5446403555306
  0
ARC
  5
298
330
31
100
AcDbEntity
  8
1
  6
Continuous
 62
     7
100
AcDbCircle
 10
319.5986828563121
 20
-235.4599659844696
 30
0.0
 40
1.0
100
AcDbArc
 50
0.0
 51
45.02609383283482
  0
ARC
  5
297
330
31
100
AcDbEntity
  8
1
  6
Continuous
 62
     7
100
AcDbCircle
 10
311.598682856312
 20
-227.4599659844696
 30
0.0
 40
2.97500000000006
100
AcDbArc
 50
51.45535964446587
 51
-133.021944757023
  0
ARC
  5
296
330
31
100
AcDbEntity
  8
1
  6
Continuous
 62
     7
100
AcDbCircle
 10
314.3871636254765
 20
-223.9599659844696
 30
0.0
 40
1.500000000000109
100
AcDbArc
 50
-90.0
 51
-43.66029101613754
  0
ARC
  5
295
330
31
100
AcDbEntity
  8
1
  6
Continuous
 62
     7
100
AcDbCircle
 10
319.5986828563121
 20
-219.4599659844696
 30
0.0
 40
1.0
100
AcDbArc
 50
0.0
 51
90.0
  0
LINE
  5
294
330
31
100
AcDbEntity
  8
1
  6
Continuous
 62
     7
100
AcDbLine
 10
110.3353645776973
 20
-236.4599659844696
 30
0.0
 11
135.3353645776973
 21
-236.4599659844696
 31
0.0
  0
LINE
  5
293
330
31
100
AcDbEntity
  8
1
  6
Continuous
 62
     7
100
AcDbLine
 10
225.598682856312
 20
-317.0
 30
0.0
 11
225.598682856312
 21
-318.5
 31
0.0
  0
LINE
  5
292
330
31
100
AcDbEntity
  8
1
  6
Continuous
 62
     7
100
AcDbLine
 10
49.0
 20
-328.7000459403909
 30
0.0
 11
49.0
 21
-329.8
 31
0.0
  0
LINE
  5
291
330
31
100
AcDbEntity
  8
1
  6
Continuous
 62
     7
100
AcDbLine
 10
47.0
 20
-326.4000459403908
 30
0.0
 11
47.0
 21
-326.0
 31
0.0
  0
LINE
  5
290
330
31
100
AcDbEntity
  8
1
  6
Continuous
 62
     7
100
AcDbLine
 10
135.3353645776973
 20
-335.0
 30
0.0
 11
93.33536457769731
 21
-335.0
 31
0.0
  0
LINE
  5
28F
330
31
100
AcDbEntity
  8
1
  6
Continuous
 62
     7
100
AcDbLine
 10
92.33536457769732
 20
-331.0
 30
0.0
 11
110.3353645776973
 21
-331.0
 31
0.0
  0
LINE
  5
28E
330
31
100
AcDbEntity
  8
1
  6
Continuous
 62
     7
100
AcDbLine
 10
136.3353645776973
 20
-331.5
 30
0.0
 11
110.8353645776973
 21
-331.5
 31
0.0
  0
LINE
  5
28D
330
31
100
AcDbEntity
  8
1
  6
Continuous
 62
     7
100
AcDbLine
 10
136.3353645776973
 20
-331.5
 30
0.0
 11
136.3353645776973
 21
-334.0
 31
0.0
  0
LINE
  5
28C
330
31
100
AcDbEntity
  8
1
  6
Continuous
 62
     7
100
AcDbLine
 10
92.33536457769732
 20
-334.0
 30
0.0
 11
92.33536457769732
 21
-331.0
 31
0.0
  0
LINE
  5
28B
330
31
100
AcDbEntity
  8
1
  6
Continuous
 62
     7
100
AcDbLine
 10
95.83536457769731
 20
-329.8
 30
0.0
 11
92.33536457769732
 21
-329.8
 31
0.0
  0
LINE
  5
28A
330
31
100
AcDbEntity
  8
1
  6
Continuous
 62
     7
100
AcDbLine
 10
108.8353645776973
 20
-329.8
 30
0.0
 11
110.3353645776973
 21
-329.8
 31
0.0
  0
LINE
  5
289
330
31
100
AcDbEntity
  8
1
  6
Continuous
 62
     7
100
AcDbLine
 10
110.3353645776973
 20
-328.5
 30
0.0
 11
110.3353645776973
 21
-331.0
 31
0.0
  0
LINE
  5
288
330
31
100
AcDbEntity
  8
1
  6
Continuous
 62
     7
100
AcDbLine
 10
96.33536457769732
 20
-330.5
 30
0.0
 11
108.3353645776973
 21
-330.5
 31
0.0
  0
LINE
  5
287
330
31
100
AcDbEntity
  8
1
  6
Continuous
 62
     7
100
AcDbLine
 10
108.8353645776973
 20
-329.8
 30
0.0
 11
108.3353645776973
 21
-330.5
 31
0.0
  0
LINE
  5
286
330
31
100
AcDbEntity
  8
1
  6
Continuous
 62
     7
100
AcDbLine
 10
95.83536457769731
 20
-329.8
 30
0.0
 11
96.33536457769732
 21
-330.5
 31
0.0
  0
LINE
  5
285
330
31
100
AcDbEntity
  8
1
  6
Continuous
 62
     7
100
AcDbLine
 10
94.33536457769731
 20
-328.5
 30
0.0
 11
94.33536457769731
 21
-329.8
 31
0.0
  0
LINE
  5
284
330
31
100
AcDbEntity
  8
1
  6
Continuous
 62
     7
100
AcDbLine
 10
97.33536457769732
 20
-326.0
 30
0.0
 11
97.33536457769732
 21
-330.5
 31
0.0
  0
LINE
  5
283
330
31
100
AcDbEntity
  8
1
  6
Continuous
 62
     7
100
AcDbLine
 10
96.83536457769733
 20
-326.0
 30
0.0
 11
97.33536457769732
 21
-326.0
 31
0.0
  0
LINE
  5
282
330
31
100
AcDbEntity
  8
1
  6
Continuous
 62
     7
100
AcDbLine
 10
94.33536457769731
 20
-328.5
 30
0.0
 11
96.83536457769733
 21
-326.0
 31
0.0
  0
LINE
  5
281
330
31
100
AcDbEntity
  8
1
  6
Continuous
 62
     7
100
AcDbLine
 10
107.3353645776973
 20
-326.0
 30
0.0
 11
107.3353645776973
 21
-330.5
 31
0.0
  0
LINE
  5
280
330
31
100
AcDbEntity
  8
1
  6
Continuous
 62
     7
100
AcDbLine
 10
107.8353645776973
 20
-326.0
 30
0.0
 11
107.3353645776973
 21
-326.0
 31
0.0
  0
LINE
  5
27F
330
31
100
AcDbEntity
  8
1
  6
Continuous
 62
     7
100
AcDbLine
 10
110.3353645776973
 20
-328.5
 30
0.0
 11
107.8353645776973
 21
-326.0
 31
0.0
  0
LINE
  5
27E
330
31
100
AcDbEntity
  8
1
  6
DOT_CENTER
 62
     2
100
AcDbLine
 10
127.3353645776973
 20
-326.5
 30
0.0
 11
127.3353645776973
 21
-340.0
 31
0.0
  0
LINE
  5
27D
330
31
100
AcDbEntity
  8
1
  6
DOT_CENTER
 62
     2
100
AcDbLine
 10
102.3353645776973
 20
-324.0
 30
0.0
 11
102.3353645776973
 21
-340.0
 31
0.0
  0
LINE
  5
27C
330
31
100
AcDbEntity
  8
1
  6
Continuous
 62
     7
100
AcDbLine
 10
52.0
 20
-335.0
 30
0.0
 11
36.0
 21
-335.0
 31
0.0
  0
LINE
  5
27B
330
31
100
AcDbEntity
  8
1
  6
Continuous
 62
     7
100
AcDbLine
 10
53.0
 20
-334.0
 30
0.0
 11
53.0
 21
-331.0
 31
0.0
  0
LINE
  5
27A
330
31
100
AcDbEntity
  8
1
  6
Continuous
 62
     7
100
AcDbLine
 10
35.0
 20
-334.0
 30
0.0
 11
35.0
 21
-331.0
 31
0.0
  0
LINE
  5
279
330
31
100
AcDbEntity
  8
1
  6
Continuous
 62
     7
100
AcDbLine
 10
35.0
 20
-331.0
 30
0.0
 11
38.0
 21
-331.0
 31
0.0
  0
LINE
  5
278
330
31
100
AcDbEntity
  8
1
  6
Continuous
 62
     7
100
AcDbLine
 10
50.0
 20
-331.0
 30
0.0
 11
53.0
 21
-331.0
 31
0.0
  0
LINE
  5
277
330
31
100
AcDbEntity
  8
1
  6
Continuous
 62
     7
100
AcDbLine
 10
38.5
 20
-330.5
 30
0.0
 11
38.5
 21
-329.8
 31
0.0
  0
LINE
  5
276
330
31
100
AcDbEntity
  8
1
  6
Continuous
 62
     7
100
AcDbLine
 10
49.5
 20
-330.5
 30
0.0
 11
49.5
 21
-329.8
 31
0.0
  0
LINE
  5
275
330
31
100
AcDbEntity
  8
1
  6
Continuous
 62
     7
100
AcDbLine
 10
38.5
 20
-329.8
 30
0.0
 11
39.0
 21
-329.8
 31
0.0
  0
LINE
  5
274
330
31
100
AcDbEntity
  8
1
  6
Continuous
 62
     7
100
AcDbLine
 10
39.0
 20
-329.8
 30
0.0
 11
39.0
 21
-326.0
 31
0.0
  0
LINE
  5
273
330
31
100
AcDbEntity
  8
1
  6
Continuous
 62
     7
100
AcDbLine
 10
41.0
 20
-326.0
 30
0.0
 11
41.0
 21
-329.8
 31
0.0
  0
LINE
  5
272
330
31
100
AcDbEntity
  8
1
  6
Continuous
 62
     7
100
AcDbLine
 10
47.0
 20
-329.8
 30
0.0
 11
47.0
 21
-328.4000459403908
 31
0.0
  0
LINE
  5
271
330
31
100
AcDbEntity
  8
1
  6
Continuous
 62
     7
100
AcDbLine
 10
49.0
 20
-326.0
 30
0.0
 11
49.0
 21
-326.4000459403908
 31
0.0
  0
LINE
  5
270
330
31
100
AcDbEntity
  8
1
  6
Continuous
 62
     7
100
AcDbLine
 10
39.0
 20
-328.5
 30
0.0
 11
41.0
 21
-328.5
 31
0.0
  0
LINE
  5
26F
330
31
100
AcDbEntity
  8
1
  6
Continuous
 62
     7
100
AcDbLine
 10
39.0
 20
-326.0
 30
0.0
 11
41.0
 21
-326.0
 31
0.0
  0
LINE
  5
26E
330
31
100
AcDbEntity
  8
1
  6
Continuous
 62
     7
100
AcDbLine
 10
47.0
 20
-326.0
 30
0.0
 11
49.0
 21
-326.0
 31
0.0
  0
LINE
  5
26D
330
31
100
AcDbEntity
  8
1
  6
Continuous
 62
     7
100
AcDbLine
 10
47.0
 20
-329.8
 30
0.0
 11
49.0
 21
-329.8
 31
0.0
  0
LINE
  5
26C
330
31
100
AcDbEntity
  8
1
  6
Continuous
 62
     7
100
AcDbLine
 10
49.0
 20
-329.8
 30
0.0
 11
49.5
 21
-329.8
 31
0.0
  0
LINE
  5
26B
330
31
100
AcDbEntity
  8
1
  6
Continuous
 62
     7
100
AcDbLine
 10
41.0
 20
-329.8
 30
0.0
 11
47.0
 21
-329.8
 31
0.0
  0
LINE
  5
26A
330
31
100
AcDbEntity
  8
1
  6
Continuous
 62
     7
100
AcDbLine
 10
39.0
 20
-329.8
 30
0.0
 11
41.0
 21
-329.8
 31
0.0
  0
LINE
  5
269
330
31
100
AcDbEntity
  8
1
  6
Continuous
 62
     7
100
AcDbLine
 10
94.33536457769731
 20
-236.4599659844696
 30
0.0
 11
110.3353645776973
 21
-236.4599659844696
 31
0.0
  0
LINE
  5
268
330
31
100
AcDbEntity
  8
1
  6
Continuous
 62
     7
100
AcDbLine
 10
135.3353645776973
 20
-218.4599659844696
 30
0.0
 11
94.33536457769731
 21
-218.4599659844696
 31
0.0
  0
LINE
  5
267
330
31
100
AcDbEntity
  8
1
  6
Continuous
 62
     7
100
AcDbLine
 10
112.3353645776973
 20
-224.4849659844696
 30
0.0
 11
127.3353645776973
 21
-224.4849659844696
 31
0.0
  0
LINE
  5
266
330
31
100
AcDbEntity
  8
1
  6
Continuous
 62
     7
100
AcDbLine
 10
125.3055862646789
 20
-225.2849659844696
 30
0.0
 11
118.3387917024435
 21
-225.2849659844696
 31
0.0
  0
LINE
  5
265
330
31
100
AcDbEntity
  8
1
  6
Continuous
 62
     7
100
AcDbLine
 10
92.33536457769732
 20
-220.4599659844696
 30
0.0
 11
92.33536457769732
 21
-234.4599659844696
 31
0.0
  0
LINE
  5
264
330
31
100
AcDbEntity
  8
1
  6
Continuous
 62
     7
100
AcDbLine
 10
110.3353645776973
 20
-228.4599659844696
 30
0.0
 11
110.3353645776973
 21
-226.4849659844696
 31
0.0
  0
LINE
  5
263
330
31
100
AcDbEntity
  8
1
  6
Continuous
 62
     7
100
AcDbLine
 10
113.7495781400704
 20
-229.8741795468427
 30
0.0
 11
118.3387917024435
 21
-225.2849659844696
 31
0.0
  0
LINE
  5
262
330
31
100
AcDbEntity
  8
1
  6
Continuous
 62
     7
100
AcDbLine
 10
136.0421492526625
 20
-220.1673947252163
 30
0.0
 11
131.1873520408314
 21
-225.0177719741869
 31
0.0
  0
LINE
  5
261
330
31
100
AcDbEntity
  8
1
  6
Continuous
 62
     7
100
AcDbLine
 10
136.0421058881752
 20
-234.7524939213716
 30
0.0
 11
131.2090140319108
 21
-229.9243941979723
 31
0.0
  0
LINE
  5
260
330
31
100
AcDbEntity
  8
1
  6
DOT_CENTER
 62
     2
100
AcDbLine
 10
102.3353645776973
 20
-220.9599659844696
 30
0.0
 11
102.3353645776973
 21
-233.9599659844696
 31
0.0
  0
LINE
  5
25F
330
31
100
AcDbEntity
  8
1
  6
DOT_CENTER
 62
     2
100
AcDbLine
 10
87.33536457769732
 20
-227.4599659844696
 30
0.0
 11
141.3353645776973
 21
-227.4599659844696
 31
0.0
  0
LINE
  5
25E
330
31
100
AcDbEntity
  8
1
  6
DOT_CENTER
 62
     2
100
AcDbLine
 10
127.3353645776973
 20
-220.7099659844696
 30
0.0
 11
127.3353645776973
 21
-234.2099659844696
 31
0.0
  0
LINE
  5
25D
330
31
100
AcDbEntity
  8
1
  6
Continuous
 62
     7
100
AcDbLine
 10
110.3353645776973
 20
-218.4599659844696
 30
0.0
 11
110.3353645776973
 21
-236.4599659844696
 31
0.0
  0
LINE
  5
25C
330
31
100
AcDbEntity
  8
1
  6
Continuous
 62
     7
100
AcDbLine
 10
110.3353645776973
 20
-221.9599659844696
 30
0.0
 11
105.3353645776973
 21
-221.9599659844696
 31
0.0
  0
LINE
  5
25B
330
31
100
AcDbEntity
  8
1
  6
Continuous
 62
     7
100
AcDbLine
 10
92.33536457769732
 20
-232.9599659844696
 30
0.0
 11
99.33536457769733
 21
-232.9599659844696
 31
0.0
  0
LINE
  5
25A
330
31
100
AcDbEntity
  8
1
  6
Continuous
 62
     7
100
AcDbLine
 10
110.3353645776973
 20
-232.4599659844696
 30
0.0
 11
107.3353645776973
 21
-232.4599659844696
 31
0.0
  0
LINE
  5
259
330
31
100
AcDbEntity
  8
1
  6
Continuous
 62
     7
100
AcDbLine
 10
94.33536457769731
 20
-222.4599659844696
 30
0.0
 11
97.33536457769732
 21
-222.4599659844696
 31
0.0
  0
LINE
  5
258
330
31
100
AcDbEntity
  8
1
  6
Continuous
 62
     7
100
AcDbLine
 10
110.3353645776973
 20
-230.4599659844696
 30
0.0
 11
107.3353645776973
 21
-230.4599659844696
 31
0.0
  0
LINE
  5
257
330
31
100
AcDbEntity
  8
1
  6
Continuous
 62
     7
100
AcDbLine
 10
94.33536457769731
 20
-224.4599659844696
 30
0.0
 11
97.33536457769732
 21
-224.4599659844696
 31
0.0
  0
LINE
  5
256
330
31
100
AcDbEntity
  8
1
  6
Continuous
 62
     7
100
AcDbLine
 10
107.3353645776973
 20
-230.4599659844696
 30
0.0
 11
107.3353645776973
 21
-232.4599659844696
 31
0.0
  0
LINE
  5
255
330
31
100
AcDbEntity
  8
1
  6
Continuous
 62
     7
100
AcDbLine
 10
107.8353645776973
 20
-232.4599659844696
 30
0.0
 11
107.8353645776973
 21
-230.4599659844696
 31
0.0
  0
LINE
  5
254
330
31
100
AcDbEntity
  8
1
  6
Continuous
 62
     7
100
AcDbLine
 10
108.3353645776973
 20
-232.9599659844696
 30
0.0
 11
108.3353645776973
 21
-232.4599659844696
 31
0.0
  0
LINE
  5
253
330
31
100
AcDbEntity
  8
1
  6
Continuous
 62
     7
100
AcDbLine
 10
108.8353645776973
 20
-232.9599659844696
 30
0.0
 11
108.8353645776973
 21
-232.4599659844696
 31
0.0
  0
LINE
  5
252
330
31
100
AcDbEntity
  8
1
  6
Continuous
 62
     7
100
AcDbLine
 10
108.3353645776973
 20
-230.4599659844696
 30
0.0
 11
108.3353645776973
 21
-221.9599659844696
 31
0.0
  0
LINE
  5
251
330
31
100
AcDbEntity
  8
1
  6
Continuous
 62
     7
100
AcDbLine
 10
108.8353645776973
 20
-221.9599659844696
 30
0.0
 11
108.8353645776973
 21
-230.4599659844696
 31
0.0
  0
LINE
  5
250
330
31
100
AcDbEntity
  8
1
  6
Continuous
 62
     7
100
AcDbLine
 10
97.33536457769732
 20
-222.4599659844696
 30
0.0
 11
97.33536457769732
 21
-224.4599659844696
 31
0.0
  0
LINE
  5
24F
330
31
100
AcDbEntity
  8
1
  6
Continuous
 62
     7
100
AcDbLine
 10
96.83536457769733
 20
-224.4599659844696
 30
0.0
 11
96.83536457769733
 21
-222.4599659844696
 31
0.0
  0
LINE
  5
24E
330
31
100
AcDbEntity
  8
1
  6
Continuous
 62
     7
100
AcDbLine
 10
96.33536457769732
 20
-221.9599659844696
 30
0.0
 11
96.33536457769732
 21
-222.4599659844696
 31
0.0
  0
LINE
  5
24D
330
31
100
AcDbEntity
  8
1
  6
Continuous
 62
     7
100
AcDbLine
 10
95.83536457769731
 20
-221.9599659844696
 30
0.0
 11
95.83536457769731
 21
-222.4599659844696
 31
0.0
  0
LINE
  5
24C
330
31
100
AcDbEntity
  8
1
  6
Continuous
 62
     7
100
AcDbLine
 10
94.33536457769731
 20
-222.4599659844696
 30
0.0
 11
94.33536457769731
 21
-224.4599659844696
 31
0.0
  0
LINE
  5
24B
330
31
100
AcDbEntity
  8
1
  6
Continuous
 62
     7
100
AcDbLine
 10
95.83536457769731
 20
-224.4599659844696
 30
0.0
 11
95.83536457769731
 21
-232.9599659844696
 31
0.0
  0
LINE
  5
24A
330
31
100
AcDbEntity
  8
1
  6
Continuous
 62
     7
100
AcDbLine
 10
96.33536457769732
 20
-232.9599659844696
 30
0.0
 11
96.33536457769732
 21
-224.4599659844696
 31
0.0
  0
LINE
  5
249
330
31
100
AcDbEntity
  8
1
  6
Continuous
 62
     7
100
AcDbLine
 10
92.33536457769732
 20
-331.0
 30
0.0
 11
92.33536457769732
 21
-329.8
 31
0.0
  0
LINE
  5
248
330
31
100
AcDbEntity
  8
1
  6
Continuous
 62
     7
100
AcDbLine
 10
220.598682856312
 20
-309.5
 30
0.0
 11
236.598682856312
 21
-309.5
 31
0.0
  0
LINE
  5
247
330
31
100
AcDbEntity
  8
1
  6
Continuous
 62
     7
100
AcDbLine
 10
219.598682856312
 20
-310.5
 30
0.0
 11
219.598682856312
 21
-313.5
 31
0.0
  0
LINE
  5
246
330
31
100
AcDbEntity
  8
1
  6
Continuous
 62
     7
100
AcDbLine
 10
237.598682856312
 20
-310.5
 30
0.0
 11
237.598682856312
 21
-313.5
 31
0.0
  0
LINE
  5
245
330
31
100
AcDbEntity
  8
1
  6
Continuous
 62
     7
100
AcDbLine
 10
237.598682856312
 20
-313.5
 30
0.0
 11
234.598682856312
 21
-313.5
 31
0.0
  0
LINE
  5
244
330
31
100
AcDbEntity
  8
1
  6
Continuous
 62
     7
100
AcDbLine
 10
222.598682856312
 20
-313.5
 30
0.0
 11
219.598682856312
 21
-313.5
 31
0.0
  0
LINE
  5
243
330
31
100
AcDbEntity
  8
1
  6
Continuous
 62
     7
100
AcDbLine
 10
234.098682856312
 20
-314.0
 30
0.0
 11
234.098682856312
 21
-314.7
 31
0.0
  0
LINE
  5
242
330
31
100
AcDbEntity
  8
1
  6
Continuous
 62
     7
100
AcDbLine
 10
223.098682856312
 20
-314.0
 30
0.0
 11
223.098682856312
 21
-314.7
 31
0.0
  0
LINE
  5
241
330
31
100
AcDbEntity
  8
1
  6
Continuous
 62
     7
100
AcDbLine
 10
234.098682856312
 20
-314.7
 30
0.0
 11
233.598682856312
 21
-314.7
 31
0.0
  0
LINE
  5
240
330
31
100
AcDbEntity
  8
1
  6
Continuous
 62
     7
100
AcDbLine
 10
233.598682856312
 20
-314.7
 30
0.0
 11
233.598682856312
 21
-318.5
 31
0.0
  0
LINE
  5
23F
330
31
100
AcDbEntity
  8
1
  6
Continuous
 62
     7
100
AcDbLine
 10
231.598682856312
 20
-318.5
 30
0.0
 11
231.598682856312
 21
-314.7
 31
0.0
  0
LINE
  5
23E
330
31
100
AcDbEntity
  8
1
  6
Continuous
 62
     7
100
AcDbLine
 10
225.598682856312
 20
-314.7
 30
0.0
 11
225.598682856312
 21
-315.0
 31
0.0
  0
LINE
  5
23D
330
31
100
AcDbEntity
  8
1
  6
Continuous
 62
     7
100
AcDbLine
 10
223.598682856312
 20
-318.5
 30
0.0
 11
223.598682856312
 21
-317.0
 31
0.0
  0
LINE
  5
23C
330
31
100
AcDbEntity
  8
1
  6
Continuous
 62
     7
100
AcDbLine
 10
233.598682856312
 20
-316.0
 30
0.0
 11
231.598682856312
 21
-316.0
 31
0.0
  0
LINE
  5
23B
330
31
100
AcDbEntity
  8
1
  6
Continuous
 62
     7
100
AcDbLine
 10
233.598682856312
 20
-318.5
 30
0.0
 11
231.598682856312
 21
-318.5
 31
0.0
  0
LINE
  5
23A
330
31
100
AcDbEntity
  8
1
  6
Continuous
 62
     7
100
AcDbLine
 10
225.598682856312
 20
-318.5
 30
0.0
 11
223.598682856312
 21
-318.5
 31
0.0
  0
LINE
  5
239
330
31
100
AcDbEntity
  8
1
  6
Continuous
 62
     7
100
AcDbLine
 10
225.598682856312
 20
-314.7
 30
0.0
 11
223.098682856312
 21
-314.7
 31
0.0
  0
LINE
  5
238
330
31
100
AcDbEntity
  8
1
  6
Continuous
 62
     7
100
AcDbLine
 10
231.598682856312
 20
-314.7
 30
0.0
 11
225.598682856312
 21
-314.7
 31
0.0
  0
LINE
  5
237
330
31
100
AcDbEntity
  8
1
  6
Continuous
 62
     7
100
AcDbLine
 10
233.598682856312
 20
-314.7
 30
0.0
 11
231.598682856312
 21
-314.7
 31
0.0
  0
LINE
  5
236
330
31
100
AcDbEntity
  8
1
  6
Continuous
 62
     7
100
AcDbLine
 10
277.598682856312
 20
-309.5
 30
0.0
 11
319.598682856312
 21
-309.5
 31
0.0
  0
LINE
  5
235
330
31
100
AcDbEntity
  8
1
  6
Continuous
 62
     7
100
AcDbLine
 10
294.5986828563119
 20
-313.5
 30
0.0
 11
276.598682856312
 21
-313.5
 31
0.0
  0
LINE
  5
234
330
31
100
AcDbEntity
  8
1
  6
Continuous
 62
     7
100
AcDbLine
 10
295.0986828563119
 20
-313.0
 30
0.0
 11
320.598682856312
 21
-313.0
 31
0.0
  0
LINE
  5
233
330
31
100
AcDbEntity
  8
1
  6
Continuous
 62
     7
100
AcDbLine
 10
320.598682856312
 20
-310.5
 30
0.0
 11
320.598682856312
 21
-313.0
 31
0.0
  0
LINE
  5
232
330
31
100
AcDbEntity
  8
1
  6
Continuous
 62
     7
100
AcDbLine
 10
276.598682856312
 20
-313.5
 30
0.0
 11
276.598682856312
 21
-310.5
 31
0.0
  0
LINE
  5
231
330
31
100
AcDbEntity
  8
1
  6
Continuous
 62
     7
100
AcDbLine
 10
276.598682856312
 20
-314.7
 30
0.0
 11
280.098682856312
 21
-314.7
 31
0.0
  0
LINE
  5
230
330
31
100
AcDbEntity
  8
1
  6
Continuous
 62
     7
100
AcDbLine
 10
294.5986828563119
 20
-314.7
 30
0.0
 11
293.0986828563119
 21
-314.7
 31
0.0
  0
LINE
  5
22F
330
31
100
AcDbEntity
  8
1
  6
Continuous
 62
     7
100
AcDbLine
 10
294.5986828563119
 20
-313.5
 30
0.0
 11
294.5986828563119
 21
-316.0
 31
0.0
  0
LINE
  5
22E
330
31
100
AcDbEntity
  8
1
  6
Continuous
 62
     7
100
AcDbLine
 10
292.598682856312
 20
-314.0
 30
0.0
 11
280.598682856312
 21
-314.0
 31
0.0
  0
LINE
  5
22D
330
31
100
AcDbEntity
  8
1
  6
Continuous
 62
     7
100
AcDbLine
 10
292.598682856312
 20
-314.0
 30
0.0
 11
293.0986828563119
 21
-314.7
 31
0.0
  0
LINE
  5
22C
330
31
100
AcDbEntity
  8
1
  6
Continuous
 62
     7
100
AcDbLine
 10
280.598682856312
 20
-314.0
 30
0.0
 11
280.098682856312
 21
-314.7
 31
0.0
  0
LINE
  5
22B
330
31
100
AcDbEntity
  8
1
  6
Continuous
 62
     7
100
AcDbLine
 10
278.598682856312
 20
-314.7
 30
0.0
 11
278.598682856312
 21
-316.0
 31
0.0
  0
LINE
  5
22A
330
31
100
AcDbEntity
  8
1
  6
Continuous
 62
     7
100
AcDbLine
 10
281.598682856312
 20
-314.0
 30
0.0
 11
281.598682856312
 21
-318.5
 31
0.0
  0
LINE
  5
229
330
31
100
AcDbEntity
  8
1
  6
Continuous
 62
     7
100
AcDbLine
 10
281.598682856312
 20
-318.5
 30
0.0
 11
281.098682856312
 21
-318.5
 31
0.0
  0
LINE
  5
228
330
31
100
AcDbEntity
  8
1
  6
Continuous
 62
     7
100
AcDbLine
 10
281.098682856312
 20
-318.5
 30
0.0
 11
278.598682856312
 21
-316.0
 31
0.0
  0
LINE
  5
227
330
31
100
AcDbEntity
  8
1
  6
Continuous
 62
     7
100
AcDbLine
 10
291.5986828563119
 20
-314.0
 30
0.0
 11
291.5986828563119
 21
-318.5
 31
0.0
  0
LINE
  5
226
330
31
100
AcDbEntity
  8
1
  6
Continuous
 62
     7
100
AcDbLine
 10
291.5986828563119
 20
-318.5
 30
0.0
 11
292.0986828563119
 21
-318.5
 31
0.0
  0
LINE
  5
225
330
31
100
AcDbEntity
  8
1
  6
Continuous
 62
     7
100
AcDbLine
 10
292.0986828563119
 20
-318.5
 30
0.0
 11
294.5986828563119
 21
-316.0
 31
0.0
  0
LINE
  5
224
330
31
100
AcDbEntity
  8
1
  6
DOT_CENTER
 62
     2
100
AcDbLine
 10
311.5986828563119
 20
-304.5
 30
0.0
 11
311.5986828563119
 21
-318.0
 31
0.0
  0
LINE
  5
223
330
31
100
AcDbEntity
  8
1
  6
DOT_CENTER
 62
     2
100
AcDbLine
 10
286.598682856312
 20
-304.5
 30
0.0
 11
286.598682856312
 21
-320.5
 31
0.0
  0
LINE
  5
222
330
31
100
AcDbEntity
  8
1
  6
Continuous
 62
     7
100
AcDbLine
 10
276.598682856312
 20
-314.7
 30
0.0
 11
276.598682856312
 21
-313.5
 31
0.0
  0
LINE
  5
221
330
31
100
AcDbEntity
  8
1
  6
Continuous
 62
     7
100
AcDbLine
 10
319.5986828563121
 20
-218.4599659844696
 30
0.0
 11
278.598682856312
 21
-218.4599659844696
 31
0.0
  0
LINE
  5
220
330
31
100
AcDbEntity
  8
1
  6
Continuous
 62
     7
100
AcDbLine
 10
278.598682856312
 20
-236.4599659844696
 30
0.0
 11
319.5986828563121
 21
-236.4599659844696
 31
0.0
  0
LINE
  5
21F
330
31
100
AcDbEntity
  8
1
  6
Continuous
 62
     7
100
AcDbLine
 10
311.598682856312
 20
-230.4349659844696
 30
0.0
 11
296.598682856312
 21
-230.4349659844696
 31
0.0
  0
LINE
  5
21E
330
31
100
AcDbEntity
  8
1
  6
Continuous
 62
     7
100
AcDbLine
 10
302.6021099810582
 20
-229.6349659844696
 30
0.0
 11
309.5689045432936
 21
-229.6349659844696
 31
0.0
  0
LINE
  5
21D
330
31
100
AcDbEntity
  8
1
  6
Continuous
 62
     7
100
AcDbLine
 10
276.598682856312
 20
-220.4599659844696
 30
0.0
 11
276.598682856312
 21
-234.4599659844696
 31
0.0
  0
LINE
  5
21C
330
31
100
AcDbEntity
  8
1
  6
Continuous
 62
     7
100
AcDbLine
 10
294.598682856312
 20
-228.4349659844696
 30
0.0
 11
294.598682856312
 21
-226.4599659844696
 31
0.0
  0
LINE
  5
21B
330
31
100
AcDbEntity
  8
1
  6
Continuous
 62
     7
100
AcDbLine
 10
302.6021099810582
 20
-229.6349659844696
 30
0.0
 11
298.0128964186851
 21
-225.0457524220965
 31
0.0
  0
LINE
  5
21A
330
31
100
AcDbEntity
  8
1
  6
Continuous
 62
     7
100
AcDbLine
 10
315.4506703194461
 20
-229.9021599947523
 30
0.0
 11
320.3054675312772
 21
-234.7525372437229
 31
0.0
  0
LINE
  5
219
330
31
100
AcDbEntity
  8
1
  6
Continuous
 62
     7
100
AcDbLine
 10
315.4723323105255
 20
-224.9955377709669
 30
0.0
 11
320.3054241667899
 21
-220.1674380475675
 31
0.0
  0
LINE
  5
218
330
31
100
AcDbEntity
  8
1
  6
DOT_CENTER
 62
     2
100
AcDbLine
 10
286.598682856312
 20
-220.9599659844696
 30
0.0
 11
286.598682856312
 21
-233.9599659844696
 31
0.0
  0
LINE
  5
217
330
31
100
AcDbEntity
  8
1
  6
DOT_CENTER
 62
     2
100
AcDbLine
 10
325.598682856312
 20
-227.4599659844696
 30
0.0
 11
271.598682856312
 21
-227.4599659844696
 31
0.0
  0
LINE
  5
216
330
31
100
AcDbEntity
  8
1
  6
DOT_CENTER
 62
     2
100
AcDbLine
 10
311.598682856312
 20
-220.7099659844696
 30
0.0
 11
311.598682856312
 21
-234.2099659844696
 31
0.0
  0
LINE
  5
215
330
31
100
AcDbEntity
  8
1
  6
Continuous
 62
     7
100
AcDbLine
 10
97.33536457769732
 20
-221.9599659844696
 30
0.0
 11
92.33536457769732
 21
-221.9599659844696
 31
0.0
  0
LINE
  5
214
330
31
100
AcDbEntity
  8
1
  6
Continuous
 62
     7
100
AcDbLine
 10
107.3353645776973
 20
-232.9599659844696
 30
0.0
 11
110.3353645776973
 21
-232.9599659844696
 31
0.0
  0
ENDBLK
  5
2BE
330
31
100
AcDbEntity
  8
0
100
AcDbBlockEnd
  0
BLOCK
  5
34
330
33
100
AcDbEntity
  8
0
100
AcDbBlockBegin
  2
_4
 70
     0
 10
40.0
 20
-335.0
 30
0.0
  3
_4
  1

  0
ARC
  5
343
330
33
100
AcDbEntity
  8
1
  6
Continuous
 62
     3
100
AcDbCircle
 10
287.548682856312
 20
-228.4099659844696
 30
0.0
 40
0.5
100
AcDbArc
 50
90.0
 51
180.0
  0
ARC
  5
342
330
33
100
AcDbEntity
  8
1
  6
Continuous
 62
     3
100
AcDbCircle
 10
285.648682856312
 20
-228.4099659844696
 30
0.0
 40
0.5
100
AcDbArc
 50
0.0
 51
90.0
  0
ARC
  5
341
330
33
100
AcDbEntity
  8
1
  6
Continuous
 62
     3
100
AcDbCircle
 10
285.648682856312
 20
-226.5099659844696
 30
0.0
 40
0.5
100
AcDbArc
 50
-90.0
 51
0.0
  0
ARC
  5
340
330
33
100
AcDbEntity
  8
1
  6
Continuous
 62
     3
100
AcDbCircle
 10
287.548682856312
 20
-226.5099659844696
 30
0.0
 40
0.5
100
AcDbArc
 50
180.0
 51
-90.0
  0
LWPOLYLINE
  5
33F
330
33
100
AcDbEntity
  8
1
  6
Continuous
 62
     3
100
AcDbPolyline
 90
        2
 70
     1
 43
0.0
 10
290.598682856312
 20
-227.4599659844696
 42
1.0
 10
282.598682856312
 20
-227.4599659844696
 42
1.0
  0
LINE
  5
33E
330
33
100
AcDbEntity
  8
1
  6
Continuous
 62
     3
100
AcDbLine
 10
288.598682856312
 20
-317.0
 30
0.0
 11
288.598682856312
 21
-319.121
 31
0.0
  0
LINE
  5
33D
330
33
100
AcDbEntity
  8
1
  6
DOTTED
 62
     2
100
AcDbLine
 10
288.219682856312
 20
-317.0
 30
0.0
 11
288.219682856312
 21
-315.0
 31
0.0
  0
LINE
  5
33C
330
33
100
AcDbEntity
  8
1
  6
Continuous
 62
     2
100
AcDbLine
 10
284.977682856312
 20
-317.0
 30
0.0
 11
284.977682856312
 21
-319.5
 31
0.0
  0
LINE
  5
33B
330
33
100
AcDbEntity
  8
1
  6
DOTTED
 62
     3
100
AcDbLine
 10
284.598682856312
 20
-317.0
 30
0.0
 11
284.598682856312
 21
-315.0
 31
0.0
  0
LINE
  5
33A
330
33
100
AcDbEntity
  8
1
  6
DOTTED
 62
     3
100
AcDbLine
 10
284.598682856312
 20
-314.0
 30
0.0
 11
284.598682856312
 21
-311.879
 31
0.0
  0
LINE
  5
339
330
33
100
AcDbEntity
  8
1
  6
Continuous
 62
     3
100
AcDbLine
 10
284.598682856312
 20
-315.0
 30
0.0
 11
284.598682856312
 21
-314.0
 31
0.0
  0
LINE
  5
338
330
33
100
AcDbEntity
  8
1
  6
DOTTED
 62
     2
100
AcDbLine
 10
284.977682856312
 20
-315.0
 30
0.0
 11
284.977682856312
 21
-317.0
 31
0.0
  0
LINE
  5
337
330
33
100
AcDbEntity
  8
1
  6
Continuous
 62
     2
100
AcDbLine
 10
284.977682856312
 20
-314.0
 30
0.0
 11
284.977682856312
 21
-315.0
 31
0.0
  0
LINE
  5
336
330
33
100
AcDbEntity
  8
1
  6
Continuous
 62
     2
100
AcDbLine
 10
288.219682856312
 20
-315.0
 30
0.0
 11
288.219682856312
 21
-314.0
 31
0.0
  0
LINE
  5
335
330
33
100
AcDbEntity
  8
1
  6
DOTTED
 62
     2
100
AcDbLine
 10
288.219682856312
 20
-314.0
 30
0.0
 11
288.219682856312
 21
-311.879
 31
0.0
  0
LINE
  5
334
330
33
100
AcDbEntity
  8
1
  6
DOTTED
 62
     3
100
AcDbLine
 10
288.598682856312
 20
-315.0
 30
0.0
 11
288.598682856312
 21
-317.0
 31
0.0
  0
LINE
  5
333
330
33
100
AcDbEntity
  8
1
  6
Continuous
 62
     3
100
AcDbLine
 10
288.598682856312
 20
-314.0
 30
0.0
 11
288.598682856312
 21
-315.0
 31
0.0
  0
LINE
  5
332
330
33
100
AcDbEntity
  8
1
  6
Continuous
 62
     3
100
AcDbLine
 10
230.598682856312
 20
-317.0
 30
0.0
 11
230.598682856312
 21
-319.121
 31
0.0
  0
LINE
  5
331
330
33
100
AcDbEntity
  8
1
  6
DOTTED
 62
     2
100
AcDbLine
 10
230.219682856312
 20
-317.0
 30
0.0
 11
230.219682856312
 21
-315.0
 31
0.0
  0
LINE
  5
330
330
33
100
AcDbEntity
  8
1
  6
Continuous
 62
     2
100
AcDbLine
 10
226.977682856312
 20
-317.0
 30
0.0
 11
226.977682856312
 21
-319.5
 31
0.0
  0
LINE
  5
32F
330
33
100
AcDbEntity
  8
1
  6
DOTTED
 62
     3
100
AcDbLine
 10
226.598682856312
 20
-317.0
 30
0.0
 11
226.598682856312
 21
-315.0
 31
0.0
  0
LINE
  5
32E
330
33
100
AcDbEntity
  8
1
  6
DOTTED
 62
     3
100
AcDbLine
 10
226.598682856312
 20
-314.7
 30
0.0
 11
226.598682856312
 21
-311.879
 31
0.0
  0
LINE
  5
32D
330
33
100
AcDbEntity
  8
1
  6
Continuous
 62
     3
100
AcDbLine
 10
226.598682856312
 20
-315.0
 30
0.0
 11
226.598682856312
 21
-314.7
 31
0.0
  0
LINE
  5
32C
330
33
100
AcDbEntity
  8
1
  6
DOTTED
 62
     2
100
AcDbLine
 10
226.977682856312
 20
-315.0
 30
0.0
 11
226.977682856312
 21
-317.0
 31
0.0
  0
LINE
  5
32B
330
33
100
AcDbEntity
  8
1
  6
Continuous
 62
     2
100
AcDbLine
 10
226.977682856312
 20
-314.7
 30
0.0
 11
226.977682856312
 21
-315.0
 31
0.0
  0
LINE
  5
32A
330
33
100
AcDbEntity
  8
1
  6
DOTTED
 62
     2
100
AcDbLine
 10
230.219682856312
 20
-314.7
 30
0.0
 11
230.219682856312
 21
-311.879
 31
0.0
  0
LINE
  5
329
330
33
100
AcDbEntity
  8
1
  6
Continuous
 62
     2
100
AcDbLine
 10
230.219682856312
 20
-315.0
 30
0.0
 11
230.219682856312
 21
-314.7
 31
0.0
  0
LINE
  5
328
330
33
100
AcDbEntity
  8
1
  6
DOTTED
 62
     3
100
AcDbLine
 10
230.598682856312
 20
-315.0
 30
0.0
 11
230.598682856312
 21
-317.0
 31
0.0
  0
LINE
  5
327
330
33
100
AcDbEntity
  8
1
  6
Continuous
 62
     3
100
AcDbLine
 10
230.598682856312
 20
-314.7
 30
0.0
 11
230.598682856312
 21
-315.0
 31
0.0
  0
LINE
  5
326
330
33
100
AcDbEntity
  8
1
  6
Continuous
 62
     3
100
AcDbLine
 10
100.3353645776973
 20
-326.4
 30
0.0
 11
100.3353645776973
 21
-325.379
 31
0.0
  0
LINE
  5
325
330
33
100
AcDbEntity
  8
1
  6
DOTTED
 62
     2
100
AcDbLine
 10
100.7143645776973
 20
-326.4
 30
0.0
 11
100.7143645776973
 21
-328.4
 31
0.0
  0
LINE
  5
324
330
33
100
AcDbEntity
  8
1
  6
Continuous
 62
     2
100
AcDbLine
 10
100.7143645776973
 20
-328.4
 30
0.0
 11
100.7143645776973
 21
-330.5
 31
0.0
  0
LINE
  5
323
330
33
100
AcDbEntity
  8
1
  6
DOTTED
 62
     3
100
AcDbLine
 10
100.3353645776973
 20
-328.4
 30
0.0
 11
100.3353645776973
 21
-326.4
 31
0.0
  0
LINE
  5
322
330
33
100
AcDbEntity
  8
1
  6
Continuous
 62
     3
100
AcDbLine
 10
100.3353645776973
 20
-330.5
 30
0.0
 11
100.3353645776973
 21
-328.4
 31
0.0
  0
LINE
  5
321
330
33
100
AcDbEntity
  8
1
  6
DOTTED
 62
     2
100
AcDbLine
 10
100.7143645776973
 20
-330.5
 30
0.0
 11
100.7143645776973
 21
-332.621
 31
0.0
  0
LINE
  5
320
330
33
100
AcDbEntity
  8
1
  6
Continuous
 62
     2
100
AcDbLine
 10
103.9563645776973
 20
-330.5
 30
0.0
 11
103.9563645776973
 21
-328.4
 31
0.0
  0
LINE
  5
31F
330
33
100
AcDbEntity
  8
1
  6
DOTTED
 62
     2
100
AcDbLine
 10
103.9563645776973
 20
-328.4
 30
0.0
 11
103.9563645776973
 21
-326.4
 31
0.0
  0
LINE
  5
31E
330
33
100
AcDbEntity
  8
1
  6
Continuous
 62
     2
100
AcDbLine
 10
103.9563645776973
 20
-326.4
 30
0.0
 11
103.9563645776973
 21
-325.0
 31
0.0
  0
LINE
  5
31D
330
33
100
AcDbEntity
  8
1
  6
DOTTED
 62
     3
100
AcDbLine
 10
104.3353645776973
 20
-326.4
 30
0.0
 11
104.3353645776973
 21
-328.4
 31
0.0
  0
LINE
  5
31C
330
33
100
AcDbEntity
  8
1
  6
Continuous
 62
     3
100
AcDbLine
 10
104.3353645776973
 20
-328.4
 30
0.0
 11
104.3353645776973
 21
-330.5
 31
0.0
  0
LINE
  5
31B
330
33
100
AcDbEntity
  8
1
  6
DOTTED
 62
     3
100
AcDbLine
 10
104.3353645776973
 20
-330.5
 30
0.0
 11
104.3353645776973
 21
-332.621
 31
0.0
  0
LINE
  5
31A
330
33
100
AcDbEntity
  8
1
  6
Continuous
 62
     3
100
AcDbLine
 10
41.99999999999999
 20
-329.8
 30
0.0
 11
41.99999999999999
 21
-328.4000459403908
 31
0.0
  0
LINE
  5
319
330
33
100
AcDbEntity
  8
1
  6
DOTTED
 62
     3
100
AcDbLine
 10
41.99999999999999
 20
-328.4000459403908
 30
0.0
 11
41.99999999999999
 21
-326.4000459403908
 31
0.0
  0
LINE
  5
318
330
33
100
AcDbEntity
  8
1
  6
Continuous
 62
     3
100
AcDbLine
 10
41.99999999999999
 20
-326.4000459403908
 30
0.0
 11
42.0
 21
-325.379
 31
0.0
  0
LINE
  5
317
330
33
100
AcDbEntity
  8
1
  6
DOTTED
 62
     2
100
AcDbLine
 10
42.37900000000001
 20
-326.4000459403908
 30
0.0
 11
42.37900000000001
 21
-328.4000459403908
 31
0.0
  0
LINE
  5
316
330
33
100
AcDbEntity
  8
1
  6
Continuous
 62
     2
100
AcDbLine
 10
42.37900000000001
 20
-328.4000459403908
 30
0.0
 11
42.37900000000002
 21
-329.8
 31
0.0
  0
LINE
  5
315
330
33
100
AcDbEntity
  8
1
  6
DOTTED
 62
     2
100
AcDbLine
 10
42.37900000000002
 20
-329.8
 30
0.0
 11
42.37900000000002
 21
-332.621
 31
0.0
  0
LINE
  5
314
330
33
100
AcDbEntity
  8
1
  6
Continuous
 62
     2
100
AcDbLine
 10
45.62099999999997
 20
-329.8
 30
0.0
 11
45.62099999999997
 21
-328.4000459403908
 31
0.0
  0
LINE
  5
313
330
33
100
AcDbEntity
  8
1
  6
DOTTED
 62
     2
100
AcDbLine
 10
45.62099999999997
 20
-328.4000459403908
 30
0.0
 11
45.62099999999997
 21
-326.4000459403908
 31
0.0
  0
LINE
  5
312
330
33
100
AcDbEntity
  8
1
  6
Continuous
 62
     2
100
AcDbLine
 10
45.62099999999997
 20
-326.4000459403908
 30
0.0
 11
45.621
 21
-325.0
 31
0.0
  0
LINE
  5
311
330
33
100
AcDbEntity
  8
1
  6
DOTTED
 62
     3
100
AcDbLine
 10
45.99999999999999
 20
-326.4000459403908
 30
0.0
 11
45.99999999999999
 21
-328.4000459403908
 31
0.0
  0
LINE
  5
310
330
33
100
AcDbEntity
  8
1
  6
Continuous
 62
     3
100
AcDbLine
 10
45.99999999999999
 20
-328.4000459403908
 30
0.0
 11
46.0
 21
-329.8
 31
0.0
  0
LINE
  5
30F
330
33
100
AcDbEntity
  8
1
  6
DOTTED
 62
     3
100
AcDbLine
 10
46.0
 20
-329.8
 30
0.0
 11
46.0
 21
-332.621
 31
0.0
  0
LINE
  5
30E
330
33
100
AcDbEntity
  8
1
  6
DOTTED
 62
     3
100
AcDbLine
 10
282.598682856312
 20
-309.5
 30
0.0
 11
290.598682856312
 21
-309.5
 31
0.0
  0
LINE
  5
30D
330
33
100
AcDbEntity
  8
1
  6
DOTTED
 62
     3
100
AcDbLine
 10
284.598682856312
 20
-311.5
 30
0.0
 11
282.598682856312
 21
-309.5
 31
0.0
  0
LINE
  5
30C
330
33
100
AcDbEntity
  8
1
  6
DOTTED
 62
     3
100
AcDbLine
 10
288.598682856312
 20
-311.5
 30
0.0
 11
288.219682856312
 21
-311.879
 31
0.0
  0
LINE
  5
30B
330
33
100
AcDbEntity
  8
1
  6
Continuous
 62
     3
100
AcDbLine
 10
288.219682856312
 20
-319.5
 30
0.0
 11
284.977682856312
 21
-319.5
 31
0.0
  0
LINE
  5
30A
330
33
100
AcDbEntity
  8
1
  6
Continuous
 62
     3
100
AcDbLine
 10
284.598682856312
 20
-319.121
 30
0.0
 11
288.598682856312
 21
-319.121
 31
0.0
  0
LINE
  5
309
330
33
100
AcDbEntity
  8
1
  6
DOTTED
 62
     3
100
AcDbLine
 10
284.977682856312
 20
-311.879
 30
0.0
 11
284.598682856312
 21
-311.5
 31
0.0
  0
LINE
  5
308
330
33
100
AcDbEntity
  8
1
  6
DOTTED
 62
     3
100
AcDbLine
 10
290.598682856312
 20
-309.5
 30
0.0
 11
288.598682856312
 21
-311.5
 31
0.0
  0
LINE
  5
307
330
33
100
AcDbEntity
  8
1
  6
DOTTED
 62
     3
100
AcDbLine
 10
288.598682856312
 20
-311.879
 30
0.0
 11
288.598682856312
 21
-314.0
 31
0.0
  0
LINE
  5
306
330
33
100
AcDbEntity
  8
1
  6
Continuous
 62
     2
100
AcDbLine
 10
288.219682856312
 20
-319.5
 30
0.0
 11
288.219682856312
 21
-317.0
 31
0.0
  0
LINE
  5
305
330
33
100
AcDbEntity
  8
1
  6
DOTTED
 62
     2
100
AcDbLine
 10
284.977682856312
 20
-311.879
 30
0.0
 11
284.977682856312
 21
-314.0
 31
0.0
  0
LINE
  5
304
330
33
100
AcDbEntity
  8
1
  6
DOTTED
 62
     3
100
AcDbLine
 10
284.598682856312
 20
-311.879
 30
0.0
 11
284.598682856312
 21
-311.5
 31
0.0
  0
LINE
  5
303
330
33
100
AcDbEntity
  8
1
  6
Continuous
 62
     3
100
AcDbLine
 10
288.219682856312
 20
-319.5
 30
0.0
 11
288.598682856312
 21
-319.121
 31
0.0
  0
LINE
  5
302
330
33
100
AcDbEntity
  8
1
  6
Continuous
 62
     3
100
AcDbLine
 10
284.598682856312
 20
-319.121
 30
0.0
 11
284.977682856312
 21
-319.5
 31
0.0
  0
LINE
  5
301
330
33
100
AcDbEntity
  8
1
  6
DOTTED
 62
     3
100
AcDbLine
 10
288.598682856312
 20
-311.879
 30
0.0
 11
284.977682856312
 21
-311.879
 31
0.0
  0
LINE
  5
300
330
33
100
AcDbEntity
  8
1
  6
DOTTED
 62
     3
100
AcDbLine
 10
288.598682856312
 20
-311.5
 30
0.0
 11
288.598682856312
 21
-311.879
 31
0.0
  0
LINE
  5
2FF
330
33
100
AcDbEntity
  8
1
  6
DOTTED
 62
     3
100
AcDbLine
 10
284.598682856312
 20
-311.879
 30
0.0
 11
284.977682856312
 21
-311.879
 31
0.0
  0
LINE
  5
2FE
330
33
100
AcDbEntity
  8
1
  6
Continuous
 62
     3
100
AcDbLine
 10
284.598682856312
 20
-319.121
 30
0.0
 11
284.598682856312
 21
-317.0
 31
0.0
  0
LINE
  5
2FD
330
33
100
AcDbEntity
  8
1
  6
DOTTED
 62
     3
100
AcDbLine
 10
224.598682856312
 20
-309.5
 30
0.0
 11
232.598682856312
 21
-309.5
 31
0.0
  0
LINE
  5
2FC
330
33
100
AcDbEntity
  8
1
  6
DOTTED
 62
     3
100
AcDbLine
 10
226.598682856312
 20
-311.5
 30
0.0
 11
224.598682856312
 21
-309.5
 31
0.0
  0
LINE
  5
2FB
330
33
100
AcDbEntity
  8
1
  6
DOTTED
 62
     3
100
AcDbLine
 10
230.598682856312
 20
-311.5
 30
0.0
 11
230.219682856312
 21
-311.879
 31
0.0
  0
LINE
  5
2FA
330
33
100
AcDbEntity
  8
1
  6
Continuous
 62
     3
100
AcDbLine
 10
230.219682856312
 20
-319.5
 30
0.0
 11
226.977682856312
 21
-319.5
 31
0.0
  0
LINE
  5
2F9
330
33
100
AcDbEntity
  8
1
  6
Continuous
 62
     3
100
AcDbLine
 10
226.598682856312
 20
-319.121
 30
0.0
 11
230.598682856312
 21
-319.121
 31
0.0
  0
LINE
  5
2F8
330
33
100
AcDbEntity
  8
1
  6
DOTTED
 62
     3
100
AcDbLine
 10
226.977682856312
 20
-311.879
 30
0.0
 11
226.598682856312
 21
-311.5
 31
0.0
  0
LINE
  5
2F7
330
33
100
AcDbEntity
  8
1
  6
DOTTED
 62
     3
100
AcDbLine
 10
232.598682856312
 20
-309.5
 30
0.0
 11
230.598682856312
 21
-311.5
 31
0.0
  0
LINE
  5
2F6
330
33
100
AcDbEntity
  8
1
  6
DOTTED
 62
     3
100
AcDbLine
 10
230.598682856312
 20
-311.879
 30
0.0
 11
230.598682856312
 21
-314.7
 31
0.0
  0
LINE
  5
2F5
330
33
100
AcDbEntity
  8
1
  6
Continuous
 62
     2
100
AcDbLine
 10
230.219682856312
 20
-319.5
 30
0.0
 11
230.219682856312
 21
-317.0
 31
0.0
  0
LINE
  5
2F4
330
33
100
AcDbEntity
  8
1
  6
DOTTED
 62
     2
100
AcDbLine
 10
226.977682856312
 20
-311.879
 30
0.0
 11
226.977682856312
 21
-314.7
 31
0.0
  0
LINE
  5
2F3
330
33
100
AcDbEntity
  8
1
  6
DOTTED
 62
     3
100
AcDbLine
 10
226.598682856312
 20
-311.879
 30
0.0
 11
226.598682856312
 21
-311.5
 31
0.0
  0
LINE
  5
2F2
330
33
100
AcDbEntity
  8
1
  6
Continuous
 62
     3
100
AcDbLine
 10
230.219682856312
 20
-319.5
 30
0.0
 11
230.598682856312
 21
-319.121
 31
0.0
  0
LINE
  5
2F1
330
33
100
AcDbEntity
  8
1
  6
Continuous
 62
     3
100
AcDbLine
 10
226.598682856312
 20
-319.121
 30
0.0
 11
226.977682856312
 21
-319.5
 31
0.0
  0
LINE
  5
2F0
330
33
100
AcDbEntity
  8
1
  6
DOTTED
 62
     3
100
AcDbLine
 10
230.598682856312
 20
-311.879
 30
0.0
 11
226.977682856312
 21
-311.879
 31
0.0
  0
LINE
  5
2EF
330
33
100
AcDbEntity
  8
1
  6
DOTTED
 62
     3
100
AcDbLine
 10
230.598682856312
 20
-311.5
 30
0.0
 11
230.598682856312
 21
-311.879
 31
0.0
  0
LINE
  5
2EE
330
33
100
AcDbEntity
  8
1
  6
DOTTED
 62
     3
100
AcDbLine
 10
226.598682856312
 20
-311.879
 30
0.0
 11
226.977682856312
 21
-311.879
 31
0.0
  0
LINE
  5
2ED
330
33
100
AcDbEntity
  8
1
  6
Continuous
 62
     3
100
AcDbLine
 10
226.598682856312
 20
-319.121
 30
0.0
 11
226.598682856312
 21
-317.0
 31
0.0
  0
LINE
  5
2EC
330
33
100
AcDbEntity
  8
1
  6
DOTTED
 62
     3
100
AcDbLine
 10
106.3353645776973
 20
-335.0
 30
0.0
 11
98.33536457769731
 21
-335.0
 31
0.0
  0
LINE
  5
2EB
330
33
100
AcDbEntity
  8
1
  6
DOTTED
 62
     3
100
AcDbLine
 10
98.33536457769731
 20
-335.0
 30
0.0
 11
100.3353645776973
 21
-333.0
 31
0.0
  0
LINE
  5
2EA
330
33
100
AcDbEntity
  8
1
  6
DOTTED
 62
     3
100
AcDbLine
 10
103.9563645776973
 20
-332.621
 30
0.0
 11
104.3353645776973
 21
-333.0
 31
0.0
  0
LINE
  5
2E9
330
33
100
AcDbEntity
  8
1
  6
Continuous
 62
     3
100
AcDbLine
 10
100.7143645776973
 20
-325.0
 30
0.0
 11
103.9563645776973
 21
-325.0
 31
0.0
  0
LINE
  5
2E8
330
33
100
AcDbEntity
  8
1
  6
Continuous
 62
     3
100
AcDbLine
 10
104.3353645776973
 20
-325.379
 30
0.0
 11
100.3353645776973
 21
-325.379
 31
0.0
  0
LINE
  5
2E7
330
33
100
AcDbEntity
  8
1
  6
DOTTED
 62
     3
100
AcDbLine
 10
100.3353645776973
 20
-333.0
 30
0.0
 11
100.7143645776973
 21
-332.621
 31
0.0
  0
LINE
  5
2E6
330
33
100
AcDbEntity
  8
1
  6
DOTTED
 62
     3
100
AcDbLine
 10
104.3353645776973
 20
-333.0
 30
0.0
 11
106.3353645776973
 21
-335.0
 31
0.0
  0
LINE
  5
2E5
330
33
100
AcDbEntity
  8
1
  6
Continuous
 62
     3
100
AcDbLine
 10
104.3353645776973
 20
-325.379
 30
0.0
 11
104.3353645776973
 21
-326.4
 31
0.0
  0
LINE
  5
2E4
330
33
100
AcDbEntity
  8
1
  6
DOTTED
 62
     2
100
AcDbLine
 10
103.9563645776973
 20
-332.621
 30
0.0
 11
103.9563645776973
 21
-330.5
 31
0.0
  0
LINE
  5
2E3
330
33
100
AcDbEntity
  8
1
  6
Continuous
 62
     2
100
AcDbLine
 10
100.7143645776973
 20
-325.0
 30
0.0
 11
100.7143645776973
 21
-326.4
 31
0.0
  0
LINE
  5
2E2
330
33
100
AcDbEntity
  8
1
  6
DOTTED
 62
     3
100
AcDbLine
 10
100.3353645776973
 20
-333.0
 30
0.0
 11
100.3353645776973
 21
-332.621
 31
0.0
  0
LINE
  5
2E1
330
33
100
AcDbEntity
  8
1
  6
Continuous
 62
     3
100
AcDbLine
 10
104.3353645776973
 20
-325.379
 30
0.0
 11
103.9563645776973
 21
-325.0
 31
0.0
  0
LINE
  5
2E0
330
33
100
AcDbEntity
  8
1
  6
Continuous
 62
     3
100
AcDbLine
 10
100.7143645776973
 20
-325.0
 30
0.0
 11
100.3353645776973
 21
-325.379
 31
0.0
  0
LINE
  5
2DF
330
33
100
AcDbEntity
  8
1
  6
DOTTED
 62
     3
100
AcDbLine
 10
100.7143645776973
 20
-332.621
 30
0.0
 11
104.3353645776973
 21
-332.621
 31
0.0
  0
LINE
  5
2DE
330
33
100
AcDbEntity
  8
1
  6
DOTTED
 62
     3
100
AcDbLine
 10
104.3353645776973
 20
-332.621
 30
0.0
 11
104.3353645776973
 21
-333.0
 31
0.0
  0
LINE
  5
2DD
330
33
100
AcDbEntity
  8
1
  6
DOTTED
 62
     3
100
AcDbLine
 10
100.7143645776973
 20
-332.621
 30
0.0
 11
100.3353645776973
 21
-332.621
 31
0.0
  0
LINE
  5
2DC
330
33
100
AcDbEntity
  8
1
  6
DOTTED
 62
     3
100
AcDbLine
 10
100.3353645776973
 20
-332.621
 30
0.0
 11
100.3353645776973
 21
-330.5
 31
0.0
  0
LINE
  5
2DB
330
33
100
AcDbEntity
  8
1
  6
DOTTED
 62
     3
100
AcDbLine
 10
48.0
 20
-335.0
 30
0.0
 11
40.0
 21
-335.0
 31
0.0
  0
LINE
  5
2DA
330
33
100
AcDbEntity
  8
1
  6
DOTTED
 62
     3
100
AcDbLine
 10
40.0
 20
-335.0
 30
0.0
 11
42.0
 21
-333.0
 31
0.0
  0
LINE
  5
2D9
330
33
100
AcDbEntity
  8
1
  6
DOTTED
 62
     3
100
AcDbLine
 10
45.621
 20
-332.621
 30
0.0
 11
46.0
 21
-333.0
 31
0.0
  0
LINE
  5
2D8
330
33
100
AcDbEntity
  8
1
  6
Continuous
 62
     3
100
AcDbLine
 10
42.37900000000002
 20
-325.0
 30
0.0
 11
45.621
 21
-325.0
 31
0.0
  0
LINE
  5
2D7
330
33
100
AcDbEntity
  8
1
  6
Continuous
 62
     3
100
AcDbLine
 10
46.0
 20
-325.379
 30
0.0
 11
42.0
 21
-325.379
 31
0.0
  0
LINE
  5
2D6
330
33
100
AcDbEntity
  8
1
  6
DOTTED
 62
     3
100
AcDbLine
 10
42.0
 20
-333.0
 30
0.0
 11
42.37900000000002
 21
-332.621
 31
0.0
  0
LINE
  5
2D5
330
33
100
AcDbEntity
  8
1
  6
DOTTED
 62
     3
100
AcDbLine
 10
46.0
 20
-333.0
 30
0.0
 11
48.0
 21
-335.0
 31
0.0
  0
LINE
  5
2D4
330
33
100
AcDbEntity
  8
1
  6
Continuous
 62
     3
100
AcDbLine
 10
46.0
 20
-325.379
 30
0.0
 11
45.99999999999999
 21
-326.4000459403908
 31
0.0
  0
LINE
  5
2D3
330
33
100
AcDbEntity
  8
1
  6
DOTTED
 62
     2
100
AcDbLine
 10
45.621
 20
-332.621
 30
0.0
 11
45.62099999999997
 21
-329.8
 31
0.0
  0
LINE
  5
2D2
330
33
100
AcDbEntity
  8
1
  6
Continuous
 62
     2
100
AcDbLine
 10
42.37900000000002
 20
-325.0
 30
0.0
 11
42.37900000000001
 21
-326.4000459403908
 31
0.0
  0
LINE
  5
2D1
330
33
100
AcDbEntity
  8
1
  6
DOTTED
 62
     3
100
AcDbLine
 10
42.0
 20
-333.0
 30
0.0
 11
42.0
 21
-332.621
 31
0.0
  0
LINE
  5
2D0
330
33
100
AcDbEntity
  8
1
  6
Continuous
 62
     3
100
AcDbLine
 10
46.0
 20
-325.379
 30
0.0
 11
45.621
 21
-325.0
 31
0.0
  0
LINE
  5
2CF
330
33
100
AcDbEntity
  8
1
  6
Continuous
 62
     3
100
AcDbLine
 10
42.37900000000002
 20
-325.0
 30
0.0
 11
42.0
 21
-325.379
 31
0.0
  0
LINE
  5
2CE
330
33
100
AcDbEntity
  8
1
  6
DOTTED
 62
     3
100
AcDbLine
 10
42.37900000000002
 20
-332.621
 30
0.0
 11
46.0
 21
-332.621
 31
0.0
  0
LINE
  5
2CD
330
33
100
AcDbEntity
  8
1
  6
DOTTED
 62
     3
100
AcDbLine
 10
46.0
 20
-332.621
 30
0.0
 11
46.0
 21
-333.0
 31
0.0
  0
LINE
  5
2CC
330
33
100
AcDbEntity
  8
1
  6
DOTTED
 62
     3
100
AcDbLine
 10
42.37900000000002
 20
-332.621
 30
0.0
 11
42.0
 21
-332.621
 31
0.0
  0
LINE
  5
2CB
330
33
100
AcDbEntity
  8
1
  6
DOTTED
 62
     3
100
AcDbLine
 10
42.0
 20
-332.621
 30
0.0
 11
41.99999999999999
 21
-329.8
 31
0.0
  0
LINE
  5
2CA
330
33
100
AcDbEntity
  8
1
  6
Continuous
 62
     3
100
AcDbLine
 10
286.148682856312
 20
-225.3099659844696
 30
0.0
 11
287.048682856312
 21
-225.3099659844696
 31
0.0
  0
LINE
  5
2C9
330
33
100
AcDbEntity
  8
1
  6
Continuous
 62
     3
100
AcDbLine
 10
286.148682856312
 20
-229.6099659844696
 30
0.0
 11
287.048682856312
 21
-229.6099659844696
 31
0.0
  0
LINE
  5
2C8
330
33
100
AcDbEntity
  8
1
  6
Continuous
 62
     3
100
AcDbLine
 10
284.448682856312
 20
-227.9099659844696
 30
0.0
 11
285.648682856312
 21
-227.9099659844696
 31
0.0
  0
LINE
  5
2C7
330
33
100
AcDbEntity
  8
1
  6
Continuous
 62
     3
100
AcDbLine
 10
287.548682856312
 20
-227.9099659844696
 30
0.0
 11
288.748682856312
 21
-227.9099659844696
 31
0.0
  0
LINE
  5
2C6
330
33
100
AcDbEntity
  8
1
  6
Continuous
 62
     3
100
AcDbLine
 10
288.748682856312
 20
-227.0099659844696
 30
0.0
 11
287.548682856312
 21
-227.0099659844696
 31
0.0
  0
LINE
  5
2C5
330
33
100
AcDbEntity
  8
1
  6
Continuous
 62
     3
100
AcDbLine
 10
285.648682856312
 20
-227.0099659844696
 30
0.0
 11
284.448682856312
 21
-227.0099659844696
 31
0.0
  0
LINE
  5
2C4
330
33
100
AcDbEntity
  8
1
  6
Continuous
 62
     3
100
AcDbLine
 10
288.748682856312
 20
-227.0099659844696
 30
0.0
 11
288.748682856312
 21
-227.9099659844696
 31
0.0
  0
LINE
  5
2C3
330
33
100
AcDbEntity
  8
1
  6
Continuous
 62
     3
100
AcDbLine
 10
287.048682856312
 20
-229.6099659844696
 30
0.0
 11
287.048682856312
 21
-228.4099659844696
 31
0.0
  0
LINE
  5
2C2
330
33
100
AcDbEntity
  8
1
  6
Continuous
 62
     3
100
AcDbLine
 10
287.048682856312
 20
-226.5099659844696
 30
0.0
 11
287.048682856312
 21
-225.3099659844696
 31
0.0
  0
LINE
  5
2C1
330
33
100
AcDbEntity
  8
1
  6
Continuous
 62
     3
100
AcDbLine
 10
286.148682856312
 20
-225.3099659844696
 30
0.0
 11
286.148682856312
 21
-226.5099659844696
 31
0.0
  0
LINE
  5
2C0
330
33
100
AcDbEntity
  8
1
  6
Continuous
 62
     3
100
AcDbLine
 10
286.148682856312
 20
-228.4099659844696
 30
0.0
 11
286.148682856312
 21
-229.6099659844696
 31
0.0
  0
LINE
  5
2BF
330
33
100
AcDbEntity
  8
1
  6
Continuous
 62
     3
100
AcDbLine
 10
284.448682856312
 20
-227.9099659844696
 30
0.0
 11
284.448682856312
 21
-227.0099659844696
 31
0.0
  0
ENDBLK
  5
344
330
33
100
AcDbEntity
  8
0
100
AcDbBlockEnd
  0
BLOCK
  5
35A
330
359
100
AcDbEntity
  8
0
100
AcDbBlockBegin
  2
*D7
 70
     1
 10
0.0
 20
0.0
 30
0.0
  3
*D7
  1

  0
LINE
  5
35B
330
359
100
AcDbEntity
  8
0
  6
Continuous
 62
     2
100
AcDbLine
 10
30.0
 20
-295.5
 30
0.0
 11
58.00000000000006
 21
-295.5
 31
0.0
  0
LINE
  5
35C
330
359
100
AcDbEntity
  8
0
  6
Continuous
 62
     2
100
AcDbLine
 10
30.0
 20
-310.0
 30
0.0
 11
30.0
 21
-294.5
 31
0.0
  0
LINE
  5
35D
330
359
100
AcDbEntity
  8
0
  6
Continuous
 62
     2
100
AcDbLine
 10
58.00000000000006
 20
-310.0
 30
0.0
 11
58.00000000000006
 21
-294.5
 31
0.0
  0
LINE
  5
35E
330
359
100
AcDbEntity
  8
0
 62
     2
100
AcDbLine
 10
58.00000000000006
 20
-295.5
 30
0.0
 11
55.55000000000005
 21
-296.1564755214563
 31
0.0
  0
LINE
  5
35F
330
359
100
AcDbEntity
  8
0
 62
     2
100
AcDbLine
 10
58.00000000000006
 20
-295.5
 30
0.0
 11
55.55000000000005
 21
-294.8435244785437
 31
0.0
  0
LINE
  5
360
330
359
100
AcDbEntity
  8
0
 62
     2
100
AcDbLine
 10
30.0
 20
-295.5
 30
0.0
 11
32.45
 21
-294.8435244785437
 31
0.0
  0
LINE
  5
361
330
359
100
AcDbEntity
  8
0
 62
     2
100
AcDbLine
 10
30.0
 20
-295.5
 30
0.0
 11
32.45
 21
-296.1564755214563
 31
0.0
  0
MTEXT
  5
363
330
359
100
AcDbEntity
  8
0
 62
     3
100
AcDbMText
 10
42.16250000000003
 20
-294.5
 30
0.0
 40
3.5
 41
0.0
 71
     7
 72
     1
  1
28
  7
CONVERTER_5
 11
0.999999999997062
 21
0.00000242406841
 31
0.0
 73
     1
 44
1.0
1001
ACAD
1000
MTEXTBEGIN
1070
    73
1070
     1
1070
    44
1040
1.0
1070
    74
1070
     0
1000
MTEXTEND
  0
ENDBLK
  5
364
330
359
100
AcDbEntity
  8
0
100
AcDbBlockEnd
  0
BLOCK
  5
366
330
365
100
AcDbEntity
  8
0
 62
     0
100
AcDbBlockBegin
  2
_OPEN30
 70
     0
 10
0.0
 20
0.0
 30
0.0
  3
_OPEN30
  1

  0
LINE
  5
367
330
365
100
AcDbEntity
  8
0
  6
ByBlock
 62
     0
100
AcDbLine
 10
-1.0
 20
0.267949
 30
0.0
 11
0.0
 21
0.0
 31
0.0
  0
LINE
  5
368
330
365
100
AcDbEntity
  8
0
  6
ByBlock
 62
     0
100
AcDbLine
 10
0.0
 20
0.0
 30
0.0
 11
-1.0
 21
-0.267949
 31
0.0
  0
LINE
  5
369
330
365
100
AcDbEntity
  8
0
  6
ByBlock
 62
     0
100
AcDbLine
 10
0.0
 20
0.0
 30
0.0
 11
-1.0
 21
0.0
 31
0.0
  0
ENDBLK
  5
36A
330
365
100
AcDbEntity
  8
0
 62
     0
100
AcDbBlockEnd
  0
BLOCK
  5
36E
330
36D
100
AcDbEntity
  8
0
100
AcDbBlockBegin
  2
*D9
 70
     1
 10
0.0
 20
0.0
 30
0.0
  3
*D9
  1

  0
LINE
  5
36F
330
36D
100
AcDbEntity
  8
0
  6
Continuous
 62
     2
100
AcDbLine
 10
97.33536457769732
 20
-199.4599659844696
 30
0.0
 11
107.3353645776973
 21
-199.4599659844696
 31
0.0
  0
LINE
  5
370
330
36D
100
AcDbEntity
  8
0
  6
Continuous
 62
     2
100
AcDbLine
 10
97.33536457769732
 20
-220.2149679860712
 30
0.0
 11
97.33536457769732
 21
-198.4599659844696
 31
0.0
  0
LINE
  5
371
330
36D
100
AcDbEntity
  8
0
  6
Continuous
 62
     2
100
AcDbLine
 10
107.3353645776973
 20
-224.1686781369918
 30
0.0
 11
107.3353645776973
 21
-198.4599659844696
 31
0.0
  0
LINE
  5
372
330
36D
100
AcDbEntity
  8
0
 62
     2
100
AcDbLine
 10
97.33536457769732
 20
-199.4599659844696
 30
0.0
 11
99.78536457769731
 21
-198.8034904630133
 31
0.0
  0
LINE
  5
373
330
36D
100
AcDbEntity
  8
0
 62
     2
100
AcDbLine
 10
97.33536457769732
 20
-199.4599659844696
 30
0.0
 11
99.78536457769731
 21
-200.1164415059258
 31
0.0
  0
LINE
  5
374
330
36D
100
AcDbEntity
  8
0
 62
     2
100
AcDbLine
 10
107.3353645776973
 20
-199.4599659844696
 30
0.0
 11
104.8853645776973
 21
-200.1164415059258
 31
0.0
  0
LINE
  5
375
330
36D
100
AcDbEntity
  8
0
 62
     2
100
AcDbLine
 10
107.3353645776973
 20
-199.4599659844696
 30
0.0
 11
104.8853645776973
 21
-198.8034904630133
 31
0.0
  0
MTEXT
  5
376
330
36D
100
AcDbEntity
  8
0
 62
     3
100
AcDbMText
 10
100.8653645776973
 20
-198.4599659844696
 30
0.0
 40
3.5
 41
0.0
 71
     7
 72
     1
  1
10
  7
CONVERTER_5
 11
0.999999999997062
 21
0.00000242406841
 31
0.0
 73
     1
 44
1.0
1001
ACAD
1000
MTEXTBEGIN
1070
    73
1070
     1
1070
    44
1040
1.0
1070
    74
1070
     0
1000
MTEXTEND
  0
ENDBLK
  5
377
330
36D
100
AcDbEntity
  8
0
100
AcDbBlockEnd
  0
BLOCK
  5
37B
330
37A
100
AcDbEntity
  8
0
100
AcDbBlockBegin
  2
*D10
 70
     1
 10
0.0
 20
0.0
 30
0.0
  3
*D10
  1

  0
LINE
  5
37C
330
37A
100
AcDbEntity
  8
0
  6
Continuous
 62
     2
100
AcDbLine
 10
102.3353645776973
 20
-262.4599659844696
 30
0.0
 11
110.3353645776973
 21
-262.4599659844696
 31
0.0
  0
LINE
  5
37D
330
37A
100
AcDbEntity
  8
0
  6
Continuous
 62
     2
100
AcDbLine
 10
102.3353645776973
 20
-234.9599659844696
 30
0.0
 11
102.3353645776973
 21
-263.4599659844696
 31
0.0
  0
LINE
  5
37E
330
37A
100
AcDbEntity
  8
0
  6
Continuous
 62
     2
100
AcDbLine
 10
110.3353645776973
 20
-237.4599659844696
 30
0.0
 11
110.3353645776973
 21
-263.4599659844696
 31
0.0
  0
LINE
  5
37F
330
37A
100
AcDbEntity
  8
0
 62
     2
100
AcDbLine
 10
102.3353645776973
 20
-262.4599659844696
 30
0.0
 11
104.7853645776973
 21
-261.8034904630134
 31
0.0
  0
LINE
  5
380
330
37A
100
AcDbEntity
  8
0
 62
     2
100
AcDbLine
 10
102.3353645776973
 20
-262.4599659844696
 30
0.0
 11
104.7853645776973
 21
-263.1164415059258
 31
0.0
  0
LINE
  5
381
330
37A
100
AcDbEntity
  8
0
 62
     2
100
AcDbLine
 10
110.3353645776973
 20
-262.4599659844696
 30
0.0
 11
107.8853645776973
 21
-263.1164415059258
 31
0.0
  0
LINE
  5
382
330
37A
100
AcDbEntity
  8
0
 62
     2
100
AcDbLine
 10
110.3353645776973
 20
-262.4599659844696
 30
0.0
 11
107.8853645776973
 21
-261.8034904630134
 31
0.0
  0
MTEXT
  5
383
330
37A
100
AcDbEntity
  8
0
 62
     3
100
AcDbMText
 10
105.6003645776973
 20
-261.4599659844696
 30
0.0
 40
3.5
 41
0.0
 71
     7
 72
     1
  1
8
  7
CONVERTER_5
 11
0.999999999997062
 21
0.00000242406841
 31
0.0
 73
     1
 44
1.0
1001
ACAD
1000
MTEXTBEGIN
1070
    73
1070
     1
1070
    44
1040
1.0
1070
    74
1070
     0
1000
MTEXTEND
  0
ENDBLK
  5
384
330
37A
100
AcDbEntity
  8
0
100
AcDbBlockEnd
  0
BLOCK
  5
388
330
387
100
AcDbEntity
  8
0
100
AcDbBlockBegin
  2
*D11
 70
     1
 10
0.0
 20
0.0
 30
0.0
  3
*D11
  1

  0
LINE
  5
389
330
387
100
AcDbEntity
  8
0
  6
Continuous
 62
     2
100
AcDbLine
 10
110.3353645776973
 20
-262.4599659844696
 30
0.0
 11
127.3353645776973
 21
-262.4599659844696
 31
0.0
  0
LINE
  5
38A
330
387
100
AcDbEntity
  8
0
  6
Continuous
 62
     2
100
AcDbLine
 10
110.3353645776973
 20
-237.4599659844696
 30
0.0
 11
110.3353645776973
 21
-263.4599659844696
 31
0.0
  0
LINE
  5
38B
330
387
100
AcDbEntity
  8
0
  6
Continuous
 62
     2
100
AcDbLine
 10
127.3353645776973
 20
-235.2099659844696
 30
0.0
 11
127.3353645776973
 21
-263.4599659844696
 31
0.0
  0
LINE
  5
38C
330
387
100
AcDbEntity
  8
0
 62
     2
100
AcDbLine
 10
127.3353645776973
 20
-262.4599659844696
 30
0.0
 11
124.8853645776973
 21
-263.1164415059258
 31
0.0
  0
LINE
  5
38D
330
387
100
AcDbEntity
  8
0
 62
     2
100
AcDbLine
 10
127.3353645776973
 20
-262.4599659844696
 30
0.0
 11
124.8853645776973
 21
-261.8034904630134
 31
0.0
  0
LINE
  5
38E
330
387
100
AcDbEntity
  8
0
 62
     2
100
AcDbLine
 10
110.3353645776973
 20
-262.4599659844696
 30
0.0
 11
112.7853645776973
 21
-261.8034904630134
 31
0.0
  0
LINE
  5
38F
330
387
100
AcDbEntity
  8
0
 62
     2
100
AcDbLine
 10
110.3353645776973
 20
-262.4599659844696
 30
0.0
 11
112.7853645776973
 21
-263.1164415059258
 31
0.0
  0
MTEXT
  5
390
330
387
100
AcDbEntity
  8
0
 62
     3
100
AcDbMText
 10
117.3653645776973
 20
-261.4599659844696
 30
0.0
 40
3.5
 41
0.0
 71
     7
 72
     1
  1
17
  7
CONVERTER_5
 11
0.999999999997062
 21
0.00000242406841
 31
0.0
 73
     1
 44
1.0
1001
ACAD
1000
MTEXTBEGIN
1070
    73
1070
     1
1070
    44
1040
1.0
1070
    74
1070
     0
1000
MTEXTEND
  0
ENDBLK
  5
391
330
387
100
AcDbEntity
  8
0
100
AcDbBlockEnd
  0
BLOCK
  5
395
330
394
100
AcDbEntity
  8
0
100
AcDbBlockBegin
  2
*D12
 70
     1
 10
0.0
 20
0.0
 30
0.0
  3
*D12
  1

  0
LINE
  5
396
330
394
100
AcDbEntity
  8
0
  6
Continuous
 62
     2
100
AcDbLine
 10
92.33536457769732
 20
-269.4599659844696
 30
0.0
 11
127.3353645776973
 21
-269.4599659844696
 31
0.0
  0
LINE
  5
397
330
394
100
AcDbEntity
  8
0
  6
Continuous
 62
     2
100
AcDbLine
 10
92.33536457769732
 20
-242.4599659844696
 30
0.0
 11
92.33536457769732
 21
-270.4599659844696
 31
0.0
  0
LINE
  5
398
330
394
100
AcDbEntity
  8
0
  6
Continuous
 62
     2
100
AcDbLine
 10
127.3353645776973
 20
-235.2099659844696
 30
0.0
 11
127.3353645776973
 21
-270.4599659844696
 31
0.0
  0
LINE
  5
399
330
394
100
AcDbEntity
  8
0
 62
     2
100
AcDbLine
 10
92.33536457769732
 20
-269.4599659844696
 30
0.0
 11
94.78536457769731
 21
-268.8034904630133
 31
0.0
  0
LINE
  5
39A
330
394
100
AcDbEntity
  8
0
 62
     2
100
AcDbLine
 10
92.33536457769732
 20
-269.4599659844696
 30
0.0
 11
94.78536457769731
 21
-270.1164415059258
 31
0.0
  0
LINE
  5
39B
330
394
100
AcDbEntity
  8
0
 62
     2
100
AcDbLine
 10
127.3353645776973
 20
-269.4599659844696
 30
0.0
 11
124.8853645776973
 21
-270.1164415059258
 31
0.0
  0
LINE
  5
39C
330
394
100
AcDbEntity
  8
0
 62
     2
100
AcDbLine
 10
127.3353645776973
 20
-269.4599659844696
 30
0.0
 11
124.8853645776973
 21
-268.8034904630133
 31
0.0
  0
MTEXT
  5
39D
330
394
100
AcDbEntity
  8
0
 62
     3
100
AcDbMText
 10
107.9978645776973
 20
-268.4599659844696
 30
0.0
 40
3.5
 41
0.0
 71
     7
 72
     1
  1
35
  7
CONVERTER_5
 11
0.999999999997062
 21
0.00000242406841
 31
0.0
 73
     1
 44
1.0
1001
ACAD
1000
MTEXTBEGIN
1070
    73
1070
     1
1070
    44
1040
1.0
1070
    74
1070
     0
1000
MTEXTEND
  0
ENDBLK
  5
39E
330
394
100
AcDbEntity
  8
0
100
AcDbBlockEnd
  0
BLOCK
  5
3A2
330
3A1
100
AcDbEntity
  8
0
100
AcDbBlockBegin
  2
*D13
 70
     1
 10
0.0
 20
0.0
 30
0.0
  3
*D13
  1

  0
LINE
  5
3A3
330
3A1
100
AcDbEntity
  8
0
  6
Continuous
 62
     2
100
AcDbLine
 10
92.33536457769732
 20
-262.4599659844696
 30
0.0
 11
102.3353645776973
 21
-262.4599659844696
 31
0.0
  0
LINE
  5
3A4
330
3A1
100
AcDbEntity
  8
0
  6
Continuous
 62
     2
100
AcDbLine
 10
92.33536457769732
 20
-242.4599659844696
 30
0.0
 11
92.33536457769732
 21
-263.4599659844696
 31
0.0
  0
LINE
  5
3A5
330
3A1
100
AcDbEntity
  8
0
  6
Continuous
 62
     2
100
AcDbLine
 10
102.3353645776973
 20
-234.9599659844696
 30
0.0
 11
102.3353645776973
 21
-263.4599659844696
 31
0.0
  0
LINE
  5
3A6
330
3A1
100
AcDbEntity
  8
0
 62
     2
100
AcDbLine
 10
102.3353645776973
 20
-262.4599659844696
 30
0.0
 11
99.88536457769731
 21
-263.1164415059258
 31
0.0
  0
LINE
  5
3A7
330
3A1
100
AcDbEntity
  8
0
 62
     2
100
AcDbLine
 10
102.3353645776973
 20
-262.4599659844696
 30
0.0
 11
99.88536457769731
 21
-261.8034904630134
 31
0.0
  0
LINE
  5
3A8
330
3A1
100
AcDbEntity
  8
0
 62
     2
100
AcDbLine
 10
92.33536457769732
 20
-262.4599659844696
 30
0.0
 11
94.78536457769731
 21
-261.8034904630134
 31
0.0
  0
LINE
  5
3A9
330
3A1
100
AcDbEntity
  8
0
 62
     2
100
AcDbLine
 10
92.33536457769732
 20
-262.4599659844696
 30
0.0
 11
94.78536457769731
 21
-263.1164415059258
 31
0.0
  0
MTEXT
  5
3AA
330
3A1
100
AcDbEntity
  8
0
 62
     3
100
AcDbMText
 10
95.86536457769732
 20
-261.4599659844696
 30
0.0
 40
3.5
 41
0.0
 71
     7
 72
     1
  1
10
  7
CONVERTER_5
 11
0.999999999997062
 21
0.00000242406841
 31
0.0
 73
     1
 44
1.0
1001
ACAD
1000
MTEXTBEGIN
1070
    73
1070
     1
1070
    44
1040
1.0
1070
    74
1070
     0
1000
MTEXTEND
  0
ENDBLK
  5
3AB
330
3A1
100
AcDbEntity
  8
0
100
AcDbBlockEnd
  0
BLOCK
  5
3AF
330
3AE
100
AcDbEntity
  8
0
100
AcDbBlockBegin
  2
*D14
 70
     1
 10
0.0
 20
0.0
 30
0.0
  3
*D14
  1

  0
LINE
  5
3B0
330
3AE
100
AcDbEntity
  8
0
  6
Continuous
 62
     2
100
AcDbLine
 10
127.3353645776972
 20
-269.4599659844696
 30
0.0
 11
136.3353645776973
 21
-269.4599659844696
 31
0.0
  0
LINE
  5
3B1
330
3AE
100
AcDbEntity
  8
0
  6
Continuous
 62
     2
100
AcDbLine
 10
127.3353645776972
 20
-235.2099659844696
 30
0.0
 11
127.3353645776972
 21
-270.4599659844696
 31
0.0
  0
LINE
  5
3B2
330
3AE
100
AcDbEntity
  8
0
  6
Continuous
 62
     2
100
AcDbLine
 10
136.3353645776973
 20
-236.4599659844696
 30
0.0
 11
136.3353645776973
 21
-270.4599659844696
 31
0.0
  0
LINE
  5
3B3
330
3AE
100
AcDbEntity
  8
0
 62
     2
100
AcDbLine
 10
136.3353645776973
 20
-269.4599659844696
 30
0.0
 11
133.8853645776973
 21
-270.1164415059258
 31
0.0
  0
LINE
  5
3B4
330
3AE
100
AcDbEntity
  8
0
 62
     2
100
AcDbLine
 10
136.3353645776973
 20
-269.4599659844696
 30
0.0
 11
133.8853645776973
 21
-268.8034904630133
 31
0.0
  0
LINE
  5
3B5
330
3AE
100
AcDbEntity
  8
0
 62
     2
100
AcDbLine
 10
127.3353645776972
 20
-269.4599659844696
 30
0.0
 11
129.7853645776972
 21
-268.8034904630133
 31
0.0
  0
LINE
  5
3B6
330
3AE
100
AcDbEntity
  8
0
 62
     2
100
AcDbLine
 10
127.3353645776972
 20
-269.4599659844696
 30
0.0
 11
129.7853645776972
 21
-270.1164415059258
 31
0.0
  0
MTEXT
  5
3B7
330
3AE
100
AcDbEntity
  8
0
 62
     3
100
AcDbMText
 10
131.1003645776972
 20
-268.4599659844696
 30
0.0
 40
3.5
 41
0.0
 71
     7
 72
     1
  1
9
  7
CONVERTER_5
 11
0.999999999997062
 21
0.00000242406841
 31
0.0
 73
     1
 44
1.0
1001
ACAD
1000
MTEXTBEGIN
1070
    73
1070
     1
1070
    44
1040
1.0
1070
    74
1070
     0
1000
MTEXTEND
  0
ENDBLK
  5
3B8
330
3AE
100
AcDbEntity
  8
0
100
AcDbBlockEnd
  0
BLOCK
  5
3BC
330
3BB
100
AcDbEntity
  8
0
100
AcDbBlockBegin
  2
*D15
 70
     1
 10
0.0
 20
0.0
 30
0.0
  3
*D15
  1

  0
LINE
  5
3BD
330
3BB
100
AcDbEntity
  8
0
  6
Continuous
 62
     2
100
AcDbLine
 10
78.33536457769731
 20
-235.4599659844696
 30
0.0
 11
78.33536457769731
 21
-219.4599659844696
 31
0.0
  0
LINE
  5
3BE
330
3BB
100
AcDbEntity
  8
0
  6
Continuous
 62
     2
100
AcDbLine
 10
101.3353645776973
 20
-235.4599659844696
 30
0.0
 11
77.33536457769732
 21
-235.4599659844696
 31
0.0
  0
LINE
  5
3BF
330
3BB
100
AcDbEntity
  8
0
  6
Continuous
 62
     2
100
AcDbLine
 10
101.3353645776973
 20
-219.4599659844696
 30
0.0
 11
77.33536457769732
 21
-219.4599659844696
 31
0.0
  0
LINE
  5
3C0
330
3BB
100
AcDbEntity
  8
0
 62
     2
100
AcDbLine
 10
78.33536457769731
 20
-219.4599659844696
 30
0.0
 11
78.99184009915356
 21
-221.9099659844696
 31
0.0
  0
LINE
  5
3C1
330
3BB
100
AcDbEntity
  8
0
 62
     2
100
AcDbLine
 10
78.33536457769731
 20
-219.4599659844696
 30
0.0
 11
77.67888905624108
 21
-221.9099659844696
 31
0.0
  0
LINE
  5
3C2
330
3BB
100
AcDbEntity
  8
0
 62
     2
100
AcDbLine
 10
78.33536457769731
 20
-235.4599659844696
 30
0.0
 11
77.67888905624108
 21
-233.0099659844696
 31
0.0
  0
LINE
  5
3C3
330
3BB
100
AcDbEntity
  8
0
 62
     2
100
AcDbLine
 10
78.33536457769731
 20
-235.4599659844696
 30
0.0
 11
78.99184009915356
 21
-233.0099659844696
 31
0.0
  0
MTEXT
  5
3C4
330
3BB
100
AcDbEntity
  8
0
 62
     3
100
AcDbMText
 10
77.33536457769732
 20
-228.9299659844696
 30
0.0
 40
3.5
 41
0.0
 71
     7
 72
     1
  1
16
  7
CONVERTER_5
 11
0.0
 21
1.0
 31
0.0
 73
     1
 44
1.0
1001
ACAD
1000
MTEXTBEGIN
1070
    73
1070
     1
1070
    44
1040
1.0
1070
    74
1070
     0
1000
MTEXTEND
  0
ENDBLK
  5
3C5
330
3BB
100
AcDbEntity
  8
0
100
AcDbBlockEnd
  0
BLOCK
  5
3C9
330
3C8
100
AcDbEntity
  8
0
100
AcDbBlockBegin
  2
*D16
 70
     1
 10
0.0
 20
0.0
 30
0.0
  3
*D16
  1

  0
LINE
  5
3CA
330
3C8
100
AcDbEntity
  8
0
  6
Continuous
 62
     2
100
AcDbLine
 10
78.33536457769731
 20
-219.4599659844696
 30
0.0
 11
78.33536457769731
 21
-218.4599659844696
 31
0.0
  0
LINE
  5
3CB
330
3C8
100
AcDbEntity
  8
0
  6
Continuous
 62
     2
100
AcDbLine
 10
78.33536457769731
 20
-219.4599659844696
 30
0.0
 11
78.33536457769731
 21
-224.3599659844696
 31
0.0
  0
LINE
  5
3CC
330
3C8
100
AcDbEntity
  8
0
  6
Continuous
 62
     2
100
AcDbLine
 10
78.33536457769731
 20
-218.4599659844696
 30
0.0
 11
78.33536457769731
 21
-213.5599659844696
 31
0.0
  0
LINE
  5
3CD
330
3C8
100
AcDbEntity
  8
0
  6
Continuous
 62
     2
100
AcDbLine
 10
101.3353645776973
 20
-219.4599659844696
 30
0.0
 11
77.33536457769732
 21
-219.4599659844696
 31
0.0
  0
LINE
  5
3CE
330
3C8
100
AcDbEntity
  8
0
  6
Continuous
 62
     2
100
AcDbLine
 10
93.33536457769731
 20
-218.4599659844696
 30
0.0
 11
77.33536457769732
 21
-218.4599659844696
 31
0.0
  0
LINE
  5
3CF
330
3C8
100
AcDbEntity
  8
0
 62
     2
100
AcDbLine
 10
78.33536457769731
 20
-219.4599659844696
 30
0.0
 11
78.99184009915356
 21
-221.9099659844696
 31
0.0
  0
LINE
  5
3D0
330
3C8
100
AcDbEntity
  8
0
 62
     2
100
AcDbLine
 10
78.33536457769731
 20
-219.4599659844696
 30
0.0
 11
77.67888905624108
 21
-221.9099659844696
 31
0.0
  0
LINE
  5
3D1
330
3C8
100
AcDbEntity
  8
0
 62
     2
100
AcDbLine
 10
78.33536457769731
 20
-218.4599659844696
 30
0.0
 11
77.67888905624108
 21
-216.0099659844696
 31
0.0
  0
LINE
  5
3D2
330
3C8
100
AcDbEntity
  8
0
 62
     2
100
AcDbLine
 10
78.33536457769731
 20
-218.4599659844696
 30
0.0
 11
78.99184009915356
 21
-216.0099659844696
 31
0.0
  0
MTEXT
  5
3D3
330
3C8
100
AcDbEntity
  8
0
 62
     3
100
AcDbMText
 10
77.33536457769732
 20
-219.3274659844696
 30
0.0
 40
3.5
 41
0.0
 71
     7
 72
     1
  1
1
  7
CONVERTER_5
 11
0.0
 21
1.0
 31
0.0
 73
     1
 44
1.0
1001
ACAD
1000
MTEXTBEGIN
1070
    73
1070
     1
1070
    44
1040
1.0
1070
    74
1070
     0
1000
MTEXTEND
  0
ENDBLK
  5
3D4
330
3C8
100
AcDbEntity
  8
0
100
AcDbBlockEnd
  0
BLOCK
  5
3D8
330
3D7
100
AcDbEntity
  8
0
100
AcDbBlockBegin
  2
*D17
 70
     1
 10
0.0
 20
0.0
 30
0.0
  3
*D17
  1

  0
LINE
  5
3D9
330
3D7
100
AcDbEntity
  8
0
  6
Continuous
 62
     2
100
AcDbLine
 10
78.33536457769731
 20
-236.4599659844696
 30
0.0
 11
78.33536457769731
 21
-235.4599659844696
 31
0.0
  0
LINE
  5
3DA
330
3D7
100
AcDbEntity
  8
0
  6
Continuous
 62
     2
100
AcDbLine
 10
78.33536457769731
 20
-236.4599659844696
 30
0.0
 11
78.33536457769731
 21
-241.3599659844696
 31
0.0
  0
LINE
  5
3DB
330
3D7
100
AcDbEntity
  8
0
  6
Continuous
 62
     2
100
AcDbLine
 10
78.33536457769731
 20
-235.4599659844696
 30
0.0
 11
78.33536457769731
 21
-230.5599659844696
 31
0.0
  0
LINE
  5
3DC
330
3D7
100
AcDbEntity
  8
0
  6
Continuous
 62
     2
100
AcDbLine
 10
93.33536457769731
 20
-236.4599659844696
 30
0.0
 11
77.33536457769732
 21
-236.4599659844696
 31
0.0
  0
LINE
  5
3DD
330
3D7
100
AcDbEntity
  8
0
  6
Continuous
 62
     2
100
AcDbLine
 10
101.3353645776973
 20
-235.4599659844696
 30
0.0
 11
77.33536457769732
 21
-235.4599659844696
 31
0.0
  0
LINE
  5
3DE
330
3D7
100
AcDbEntity
  8
0
 62
     2
100
AcDbLine
 10
78.33536457769731
 20
-235.4599659844696
 30
0.0
 11
77.67888905624108
 21
-233.0099659844696
 31
0.0
  0
LINE
  5
3DF
330
3D7
100
AcDbEntity
  8
0
 62
     2
100
AcDbLine
 10
78.33536457769731
 20
-235.4599659844696
 30
0.0
 11
78.99184009915356
 21
-233.0099659844696
 31
0.0
  0
LINE
  5
3E0
330
3D7
100
AcDbEntity
  8
0
 62
     2
100
AcDbLine
 10
78.33536457769731
 20
-236.4599659844696
 30
0.0
 11
78.99184009915356
 21
-238.9099659844696
 31
0.0
  0
LINE
  5
3E1
330
3D7
100
AcDbEntity
  8
0
 62
     2
100
AcDbLine
 10
78.33536457769731
 20
-236.4599659844696
 30
0.0
 11
77.67888905624108
 21
-238.9099659844696
 31
0.0
  0
MTEXT
  5
3E2
330
3D7
100
AcDbEntity
  8
0
 62
     3
100
AcDbMText
 10
77.33536457769732
 20
-236.3274659844696
 30
0.0
 40
3.5
 41
0.0
 71
     7
 72
     1
  1
1
  7
CONVERTER_5
 11
0.0
 21
1.0
 31
0.0
 73
     1
 44
1.0
1001
ACAD
1000
MTEXTBEGIN
1070
    73
1070
     1
1070
    44
1040
1.0
1070
    74
1070
     0
1000
MTEXTEND
  0
ENDBLK
  5
3E3
330
3D7
100
AcDbEntity
  8
0
100
AcDbBlockEnd
  0
BLOCK
  5
3E7
330
3E6
100
AcDbEntity
  8
0
100
AcDbBlockBegin
  2
*D18
 70
     1
 10
0.0
 20
0.0
 30
0.0
  3
*D18
  1

  0
LINE
  5
3E8
330
3E6
100
AcDbEntity
  8
0
  6
Continuous
 62
     2
100
AcDbLine
 10
276.5986828563121
 20
-199.4599659844701
 30
0.0
 11
320.5986828563121
 21
-199.4599659844701
 31
0.0
  0
LINE
  5
3E9
330
3E6
100
AcDbEntity
  8
0
  6
Continuous
 62
     2
100
AcDbLine
 10
276.5986828563121
 20
-219.4599659844696
 30
0.0
 11
276.5986828563121
 21
-198.4599659844701
 31
0.0
  0
LINE
  5
3EA
330
3E6
100
AcDbEntity
  8
0
  6
Continuous
 62
     2
100
AcDbLine
 10
320.5986828563121
 20
-218.4599659844696
 30
0.0
 11
320.5986828563121
 21
-198.4599659844701
 31
0.0
  0
LINE
  5
3EB
330
3E6
100
AcDbEntity
  8
0
 62
     2
100
AcDbLine
 10
320.5986828563121
 20
-199.4599659844701
 30
0.0
 11
318.1486828563121
 21
-200.1164415059264
 31
0.0
  0
LINE
  5
3EC
330
3E6
100
AcDbEntity
  8
0
 62
     2
100
AcDbLine
 10
320.5986828563121
 20
-199.4599659844701
 30
0.0
 11
318.1486828563121
 21
-198.8034904630139
 31
0.0
  0
LINE
  5
3ED
330
3E6
100
AcDbEntity
  8
0
 62
     2
100
AcDbLine
 10
276.5986828563121
 20
-199.4599659844701
 30
0.0
 11
279.048682856312
 21
-198.8034904630139
 31
0.0
  0
LINE
  5
3EE
330
3E6
100
AcDbEntity
  8
0
 62
     2
100
AcDbLine
 10
276.5986828563121
 20
-199.4599659844701
 30
0.0
 11
279.048682856312
 21
-200.1164415059264
 31
0.0
  0
MTEXT
  5
3EF
330
3E6
100
AcDbEntity
  8
0
 62
     3
100
AcDbMText
 10
296.7611828563121
 20
-198.4599659844701
 30
0.0
 40
3.5
 41
0.0
 71
     7
 72
     1
  1
44
  7
CONVERTER_5
 11
0.999999999997062
 21
0.00000242406841
 31
0.0
 73
     1
 44
1.0
1001
ACAD
1000
MTEXTBEGIN
1070
    73
1070
     1
1070
    44
1040
1.0
1070
    74
1070
     0
1000
MTEXTEND
  0
ENDBLK
  5
3F0
330
3E6
100
AcDbEntity
  8
0
100
AcDbBlockEnd
  0
BLOCK
  5
3F4
330
3F3
100
AcDbEntity
  8
0
100
AcDbBlockBegin
  2
*D19
 70
     1
 10
0.0
 20
0.0
 30
0.0
  3
*D19
  1

  0
LINE
  5
3F5
330
3F3
100
AcDbEntity
  8
0
  6
Continuous
 62
     2
100
AcDbLine
 10
262.598682856312
 20
-236.4599659844696
 30
0.0
 11
262.598682856312
 21
-218.4599659844696
 31
0.0
  0
LINE
  5
3F6
330
3F3
100
AcDbEntity
  8
0
  6
Continuous
 62
     2
100
AcDbLine
 10
277.598682856312
 20
-236.4599659844696
 30
0.0
 11
261.598682856312
 21
-236.4599659844696
 31
0.0
  0
LINE
  5
3F7
330
3F3
100
AcDbEntity
  8
0
  6
Continuous
 62
     2
100
AcDbLine
 10
277.598682856312
 20
-218.4599659844696
 30
0.0
 11
261.598682856312
 21
-218.4599659844696
 31
0.0
  0
LINE
  5
3F8
330
3F3
100
AcDbEntity
  8
0
 62
     2
100
AcDbLine
 10
262.598682856312
 20
-218.4599659844696
 30
0.0
 11
263.2551583777682
 21
-220.9099659844696
 31
0.0
  0
LINE
  5
3F9
330
3F3
100
AcDbEntity
  8
0
 62
     2
100
AcDbLine
 10
262.598682856312
 20
-218.4599659844696
 30
0.0
 11
261.9422073348558
 21
-220.9099659844696
 31
0.0
  0
LINE
  5
3FA
330
3F3
100
AcDbEntity
  8
0
 62
     2
100
AcDbLine
 10
262.598682856312
 20
-236.4599659844696
 30
0.0
 11
261.9422073348558
 21
-234.0099659844696
 31
0.0
  0
LINE
  5
3FB
330
3F3
100
AcDbEntity
  8
0
 62
     2
100
AcDbLine
 10
262.598682856312
 20
-236.4599659844696
 30
0.0
 11
263.2551583777682
 21
-234.0099659844696
 31
0.0
  0
MTEXT
  5
3FC
330
3F3
100
AcDbEntity
  8
0
 62
     3
100
AcDbMText
 10
261.598682856312
 20
-228.9299659844696
 30
0.0
 40
3.5
 41
0.0
 71
     7
 72
     1
  1
18
  7
CONVERTER_5
 11
0.0
 21
1.0
 31
0.0
 73
     1
 44
1.0
1001
ACAD
1000
MTEXTBEGIN
1070
    73
1070
     1
1070
    44
1040
1.0
1070
    74
1070
     0
1000
MTEXTEND
  0
ENDBLK
  5
3FD
330
3F3
100
AcDbEntity
  8
0
100
AcDbBlockEnd
  0
BLOCK
  5
401
330
400
100
AcDbEntity
  8
0
100
AcDbBlockBegin
  2
*D20
 70
     1
 10
0.0
 20
0.0
 30
0.0
  3
*D20
  1

  0
LINE
  5
402
330
400
100
AcDbEntity
  8
0
  6
Continuous
 62
     2
100
AcDbLine
 10
355.714108458791
 20
-229.4599659844697
 30
0.0
 11
355.714108458791
 21
-225.4599659844697
 31
0.0
  0
LINE
  5
403
330
400
100
AcDbEntity
  8
0
  6
Continuous
 62
     2
100
AcDbLine
 10
355.714108458791
 20
-229.4599659844697
 30
0.0
 11
355.714108458791
 21
-234.3599659844697
 31
0.0
  0
LINE
  5
404
330
400
100
AcDbEntity
  8
0
  6
Continuous
 62
     2
100
AcDbLine
 10
355.714108458791
 20
-225.4599659844697
 30
0.0
 11
355.714108458791
 21
-220.5599659844697
 31
0.0
  0
LINE
  5
405
330
400
100
AcDbEntity
  8
0
  6
Continuous
 62
     2
100
AcDbLine
 10
315.3871636254765
 20
-229.4599659844697
 30
0.0
 11
356.714108458791
 21
-229.4599659844697
 31
0.0
  0
LINE
  5
406
330
400
100
AcDbEntity
  8
0
  6
Continuous
 62
     2
100
AcDbLine
 10
315.3871636254765
 20
-225.4599659844697
 30
0.0
 11
356.714108458791
 21
-225.4599659844697
 31
0.0
  0
LINE
  5
407
330
400
100
AcDbEntity
  8
0
 62
     2
100
AcDbLine
 10
355.714108458791
 20
-225.4599659844697
 30
0.0
 11
355.0576329373348
 21
-223.0099659844697
 31
0.0
  0
LINE
  5
408
330
400
100
AcDbEntity
  8
0
 62
     2
100
AcDbLine
 10
355.714108458791
 20
-225.4599659844697
 30
0.0
 11
356.3705839802472
 21
-223.0099659844697
 31
0.0
  0
LINE
  5
409
330
400
100
AcDbEntity
  8
0
 62
     2
100
AcDbLine
 10
355.714108458791
 20
-229.4599659844697
 30
0.0
 11
356.3705839802472
 21
-231.9099659844697
 31
0.0
  0
LINE
  5
40A
330
400
100
AcDbEntity
  8
0
 62
     2
100
AcDbLine
 10
355.714108458791
 20
-229.4599659844697
 30
0.0
 11
355.0576329373348
 21
-231.9099659844697
 31
0.0
  0
MTEXT
  5
40B
330
400
100
AcDbEntity
  8
0
 62
     3
100
AcDbMText
 10
354.714108458791
 20
-228.1949659844697
 30
0.0
 40
3.5
 41
0.0
 71
     7
 72
     1
  1
4
  7
CONVERTER_5
 11
0.0
 21
1.0
 31
0.0
 73
     1
 44
1.0
1001
ACAD
1000
MTEXTBEGIN
1070
    73
1070
     1
1070
    44
1040
1.0
1070
    74
1070
     0
1000
MTEXTEND
  0
ENDBLK
  5
40C
330
400
100
AcDbEntity
  8
0
100
AcDbBlockEnd
  0
BLOCK
  5
410
330
40F
100
AcDbEntity
  8
0
100
AcDbBlockBegin
  2
*D21
 70
     1
 10
0.0
 20
0.0
 30
0.0
  3
*D21
  1

  0
LINE
  5
411
330
40F
100
AcDbEntity
  8
0
  6
Continuous
 62
     2
100
AcDbLine
 10
218.598682856312
 20
-337.0
 30
0.0
 11
238.598682856312
 21
-337.0
 31
0.0
  0
LINE
  5
412
330
40F
100
AcDbEntity
  8
0
  6
Continuous
 62
     2
100
AcDbLine
 10
218.598682856312
 20
-322.3
 30
0.0
 11
218.598682856312
 21
-338.0
 31
0.0
  0
LINE
  5
413
330
40F
100
AcDbEntity
  8
0
  6
Continuous
 62
     2
100
AcDbLine
 10
238.598682856312
 20
-322.3
 30
0.0
 11
238.598682856312
 21
-338.0
 31
0.0
  0
LINE
  5
414
330
40F
100
AcDbEntity
  8
0
 62
     2
100
AcDbLine
 10
238.598682856312
 20
-337.0
 30
0.0
 11
236.148682856312
 21
-337.6564755214563
 31
0.0
  0
LINE
  5
415
330
40F
100
AcDbEntity
  8
0
 62
     2
100
AcDbLine
 10
238.598682856312
 20
-337.0
 30
0.0
 11
236.148682856312
 21
-336.3435244785437
 31
0.0
  0
LINE
  5
416
330
40F
100
AcDbEntity
  8
0
 62
     2
100
AcDbLine
 10
218.598682856312
 20
-337.0
 30
0.0
 11
221.048682856312
 21
-336.3435244785437
 31
0.0
  0
LINE
  5
417
330
40F
100
AcDbEntity
  8
0
 62
     2
100
AcDbLine
 10
218.598682856312
 20
-337.0
 30
0.0
 11
221.048682856312
 21
-337.6564755214563
 31
0.0
  0
MTEXT
  5
418
330
40F
100
AcDbEntity
  8
0
 62
     3
100
AcDbMText
 10
226.761182856312
 20
-336.0
 30
0.0
 40
3.5
 41
0.0
 71
     7
 72
     1
  1
20
  7
CONVERTER_5
 11
0.999999999997062
 21
0.00000242406841
 31
0.0
 73
     1
 44
1.0
1001
ACAD
1000
MTEXTBEGIN
1070
    73
1070
     1
1070
    44
1040
1.0
1070
    74
1070
     0
1000
MTEXTEND
  0
ENDBLK
  5
419
330
40F
100
AcDbEntity
  8
0
100
AcDbBlockEnd
  0
BLOCK
  5
41D
330
41C
100
AcDbEntity
  8
0
100
AcDbBlockBegin
  2
*D22
 70
     1
 10
0.0
 20
0.0
 30
0.0
  3
*D22
  1

  0
LINE
  5
41E
330
41C
100
AcDbEntity
  8
0
  6
Continuous
 62
     2
100
AcDbLine
 10
214.598682856312
 20
-295.5
 30
0.0
 11
242.5986828563114
 21
-295.5
 31
0.0
  0
LINE
  5
41F
330
41C
100
AcDbEntity
  8
0
  6
Continuous
 62
     2
100
AcDbLine
 10
214.598682856312
 20
-314.7
 30
0.0
 11
214.598682856312
 21
-294.5
 31
0.0
  0
LINE
  5
420
330
41C
100
AcDbEntity
  8
0
  6
Continuous
 62
     2
100
AcDbLine
 10
242.5986828563114
 20
-314.7
 30
0.0
 11
242.5986828563114
 21
-294.5
 31
0.0
  0
LINE
  5
421
330
41C
100
AcDbEntity
  8
0
 62
     2
100
AcDbLine
 10
242.5986828563114
 20
-295.5
 30
0.0
 11
240.1486828563115
 21
-296.1564755214563
 31
0.0
  0
LINE
  5
422
330
41C
100
AcDbEntity
  8
0
 62
     2
100
AcDbLine
 10
242.5986828563114
 20
-295.5
 30
0.0
 11
240.1486828563115
 21
-294.8435244785437
 31
0.0
  0
LINE
  5
423
330
41C
100
AcDbEntity
  8
0
 62
     2
100
AcDbLine
 10
214.598682856312
 20
-295.5
 30
0.0
 11
217.048682856312
 21
-294.8435244785437
 31
0.0
  0
LINE
  5
424
330
41C
100
AcDbEntity
  8
0
 62
     2
100
AcDbLine
 10
214.598682856312
 20
-295.5
 30
0.0
 11
217.048682856312
 21
-296.1564755214563
 31
0.0
  0
MTEXT
  5
425
330
41C
100
AcDbEntity
  8
0
 62
     3
100
AcDbMText
 10
226.7611828563117
 20
-294.5
 30
0.0
 40
3.5
 41
0.0
 71
     7
 72
     1
  1
28
  7
CONVERTER_5
 11
0.999999999997062
 21
0.00000242406841
 31
0.0
 73
     1
 44
1.0
1001
ACAD
1000
MTEXTBEGIN
1070
    73
1070
     1
1070
    44
1040
1.0
1070
    74
1070
     0
1000
MTEXTEND
  0
ENDBLK
  5
426
330
41C
100
AcDbEntity
  8
0
100
AcDbBlockEnd
  0
BLOCK
  5
42A
330
429
100
AcDbEntity
  8
0
100
AcDbBlockBegin
  2
*D23
 70
     1
 10
0.0
 20
0.0
 30
0.0
  3
*D23
  1

  0
LINE
  5
42B
330
429
100
AcDbEntity
  8
0
  6
Continuous
 62
     2
100
AcDbLine
 10
16.0
 20
-331.0
 30
0.0
 11
16.0
 21
-309.5
 31
0.0
  0
LINE
  5
42C
330
429
100
AcDbEntity
  8
0
  6
Continuous
 62
     2
100
AcDbLine
 10
29.5
 20
-331.0
 30
0.0
 11
15.0
 21
-331.0
 31
0.0
  0
LINE
  5
42D
330
429
100
AcDbEntity
  8
0
  6
Continuous
 62
     2
100
AcDbLine
 10
30.5
 20
-309.5
 30
0.0
 11
15.0
 21
-309.5
 31
0.0
  0
LINE
  5
42E
330
429
100
AcDbEntity
  8
0
 62
     2
100
AcDbLine
 10
16.0
 20
-309.5
 30
0.0
 11
16.65647552145625
 21
-311.95
 31
0.0
  0
LINE
  5
42F
330
429
100
AcDbEntity
  8
0
 62
     2
100
AcDbLine
 10
16.0
 20
-309.5
 30
0.0
 11
15.34352447854375
 21
-311.95
 31
0.0
  0
LINE
  5
430
330
429
100
AcDbEntity
  8
0
 62
     2
100
AcDbLine
 10
16.0
 20
-331.0
 30
0.0
 11
15.34352447854375
 21
-328.55
 31
0.0
  0
LINE
  5
431
330
429
100
AcDbEntity
  8
0
 62
     2
100
AcDbLine
 10
16.0
 20
-331.0
 30
0.0
 11
16.65647552145625
 21
-328.55
 31
0.0
  0
MTEXT
  5
432
330
429
100
AcDbEntity
  8
0
 62
     3
100
AcDbMText
 10
15.0
 20
-323.2512500000001
 30
0.0
 40
3.5
 41
0.0
 71
     7
 72
     1
  1
21.5
  7
CONVERTER_5
 11
0.0
 21
1.0
 31
0.0
 73
     1
 44
1.0
1001
ACAD
1000
MTEXTBEGIN
1070
    73
1070
     1
1070
    44
1040
1.0
1070
    74
1070
     0
1000
MTEXTEND
  0
ENDBLK
  5
433
330
429
100
AcDbEntity
  8
0
100
AcDbBlockEnd
  0
BLOCK
  5
437
330
436
100
AcDbEntity
  8
0
100
AcDbBlockBegin
  2
*D24
 70
     1
 10
0.0
 20
0.0
 30
0.0
  3
*D24
  1

  0
LINE
  5
438
330
436
100
AcDbEntity
  8
0
  6
Continuous
 62
     2
100
AcDbLine
 10
16.0
 20
-335.0
 30
0.0
 11
16.0
 21
-331.0
 31
0.0
  0
LINE
  5
439
330
436
100
AcDbEntity
  8
0
  6
Continuous
 62
     2
100
AcDbLine
 10
16.0
 20
-335.0
 30
0.0
 11
16.0
 21
-339.9
 31
0.0
  0
LINE
  5
43A
330
436
100
AcDbEntity
  8
0
  6
Continuous
 62
     2
100
AcDbLine
 10
16.0
 20
-331.0
 30
0.0
 11
16.0
 21
-326.1
 31
0.0
  0
LINE
  5
43B
330
436
100
AcDbEntity
  8
0
  6
Continuous
 62
     2
100
AcDbLine
 10
35.0
 20
-335.0
 30
0.0
 11
15.0
 21
-335.0
 31
0.0
  0
LINE
  5
43C
330
436
100
AcDbEntity
  8
0
  6
Continuous
 62
     2
100
AcDbLine
 10
29.5
 20
-331.0
 30
0.0
 11
15.0
 21
-331.0
 31
0.0
  0
LINE
  5
43D
330
436
100
AcDbEntity
  8
0
 62
     2
100
AcDbLine
 10
16.0
 20
-331.0
 30
0.0
 11
15.34352447854375
 21
-328.55
 31
0.0
  0
LINE
  5
43E
330
436
100
AcDbEntity
  8
0
 62
     2
100
AcDbLine
 10
16.0
 20
-331.0
 30
0.0
 11
16.65647552145625
 21
-328.55
 31
0.0
  0
LINE
  5
43F
330
436
100
AcDbEntity
  8
0
 62
     2
100
AcDbLine
 10
16.0
 20
-335.0
 30
0.0
 11
16.65647552145625
 21
-337.45
 31
0.0
  0
LINE
  5
440
330
436
100
AcDbEntity
  8
0
 62
     2
100
AcDbLine
 10
16.0
 20
-335.0
 30
0.0
 11
15.34352447854375
 21
-337.45
 31
0.0
  0
MTEXT
  5
441
330
436
100
AcDbEntity
  8
0
 62
     3
100
AcDbMText
 10
15.0
 20
-333.735
 30
0.0
 40
3.5
 41
0.0
 71
     7
 72
     1
  1
4
  7
CONVERTER_5
 11
0.0
 21
1.0
 31
0.0
 73
     1
 44
1.0
1001
ACAD
1000
MTEXTBEGIN
1070
    73
1070
     1
1070
    44
1040
1.0
1070
    74
1070
     0
1000
MTEXTEND
  0
ENDBLK
  5
442
330
436
100
AcDbEntity
  8
0
100
AcDbBlockEnd
  0
BLOCK
  5
446
330
445
100
AcDbEntity
  8
0
100
AcDbBlockBegin
  2
*D25
 70
     1
 10
0.0
 20
0.0
 30
0.0
  3
*D25
  1

  0
LINE
  5
447
330
445
100
AcDbEntity
  8
0
  6
Continuous
 62
     2
100
AcDbLine
 10
200.598682856312
 20
-320.9
 30
0.0
 11
200.598682856312
 21
-316.0
 31
0.0
  0
LINE
  5
448
330
445
100
AcDbEntity
  8
0
  6
Continuous
 62
     2
100
AcDbLine
 10
200.598682856312
 20
-316.0
 30
0.0
 11
200.598682856312
 21
-313.5
 31
0.0
  0
LINE
  5
449
330
445
100
AcDbEntity
  8
0
  6
Continuous
 62
     2
100
AcDbLine
 10
200.598682856312
 20
-313.5
 30
0.0
 11
200.598682856312
 21
-305.564749841644
 31
0.0
  0
LINE
  5
44A
330
445
100
AcDbEntity
  8
0
  6
Continuous
 62
     2
100
AcDbLine
 10
213.898682856312
 20
-316.0
 30
0.0
 11
199.598682856312
 21
-316.0
 31
0.0
  0
LINE
  5
44B
330
445
100
AcDbEntity
  8
0
  6
Continuous
 62
     2
100
AcDbLine
 10
218.598682856312
 20
-313.5
 30
0.0
 11
199.598682856312
 21
-313.5
 31
0.0
  0
LINE
  5
44C
330
445
100
AcDbEntity
  8
0
 62
     2
100
AcDbLine
 10
200.598682856312
 20
-313.5
 30
0.0
 11
199.9422073348557
 21
-311.05
 31
0.0
  0
LINE
  5
44D
330
445
100
AcDbEntity
  8
0
 62
     2
100
AcDbLine
 10
200.598682856312
 20
-313.5
 30
0.0
 11
201.2551583777682
 21
-311.05
 31
0.0
  0
LINE
  5
44E
330
445
100
AcDbEntity
  8
0
 62
     2
100
AcDbLine
 10
200.598682856312
 20
-316.0
 30
0.0
 11
201.2551583777682
 21
-318.45
 31
0.0
  0
LINE
  5
44F
330
445
100
AcDbEntity
  8
0
 62
     2
100
AcDbLine
 10
200.598682856312
 20
-316.0
 30
0.0
 11
199.9422073348557
 21
-318.45
 31
0.0
  0
MTEXT
  5
450
330
445
100
AcDbEntity
  8
0
 62
     3
100
AcDbMText
 10
199.598682856312
 20
-310.097249841644
 30
0.0
 40
3.5
 41
0.0
 71
     7
 72
     1
  1
2.5
  7
CONVERTER_5
 11
0.0
 21
1.0
 31
0.0
 73
     1
 44
1.0
1001
ACAD
1000
MTEXTBEGIN
1070
    73
1070
     1
1070
    44
1040
1.0
1070
    74
1070
     0
1000
MTEXTEND
  0
ENDBLK
  5
451
330
445
100
AcDbEntity
  8
0
100
AcDbBlockEnd
  0
BLOCK
  5
455
330
454
100
AcDbEntity
  8
0
100
AcDbBlockBegin
  2
*D26
 70
     1
 10
0.0
 20
0.0
 30
0.0
  3
*D26
  1

  0
LINE
  5
456
330
454
100
AcDbEntity
  8
0
  6
Continuous
 62
     2
100
AcDbLine
 10
200.598682856312
 20
-323.0
 30
0.0
 11
200.598682856312
 21
-316.0
 31
0.0
  0
LINE
  5
457
330
454
100
AcDbEntity
  8
0
  6
Continuous
 62
     2
100
AcDbLine
 10
219.298682856312
 20
-323.0
 30
0.0
 11
199.598682856312
 21
-323.0
 31
0.0
  0
LINE
  5
458
330
454
100
AcDbEntity
  8
0
  6
Continuous
 62
     2
100
AcDbLine
 10
213.898682856312
 20
-316.0
 30
0.0
 11
199.598682856312
 21
-316.0
 31
0.0
  0
LINE
  5
459
330
454
100
AcDbEntity
  8
0
 62
     2
100
AcDbLine
 10
200.598682856312
 20
-316.0
 30
0.0
 11
201.2551583777682
 21
-318.45
 31
0.0
  0
LINE
  5
45A
330
454
100
AcDbEntity
  8
0
 62
     2
100
AcDbLine
 10
200.598682856312
 20
-316.0
 30
0.0
 11
199.9422073348557
 21
-318.45
 31
0.0
  0
LINE
  5
45B
330
454
100
AcDbEntity
  8
0
 62
     2
100
AcDbLine
 10
200.598682856312
 20
-323.0
 30
0.0
 11
199.9422073348557
 21
-320.55
 31
0.0
  0
LINE
  5
45C
330
454
100
AcDbEntity
  8
0
 62
     2
100
AcDbLine
 10
200.598682856312
 20
-323.0
 30
0.0
 11
201.2551583777682
 21
-320.55
 31
0.0
  0
MTEXT
  5
45D
330
454
100
AcDbEntity
  8
0
 62
     3
100
AcDbMText
 10
199.598682856312
 20
-320.235
 30
0.0
 40
3.5
 41
0.0
 71
     7
 72
     1
  1
7
  7
CONVERTER_5
 11
0.0
 21
1.0
 31
0.0
 73
     1
 44
1.0
1001
ACAD
1000
MTEXTBEGIN
1070
    73
1070
     1
1070
    44
1040
1.0
1070
    74
1070
     0
1000
MTEXTEND
  0
ENDBLK
  5
45E
330
454
100
AcDbEntity
  8
0
100
AcDbBlockEnd
  0
BLOCK
  5
462
330
461
100
AcDbEntity
  8
0
100
AcDbBlockBegin
  2
*D27
 70
     1
 10
0.0
 20
0.0
 30
0.0
  3
*D27
  1

  0
LINE
  5
463
330
461
100
AcDbEntity
  8
0
  6
Continuous
 62
     2
100
AcDbLine
 10
126.107471178353
 20
-230.1697450898299
 30
0.0
 11
140.023120237792
 21
-199.4599659844696
 31
0.0
  0
LINE
  5
464
330
461
100
AcDbEntity
  8
0
  6
Continuous
 62
     2
100
AcDbLine
 10
140.023120237792
 20
-199.4599659844696
 30
0.0
 11
154.725620237792
 21
-199.4599659844696
 31
0.0
  0
LINE
  5
465
330
461
100
AcDbEntity
  8
0
 62
     2
100
AcDbLine
 10
126.107471178353
 20
-230.1697450898299
 30
0.0
 11
126.5207267000911
 21
-227.6672103779778
 31
0.0
  0
LINE
  5
466
330
461
100
AcDbEntity
  8
0
 62
     2
100
AcDbLine
 10
126.107471178353
 20
-230.1697450898299
 30
0.0
 11
127.7166283143584
 21
-228.2091142163827
 31
0.0
  0
MTEXT
  5
467
330
461
100
AcDbEntity
  8
0
 62
     3
100
AcDbMText
 10
142.2481202378089
 20
-198.4599798986222
 30
0.0
 40
3.5
 41
0.0
 71
     7
 72
     1
  1
\C3;{\Fgdt;n}\C3;5.95
  7
CONVERTER_5
 11
0.999999999997062
 21
0.00000242406841
 31
0.0
 73
     1
 44
1.0
1001
ACAD
1000
MTEXTBEGIN
1070
    73
1070
     1
1070
    44
1040
1.0
1070
    74
1070
     0
1000
MTEXTEND
  0
ENDBLK
  5
468
330
461
100
AcDbEntity
  8
0
100
AcDbBlockEnd
  0
ENDSEC
  0
SECTION
  2
ENTITIES
  0
LINE
  5
4E0
330
A
100
AcDbEntity
  8
1
  6
Continuous
 62
     3
100
AcDbLine
 10
100.3353645776973
 20
-326.4
 30
0.0
 11
100.3353645776973
 21
-325.379
 31
0.0
  0
LINE
  5
4E2
330
A
100
AcDbEntity
  8
1
  6
Continuous
 62
     2
100
AcDbLine
 10
100.7143645776973
 20
-328.4
 30
0.0
 11
100.7143645776973
 21
-330.5
 31
0.0
  0
LINE
  5
4E4
330
A
100
AcDbEntity
  8
1
  6
Continuous
 62
     3
100
AcDbLine
 10
100.3353645776973
 20
-330.5
 30
0.0
 11
100.3353645776973
 21
-328.4
 31
0.0
  0
LINE
  5
4E6
330
A
100
AcDbEntity
  8
1
  6
Continuous
 62
     2
100
AcDbLine
 10
103.9563645776973
 20
-330.5
 30
0.0
 11
103.9563645776973
 21
-328.4
 31
0.0
  0
LINE
  5
4E8
330
A
100
AcDbEntity
  8
1
  6
Continuous
 62
     2
100
AcDbLine
 10
103.9563645776973
 20
-326.4
 30
0.0
 11
103.9563645776973
 21
-325.0
 31
0.0
  0
LINE
  5
4EA
330
A
100
AcDbEntity
  8
1
  6
Continuous
 62
     3
100
AcDbLine
 10
104.3353645776973
 20
-328.4
 30
0.0
 11
104.3353645776973
 21
-330.5
 31
0.0
  0
LINE
  5
4EC
330
A
100
AcDbEntity
  8
1
  6
Continuous
 62
     3
100
AcDbLine
 10
41.99999999999999
 20
-329.8
 30
0.0
 11
41.99999999999999
 21
-328.4000459403908
 31
0.0
  0
LINE
  5
4ED
330
A
100
AcDbEntity
  8
1
  6
DOTTED
 62
     3
100
AcDbLine
 10
41.99999999999999
 20
-328.4000459403908
 30
0.0
 11
41.99999999999999
 21
-326.4000459403908
 31
0.0
  0
LINE
  5
4EE
330
A
100
AcDbEntity
  8
1
  6
Continuous
 62
     3
100
AcDbLine
 10
41.99999999999999
 20
-326.4000459403908
 30
0.0
 11
42.0
 21
-325.379
 31
0.0
  0
LINE
  5
4EF
330
A
100
AcDbEntity
  8
1
  6
DOTTED
 62
     2
100
AcDbLine
 10
42.37900000000001
 20
-326.4000459403908
 30
0.0
 11
42.37900000000001
 21
-328.4000459403908
 31
0.0
  0
LINE
  5
4F0
330
A
100
AcDbEntity
  8
1
  6
Continuous
 62
     2
100
AcDbLine
 10
42.37900000000001
 20
-328.4000459403908
 30
0.0
 11
42.37900000000002
 21
-329.8
 31
0.0
  0
LINE
  5
4F2
330
A
100
AcDbEntity
  8
1
  6
Continuous
 62
     2
100
AcDbLine
 10
45.62099999999997
 20
-329.8
 30
0.0
 11
45.62099999999997
 21
-328.4000459403908
 31
0.0
  0
LINE
  5
4F3
330
A
100
AcDbEntity
  8
1
  6
DOTTED
 62
     2
100
AcDbLine
 10
45.62099999999997
 20
-328.4000459403908
 30
0.0
 11
45.62099999999997
 21
-326.4000459403908
 31
0.0
  0
LINE
  5
4F4
330
A
100
AcDbEntity
  8
1
  6
Continuous
 62
     2
100
AcDbLine
 10
45.62099999999997
 20
-326.4000459403908
 30
0.0
 11
45.621
 21
-325.0
 31
0.0
  0
LINE
  5
4F5
330
A
100
AcDbEntity
  8
1
  6
DOTTED
 62
     3
100
AcDbLine
 10
45.99999999999999
 20
-326.4000459403908
 30
0.0
 11
45.99999999999999
 21
-328.4000459403908
 31
0.0
  0
LINE
  5
4F6
330
A
100
AcDbEntity
  8
1
  6
Continuous
 62
     3
100
AcDbLine
 10
45.99999999999999
 20
-328.4000459403908
 30
0.0
 11
46.0
 21
-329.8
 31
0.0
  0
LINE
  5
51A
330
A
100
AcDbEntity
  8
1
  6
DOTTED
 62
     3
100
AcDbLine
 10
106.3353645776973
 20
-335.0
 30
0.0
 11
98.33536457769731
 21
-335.0
 31
0.0
  0
LINE
  5
51D
330
A
100
AcDbEntity
  8
1
  6
Continuous
 62
     3
100
AcDbLine
 10
100.7143645776973
 20
-325.0
 30
0.0
 11
103.9563645776973
 21
-325.0
 31
0.0
  0
LINE
  5
51E
330
A
100
AcDbEntity
  8
1
  6
Continuous
 62
     3
100
AcDbLine
 10
104.3353645776973
 20
-325.379
 30
0.0
 11
100.3353645776973
 21
-325.379
 31
0.0
  0
LINE
  5
521
330
A
100
AcDbEntity
  8
1
  6
Continuous
 62
     3
100
AcDbLine
 10
104.3353645776973
 20
-325.379
 30
0.0
 11
104.3353645776973
 21
-326.4
 31
0.0
  0
LINE
  5
523
330
A
100
AcDbEntity
  8
1
  6
Continuous
 62
     2
100
AcDbLine
 10
100.7143645776973
 20
-325.0
 30
0.0
 11
100.7143645776973
 21
-326.4
 31
0.0
  0
LINE
  5
525
330
A
100
AcDbEntity
  8
1
  6
Continuous
 62
     3
100
AcDbLine
 10
104.3353645776973
 20
-325.379
 30
0.0
 11
103.9563645776973
 21
-325.0
 31
0.0
  0
LINE
  5
526
330
A
100
AcDbEntity
  8
1
  6
Continuous
 62
     3
100
AcDbLine
 10
100.7143645776973
 20
-325.0
 30
0.0
 11
100.3353645776973
 21
-325.379
 31
0.0
  0
LINE
  5
52B
330
A
100
AcDbEntity
  8
1
  6
DOTTED
 62
     3
100
AcDbLine
 10
48.0
 20
-335.0
 30
0.0
 11
40.0
 21
-335.0
 31
0.0
  0
LINE
  5
52E
330
A
100
AcDbEntity
  8
1
  6
Continuous
 62
     3
100
AcDbLine
 10
42.37900000000002
 20
-325.0
 30
0.0
 11
45.621
 21
-325.0
 31
0.0
  0
LINE
  5
52F
330
A
100
AcDbEntity
  8
1
  6
Continuous
 62
     3
100
AcDbLine
 10
46.0
 20
-325.379
 30
0.0
 11
42.0
 21
-325.379
 31
0.0
  0
LINE
  5
532
330
A
100
AcDbEntity
  8
1
  6
Continuous
 62
     3
100
AcDbLine
 10
46.0
 20
-325.379
 30
0.0
 11
45.99999999999999
 21
-326.4000459403908
 31
0.0
  0
LINE
  5
534
330
A
100
AcDbEntity
  8
1
  6
Continuous
 62
     2
100
AcDbLine
 10
42.37900000000002
 20
-325.0
 30
0.0
 11
42.37900000000001
 21
-326.4000459403908
 31
0.0
  0
LINE
  5
536
330
A
100
AcDbEntity
  8
1
  6
Continuous
 62
     3
100
AcDbLine
 10
46.0
 20
-325.379
 30
0.0
 11
45.621
 21
-325.0
 31
0.0
  0
LINE
  5
537
330
A
100
AcDbEntity
  8
1
  6
Continuous
 62
     3
100
AcDbLine
 10
42.37900000000002
 20
-325.0
 30
0.0
 11
42.0
 21
-325.379
 31
0.0
  0
ARC
  5
588
330
A
100
AcDbEntity
  8
1
  6
Continuous
 62
     7
100
AcDbCircle
 10
135.3353645776973
 20
-334.0
 30
0.0
 40
1.0
100
AcDbArc
 50
270.0
 51
0.0
  0
ARC
  5
589
330
A
100
AcDbEntity
  8
1
  6
Continuous
 62
     7
100
AcDbCircle
 10
93.33536457769731
 20
-334.0
 30
0.0
 40
1.0
100
AcDbArc
 50
180.0
 51
270.0
  0
ARC
  5
58A
330
A
100
AcDbEntity
  8
1
  6
Continuous
 62
     7
100
AcDbCircle
 10
110.8353645776973
 20
-331.0
 30
0.0
 40
0.5
100
AcDbArc
 50
180.0
 51
270.0
  0
ARC
  5
58B
330
A
100
AcDbEntity
  8
1
  6
Continuous
 62
     7
100
AcDbCircle
 10
36.0
 20
-334.0
 30
0.0
 40
1.0
100
AcDbArc
 50
180.0
 51
270.0
  0
ARC
  5
58C
330
A
100
AcDbEntity
  8
1
  6
Continuous
 62
     7
100
AcDbCircle
 10
52.0
 20
-334.0
 30
0.0
 40
1.0
100
AcDbArc
 50
270.0
 51
0.0
  0
ARC
  5
58D
330
A
100
AcDbEntity
  8
1
  6
Continuous
 62
     7
100
AcDbCircle
 10
38.0
 20
-330.5
 30
0.0
 40
0.5
100
AcDbArc
 50
270.0
 51
0.0
  0
ARC
  5
58E
330
A
100
AcDbEntity
  8
1
  6
Continuous
 62
     7
100
AcDbCircle
 10
50.0
 20
-330.5
 30
0.0
 40
0.5
100
AcDbArc
 50
180.0
 51
270.0
  0
ARC
  5
58F
330
A
100
AcDbEntity
  8
1
  6
Continuous
 62
     7
100
AcDbCircle
 10
112.6407799520126
 20
-281.4266267648751
 30
0.0
 40
2.0
100
AcDbArc
 50
90.0
 51
180.0
  0
ARC
  5
590
330
A
100
AcDbEntity
  8
1
  6
Continuous
 62
     7
100
AcDbCircle
 10
94.64077995201263
 20
-275.4016267648751
 30
0.0
 40
2.0
100
AcDbArc
 50
90.0
 51
180.0
  0
ARC
  5
591
330
A
100
AcDbEntity
  8
1
  6
Continuous
 62
     7
100
AcDbCircle
 10
94.64077995201263
 20
-289.4016267648751
 30
0.0
 40
2.0
100
AcDbArc
 50
180.0
 51
270.0
  0
ARC
  5
5A0
330
A
100
AcDbEntity
  8
1
  6
Continuous
 62
     7
100
AcDbCircle
 10
135.6407799520126
 20
-274.4016267648751
 30
0.0
 40
1.000000000000069
100
AcDbArc
 50
314.9739061671686
 51
0.0
  0
ARC
  5
5A1
330
A
100
AcDbEntity
  8
1
  6
Continuous
 62
     7
100
AcDbCircle
 10
135.6407799520126
 20
-290.4016267648751
 30
0.0
 40
1.0
100
AcDbArc
 50
270.0
 51
0.0
  0
ARC
  5
5A2
330
A
100
AcDbEntity
  8
1
  6
Continuous
 62
     7
100
AcDbCircle
 10
112.6407799520126
 20
-283.4016267648751
 30
0.0
 40
2.0
100
AcDbArc
 50
180.0
 51
314.9999999999996
  0
ARC
  5
5A3
330
A
100
AcDbEntity
  8
1
  6
Continuous
 62
     7
100
AcDbCircle
 10
127.6407799520126
 20
-282.4016267648751
 30
0.0
 40
2.97500000000004
100
AcDbArc
 50
51.45535964446629
 51
90.0
  0
ARC
  5
5A4
330
A
100
AcDbEntity
  8
1
  6
Continuous
 62
     7
100
AcDbCircle
 10
130.4292607211771
 20
-278.9016267648751
 30
0.0
 40
1.499999999999989
100
AcDbArc
 50
231.4553596444691
 51
315.1539732968851
  0
ARC
  5
5A5
330
A
100
AcDbEntity
  8
1
  6
Continuous
 62
     7
100
AcDbCircle
 10
135.6407799520126
 20
-274.4016267648751
 30
0.0
 40
1.000000000000089
100
AcDbArc
 50
0.0
 51
90.0
  0
ARC
  5
5A6
330
A
100
AcDbEntity
  8
1
  6
Continuous
 62
     7
100
AcDbCircle
 10
127.6407799520126
 20
-282.4016267648751
 30
0.0
 40
2.97499999999997
100
AcDbArc
 50
133.021944757024
 51
308.5446403555332
  0
ARC
  5
5A7
330
A
100
AcDbEntity
  8
1
  6
Continuous
 62
     7
100
AcDbCircle
 10
130.4292607211771
 20
-285.9016267648751
 30
0.0
 40
1.50000000000006
100
AcDbArc
 50
43.66029101613589
 51
128.5446403555315
  0
ARC
  5
5A8
330
A
100
AcDbEntity
  8
1
  6
Continuous
 62
     7
100
AcDbCircle
 10
135.6407799520126
 20
-290.4016267648751
 30
0.0
 40
1.000000000000089
100
AcDbArc
 50
0.0
 51
45.02960588412974
  0
LINE
  5
5B1
330
A
100
AcDbEntity
  8
1
  6
Continuous
 62
     7
100
AcDbLine
 10
110.6407799520126
 20
-291.4016267648751
 30
0.0
 11
135.6407799520126
 21
-291.4016267648751
 31
0.0
  0
LINE
  5
5B3
330
A
100
AcDbEntity
  8
1
  6
Continuous
 62
     7
100
AcDbLine
 10
49.0
 20
-328.7000459403909
 30
0.0
 11
49.0
 21
-329.8
 31
0.0
  0
LINE
  5
5B4
330
A
100
AcDbEntity
  8
1
  6
Continuous
 62
     7
100
AcDbLine
 10
47.0
 20
-326.4000459403908
 30
0.0
 11
47.0
 21
-326.0
 31
0.0
  0
LINE
  5
5B5
330
A
100
AcDbEntity
  8
1
  6
Continuous
 62
     7
100
AcDbLine
 10
135.3353645776973
 20
-335.0
 30
0.0
 11
93.33536457769731
 21
-335.0
 31
0.0
  0
LINE
  5
5B6
330
A
100
AcDbEntity
  8
1
  6
Continuous
 62
     7
100
AcDbLine
 10
92.33536457769732
 20
-331.0
 30
0.0
 11
110.3353645776973
 21
-331.0
 31
0.0
  0
LINE
  5
5B7
330
A
100
AcDbEntity
  8
1
  6
Continuous
 62
     7
100
AcDbLine
 10
136.3353645776973
 20
-331.5
 30
0.0
 11
110.8353645776973
 21
-331.5
 31
0.0
  0
LINE
  5
5B8
330
A
100
AcDbEntity
  8
1
  6
Continuous
 62
     7
100
AcDbLine
 10
136.3353645776973
 20
-331.5
 30
0.0
 11
136.3353645776973
 21
-334.0
 31
0.0
  0
LINE
  5
5B9
330
A
100
AcDbEntity
  8
1
  6
Continuous
 62
     7
100
AcDbLine
 10
92.33536457769732
 20
-334.0
 30
0.0
 11
92.33536457769732
 21
-331.0
 31
0.0
  0
LINE
  5
5BA
330
A
100
AcDbEntity
  8
1
  6
Continuous
 62
     7
100
AcDbLine
 10
95.83536457769731
 20
-329.8
 30
0.0
 11
92.33536457769732
 21
-329.8
 31
0.0
  0
LINE
  5
5BB
330
A
100
AcDbEntity
  8
1
  6
Continuous
 62
     7
100
AcDbLine
 10
108.8353645776973
 20
-329.8
 30
0.0
 11
110.3353645776973
 21
-329.8
 31
0.0
  0
LINE
  5
5BC
330
A
100
AcDbEntity
  8
1
  6
Continuous
 62
     7
100
AcDbLine
 10
110.3353645776973
 20
-328.5
 30
0.0
 11
110.3353645776973
 21
-331.0
 31
0.0
  0
LINE
  5
5BD
330
A
100
AcDbEntity
  8
1
  6
Continuous
 62
     7
100
AcDbLine
 10
96.33536457769732
 20
-330.5
 30
0.0
 11
108.3353645776973
 21
-330.5
 31
0.0
  0
LINE
  5
5BE
330
A
100
AcDbEntity
  8
1
  6
Continuous
 62
     7
100
AcDbLine
 10
108.8353645776973
 20
-329.8
 30
0.0
 11
108.3353645776973
 21
-330.5
 31
0.0
  0
LINE
  5
5BF
330
A
100
AcDbEntity
  8
1
  6
Continuous
 62
     7
100
AcDbLine
 10
95.83536457769731
 20
-329.8
 30
0.0
 11
96.33536457769732
 21
-330.5
 31
0.0
  0
LINE
  5
5C0
330
A
100
AcDbEntity
  8
1
  6
Continuous
 62
     7
100
AcDbLine
 10
94.33536457769731
 20
-328.5
 30
0.0
 11
94.33536457769731
 21
-329.8
 31
0.0
  0
LINE
  5
5C1
330
A
100
AcDbEntity
  8
1
  6
Continuous
 62
     7
100
AcDbLine
 10
97.33536457769732
 20
-326.0
 30
0.0
 11
97.33536457769732
 21
-330.5
 31
0.0
  0
LINE
  5
5C2
330
A
100
AcDbEntity
  8
1
  6
Continuous
 62
     7
100
AcDbLine
 10
96.83536457769733
 20
-326.0
 30
0.0
 11
97.33536457769732
 21
-326.0
 31
0.0
  0
LINE
  5
5C3
330
A
100
AcDbEntity
  8
1
  6
Continuous
 62
     7
100
AcDbLine
 10
94.33536457769731
 20
-328.5
 30
0.0
 11
96.83536457769733
 21
-326.0
 31
0.0
  0
LINE
  5
5C4
330
A
100
AcDbEntity
  8
1
  6
Continuous
 62
     7
100
AcDbLine
 10
107.3353645776973
 20
-326.0
 30
0.0
 11
107.3353645776973
 21
-330.5
 31
0.0
  0
LINE
  5
5C5
330
A
100
AcDbEntity
  8
1
  6
Continuous
 62
     7
100
AcDbLine
 10
107.8353645776973
 20
-326.0
 30
0.0
 11
107.3353645776973
 21
-326.0
 31
0.0
  0
LINE
  5
5C6
330
A
100
AcDbEntity
  8
1
  6
Continuous
 62
     7
100
AcDbLine
 10
110.3353645776973
 20
-328.5
 30
0.0
 11
107.8353645776973
 21
-326.0
 31
0.0
  0
LINE
  5
5C8
330
A
100
AcDbEntity
  8
1
  6
DOT_CENTER
 62
     2
100
AcDbLine
 10
102.3353645776973
 20
-324.0
 30
0.0
 11
102.3353645776973
 21
-340.0
 31
0.0
  0
LINE
  5
5C9
330
A
100
AcDbEntity
  8
1
  6
Continuous
 62
     7
100
AcDbLine
 10
52.0
 20
-335.0
 30
0.0
 11
36.0
 21
-335.0
 31
0.0
  0
LINE
  5
5CA
330
A
100
AcDbEntity
  8
1
  6
Continuous
 62
     7
100
AcDbLine
 10
53.0
 20
-334.0
 30
0.0
 11
53.0
 21
-331.0
 31
0.0
  0
LINE
  5
5CB
330
A
100
AcDbEntity
  8
1
  6
Continuous
 62
     7
100
AcDbLine
 10
35.0
 20
-334.0
 30
0.0
 11
35.0
 21
-331.0
 31
0.0
  0
LINE
  5
5CC
330
A
100
AcDbEntity
  8
1
  6
Continuous
 62
     7
100
AcDbLine
 10
35.0
 20
-331.0
 30
0.0
 11
38.0
 21
-331.0
 31
0.0
  0
LINE
  5
5CD
330
A
100
AcDbEntity
  8
1
  6
Continuous
 62
     7
100
AcDbLine
 10
50.0
 20
-331.0
 30
0.0
 11
53.0
 21
-331.0
 31
0.0
  0
LINE
  5
5CE
330
A
100
AcDbEntity
  8
1
  6
Continuous
 62
     7
100
AcDbLine
 10
38.5
 20
-330.5
 30
0.0
 11
38.5
 21
-329.8
 31
0.0
  0
LINE
  5
5CF
330
A
100
AcDbEntity
  8
1
  6
Continuous
 62
     7
100
AcDbLine
 10
49.5
 20
-330.5
 30
0.0
 11
49.5
 21
-329.8
 31
0.0
  0
LINE
  5
5D0
330
A
100
AcDbEntity
  8
1
  6
Continuous
 62
     7
100
AcDbLine
 10
38.5
 20
-329.8
 30
0.0
 11
39.0
 21
-329.8
 31
0.0
  0
LINE
  5
5D1
330
A
100
AcDbEntity
  8
1
  6
Continuous
 62
     7
100
AcDbLine
 10
39.0
 20
-329.8
 30
0.0
 11
39.0
 21
-326.0
 31
0.0
  0
LINE
  5
5D2
330
A
100
AcDbEntity
  8
1
  6
Continuous
 62
     7
100
AcDbLine
 10
41.0
 20
-326.0
 30
0.0
 11
41.0
 21
-329.8
 31
0.0
  0
LINE
  5
5D3
330
A
100
AcDbEntity
  8
1
  6
Continuous
 62
     7
100
AcDbLine
 10
47.0
 20
-329.8
 30
0.0
 11
47.0
 21
-328.4000459403908
 31
0.0
  0
LINE
  5
5D4
330
A
100
AcDbEntity
  8
1
  6
Continuous
 62
     7
100
AcDbLine
 10
49.0
 20
-326.0
 30
0.0
 11
49.0
 21
-326.4000459403908
 31
0.0
  0
LINE
  5
5D5
330
A
100
AcDbEntity
  8
1
  6
Continuous
 62
     7
100
AcDbLine
 10
39.0
 20
-328.5
 30
0.0
 11
41.0
 21
-328.5
 31
0.0
  0
LINE
  5
5D6
330
A
100
AcDbEntity
  8
1
  6
Continuous
 62
     7
100
AcDbLine
 10
39.0
 20
-326.0
 30
0.0
 11
41.0
 21
-326.0
 31
0.0
  0
LINE
  5
5D7
330
A
100
AcDbEntity
  8
1
  6
Continuous
 62
     7
100
AcDbLine
 10
47.0
 20
-326.0
 30
0.0
 11
49.0
 21
-326.0
 31
0.0
  0
LINE
  5
5D8
330
A
100
AcDbEntity
  8
1
  6
Continuous
 62
     7
100
AcDbLine
 10
47.0
 20
-329.8
 30
0.0
 11
49.0
 21
-329.8
 31
0.0
  0
LINE
  5
5D9
330
A
100
AcDbEntity
  8
1
  6
Continuous
 62
     7
100
AcDbLine
 10
49.0
 20
-329.8
 30
0.0
 11
49.5
 21
-329.8
 31
0.0
  0
LINE
  5
5DA
330
A
100
AcDbEntity
  8
1
  6
Continuous
 62
     7
100
AcDbLine
 10
41.0
 20
-329.8
 30
0.0
 11
47.0
 21
-329.8
 31
0.0
  0
LINE
  5
5DB
330
A
100
AcDbEntity
  8
1
  6
Continuous
 62
     7
100
AcDbLine
 10
39.0
 20
-329.8
 30
0.0
 11
41.0
 21
-329.8
 31
0.0
  0
LINE
  5
5DC
330
A
100
AcDbEntity
  8
1
  6
Continuous
 62
     7
100
AcDbLine
 10
94.64077995201263
 20
-291.4016267648751
 30
0.0
 11
110.6407799520126
 21
-291.4016267648751
 31
0.0
  0
LINE
  5
5DD
330
A
100
AcDbEntity
  8
1
  6
Continuous
 62
     7
100
AcDbLine
 10
135.6407799520126
 20
-273.4016267648751
 30
0.0
 11
94.64077995201263
 21
-273.4016267648751
 31
0.0
  0
LINE
  5
5DE
330
A
100
AcDbEntity
  8
1
  6
Continuous
 62
     7
100
AcDbLine
 10
112.6407799520126
 20
-279.4266267648751
 30
0.0
 11
127.6407799520126
 21
-279.4266267648751
 31
0.0
  0
LINE
  5
5DF
330
A
100
AcDbEntity
  8
1
  6
Continuous
 62
     7
100
AcDbLine
 10
125.6110016389942
 20
-280.2266267648752
 30
0.0
 11
118.6442070767588
 21
-280.2266267648752
 31
0.0
  0
LINE
  5
5E0
330
A
100
AcDbEntity
  8
1
  6
Continuous
 62
     7
100
AcDbLine
 10
92.64077995201263
 20
-275.4016267648751
 30
0.0
 11
92.64077995201263
 21
-289.4016267648751
 31
0.0
  0
LINE
  5
5E1
330
A
100
AcDbEntity
  8
1
  6
Continuous
 62
     7
100
AcDbLine
 10
110.6407799520126
 20
-283.4016267648751
 30
0.0
 11
110.6407799520126
 21
-281.4266267648751
 31
0.0
  0
LINE
  5
5E2
330
A
100
AcDbEntity
  8
1
  6
Continuous
 62
     7
100
AcDbLine
 10
114.0549935143857
 20
-284.8158403272482
 30
0.0
 11
118.6442070767588
 21
-280.2266267648752
 31
0.0
  0
LINE
  5
5E3
330
A
100
AcDbEntity
  8
1
  6
Continuous
 62
     7
100
AcDbLine
 10
136.3475646269778
 20
-275.1090555056219
 30
0.0
 11
131.4927674151467
 21
-279.9594327545924
 31
0.0
  0
LINE
  5
5E4
330
A
100
AcDbEntity
  8
1
  6
Continuous
 62
     7
100
AcDbLine
 10
136.3475212624905
 20
-289.6941547017771
 30
0.0
 11
131.5144294062261
 21
-284.8660549783779
 31
0.0
  0
LINE
  5
5E5
330
A
100
AcDbEntity
  8
1
  6
DOT_CENTER
 62
     2
100
AcDbLine
 10
102.6407799520126
 20
-275.9016267648751
 30
0.0
 11
102.6407799520126
 21
-288.9016267648751
 31
0.0
  0
LINE
  5
5E6
330
A
100
AcDbEntity
  8
1
  6
DOT_CENTER
 62
     2
100
AcDbLine
 10
87.64077995201263
 20
-282.4016267648751
 30
0.0
 11
141.6407799520126
 21
-282.4016267648751
 31
0.0
  0
LINE
  5
5E7
330
A
100
AcDbEntity
  8
1
  6
DOT_CENTER
 62
     2
100
AcDbLine
 10
127.6407799520126
 20
-275.6516267648751
 30
0.0
 11
127.6407799520126
 21
-289.1516267648751
 31
0.0
  0
LINE
  5
5E8
330
A
100
AcDbEntity
  8
1
  6
Continuous
 62
     7
100
AcDbLine
 10
110.6407799520126
 20
-273.4016267648751
 30
0.0
 11
110.6407799520126
 21
-291.4016267648751
 31
0.0
  0
LINE
  5
5E9
330
A
100
AcDbEntity
  8
1
  6
Continuous
 62
     7
100
AcDbLine
 10
110.6407799520126
 20
-276.9016267648751
 30
0.0
 11
105.6407799520126
 21
-276.9016267648751
 31
0.0
  0
LINE
  5
5EA
330
A
100
AcDbEntity
  8
1
  6
Continuous
 62
     7
100
AcDbLine
 10
92.64077995201263
 20
-287.9016267648751
 30
0.0
 11
99.64077995201265
 21
-287.9016267648751
 31
0.0
  0
LINE
  5
5EB
330
A
100
AcDbEntity
  8
1
  6
Continuous
 62
     7
100
AcDbLine
 10
110.6407799520126
 20
-287.4016267648751
 30
0.0
 11
107.6407799520126
 21
-287.4016267648751
 31
0.0
  0
LINE
  5
5EC
330
A
100
AcDbEntity
  8
1
  6
Continuous
 62
     7
100
AcDbLine
 10
94.64077995201263
 20
-277.4016267648751
 30
0.0
 11
97.64077995201263
 21
-277.4016267648751
 31
0.0
  0
LINE
  5
5ED
330
A
100
AcDbEntity
  8
1
  6
Continuous
 62
     7
100
AcDbLine
 10
110.6407799520126
 20
-285.4016267648751
 30
0.0
 11
107.6407799520126
 21
-285.4016267648751
 31
0.0
  0
LINE
  5
5EE
330
A
100
AcDbEntity
  8
1
  6
Continuous
 62
     7
100
AcDbLine
 10
94.64077995201263
 20
-279.4016267648751
 30
0.0
 11
97.64077995201263
 21
-279.4016267648751
 31
0.0
  0
LINE
  5
5EF
330
A
100
AcDbEntity
  8
1
  6
Continuous
 62
     7
100
AcDbLine
 10
107.6407799520126
 20
-285.4016267648751
 30
0.0
 11
107.6407799520126
 21
-287.4016267648751
 31
0.0
  0
LINE
  5
5F0
330
A
100
AcDbEntity
  8
1
  6
Continuous
 62
     7
100
AcDbLine
 10
108.1407799520126
 20
-287.4016267648751
 30
0.0
 11
108.1407799520126
 21
-285.4016267648751
 31
0.0
  0
LINE
  5
5F1
330
A
100
AcDbEntity
  8
1
  6
Continuous
 62
     7
100
AcDbLine
 10
108.6407799520126
 20
-287.9016267648751
 30
0.0
 11
108.6407799520126
 21
-287.4016267648751
 31
0.0
  0
LINE
  5
5F2
330
A
100
AcDbEntity
  8
1
  6
Continuous
 62
     7
100
AcDbLine
 10
109.1407799520126
 20
-287.9016267648751
 30
0.0
 11
109.1407799520126
 21
-287.4016267648751
 31
0.0
  0
LINE
  5
5F3
330
A
100
AcDbEntity
  8
1
  6
Continuous
 62
     7
100
AcDbLine
 10
108.6407799520126
 20
-285.4016267648751
 30
0.0
 11
108.6407799520126
 21
-276.9016267648751
 31
0.0
  0
LINE
  5
5F4
330
A
100
AcDbEntity
  8
1
  6
Continuous
 62
     7
100
AcDbLine
 10
109.1407799520126
 20
-276.9016267648751
 30
0.0
 11
109.1407799520126
 21
-285.4016267648751
 31
0.0
  0
LINE
  5
5F5
330
A
100
AcDbEntity
  8
1
  6
Continuous
 62
     7
100
AcDbLine
 10
97.64077995201263
 20
-277.4016267648751
 30
0.0
 11
97.64077995201263
 21
-279.4016267648751
 31
0.0
  0
LINE
  5
5F6
330
A
100
AcDbEntity
  8
1
  6
Continuous
 62
     7
100
AcDbLine
 10
97.14077995201265
 20
-279.4016267648751
 30
0.0
 11
97.14077995201265
 21
-277.4016267648751
 31
0.0
  0
LINE
  5
5F7
330
A
100
AcDbEntity
  8
1
  6
Continuous
 62
     7
100
AcDbLine
 10
96.64077995201264
 20
-276.9016267648751
 30
0.0
 11
96.64077995201264
 21
-277.4016267648751
 31
0.0
  0
LINE
  5
5F8
330
A
100
AcDbEntity
  8
1
  6
Continuous
 62
     7
100
AcDbLine
 10
96.14077995201263
 20
-276.9016267648751
 30
0.0
 11
96.14077995201263
 21
-277.4016267648751
 31
0.0
  0
LINE
  5
5F9
330
A
100
AcDbEntity
  8
1
  6
Continuous
 62
     7
100
AcDbLine
 10
94.64077995201263
 20
-277.4016267648751
 30
0.0
 11
94.64077995201263
 21
-279.4016267648751
 31
0.0
  0
LINE
  5
5FA
330
A
100
AcDbEntity
  8
1
  6
Continuous
 62
     7
100
AcDbLine
 10
96.14077995201263
 20
-279.4016267648751
 30
0.0
 11
96.14077995201263
 21
-287.9016267648751
 31
0.0
  0
LINE
  5
5FB
330
A
100
AcDbEntity
  8
1
  6
Continuous
 62
     7
100
AcDbLine
 10
96.64077995201264
 20
-287.9016267648751
 30
0.0
 11
96.64077995201264
 21
-279.4016267648751
 31
0.0
  0
LINE
  5
5FC
330
A
100
AcDbEntity
  8
1
  6
Continuous
 62
     7
100
AcDbLine
 10
92.33536457769732
 20
-331.0
 30
0.0
 11
92.33536457769732
 21
-329.8
 31
0.0
  0
LINE
  5
631
330
A
100
AcDbEntity
  8
1
  6
Continuous
 62
     7
100
AcDbLine
 10
107.6407799520126
 20
-287.9016267648751
 30
0.0
 11
110.6407799520126
 21
-287.9016267648751
 31
0.0
  0
ARC
  5
632
330
A
100
AcDbEntity
  8
1
  6
Continuous
 62
     7
100
AcDbCircle
 10
102.6407799520126
 20
-282.4016267648751
 30
0.0
 40
7.999999999999929
100
AcDbArc
 50
67.9756871629576
 51
90.0
  0
ARC
  5
633
330
A
100
AcDbEntity
  8
1
  6
Continuous
 62
     7
100
AcDbCircle
 10
102.6407799520126
 20
-282.4016267648751
 30
0.0
 40
8.00000000000003
100
AcDbArc
 50
247.9756871629581
 51
270.0
  0
LWPOLYLINE
  5
634
330
A
100
AcDbEntity
  8
1
  6
Continuous
 62
     3
100
AcDbPolyline
 90
        2
 70
     1
 43
0.0
 10
102.6407799520126
 20
-280.7806267648751
 42
1.0
 10
102.6407799520126
 20
-284.0226267648751
 42
1.0
  0
LWPOLYLINE
  5
635
330
A
100
AcDbEntity
  8
1
  6
Continuous
 62
     2
100
AcDbPolyline
 90
        2
 70
     1
 43
0.0
 10
102.6407799520126
 20
-280.4016267648751
 42
1.0
 10
102.6407799520126
 20
-284.4016267648751
 42
1.0
  0
ARC
  5
636
330
A
100
AcDbEntity
  8
1
  6
Continuous
 62
     7
100
AcDbCircle
 10
102.6407799520126
 20
-282.4016267648751
 30
0.0
 40
8.0
100
AcDbArc
 50
270.0
 51
308.6821874534894
  0
ARC
  5
637
330
A
100
AcDbEntity
  8
1
  6
Continuous
 62
     7
100
AcDbCircle
 10
102.6407799520126
 20
-282.4016267648751
 30
0.0
 40
5.500000000000018
100
AcDbArc
 50
204.619977328658
 51
236.9442688491465
  0
ARC
  5
638
330
A
100
AcDbEntity
  8
1
  6
Continuous
 62
     7
100
AcDbCircle
 10
102.6407799520126
 20
-282.4016267648751
 30
0.0
 40
8.0
100
AcDbArc
 50
90.0
 51
128.6821874534894
  0
ARC
  5
639
330
A
100
AcDbEntity
  8
1
  6
Continuous
 62
     7
100
AcDbCircle
 10
102.6407799520126
 20
-282.4016267648751
 30
0.0
 40
5.49999999999995
100
AcDbArc
 50
24.61997732865619
 51
56.94426884914572
  0
LINE
  5
63F
330
A
100
AcDbEntity
  8
1
  6
Continuous
 62
     7
100
AcDbLine
 10
105.0353645776973
 20
-328.4
 30
0.0
 11
99.63536457769732
 21
-328.4
 31
0.0
  0
LINE
  5
640
330
A
100
AcDbEntity
  8
1
  6
Continuous
 62
     7
100
AcDbLine
 10
36.4693957745743
 20
-328.4000459403908
 30
0.0
 11
36.00000000000004
 21
-328.4000459403908
 31
0.0
  0
LINE
  5
641
330
A
100
AcDbEntity
  8
1
  6
Continuous
 62
     7
100
AcDbLine
 10
41.0
 20
-326.4000459403908
 30
0.0
 11
52.00000000000001
 21
-326.4000459403908
 31
0.0
  0
LINE
  5
642
330
A
100
AcDbEntity
  8
1
  6
Continuous
 62
     7
100
AcDbLine
 10
39.0
 20
-328.7000459403908
 30
0.0
 11
36.58380151290435
 21
-328.7000459403908
 31
0.0
  0
LINE
  5
643
330
A
100
AcDbEntity
  8
1
  6
Continuous
 62
     7
100
AcDbLine
 10
41.0
 20
-328.4000459403908
 30
0.0
 11
47.99999999999999
 21
-328.4000459403908
 31
0.0
  0
LINE
  5
64C
330
A
100
AcDbEntity
  8
1
  6
Continuous
 62
     7
100
AcDbLine
 10
36.00000000000004
 20
-326.4000459403908
 30
0.0
 11
39.0
 21
-326.4000459403908
 31
0.0
  0
LINE
  5
64D
330
A
100
AcDbEntity
  8
1
  6
Continuous
 62
     7
100
AcDbLine
 10
52.00000000000001
 20
-326.4000459403908
 30
0.0
 11
52.00000000000001
 21
-328.4000459403908
 31
0.0
  0
LINE
  5
64E
330
A
100
AcDbEntity
  8
1
  6
Continuous
 62
     7
100
AcDbLine
 10
52.00000000000001
 20
-328.4000459403908
 30
0.0
 11
51.53060422542576
 21
-328.4000459403908
 31
0.0
  0
LINE
  5
64F
330
A
100
AcDbEntity
  8
1
  6
Continuous
 62
     7
100
AcDbLine
 10
51.41619848709567
 20
-328.7000459403909
 30
0.0
 11
51.53060422542576
 21
-328.4000459403908
 31
0.0
  0
LINE
  5
650
330
A
100
AcDbEntity
  8
1
  6
Continuous
 62
     7
100
AcDbLine
 10
51.41619848709567
 20
-328.7000459403909
 30
0.0
 11
47.99999999999999
 21
-328.7000459403909
 31
0.0
  0
LINE
  5
651
330
A
100
AcDbEntity
  8
1
  6
Continuous
 62
     7
100
AcDbLine
 10
36.00000000000004
 20
-326.4000459403908
 30
0.0
 11
36.00000000000004
 21
-328.4000459403908
 31
0.0
  0
LINE
  5
652
330
A
100
AcDbEntity
  8
1
  6
Continuous
 62
     7
100
AcDbLine
 10
47.99999999999999
 20
-328.7000459403909
 30
0.0
 11
47.99999999999999
 21
-328.4000459403908
 31
0.0
  0
LINE
  5
653
330
A
100
AcDbEntity
  8
1
  6
Continuous
 62
     7
100
AcDbLine
 10
36.4693957745743
 20
-328.4000459403908
 30
0.0
 11
36.58380151290435
 21
-328.7000459403908
 31
0.0
  0
LINE
  5
654
330
A
100
AcDbEntity
  8
1
  6
Continuous
 62
     7
100
AcDbLine
 10
107.3353645776973
 20
-326.4
 30
0.0
 11
97.33536457769732
 21
-326.4
 31
0.0
  0
LINE
  5
655
330
A
100
AcDbEntity
  8
1
  6
Continuous
 62
     7
100
AcDbLine
 10
97.33536457769732
 20
-326.4
 30
0.0
 11
97.33536457769732
 21
-328.7
 31
0.0
  0
LINE
  5
656
330
A
100
AcDbEntity
  8
1
  6
Continuous
 62
     7
100
AcDbLine
 10
107.3353645776973
 20
-326.4
 30
0.0
 11
107.3353645776973
 21
-328.7
 31
0.0
  0
LINE
  5
657
330
A
100
AcDbEntity
  8
1
  6
Continuous
 62
     7
100
AcDbLine
 10
107.0353645776973
 20
-328.4
 30
0.0
 11
105.3353645776973
 21
-328.4
 31
0.0
  0
LINE
  5
658
330
A
100
AcDbEntity
  8
1
  6
Continuous
 62
     7
100
AcDbLine
 10
99.33536457769733
 20
-328.4
 30
0.0
 11
97.63536457769731
 21
-328.4
 31
0.0
  0
LINE
  5
659
330
A
100
AcDbEntity
  8
1
  6
Continuous
 62
     7
100
AcDbLine
 10
99.33536457769733
 20
-326.4
 30
0.0
 11
99.33536457769733
 21
-328.7
 31
0.0
  0
LINE
  5
65A
330
A
100
AcDbEntity
  8
1
  6
Continuous
 62
     7
100
AcDbLine
 10
107.3353645776973
 20
-328.7
 30
0.0
 11
107.0353645776973
 21
-328.4
 31
0.0
  0
LINE
  5
65B
330
A
100
AcDbEntity
  8
1
  6
Continuous
 62
     7
100
AcDbLine
 10
99.33536457769733
 20
-328.7
 30
0.0
 11
99.63536457769732
 21
-328.4
 31
0.0
  0
LINE
  5
65C
330
A
100
AcDbEntity
  8
1
  6
Continuous
 62
     7
100
AcDbLine
 10
97.33536457769732
 20
-328.7
 30
0.0
 11
97.63536457769731
 21
-328.4
 31
0.0
  0
LINE
  5
65D
330
A
100
AcDbEntity
  8
1
  6
Continuous
 62
     7
100
AcDbLine
 10
105.3353645776973
 20
-328.7
 30
0.0
 11
105.0353645776973
 21
-328.4
 31
0.0
  0
LINE
  5
65E
330
A
100
AcDbEntity
  8
1
  6
Continuous
 62
     7
100
AcDbLine
 10
105.3353645776973
 20
-328.7
 30
0.0
 11
105.3353645776973
 21
-328.4
 31
0.0
  0
LINE
  5
65F
330
A
100
AcDbEntity
  8
1
  6
Continuous
 62
     7
100
AcDbLine
 10
99.64077995201265
 20
-287.0113989935216
 30
0.0
 11
99.64077995201265
 21
-289.8178252519708
 31
0.0
  0
LINE
  5
660
330
A
100
AcDbEntity
  8
1
  6
Continuous
 62
     7
100
AcDbLine
 10
97.64077995201263
 20
-276.1566287664767
 30
0.0
 11
97.64077995201263
 21
-284.6929146123531
 31
0.0
  0
LINE
  5
661
330
A
100
AcDbEntity
  8
1
  6
Continuous
 62
     7
100
AcDbLine
 10
105.6407799520126
 20
-277.7918545362287
 30
0.0
 11
105.6407799520126
 21
-274.9854282777795
 31
0.0
  0
LINE
  5
662
330
A
100
AcDbEntity
  8
1
  6
Continuous
 62
     7
100
AcDbLine
 10
107.6407799520126
 20
-288.6466247632735
 30
0.0
 11
107.6407799520126
 21
-280.1103389173972
 31
0.0
  0
ARC
  5
673
330
A
100
AcDbEntity
  8
1
  6
PHANTOM
 62
    21
100
AcDbCircle
 10
31.80000000000001
 20
-327.5215889859476
 30
0.0
 40
0.30000000000001
100
AcDbArc
 50
180.0
 51
220.0077539134938
  0
LINE
  5
6A6
330
A
100
AcDbEntity
  8
1
  6
PHANTOM
 62
    21
100
AcDbLine
 10
92.64077995201263
 20
-287.9016267648751
 30
0.0
 11
99.64077995201265
 21
-287.9016267648751
 31
0.0
  0
LINE
  5
6A8
330
A
100
AcDbEntity
  8
1
  6
PHANTOM
 62
    21
100
AcDbLine
 10
92.64077995201263
 20
-276.9016267648751
 30
0.0
 11
97.64077995201263
 21
-276.9016267648751
 31
0.0
  0
LINE
  5
6A9
330
A
100
AcDbEntity
  8
1
  6
DOT_CENTER
 62
     2
100
AcDbLine
 10
44.0
 20
-322.25
 30
0.0
 11
44.0
 21
-340.0
 31
0.0
  0
ENDSEC
  0
SECTION
  2
OBJECTS
  0
DICTIONARY
  5
19
330
0
100
AcDbDictionary
281
     1
  3
ACAD_CIP_PREVIOUS_PRODUCT_INFO
350
4BF
  3
ACAD_COLOR
350
4A1
  3
ACAD_GROUP
350
1A
  3
ACAD_LAYOUT
350
4B8
  3
ACAD_MATERIAL
350
46F
  3
ACAD_MLEADERSTYLE
350
4B6
  3
ACAD_MLINESTYLE
350
1B
  3
ACAD_PLOTSETTINGS
350
4B9
  3
ACAD_PLOTSTYLENAME
350
46D
  3
ACAD_SCALELIST
350
4A4
  3
ACAD_TABLESTYLE
350
4A2
  3
ACAD_VISUALSTYLE
350
488
  3
ACDB_RECOMPOSE_DATA
350
717
  3
AcDbVariableDictionary
350
70C
  3
ASE_INDEX_DICTIONARY
350
709
  3
DWGPROPS
350
718
  0
DICTIONARY
  5
704
330
14
100
AcDbDictionary
280
     1
281
     1
  3
ADSK_XREC_LAYER_RECONCILED
360
705
  0
DICTIONARY
  5
706
330
24
100
AcDbDictionary
280
     1
281
     1
  3
ADSK_XREC_LAYER_RECONCILED
360
707
  0
DICTIONARY
  5
548
330
A
100
AcDbDictionary
280
     1
281
     1
  3
ACAD_SORTENTS
360
549
  0
DICTIONARY
  5
753
330
1CF
100
AcDbDictionary
280
     1
281
     1
  3
ACAD_MTEXT_RT
360
754
  0
DICTIONARY
  5
751
330
1CD
100
AcDbDictionary
280
     1
281
     1
  3
ACAD_MTEXT_RT
360
752
  0
DICTIONARY
  5
74F
330
1CA
100
AcDbDictionary
280
     1
281
     1
  3
ACAD_MTEXT_RT
360
750
  0
DICTIONARY
  5
74D
330
1C9
100
AcDbDictionary
280
     1
281
     1
  3
ACAD_MTEXT_RT
360
74E
  0
DICTIONARY
  5
74B
330
1C7
100
AcDbDictionary
280
     1
281
     1
  3
ACAD_MTEXT_RT
360
74C
  0
DICTIONARY
  5
749
330
1C6
100
AcDbDictionary
280
     1
281
     1
  3
ACAD_MTEXT_RT
360
74A
  0
DICTIONARY
  5
747
330
1C4
100
AcDbDictionary
280
     1
281
     1
  3
ACAD_MTEXT_RT
360
748
  0
DICTIONARY
  5
745
330
1C3
100
AcDbDictionary
280
     1
281
     1
  3
ACAD_MTEXT_RT
360
746
  0
DICTIONARY
  5
743
330
1C2
100
AcDbDictionary
280
     1
281
     1
  3
ACAD_MTEXT_RT
360
744
  0
DICTIONARY
  5
741
330
1BF
100
AcDbDictionary
280
     1
281
     1
  3
ACAD_MTEXT_RT
360
742
  0
DICTIONARY
  5
73F
330
1BE
100
AcDbDictionary
280
     1
281
     1
  3
ACAD_MTEXT_RT
360
740
  0
DICTIONARY
  5
73D
330
1BD
100
AcDbDictionary
280
     1
281
     1
  3
ACAD_MTEXT_RT
360
73E
  0
DICTIONARY
  5
73B
330
1BB
100
AcDbDictionary
280
     1
281
     1
  3
ACAD_MTEXT_RT
360
73C
  0
DICTIONARY
  5
739
330
1AF
100
AcDbDictionary
280
     1
281
     1
  3
ACAD_MTEXT_RT
360
73A
  0
DICTIONARY
  5
737
330
1AC
100
AcDbDictionary
280
     1
281
     1
  3
ACAD_MTEXT_RT
360
738
  0
DICTIONARY
  5
735
330
1AB
100
AcDbDictionary
280
     1
281
     1
  3
ACAD_MTEXT_RT
360
736
  0
DICTIONARY
  5
733
330
1AA
100
AcDbDictionary
280
     1
281
     1
  3
ACAD_MTEXT_RT
360
734
  0
DICTIONARY
  5
731
330
1A9
100
AcDbDictionary
280
     1
281
     1
  3
ACAD_MTEXT_RT
360
732
  0
DICTIONARY
  5
72F
330
1A8
100
AcDbDictionary
280
     1
281
     1
  3
ACAD_MTEXT_RT
360
730
  0
DICTIONARY
  5
72D
330
1A7
100
AcDbDictionary
280
     1
281
     1
  3
ACAD_MTEXT_RT
360
72E
  0
DICTIONARY
  5
72B
330
1A6
100
AcDbDictionary
280
     1
281
     1
  3
ACAD_MTEXT_RT
360
72C
  0
DICTIONARY
  5
729
330
1A5
100
AcDbDictionary
280
     1
281
     1
  3
ACAD_MTEXT_RT
360
72A
  0
DICTIONARY
  5
727
330
1A4
100
AcDbDictionary
280
     1
281
     1
  3
ACAD_MTEXT_RT
360
728
  0
DICTIONARY
  5
725
330
1A3
100
AcDbDictionary
280
     1
281
     1
  3
ACAD_MTEXT_RT
360
726
  0
DICTIONARY
  5
723
330
1A2
100
AcDbDictionary
280
     1
281
     1
  3
ACAD_MTEXT_RT
360
724
  0
DICTIONARY
  5
721
330
1A1
100
AcDbDictionary
280
     1
281
     1
  3
ACAD_MTEXT_RT
360
722
  0
DICTIONARY
  5
71F
330
1A0
100
AcDbDictionary
280
     1
281
     1
  3
ACAD_MTEXT_RT
360
720
  0
DICTIONARY
  5
71D
330
19F
100
AcDbDictionary
280
     1
281
     1
  3
ACAD_MTEXT_RT
360
71E
  0
DICTIONARY
  5
71B
330
19E
100
AcDbDictionary
280
     1
281
     1
  3
ACAD_MTEXT_RT
360
71C
  0
DICTIONARY
  5
719
330
19D
100
AcDbDictionary
280
     1
281
     1
  3
ACAD_MTEXT_RT
360
71A
  0
XRECORD
  5
4BF
102
{ACAD_REACTORS
330
19
102
}
330
19
100
AcDbXrecord
280
     1
300
ACD
300
2012
300
ACD_F_S
  0
DICTIONARY
  5
4A1
102
{ACAD_REACTORS
330
19
102
}
330
19
100
AcDbDictionary
281
     1
  0
DICTIONARY
  5
1A
102
{ACAD_REACTORS
330
19
102
}
330
19
100
AcDbDictionary
281
     1
  0
DICTIONARY
  5
4B8
102
{ACAD_REACTORS
330
19
102
}
330
19
100
AcDbDictionary
281
     1
  3
Model
350
4BA
  3
レイアウト1
350
4BB
  0
DICTIONARY
  5
46F
102
{ACAD_REACTORS
330
19
102
}
330
19
100
AcDbDictionary
281
     1
  3
ByBlock
350
478
  3
ByLayer
350
470
  3
Global
350
480
  0
DICTIONARY
  5
4B6
102
{ACAD_REACTORS
330
19
102
}
330
19
100
AcDbDictionary
281
     1
  3
Standard
350
4B7
  0
DICTIONARY
  5
1B
102
{ACAD_REACTORS
330
19
102
}
330
19
100
AcDbDictionary
281
     1
  3
STANDARD
350
1C
  0
DICTIONARY
  5
4B9
102
{ACAD_REACTORS
330
19
102
}
330
19
100
AcDbDictionary
281
     1
  0
ACDBDICTIONARYWDFLT
  5
46D
102
{ACAD_REACTORS
330
19
102
}
330
19
100
AcDbDictionary
281
     1
  3
Normal
350
46E
100
AcDbDictionaryWithDefault
340
46E
  0
DICTIONARY
  5
4A4
102
{ACAD_REACTORS
330
19
102
}
330
19
100
AcDbDictionary
281
     1
  3
A0
350
4A5
  3
A1
350
4A6
  3
A2
350
4A7
  3
A3
350
4A8
  3
A4
350
4A9
  3
A5
350
4AA
  3
A6
350
4AB
  3
A7
350
4AC
  3
A8
350
4AD
  3
A9
350
4AE
  3
B0
350
4AF
  3
B1
350
4B0
  3
B2
350
4B1
  3
B3
350
4B2
  3
B4
350
4B3
  3
B5
350
4B4
  3
B6
350
4B5
  0
DICTIONARY
  5
4A2
102
{ACAD_REACTORS
330
19
102
}
330
19
100
AcDbDictionary
281
     1
  3
Standard
350
4A3
  0
DICTIONARY
  5
488
102
{ACAD_REACTORS
330
19
102
}
330
19
100
AcDbDictionary
281
     1
  3
2dWireframe
350
48E
  3
Basic
350
48D
  3
Brighten
350
494
  3
ColorChange
350
498
  3
Conceptual
350
491
  3
Dim
350
493
  3
EdgeColorOff
350
4A0
  3
Facepattern
350
497
  3
Flat
350
489
  3
FlatWithEdges
350
48A
  3
Gouraud
350
48B
  3
GouraudWithEdges
350
48C
  3
Hidden
350
490
  3
JitterOff
350
49E
  3
Linepattern
350
496
  3
OverhangOff
350
49F
  3
Realistic
350
492
  3
Shaded
350
49D
  3
Shaded with edges
350
49C
  3
Shades of Gray
350
499
  3
Sketchy
350
49A
  3
Thicken
350
495
  3
Wireframe
350
48F
  3
X-Ray
350
49B
  0
XRECORD
  5
717
102
{ACAD_REACTORS
330
19
102
}
330
19
100
AcDbXrecord
280
     1
 90
        1
330
4A3
  0
DICTIONARY
  5
70C
102
{ACAD_REACTORS
330
19
102
}
330
19
100
AcDbDictionary
281
     1
  3
CANNOSCALE
350
70F
  3
CMLEADERSTYLE
350
70E
  3
CTABLESTYLE
350
70D
  3
DIMASSOC
350
712
  3
INDEXCTL
350
711
  3
SORTENTS
350
710
  3
XCLIPFRAME
350
713
  0
DICTIONARY
  5
709
102
{ACAD_REACTORS
330
19
102
}
330
19
100
AcDbDictionary
281
     1
  3
ASEBlockHierarchyIndexRecord
350
70B
1001
DCO15
1040
1881980071.072
  0
XRECORD
  5
718
102
{ACAD_REACTORS
330
19
102
}
330
19
100
AcDbXrecord
280
     1
  1
DWGPROPS COOKIE
  2

  3

  4

  6

  7

  8
0035sekine
  9

300
=
301
=
302
=
303
=
304
=
305
=
306
=
307
=
308
=
309
=
 40
0.0024286689814815
 41
2305814.417110764
 42
2457585.38860037
  1

 90
        0
  0
XRECORD
  5
705
102
{ACAD_REACTORS
330
704
102
}
330
704
100
AcDbXrecord
280
     1
290
     1
  0
XRECORD
  5
707
102
{ACAD_REACTORS
330
706
102
}
330
706
100
AcDbXrecord
280
     1
290
     1
  0
SORTENTSTABLE
  5
549
102
{ACAD_REACTORS
330
548
102
}
330
548
100
AcDbSortentsTable
330
A
331
4EE
  5
647
331
5CF
  5
5B8
331
532
  5
68B
331
5F1
  5
5DA
331
643
  5
53D
331
589
  5
572
331
5BE
  5
5A7
331
521
  5
67A
331
5E0
  5
5C9
331
654
  5
557
331
632
  5
52C
331
4EC
  5
645
331
6A9
  5
4D7
331
5EF
  5
5D8
331
641
  5
53B
331
5CD
  5
5B6
331
5BC
  5
5A5
331
5DE
  5
5C7
331
652
  5
555
331
4EA
  5
643
331
5CB
  5
5B4
331
5ED
  5
5D6
331
52E
  5
687
331
63F
  5
539
331
661
  5
564
331
5A7
  5
590
331
5BA
  5
5A3
331
5DC
  5
5C5
331
51D
  5
676
331
650
  5
553
331
4E8
  5
641
331
5C9
  5
5B2
331
5EB
  5
5D4
331
65F
  5
562
331
5A5
  5
58E
331
5B8
  5
5A1
331
5DA
  5
5C3
331
5FC
  5
5E5
331
64E
  5
551
331
5E9
  5
5D2
331
65D
  5
560
331
5A3
  5
58C
331
5B6
  5
59F
331
5D8
  5
5C1
331
5FA
  5
5E3
331
4E6
  5
63F
331
64C
  5
54F
331
65B
  5
55E
331
639
  5
533
331
5A1
  5
58A
331
5B4
  5
59D
331
4F5
  5
64E
331
5D6
  5
5BF
331
5F8
  5
5E1
331
590
  5
579
331
4E4
  5
63D
331
5E7
  5
5D0
331
5C5
  5
5AE
331
659
  5
55C
331
4F3
  5
64C
331
5D4
  5
5BD
331
537
  5
690
331
5F6
  5
5DF
331
58E
  5
577
331
4E2
  5
63B
331
5C3
  5
5AC
331
526
  5
67F
331
5E5
  5
5CE
331
637
  5
531
331
5D2
  5
5BB
331
5F4
  5
5DD
331
58C
  5
575
331
4E0
  5
639
331
5C1
  5
5AA
331
5E3
  5
5CC
331
657
  5
55A
331
635
  5
52F
331
4EF
  5
648
331
5D0
  5
5B9
331
5F2
  5
5DB
331
58A
  5
573
331
5BF
  5
5A8
331
5E1
  5
5CA
331
655
  5
558
331
633
  5
52D
331
4ED
  5
646
331
5CE
  5
5B7
331
5F0
  5
5D9
331
588
  5
571
331
642
  5
53C
331
5BD
  5
5A6
331
5DF
  5
5C8
331
631
  5
61A
331
653
  5
556
331
6A8
  5
4D6
331
5CC
  5
5B5
331
5EE
  5
5D7
331
52F
  5
688
331
640
  5
53A
331
662
  5
565
331
5A8
  5
591
331
5BB
  5
5A4
331
51E
  5
677
331
5DD
  5
5C6
331
651
  5
554
331
673
  5
34B
331
5CA
  5
5B3
331
5EC
  5
5D5
331
5A6
  5
58F
331
660
  5
563
331
5B9
  5
5A2
331
5DB
  5
5C4
331
64F
  5
552
331
6A6
  5
4D4
331
5C8
  5
5B1
331
52B
  5
684
331
5EA
  5
5D3
331
65E
  5
561
331
5A4
  5
58D
331
5B7
  5
5A0
331
5D9
  5
5C2
331
51A
  5
673
331
5FB
  5
5E4
331
64D
  5
550
331
5E8
  5
5D1
331
65C
  5
55F
331
5A2
  5
58B
331
5B5
  5
59E
331
4F6
  5
64F
331
5F9
  5
5E2
331
5D7
  5
5C0
331
591
  5
57A
331
5C6
  5
5AF
331
638
  5
532
331
65A
  5
55D
331
5A0
  5
589
331
5B3
  5
59C
331
4F4
  5
64D
331
5D5
  5
5BE
331
5F7
  5
5E0
331
58F
  5
578
331
5C4
  5
5AD
331
5E6
  5
5CF
331
658
  5
55B
331
5B1
  5
59A
331
4F2
  5
64B
331
5D3
  5
5BC
331
536
  5
68F
331
5F5
  5
5DE
331
58D
  5
576
331
5C2
  5
5AB
331
525
  5
67E
331
5E4
  5
5CD
331
636
  5
530
331
4F0
  5
649
331
5D1
  5
5BA
331
534
  5
68D
331
5F3
  5
5DC
331
58B
  5
574
331
5C0
  5
5A9
331
523
  5
67C
331
5E2
  5
5CB
331
656
  5
559
331
634
  5
52E
  0
XRECORD
  5
754
102
{ACAD_REACTORS
330
753
102
}
330
753
100
AcDbXrecord
280
     1
 40
103677.0
  1
\U+0192W\U+0192\U+2026\U+0192\U+2030\U+0192R\U+0192\U+201C
  0
XRECORD
  5
752
102
{ACAD_REACTORS
330
751
102
}
330
751
100
AcDbXrecord
280
     1
 40
25044.0
  1
\U+02C6\U+00CF\U+008D\U+00E3
  0
XRECORD
  5
750
102
{ACAD_REACTORS
330
74F
102
}
330
74F
100
AcDbXrecord
280
     1
 40
23804.0
  1
\U+2019\U+2020\U+201C\U+2021
  0
XRECORD
  5
74E
102
{ACAD_REACTORS
330
74D
102
}
330
74D
100
AcDbXrecord
280
     1
 40
24787.0
  1
\U+008F\U+008F\U+2022\U+00AB
  0
XRECORD
  5
74C
102
{ACAD_REACTORS
330
74B
102
}
330
74B
100
AcDbXrecord
280
     1
 40
7709.0
  1
t\U+0081\U+00812
  0
XRECORD
  5
74A
102
{ACAD_REACTORS
330
749
102
}
330
749
100
AcDbXrecord
280
     1
 40
276874.0
  1
\U+0192_\U+0192C\U+0192\U+201E\U+0192X\U+0192N\U+0192\U+0160\U+0192\U+2026\U+0081[M4\U+0081~10
  0
XRECORD
  5
748
102
{ACAD_REACTORS
330
747
102
}
330
747
100
AcDbXrecord
280
     1
 40
86044.0
  1
\U+0192N\U+0192\U+008D\U+0192\U+0081\U+0081[\U+0192g
  0
XRECORD
  5
746
102
{ACAD_REACTORS
330
745
102
}
330
745
100
AcDbXrecord
280
     1
 40
86044.0
  1
\U+0192N\U+0192\U+008D\U+0192\U+0081\U+0081[\U+0192g
  0
XRECORD
  5
744
102
{ACAD_REACTORS
330
743
102
}
330
743
100
AcDbXrecord
280
     1
 40
248127.0
  1
DG\U+0090F\U+0081i\U+0192f\U+0192B\U+0081[\U+0192v\U+0192O\U+0192\U+0152\U+0081[\U+0081j
  0
XRECORD
  5
742
102
{ACAD_REACTORS
330
741
102
}
330
741
100
AcDbXrecord
280
     1
 40
56652.0
  1
\U+008F\ \U+017DM\U+008F~\U+0192l\U+0192W
  0
XRECORD
  5
740
102
{ACAD_REACTORS
330
73F
102
}
330
73F
100
AcDbXrecord
280
     1
 40
47982.0
  1
\U+201D\U+00F4\U+0192i\U+0192b\U+0192g
  0
XRECORD
  5
73E
102
{ACAD_REACTORS
330
73D
102
}
330
73D
100
AcDbXrecord
280
     1
 40
53334.0
  1
\U+0192X\U+0192g\U+0192b\U+0192p\U+0081[
  0
XRECORD
  5
73C
102
{ACAD_REACTORS
330
73B
102
}
330
73B
100
AcDbXrecord
280
     1
 40
135821.0
  1
\U+2018g%%d\U+00CF\U+0090}\U+0081E\U+017D\U+00CC\U+2022t\U+0090}
  0
XRECORD
  5
73A
102
{ACAD_REACTORS
330
739
102
}
330
739
100
AcDbXrecord
280
     1
 40
6388.0
  1
\U+0081\U+00CF
  0
XRECORD
  5
738
102
{ACAD_REACTORS
330
737
102
}
330
737
100
AcDbXrecord
280
     1
 40
274718.0
  1
\U+201C\U+0152\U+2039\U+20AC\U+201Cs\U+2018\U+00F0\U+201C\U+0152\U+2039\U+00CC\U+201C*\U+2019J
  0
XRECORD
  5
736
102
{ACAD_REACTORS
330
735
102
}
330
735
100
AcDbXrecord
280
     1
 40
15843.0
  1
\U+00B2{\U+017D\U+00C5
  0
XRECORD
  5
734
102
{ACAD_REACTORS
330
733
102
}
330
733
100
AcDbXrecord
280
     1
 40
391180.0
  1
\U+008D\U+201A\U+2039\U+00C7\U+2039\U+00C1\U+2022\U+00B4\U+0160\U+201D\U+017D\U+00DB\U+2030\U+00FF\U+017D\U+00C5
  0
XRECORD
  5
732
102
{ACAD_REACTORS
330
731
102
}
330
731
100
AcDbXrecord
280
     1
 40
16619.0
  1
\U+017D\U+00D6\U+201Cx
  0
XRECORD
  5
730
102
{ACAD_REACTORS
330
72F
102
}
330
72F
100
AcDbXrecord
280
     1
 40
17643.0
  1
\U+2019S  \U+201C\U+00B2
  0
XRECORD
  5
72E
102
{ACAD_REACTORS
330
72D
102
}
330
72D
100
AcDbXrecord
280
     1
 40
18174.0
  1
\U+0152\U+0081  \U+0090}
  0
XRECORD
  5
72C
102
{ACAD_REACTORS
330
72B
102
}
330
72B
100
AcDbXrecord
280
     1
 40
17447.0
  1
\U+008F\U+00B0  \U+201DF
  0
XRECORD
  5
72A
102
{ACAD_REACTORS
330
729
102
}
330
729
100
AcDbXrecord
280
     1
 40
18923.0
  1
\U+2039L   \U+017D\U+00B2
  0
XRECORD
  5
728
102
{ACAD_REACTORS
330
727
102
}
330
727
100
AcDbXrecord
280
     1
 40
53004.0
  1
\U+017Dd   \U+008F\U+00D0   \U+201A\U+00AF
  0
XRECORD
  5
726
102
{ACAD_REACTORS
330
725
102
}
330
725
100
AcDbXrecord
280
     1
 40
13191.0
  1
\U+0090\U+201D %%d%%d
  0
XRECORD
  5
724
102
{ACAD_REACTORS
330
723
102
}
330
723
100
AcDbXrecord
280
     1
 40
29091.0
  1
\U+008D\U+00DF   \U+017D\U+00A2
  0
XRECORD
  5
722
102
{ACAD_REACTORS
330
721
102
}
330
721
100
AcDbXrecord
280
     1
 40
25568.0
  1
\U+2022i        \U+00B2\U+00A5
  0
XRECORD
  5
720
102
{ACAD_REACTORS
330
71F
102
}
330
71F
100
AcDbXrecord
280
     1
 40
16741.0
  1
\U+2022i \U+201D\U+00E5
  0
XRECORD
  5
71E
102
{ACAD_REACTORS
330
71D
102
}
330
71D
100
AcDbXrecord
280
     1
 40
19134.0
  1
\U+0090}\P\U+201D\U+00E5
  0
XRECORD
  5
71C
102
{ACAD_REACTORS
330
71B
102
}
330
71B
100
AcDbXrecord
280
     1
 40
18980.0
  1
\U+0090}\P\U+00B2\U+00A5
  0
XRECORD
  5
71A
102
{ACAD_REACTORS
330
719
102
}
330
719
100
AcDbXrecord
280
     1
 40
18800.0
  1
\U+2022i\P\U+00B2\U+00A5
  0
LAYOUT
  5
4BA
102
{ACAD_XDICTIONARY
360
78A
102
}
102
{ACAD_REACTORS
330
4B8
102
}
330
4B8
100
AcDbPlotSettings
  1

  2
\\asrv0030\DocuCentre 230 - 本社９階　開発部
  4

  6

 40
0.0
 41
0.0
 42
0.0
 43
0.0
 44
0.0
 45
0.0
 46
0.0
 47
0.0
 48
0.0
 49
0.0
140
0.0
141
0.0
142
1.0
143
1.0
 70
  1712
 72
     0
 73
     0
 74
     0
  7

 75
     0
147
1.0
148
0.0
149
0.0
100
AcDbLayout
  1
Model
 70
     1
 71
     0
 10
0.0
 20
0.0
 11
12.0
 21
9.0
 12
0.0
 22
0.0
 32
0.0
 14
0.0
 24
0.0
 34
0.0
 15
0.0
 25
0.0
 35
0.0
146
0.0
 13
0.0
 23
0.0
 33
0.0
 16
1.0
 26
0.0
 36
0.0
 17
0.0
 27
1.0
 37
0.0
 76
     0
330
A
331
15
  0
LAYOUT
  5
4BB
102
{ACAD_XDICTIONARY
360
78C
102
}
102
{ACAD_REACTORS
330
4B8
102
}
330
4B8
100
AcDbPlotSettings
  1

  2
\\asrv0030\DocuCentre 230 - 本社９階　開発部
  4

  6

 40
0.0
 41
0.0
 42
0.0
 43
0.0
 44
0.0
 45
0.0
 46
0.0
 47
0.0
 48
0.0
 49
0.0
140
0.0
141
0.0
142
1.0
143
1.0
 70
   688
 72
     0
 73
     0
 74
     5
  7

 75
    16
147
1.0
148
0.0
149
0.0
100
AcDbLayout
  1
レイアウト1
 70
     0
 71
     1
 10
0.0
 20
0.0
 11
12.0
 21
9.0
 12
0.0
 22
0.0
 32
0.0
 14
1.000000000000000E+20
 24
1.000000000000000E+20
 34
1.000000000000000E+20
 15
-1.000000000000000E+20
 25
-1.000000000000000E+20
 35
-1.000000000000000E+20
146
0.0
 13
0.0
 23
0.0
 33
0.0
 16
1.0
 26
0.0
 36
0.0
 17
0.0
 27
1.0
 37
0.0
 76
     0
330
B
  0
MATERIAL
  5
478
102
{ACAD_XDICTIONARY
360
479
102
}
102
{ACAD_REACTORS
330
46F
102
}
330
46F
100
AcDbMaterial
  1
ByBlock
 72
     0
 43
0.0208333333333333
 43
0.0
 43
0.0
 43
0.0
 43
0.0
 43
0.0208333333333333
 43
0.0
 43
0.0
 43
0.0
 43
0.0
 43
1.0
 43
0.0
 43
0.0
 43
0.0
 43
0.0
 43
1.0
 77
     0
 47
0.0208333333333333
 47
0.0
 47
0.0
 47
0.0
 47
0.0
 47
0.0208333333333333
 47
0.0
 47
0.0
 47
0.0
 47
0.0
 47
1.0
 47
0.0
 47
0.0
 47
0.0
 47
0.0
 47
1.0
171
     0
 49
0.0208333333333333
 49
0.0
 49
0.0
 49
0.0
 49
0.0
 49
0.0208333333333333
 49
0.0
 49
0.0
 49
0.0
 49
0.0
 49
1.0
 49
0.0
 49
0.0
 49
0.0
 49
0.0
 49
1.0
175
     0
142
0.0208333333333333
142
0.0
142
0.0
142
0.0
142
0.0
142
0.0208333333333333
142
0.0
142
0.0
142
0.0
142
0.0
142
1.0
142
0.0
142
0.0
142
0.0
142
0.0
142
1.0
179
     0
144
0.0208333333333333
144
0.0
144
0.0
144
0.0
144
0.0
144
0.0208333333333333
144
0.0
144
0.0
144
0.0
144
0.0
144
1.0
144
0.0
144
0.0
144
0.0
144
0.0
144
1.0
147
0.0208333333333333
147
0.0
147
0.0
147
0.0
147
0.0
147
0.0208333333333333
147
0.0
147
0.0
147
0.0
147
0.0
147
1.0
147
0.0
147
0.0
147
0.0
147
0.0
147
1.0
  0
MATERIAL
  5
470
102
{ACAD_XDICTIONARY
360
471
102
}
102
{ACAD_REACTORS
330
46F
102
}
330
46F
100
AcDbMaterial
  1
ByLayer
 72
     0
 43
0.0208333333333333
 43
0.0
 43
0.0
 43
0.0
 43
0.0
 43
0.0208333333333333
 43
0.0
 43
0.0
 43
0.0
 43
0.0
 43
1.0
 43
0.0
 43
0.0
 43
0.0
 43
0.0
 43
1.0
 77
     0
 47
0.0208333333333333
 47
0.0
 47
0.0
 47
0.0
 47
0.0
 47
0.0208333333333333
 47
0.0
 47
0.0
 47
0.0
 47
0.0
 47
1.0
 47
0.0
 47
0.0
 47
0.0
 47
0.0
 47
1.0
171
     0
 49
0.0208333333333333
 49
0.0
 49
0.0
 49
0.0
 49
0.0
 49
0.0208333333333333
 49
0.0
 49
0.0
 49
0.0
 49
0.0
 49
1.0
 49
0.0
 49
0.0
 49
0.0
 49
0.0
 49
1.0
175
     0
142
0.0208333333333333
142
0.0
142
0.0
142
0.0
142
0.0
142
0.0208333333333333
142
0.0
142
0.0
142
0.0
142
0.0
142
1.0
142
0.0
142
0.0
142
0.0
142
0.0
142
1.0
179
     0
144
0.0208333333333333
144
0.0
144
0.0
144
0.0
144
0.0
144
0.0208333333333333
144
0.0
144
0.0
144
0.0
144
0.0
144
1.0
144
0.0
144
0.0
144
0.0
144
0.0
144
1.0
147
0.0208333333333333
147
0.0
147
0.0
147
0.0
147
0.0
147
0.0208333333333333
147
0.0
147
0.0
147
0.0
147
0.0
147
1.0
147
0.0
147
0.0
147
0.0
147
0.0
147
1.0
  0
MATERIAL
  5
480
102
{ACAD_XDICTIONARY
360
481
102
}
102
{ACAD_REACTORS
330
46F
102
}
330
46F
100
AcDbMaterial
  1
Global
 72
     0
 43
0.0208333333333333
 43
0.0
 43
0.0
 43
0.0
 43
0.0
 43
0.0208333333333333
 43
0.0
 43
0.0
 43
0.0
 43
0.0
 43
1.0
 43
0.0
 43
0.0
 43
0.0
 43
0.0
 43
1.0
 77
     0
 47
0.0208333333333333
 47
0.0
 47
0.0
 47
0.0
 47
0.0
 47
0.0208333333333333
 47
0.0
 47
0.0
 47
0.0
 47
0.0
 47
1.0
 47
0.0
 47
0.0
 47
0.0
 47
0.0
 47
1.0
171
     0
 49
0.0208333333333333
 49
0.0
 49
0.0
 49
0.0
 49
0.0
 49
0.0208333333333333
 49
0.0
 49
0.0
 49
0.0
 49
0.0
 49
1.0
 49
0.0
 49
0.0
 49
0.0
 49
0.0
 49
1.0
175
     0
142
0.0208333333333333
142
0.0
142
0.0
142
0.0
142
0.0
142
0.0208333333333333
142
0.0
142
0.0
142
0.0
142
0.0
142
1.0
142
0.0
142
0.0
142
0.0
142
0.0
142
1.0
179
     0
144
0.0208333333333333
144
0.0
144
0.0
144
0.0
144
0.0
144
0.0208333333333333
144
0.0
144
0.0
144
0.0
144
0.0
144
1.0
144
0.0
144
0.0
144
0.0
144
0.0
144
1.0
147
0.0208333333333333
147
0.0
147
0.0
147
0.0
147
0.0
147
0.0208333333333333
147
0.0
147
0.0
147
0.0
147
0.0
147
1.0
147
0.0
147
0.0
147
0.0
147
0.0
147
1.0
  0
MLEADERSTYLE
  5
4B7
102
{ACAD_REACTORS
330
4B6
102
}
330
4B6
100
AcDbMLeaderStyle
170
     2
171
     1
172
     0
 90
        2
 40
0.0
 41
0.0
173
     1
 91
-1056964608
340
11
 92
       -2
290
     1
 42
2.0
291
     1
 43
0.36
  3
Standard
 44
4.0
300

342
17
174
     1
178
     6
175
     1
176
     0
 93
-1056964608
 45
4.0
292
     0
297
     0
 46
4.0
 94
-1056964608
 47
1.0
 49
1.0
140
1.0
293
     1
141
0.0
294
     1
177
     0
142
1.0
295
     0
296
     0
143
0.125
1001
ACAD_MLEADERVER
1070
     2
  0
MLINESTYLE
  5
1C
102
{ACAD_REACTORS
330
1B
102
}
330
1B
100
AcDbMlineStyle
  2
STANDARD
 70
     0
  3

 62
     0
 51
90.0
 52
90.0
 71
     2
 49
0.5
 62
   256
  6
BYLAYER
 49
-0.5
 62
   256
  6
BYLAYER
  0
ACDBPLACEHOLDER
  5
46E
102
{ACAD_REACTORS
330
46D
102
}
330
46D
  0
SCALE
  5
4A5
102
{ACAD_REACTORS
330
4A4
102
}
330
4A4
100
AcDbScale
 70
     0
300
1:1
140
1.0
141
1.0
290
     1
  0
SCALE
  5
4A6
102
{ACAD_REACTORS
330
4A4
102
}
330
4A4
100
AcDbScale
 70
     0
300
1:2
140
1.0
141
2.0
290
     0
  0
SCALE
  5
4A7
102
{ACAD_REACTORS
330
4A4
102
}
330
4A4
100
AcDbScale
 70
     0
300
1:4
140
1.0
141
4.0
290
     0
  0
SCALE
  5
4A8
102
{ACAD_REACTORS
330
4A4
102
}
330
4A4
100
AcDbScale
 70
     0
300
1:5
140
1.0
141
5.0
290
     0
  0
SCALE
  5
4A9
102
{ACAD_REACTORS
330
4A4
102
}
330
4A4
100
AcDbScale
 70
     0
300
1:8
140
1.0
141
8.0
290
     0
  0
SCALE
  5
4AA
102
{ACAD_REACTORS
330
4A4
102
}
330
4A4
100
AcDbScale
 70
     0
300
1:10
140
1.0
141
10.0
290
     0
  0
SCALE
  5
4AB
102
{ACAD_REACTORS
330
4A4
102
}
330
4A4
100
AcDbScale
 70
     0
300
1:16
140
1.0
141
16.0
290
     0
  0
SCALE
  5
4AC
102
{ACAD_REACTORS
330
4A4
102
}
330
4A4
100
AcDbScale
 70
     0
300
1:20
140
1.0
141
20.0
290
     0
  0
SCALE
  5
4AD
102
{ACAD_REACTORS
330
4A4
102
}
330
4A4
100
AcDbScale
 70
     0
300
1:30
140
1.0
141
30.0
290
     0
  0
SCALE
  5
4AE
102
{ACAD_REACTORS
330
4A4
102
}
330
4A4
100
AcDbScale
 70
     0
300
1:40
140
1.0
141
40.0
290
     0
  0
SCALE
  5
4AF
102
{ACAD_REACTORS
330
4A4
102
}
330
4A4
100
AcDbScale
 70
     0
300
1:50
140
1.0
141
50.0
290
     0
  0
SCALE
  5
4B0
102
{ACAD_REACTORS
330
4A4
102
}
330
4A4
100
AcDbScale
 70
     0
300
1:100
140
1.0
141
100.0
290
     0
  0
SCALE
  5
4B1
102
{ACAD_REACTORS
330
4A4
102
}
330
4A4
100
AcDbScale
 70
     0
300
2:1
140
2.0
141
1.0
290
     0
  0
SCALE
  5
4B2
102
{ACAD_REACTORS
330
4A4
102
}
330
4A4
100
AcDbScale
 70
     0
300
4:1
140
4.0
141
1.0
290
     0
  0
SCALE
  5
4B3
102
{ACAD_REACTORS
330
4A4
102
}
330
4A4
100
AcDbScale
 70
     0
300
8:1
140
8.0
141
1.0
290
     0
  0
SCALE
  5
4B4
102
{ACAD_REACTORS
330
4A4
102
}
330
4A4
100
AcDbScale
 70
     0
300
10:1
140
10.0
141
1.0
290
     0
  0
SCALE
  5
4B5
102
{ACAD_REACTORS
330
4A4
102
}
330
4A4
100
AcDbScale
 70
     0
300
100:1
140
100.0
141
1.0
290
     0
  0
TABLESTYLE
  5
4A3
102
{ACAD_XDICTIONARY
360
715
102
}
102
{ACAD_REACTORS
330
4A2
102
}
330
4A2
100
AcDbTableStyle
  3
Standard
 70
     0
 71
     0
 40
1.5
 41
1.5
280
     0
281
     0
  7
STANDARD
140
4.5
170
     2
 62
     0
 63
     7
283
     0
274
    -2
284
     1
 64
     0
275
    -2
285
     1
 65
     0
276
    -2
286
     1
 66
     0
277
    -2
287
     1
 67
     0
278
    -2
288
     1
 68
     0
279
    -2
289
     1
 69
     0
  7
STANDARD
140
6.0
170
     5
 62
     0
 63
     7
283
     0
274
    -2
284
     1
 64
     0
275
    -2
285
     1
 65
     0
276
    -2
286
     1
 66
     0
277
    -2
287
     1
 67
     0
278
    -2
288
     1
 68
     0
279
    -2
289
     1
 69
     0
  7
STANDARD
140
4.5
170
     5
 62
     0
 63
     7
283
     0
274
    -2
284
     1
 64
     0
275
    -2
285
     1
 65
     0
276
    -2
286
     1
 66
     0
277
    -2
287
     1
 67
     0
278
    -2
288
     1
 68
     0
279
    -2
289
     1
 69
     0
  0
VISUALSTYLE
  5
48E
102
{ACAD_XDICTIONARY
360
762
102
}
102
{ACAD_REACTORS
330
488
102
}
330
488
100
AcDbVisualStyle
  2
2dWireframe
 70
     4
 71
     0
 72
     2
 73
     0
 90
        0
 40
-0.6
 41
-30.0
 62
     5
 63
     7
 74
     1
 91
        4
 64
     7
 65
   257
 75
     1
175
     1
 42
1.0
 92
        0
 66
   257
 43
1.0
 76
     1
 77
     6
 78
     2
 67
     7
 79
     5
170
     0
171
     0
290
     0
174
     0
 93
        1
 44
0.0
173
     0
291
     0
 45
0.0
1001
ACAD
1000
AcDbSavedByObjectVersion
1070
     0
  0
VISUALSTYLE
  5
48D
102
{ACAD_XDICTIONARY
360
760
102
}
102
{ACAD_REACTORS
330
488
102
}
330
488
100
AcDbVisualStyle
  2
Basic
 70
     7
 71
     1
 72
     0
 73
     1
 90
        0
 40
-0.6
 41
-30.0
 62
     5
 63
     7
 74
     0
 91
        4
 64
     7
 65
   257
 75
     1
175
     1
 42
1.0
 92
        8
 66
     7
 43
1.0
 76
     1
 77
     6
 78
     2
 67
     7
 79
     5
170
     0
171
     0
290
     0
174
     0
 93
        1
 44
0.0
173
     0
291
     1
 45
0.0
1001
ACAD
1000
AcDbSavedByObjectVersion
1070
     0
  0
VISUALSTYLE
  5
494
102
{ACAD_XDICTIONARY
360
76E
102
}
102
{ACAD_REACTORS
330
488
102
}
330
488
100
AcDbVisualStyle
  2
Brighten
 70
    12
 71
     2
 72
     2
 73
     0
 90
        0
 40
-0.6
 41
-30.0
 62
     5
 63
     7
 74
     1
 91
        4
 64
     7
 65
   257
 75
     1
175
     1
 42
1.0
 92
        8
 66
     7
 43
1.0
 76
     1
 77
     6
 78
     2
 67
     7
 79
     5
170
     0
171
     0
290
     0
174
     0
 93
        1
 44
50.0
173
     0
291
     1
 45
0.0
1001
ACAD
1000
AcDbSavedByObjectVersion
1070
     0
  0
VISUALSTYLE
  5
498
102
{ACAD_XDICTIONARY
360
776
102
}
102
{ACAD_REACTORS
330
488
102
}
330
488
100
AcDbVisualStyle
  2
ColorChange
 70
    16
 71
     2
 72
     2
 73
     3
 90
        0
 40
-0.6
 41
-30.0
 62
     5
 63
     8
 74
     1
 91
        4
 64
     7
 65
   257
 75
     1
175
     1
 42
1.0
 92
        8
 66
     8
 43
1.0
 76
     1
 77
     6
 78
     2
 67
     7
 79
     5
170
     0
171
     0
290
     0
174
     0
 93
        1
 44
0.0
173
     0
291
     1
 45
0.0
1001
ACAD
1000
AcDbSavedByObjectVersion
1070
     0
  0
VISUALSTYLE
  5
491
102
{ACAD_XDICTIONARY
360
768
102
}
102
{ACAD_REACTORS
330
488
102
}
330
488
100
AcDbVisualStyle
  2
Conceptual
 70
     9
 71
     3
 72
     2
 73
     0
 90
        0
 40
-0.6
 41
-30.0
 62
     5
 63
     7
 74
     2
 91
        2
 64
     7
 65
   257
 75
     1
175
     1
 42
179.0
 92
        8
 66
     7
 43
1.0
 76
     1
 77
     6
 78
     2
 67
     7
 79
     3
170
     0
171
     0
290
     0
174
     0
 93
        1
 44
0.0
173
     0
291
     0
 45
0.0
1001
ACAD
1000
AcDbSavedByObjectVersion
1070
     0
  0
VISUALSTYLE
  5
493
102
{ACAD_XDICTIONARY
360
76C
102
}
102
{ACAD_REACTORS
330
488
102
}
330
488
100
AcDbVisualStyle
  2
Dim
 70
    11
 71
     2
 72
     2
 73
     0
 90
        0
 40
-0.6
 41
-30.0
 62
     5
 63
     7
 74
     1
 91
        4
 64
     7
 65
   257
 75
     1
175
     1
 42
1.0
 92
        8
 66
     7
 43
1.0
 76
     1
 77
     6
 78
     2
 67
     7
 79
     5
170
     0
171
     0
290
     0
174
     0
 93
        1
 44
-50.0
173
     0
291
     1
 45
0.0
1001
ACAD
1000
AcDbSavedByObjectVersion
1070
     0
  0
VISUALSTYLE
  5
4A0
102
{ACAD_XDICTIONARY
360
786
102
}
102
{ACAD_REACTORS
330
488
102
}
330
488
100
AcDbVisualStyle
  2
EdgeColorOff
 70
    22
 71
     2
 72
     2
 73
     0
 90
        0
 40
-0.6
 41
-30.0
 62
     5
 63
     7
 74
     1
 91
        4
 64
     7
 65
   257
 75
     1
175
     1
 42
1.0
 92
        8
 66
     7
 43
1.0
 76
     1
 77
     6
 78
     2
 67
     7
 79
     5
170
     0
171
     0
290
     0
174
     0
 93
        1
 44
0.0
173
     0
291
     1
 45
0.0
1001
ACAD
1000
AcDbSavedByObjectVersion
1070
     0
  0
VISUALSTYLE
  5
497
102
{ACAD_XDICTIONARY
360
774
102
}
102
{ACAD_REACTORS
330
488
102
}
330
488
100
AcDbVisualStyle
  2
Facepattern
 70
    15
 71
     2
 72
     2
 73
     0
 90
        0
 40
-0.6
 41
-30.0
 62
     5
 63
     7
 74
     1
 91
        4
 64
     7
 65
   257
 75
     1
175
     1
 42
1.0
 92
        8
 66
     7
 43
1.0
 76
     1
 77
     6
 78
     2
 67
     7
 79
     5
170
     0
171
     0
290
     0
174
     0
 93
        1
 44
0.0
173
     0
291
     1
 45
0.0
1001
ACAD
1000
AcDbSavedByObjectVersion
1070
     0
  0
VISUALSTYLE
  5
489
102
{ACAD_XDICTIONARY
360
758
102
}
102
{ACAD_REACTORS
330
488
102
}
330
488
100
AcDbVisualStyle
  2
Flat
 70
     0
 71
     2
 72
     1
 73
     1
 90
        2
 40
-0.6
 41
30.0
 62
     5
 63
     7
 74
     0
 91
        0
 64
     7
 65
   257
 75
     1
175
     1
 42
1.0
 92
        8
 66
     7
 43
1.0
 76
     1
 77
     6
 78
     2
 67
     7
 79
     5
170
     0
171
     0
290
     0
174
     0
 93
       13
 44
0.0
173
     0
291
     1
 45
0.0
1001
ACAD
1000
AcDbSavedByObjectVersion
1070
     0
  0
VISUALSTYLE
  5
48A
102
{ACAD_XDICTIONARY
360
75A
102
}
102
{ACAD_REACTORS
330
488
102
}
330
488
100
AcDbVisualStyle
  2
FlatWithEdges
 70
     1
 71
     2
 72
     1
 73
     1
 90
        2
 40
-0.6
 41
30.0
 62
     5
 63
     7
 74
     1
 91
        0
 64
     7
 65
   257
 75
     1
175
     1
 42
1.0
 92
        0
 66
   257
 43
1.0
 76
     1
 77
     6
 78
     2
 67
     7
 79
     5
170
     0
171
     0
290
     0
174
     0
 93
       13
 44
0.0
173
     0
291
     1
 45
0.0
1001
ACAD
1000
AcDbSavedByObjectVersion
1070
     0
  0
VISUALSTYLE
  5
48B
102
{ACAD_XDICTIONARY
360
75C
102
}
102
{ACAD_REACTORS
330
488
102
}
330
488
100
AcDbVisualStyle
  2
Gouraud
 70
     2
 71
     2
 72
     2
 73
     1
 90
        2
 40
-0.6
 41
30.0
 62
     5
 63
     7
 74
     0
 91
        0
 64
     7
 65
   257
 75
     1
175
     1
 42
1.0
 92
        0
 66
     7
 43
1.0
 76
     1
 77
     6
 78
     2
 67
     7
 79
     5
170
     0
171
     0
290
     0
174
     0
 93
       13
 44
0.0
173
     0
291
     1
 45
0.0
1001
ACAD
1000
AcDbSavedByObjectVersion
1070
     0
  0
VISUALSTYLE
  5
48C
102
{ACAD_XDICTIONARY
360
75E
102
}
102
{ACAD_REACTORS
330
488
102
}
330
488
100
AcDbVisualStyle
  2
GouraudWithEdges
 70
     3
 71
     2
 72
     2
 73
     1
 90
        2
 40
-0.6
 41
30.0
 62
     5
 63
     7
 74
     1
 91
        0
 64
     7
 65
   257
 75
     1
175
     1
 42
1.0
 92
        0
 66
   257
 43
1.0
 76
     1
 77
     6
 78
     2
 67
     7
 79
     5
170
     0
171
     0
290
     0
174
     0
 93
       13
 44
0.0
173
     0
291
     1
 45
0.0
1001
ACAD
1000
AcDbSavedByObjectVersion
1070
     0
  0
VISUALSTYLE
  5
490
102
{ACAD_XDICTIONARY
360
766
102
}
102
{ACAD_REACTORS
330
488
102
}
330
488
100
AcDbVisualStyle
  2
Hidden
 70
     6
 71
     1
 72
     2
 73
     2
 90
        0
 40
-0.6
 41
-30.0
 62
     5
 63
     7
 74
     2
 91
        2
 64
     7
 65
   257
 75
     2
175
     1
 42
40.0
 92
        0
 66
   257
 43
1.0
 76
     1
 77
     6
 78
     2
 67
     7
 79
     3
170
     0
171
     0
290
     0
174
     0
 93
        1
 44
0.0
173
     0
291
     0
 45
0.0
1001
ACAD
1000
AcDbSavedByObjectVersion
1070
     0
  0
VISUALSTYLE
  5
49E
102
{ACAD_XDICTIONARY
360
782
102
}
102
{ACAD_REACTORS
330
488
102
}
330
488
100
AcDbVisualStyle
  2
JitterOff
 70
    20
 71
     2
 72
     2
 73
     0
 90
        0
 40
-0.6
 41
-30.0
 62
     5
 63
     7
 74
     1
 91
        4
 64
     7
 65
   257
 75
     1
175
     1
 42
1.0
 92
       10
 66
     7
 43
1.0
 76
     1
 77
     6
 78
     2
 67
     7
 79
     5
170
     0
171
     0
290
     0
174
     0
 93
        1
 44
0.0
173
     0
291
     1
 45
0.0
1001
ACAD
1000
AcDbSavedByObjectVersion
1070
     0
  0
VISUALSTYLE
  5
496
102
{ACAD_XDICTIONARY
360
772
102
}
102
{ACAD_REACTORS
330
488
102
}
330
488
100
AcDbVisualStyle
  2
Linepattern
 70
    14
 71
     2
 72
     2
 73
     0
 90
        0
 40
-0.6
 41
-30.0
 62
     5
 63
     7
 74
     1
 91
        4
 64
     7
 65
   257
 75
     7
175
     7
 42
1.0
 92
        8
 66
     7
 43
1.0
 76
     1
 77
     6
 78
     2
 67
     7
 79
     5
170
     0
171
     0
290
     0
174
     0
 93
        1
 44
0.0
173
     0
291
     1
 45
0.0
1001
ACAD
1000
AcDbSavedByObjectVersion
1070
     0
  0
VISUALSTYLE
  5
49F
102
{ACAD_XDICTIONARY
360
784
102
}
102
{ACAD_REACTORS
330
488
102
}
330
488
100
AcDbVisualStyle
  2
OverhangOff
 70
    21
 71
     2
 72
     2
 73
     0
 90
        0
 40
-0.6
 41
-30.0
 62
     5
 63
     7
 74
     1
 91
        4
 64
     7
 65
   257
 75
     1
175
     1
 42
1.0
 92
        9
 66
     7
 43
1.0
 76
     1
 77
     6
 78
     2
 67
     7
 79
     5
170
     0
171
     0
290
     0
174
     0
 93
        1
 44
0.0
173
     0
291
     1
 45
0.0
1001
ACAD
1000
AcDbSavedByObjectVersion
1070
     0
  0
VISUALSTYLE
  5
492
102
{ACAD_XDICTIONARY
360
76A
102
}
102
{ACAD_REACTORS
330
488
102
}
330
488
100
AcDbVisualStyle
  2
Realistic
 70
     8
 71
     2
 72
     3
 73
     0
 90
        2
 40
-0.6
 41
30.0
 62
     5
 63
     7
 74
     0
 91
        0
 64
     7
 65
   257
 75
     1
175
     1
 42
1.0
 92
        8
 66
   257
 43
1.0
 76
     1
 77
     6
 78
     2
 67
     7
 79
     3
170
     0
171
     0
290
     0
174
     0
 93
       13
 44
0.0
173
     0
291
     0
 45
0.0
1001
ACAD
1000
AcDbSavedByObjectVersion
1070
     0
  0
VISUALSTYLE
  5
49D
102
{ACAD_XDICTIONARY
360
780
102
}
102
{ACAD_REACTORS
330
488
102
}
330
488
100
AcDbVisualStyle
  2
Shaded
 70
    27
 71
     2
 72
     2
 73
     1
 90
        2
 40
-0.6
 41
30.0
 62
     5
 63
     7
 74
     0
 91
        4
 64
     7
 65
   257
 75
     1
175
     1
 42
1.0
 92
        8
 66
   257
 43
1.0
 76
     1
 77
     6
 78
     2
 67
     8
 79
     3
170
     0
171
     0
290
     0
174
     0
 93
        5
 44
0.0
173
     0
291
     0
 45
0.0
1001
ACAD
1000
AcDbSavedByObjectVersion
1070
     0
  0
VISUALSTYLE
  5
49C
102
{ACAD_XDICTIONARY
360
77E
102
}
102
{ACAD_REACTORS
330
488
102
}
330
488
100
AcDbVisualStyle
  2
Shaded with edges
 70
    26
 71
     2
 72
     2
 73
     1
 90
        2
 40
-0.6
 41
30.0
 62
     5
 63
     7
 74
     1
 91
       10
 64
     7
 65
   257
 75
     2
175
     1
 42
1.0
 92
        8
 66
   257
 43
1.0
 76
     1
 77
     6
 78
     2
 67
     7
 79
     3
170
     0
171
     0
290
     0
174
     0
 93
        5
 44
0.0
173
     0
291
     0
 45
0.0
1001
ACAD
1000
AcDbSavedByObjectVersion
1070
     0
  0
VISUALSTYLE
  5
499
102
{ACAD_XDICTIONARY
360
778
102
}
102
{ACAD_REACTORS
330
488
102
}
330
488
100
AcDbVisualStyle
  2
Shades of Gray
 70
    23
 71
     2
 72
     2
 73
     3
 90
        0
 40
-0.6
 41
-30.0
 62
     5
 63
     7
 74
     2
 91
        2
 64
     7
 65
     7
 75
     1
175
     1
 42
40.0
 92
        8
 66
     7
 43
1.0
 76
     1
 77
     6
 78
     2
 67
     7
 79
     3
170
     0
171
     0
290
     0
174
     0
 93
        1
 44
0.0
173
     0
291
     0
 45
0.0
1001
ACAD
1000
AcDbSavedByObjectVersion
1070
     0
  0
VISUALSTYLE
  5
49A
102
{ACAD_XDICTIONARY
360
77A
102
}
102
{ACAD_REACTORS
330
488
102
}
330
488
100
AcDbVisualStyle
  2
Sketchy
 70
    24
 71
     1
 72
     2
 73
     2
 90
        0
 40
-0.6
 41
-30.0
 62
     5
 63
     7
 74
     2
 91
        2
 64
     7
 65
     7
 75
     1
175
     1
 42
40.0
 92
       11
 66
     7
 43
1.0
 76
     1
 77
     6
 78
     2
 67
     7
 79
     6
170
     0
171
     0
290
     0
174
     0
 93
        1
 44
0.0
173
     0
291
     0
 45
0.0
1001
ACAD
1000
AcDbSavedByObjectVersion
1070
     0
  0
VISUALSTYLE
  5
495
102
{ACAD_XDICTIONARY
360
770
102
}
102
{ACAD_REACTORS
330
488
102
}
330
488
100
AcDbVisualStyle
  2
Thicken
 70
    13
 71
     2
 72
     2
 73
     0
 90
        0
 40
-0.6
 41
-30.0
 62
     5
 63
     7
 74
     1
 91
        4
 64
     7
 65
   257
 75
     1
175
     1
 42
1.0
 92
       12
 66
     7
 43
1.0
 76
     1
 77
     6
 78
     2
 67
     7
 79
     5
170
     0
171
     0
290
     0
174
     0
 93
        1
 44
0.0
173
     0
291
     1
 45
0.0
1001
ACAD
1000
AcDbSavedByObjectVersion
1070
     0
  0
VISUALSTYLE
  5
48F
102
{ACAD_XDICTIONARY
360
764
102
}
102
{ACAD_REACTORS
330
488
102
}
330
488
100
AcDbVisualStyle
  2
Wireframe
 70
     5
 71
     0
 72
     2
 73
     0
 90
        0
 40
-0.6
 41
-30.0
 62
     5
 63
     7
 74
     1
 91
        4
 64
     7
 65
   257
 75
     1
175
     1
 42
1.0
 92
        0
 66
   257
 43
1.0
 76
     1
 77
     6
 78
     2
 67
     7
 79
     3
170
     0
171
     0
290
     0
174
     0
 93
        1
 44
0.0
173
     0
291
     0
 45
0.0
1001
ACAD
1000
AcDbSavedByObjectVersion
1070
     0
  0
VISUALSTYLE
  5
49B
102
{ACAD_XDICTIONARY
360
77C
102
}
102
{ACAD_REACTORS
330
488
102
}
330
488
100
AcDbVisualStyle
  2
X-Ray
 70
    25
 71
     2
 72
     2
 73
     1
 90
        1
 40
0.5
 41
-30.0
 62
     5
 63
     7
 74
     1
 91
        0
 64
     7
 65
   257
 75
     1
175
     1
 42
1.0
 92
        8
 66
     7
 43
1.0
 76
     1
 77
     6
 78
     2
 67
     7
 79
     3
170
     0
171
     0
290
     0
174
     0
 93
       13
 44
0.0
173
     0
291
     0
 45
0.0
1001
ACAD
1000
AcDbSavedByObjectVersion
1070
     0
  0
DICTIONARYVAR
  5
70F
102
{ACAD_REACTORS
330
70C
102
}
330
70C
100
DictionaryVariables
280
     0
  1
1:1
  0
DICTIONARYVAR
  5
70E
102
{ACAD_REACTORS
330
70C
102
}
330
70C
100
DictionaryVariables
280
     0
  1
STANDARD
  0
DICTIONARYVAR
  5
70D
102
{ACAD_REACTORS
330
70C
102
}
330
70C
100
DictionaryVariables
280
     0
  1
STANDARD
  0
DICTIONARYVAR
  5
712
102
{ACAD_REACTORS
330
70C
102
}
330
70C
100
DictionaryVariables
280
     0
  1
1
  0
DICTIONARYVAR
  5
711
102
{ACAD_REACTORS
330
70C
102
}
330
70C
100
DictionaryVariables
280
     0
  1
0
  0
DICTIONARYVAR
  5
710
102
{ACAD_REACTORS
330
70C
102
}
330
70C
100
DictionaryVariables
280
     0
  1
127
  0
DICTIONARYVAR
  5
713
102
{ACAD_REACTORS
330
70C
102
}
330
70C
100
DictionaryVariables
280
     0
  1
2
  0
XRECORD
  5
70B
102
{ACAD_REACTORS
330
709
102
}
330
709
100
AcDbXrecord
280
     1
330
2B
330
2E
  0
DICTIONARY
  5
78A
330
4BA
100
AcDbDictionary
280
     1
281
     1
  3
ACAD_XREC_ROUNDTRIP
360
78B
  0
DICTIONARY
  5
78C
330
4BB
100
AcDbDictionary
280
     1
281
     1
  3
ACAD_XREC_ROUNDTRIP
360
78D
  0
DICTIONARY
  5
479
330
478
100
AcDbDictionary
280
     1
281
     1
  3
ACAD_XREC_ROUNDTRIP
360
756
  3
BUMPTILE
360
47B
  3
DIFFUSETILE
360
47A
  3
OPACITYTILE
360
47E
  3
REFLECTIONTILE
360
47D
  3
REFRACTIONTILE
360
47F
  3
SPECULARTILE
360
47C
  0
DICTIONARY
  5
471
330
470
100
AcDbDictionary
280
     1
281
     1
  3
ACAD_XREC_ROUNDTRIP
360
755
  3
BUMPTILE
360
473
  3
DIFFUSETILE
360
472
  3
OPACITYTILE
360
476
  3
REFLECTIONTILE
360
475
  3
REFRACTIONTILE
360
477
  3
SPECULARTILE
360
474
  0
DICTIONARY
  5
481
330
480
100
AcDbDictionary
280
     1
281
     1
  3
ACAD_XREC_ROUNDTRIP
360
757
  3
BUMPTILE
360
483
  3
DIFFUSETILE
360
482
  3
OPACITYTILE
360
486
  3
REFLECTIONTILE
360
485
  3
REFRACTIONTILE
360
487
  3
SPECULARTILE
360
484
  0
DICTIONARY
  5
715
330
4A3
100
AcDbDictionary
280
     1
281
     1
  3
ACAD_ROUNDTRIP_2008_TABLESTYLE_CELLSTYLEMAP
360
716
  3
ACAD_XREC_ROUNDTRIP
360
788
  0
DICTIONARY
  5
762
330
48E
100
AcDbDictionary
280
     1
281
     1
  3
ACAD_XREC_ROUNDTRIP
360
763
  0
DICTIONARY
  5
760
330
48D
100
AcDbDictionary
280
     1
281
     1
  3
ACAD_XREC_ROUNDTRIP
360
761
  0
DICTIONARY
  5
76E
330
494
100
AcDbDictionary
280
     1
281
     1
  3
ACAD_XREC_ROUNDTRIP
360
76F
  0
DICTIONARY
  5
776
330
498
100
AcDbDictionary
280
     1
281
     1
  3
ACAD_XREC_ROUNDTRIP
360
777
  0
DICTIONARY
  5
768
330
491
100
AcDbDictionary
280
     1
281
     1
  3
ACAD_XREC_ROUNDTRIP
360
769
  0
DICTIONARY
  5
76C
330
493
100
AcDbDictionary
280
     1
281
     1
  3
ACAD_XREC_ROUNDTRIP
360
76D
  0
DICTIONARY
  5
786
330
4A0
100
AcDbDictionary
280
     1
281
     1
  3
ACAD_XREC_ROUNDTRIP
360
787
  0
DICTIONARY
  5
774
330
497
100
AcDbDictionary
280
     1
281
     1
  3
ACAD_XREC_ROUNDTRIP
360
775
  0
DICTIONARY
  5
758
330
489
100
AcDbDictionary
280
     1
281
     1
  3
ACAD_XREC_ROUNDTRIP
360
759
  0
DICTIONARY
  5
75A
330
48A
100
AcDbDictionary
280
     1
281
     1
  3
ACAD_XREC_ROUNDTRIP
360
75B
  0
DICTIONARY
  5
75C
330
48B
100
AcDbDictionary
280
     1
281
     1
  3
ACAD_XREC_ROUNDTRIP
360
75D
  0
DICTIONARY
  5
75E
330
48C
100
AcDbDictionary
280
     1
281
     1
  3
ACAD_XREC_ROUNDTRIP
360
75F
  0
DICTIONARY
  5
766
330
490
100
AcDbDictionary
280
     1
281
     1
  3
ACAD_XREC_ROUNDTRIP
360
767
  0
DICTIONARY
  5
782
330
49E
100
AcDbDictionary
280
     1
281
     1
  3
ACAD_XREC_ROUNDTRIP
360
783
  0
DICTIONARY
  5
772
330
496
100
AcDbDictionary
280
     1
281
     1
  3
ACAD_XREC_ROUNDTRIP
360
773
  0
DICTIONARY
  5
784
330
49F
100
AcDbDictionary
280
     1
281
     1
  3
ACAD_XREC_ROUNDTRIP
360
785
  0
DICTIONARY
  5
76A
330
492
100
AcDbDictionary
280
     1
281
     1
  3
ACAD_XREC_ROUNDTRIP
360
76B
  0
DICTIONARY
  5
780
330
49D
100
AcDbDictionary
280
     1
281
     1
  3
ACAD_XREC_ROUNDTRIP
360
781
  0
DICTIONARY
  5
77E
330
49C
100
AcDbDictionary
280
     1
281
     1
  3
ACAD_XREC_ROUNDTRIP
360
77F
  0
DICTIONARY
  5
778
330
499
100
AcDbDictionary
280
     1
281
     1
  3
ACAD_XREC_ROUNDTRIP
360
779
  0
DICTIONARY
  5
77A
330
49A
100
AcDbDictionary
280
     1
281
     1
  3
ACAD_XREC_ROUNDTRIP
360
77B
  0
DICTIONARY
  5
770
330
495
100
AcDbDictionary
280
     1
281
     1
  3
ACAD_XREC_ROUNDTRIP
360
771
  0
DICTIONARY
  5
764
330
48F
100
AcDbDictionary
280
     1
281
     1
  3
ACAD_XREC_ROUNDTRIP
360
765
  0
DICTIONARY
  5
77C
330
49B
100
AcDbDictionary
280
     1
281
     1
  3
ACAD_XREC_ROUNDTRIP
360
77D
  0
XRECORD
  5
78B
102
{ACAD_REACTORS
330
78A
102
}
330
78A
100
AcDbXrecord
280
     1
102
SHADEPLOT
 70
     0
102
SHADEPLOTRESLEVEL
 70
     2
102
SHADEPLOTCUSTOMDPI
 70
   300
  0
XRECORD
  5
78D
102
{ACAD_REACTORS
330
78C
102
}
330
78C
100
AcDbXrecord
280
     1
102
SHADEPLOT
 70
     0
102
SHADEPLOTRESLEVEL
 70
     2
102
SHADEPLOTCUSTOMDPI
 70
   300
  0
XRECORD
  5
756
102
{ACAD_REACTORS
330
479
102
}
330
479
100
AcDbXrecord
280
     1
102
MATERIAL
148
0.0
149
0.0
149
0.0
 93
        0
 94
      127
282
     0
 72
     0
 77
     0
171
     0
175
     0
179
     0
273
     0
  0
XRECORD
  5
47B
102
{ACAD_REACTORS
330
479
102
}
330
479
100
AcDbXrecord
280
     1
270
     1
271
     1
  0
XRECORD
  5
47A
102
{ACAD_REACTORS
330
479
102
}
330
479
100
AcDbXrecord
280
     1
270
     1
271
     1
  0
XRECORD
  5
47E
102
{ACAD_REACTORS
330
479
102
}
330
479
100
AcDbXrecord
280
     1
270
     1
271
     1
  0
XRECORD
  5
47D
102
{ACAD_REACTORS
330
479
102
}
330
479
100
AcDbXrecord
280
     1
270
     1
271
     1
  0
XRECORD
  5
47F
102
{ACAD_REACTORS
330
479
102
}
330
479
100
AcDbXrecord
280
     1
270
     1
271
     1
  0
XRECORD
  5
47C
102
{ACAD_REACTORS
330
479
102
}
330
479
100
AcDbXrecord
280
     1
270
     1
271
     1
  0
XRECORD
  5
755
102
{ACAD_REACTORS
330
471
102
}
330
471
100
AcDbXrecord
280
     1
102
MATERIAL
148
0.0
149
0.0
149
0.0
 93
        0
 94
      127
282
     0
 72
     0
 77
     0
171
     0
175
     0
179
     0
273
     0
  0
XRECORD
  5
473
102
{ACAD_REACTORS
330
471
102
}
330
471
100
AcDbXrecord
280
     1
270
     1
271
     1
  0
XRECORD
  5
472
102
{ACAD_REACTORS
330
471
102
}
330
471
100
AcDbXrecord
280
     1
270
     1
271
     1
  0
XRECORD
  5
476
102
{ACAD_REACTORS
330
471
102
}
330
471
100
AcDbXrecord
280
     1
270
     1
271
     1
  0
XRECORD
  5
475
102
{ACAD_REACTORS
330
471
102
}
330
471
100
AcDbXrecord
280
     1
270
     1
271
     1
  0
XRECORD
  5
477
102
{ACAD_REACTORS
330
471
102
}
330
471
100
AcDbXrecord
280
     1
270
     1
271
     1
  0
XRECORD
  5
474
102
{ACAD_REACTORS
330
471
102
}
330
471
100
AcDbXrecord
280
     1
270
     1
271
     1
  0
XRECORD
  5
757
102
{ACAD_REACTORS
330
481
102
}
330
481
100
AcDbXrecord
280
     1
102
MATERIAL
148
0.0
149
0.0
149
0.0
 93
        0
 94
      127
282
     0
 72
     0
 77
     0
171
     0
175
     0
179
     0
273
     0
  0
XRECORD
  5
483
102
{ACAD_REACTORS
330
481
102
}
330
481
100
AcDbXrecord
280
     1
270
     1
271
     1
  0
XRECORD
  5
482
102
{ACAD_REACTORS
330
481
102
}
330
481
100
AcDbXrecord
280
     1
270
     1
271
     1
  0
XRECORD
  5
486
102
{ACAD_REACTORS
330
481
102
}
330
481
100
AcDbXrecord
280
     1
270
     1
271
     1
  0
XRECORD
  5
485
102
{ACAD_REACTORS
330
481
102
}
330
481
100
AcDbXrecord
280
     1
270
     1
271
     1
  0
XRECORD
  5
487
102
{ACAD_REACTORS
330
481
102
}
330
481
100
AcDbXrecord
280
     1
270
     1
271
     1
  0
XRECORD
  5
484
102
{ACAD_REACTORS
330
481
102
}
330
481
100
AcDbXrecord
280
     1
270
     1
271
     1
  0
CELLSTYLEMAP
  5
716
102
{ACAD_REACTORS
330
715
102
}
330
715
100
AcDbCellStyleMap
 90
        3
300
CELLSTYLE
  1
TABLEFORMAT_BEGIN
 90
        5
170
     1
 91
        0
 92
    32768
 62
   257
 93
        1
300
CONTENTFORMAT
  1
CONTENTFORMAT_BEGIN
 90
        0
 91
        0
 92
      512
 93
        0
300

 40
0.0
140
1.0
 94
        5
 62
     0
340
17
144
6.0
309
CONTENTFORMAT_END
171
     1
301
MARGIN
  1
CELLMARGIN_BEGIN
 40
1.5
 40
1.5
 40
1.5
 40
1.5
 40
4.5
 40
4.5
309
CELLMARGIN_END
 94
        6
 95
        1
302
GRIDFORMAT
  1
GRIDFORMAT_BEGIN
 90
        0
 91
        1
 62
     0
 92
       -2
340
0
 93
        0
 40
1.125
309
GRIDFORMAT_END
 95
        2
302
GRIDFORMAT
  1
GRIDFORMAT_BEGIN
 90
        0
 91
        1
 62
     0
 92
       -2
340
0
 93
        0
 40
1.125
309
GRIDFORMAT_END
 95
        4
302
GRIDFORMAT
  1
GRIDFORMAT_BEGIN
 90
        0
 91
        1
 62
     0
 92
       -2
340
0
 93
        0
 40
1.125
309
GRIDFORMAT_END
 95
        8
302
GRIDFORMAT
  1
GRIDFORMAT_BEGIN
 90
        0
 91
        1
 62
     0
 92
       -2
340
0
 93
        0
 40
1.125
309
GRIDFORMAT_END
 95
       16
302
GRIDFORMAT
  1
GRIDFORMAT_BEGIN
 90
        0
 91
        1
 62
     0
 92
       -2
340
0
 93
        0
 40
1.125
309
GRIDFORMAT_END
 95
       32
302
GRIDFORMAT
  1
GRIDFORMAT_BEGIN
 90
        0
 91
        1
 62
     0
 92
       -2
340
0
 93
        0
 40
1.125
309
GRIDFORMAT_END
309
TABLEFORMAT_END
  1
CELLSTYLE_BEGIN
 90
        1
 91
        1
300
_TITLE
309
CELLSTYLE_END
300
CELLSTYLE
  1
TABLEFORMAT_BEGIN
 90
        5
170
     1
 91
        0
 92
        0
 62
   257
 93
        1
300
CONTENTFORMAT
  1
CONTENTFORMAT_BEGIN
 90
        0
 91
        0
 92
      512
 93
        0
300

 40
0.0
140
1.0
 94
        5
 62
     0
340
17
144
4.5
309
CONTENTFORMAT_END
171
     1
301
MARGIN
  1
CELLMARGIN_BEGIN
 40
1.5
 40
1.5
 40
1.5
 40
1.5
 40
4.5
 40
4.5
309
CELLMARGIN_END
 94
        6
 95
        1
302
GRIDFORMAT
  1
GRIDFORMAT_BEGIN
 90
        0
 91
        1
 62
     0
 92
       -2
340
0
 93
        0
 40
1.125
309
GRIDFORMAT_END
 95
        2
302
GRIDFORMAT
  1
GRIDFORMAT_BEGIN
 90
        0
 91
        1
 62
     0
 92
       -2
340
0
 93
        0
 40
1.125
309
GRIDFORMAT_END
 95
        4
302
GRIDFORMAT
  1
GRIDFORMAT_BEGIN
 90
        0
 91
        1
 62
     0
 92
       -2
340
0
 93
        0
 40
1.125
309
GRIDFORMAT_END
 95
        8
302
GRIDFORMAT
  1
GRIDFORMAT_BEGIN
 90
        0
 91
        1
 62
     0
 92
       -2
340
0
 93
        0
 40
1.125
309
GRIDFORMAT_END
 95
       16
302
GRIDFORMAT
  1
GRIDFORMAT_BEGIN
 90
        0
 91
        1
 62
     0
 92
       -2
340
0
 93
        0
 40
1.125
309
GRIDFORMAT_END
 95
       32
302
GRIDFORMAT
  1
GRIDFORMAT_BEGIN
 90
        0
 91
        1
 62
     0
 92
       -2
340
0
 93
        0
 40
1.125
309
GRIDFORMAT_END
309
TABLEFORMAT_END
  1
CELLSTYLE_BEGIN
 90
        2
 91
        1
300
_HEADER
309
CELLSTYLE_END
300
CELLSTYLE
  1
TABLEFORMAT_BEGIN
 90
        5
170
     1
 91
        0
 92
        0
 62
   257
 93
        1
300
CONTENTFORMAT
  1
CONTENTFORMAT_BEGIN
 90
        0
 91
        0
 92
      512
 93
        0
300

 40
0.0
140
1.0
 94
        2
 62
     0
340
17
144
4.5
309
CONTENTFORMAT_END
171
     1
301
MARGIN
  1
CELLMARGIN_BEGIN
 40
1.5
 40
1.5
 40
1.5
 40
1.5
 40
4.5
 40
4.5
309
CELLMARGIN_END
 94
        6
 95
        1
302
GRIDFORMAT
  1
GRIDFORMAT_BEGIN
 90
        0
 91
        1
 62
     0
 92
       -2
340
0
 93
        0
 40
1.125
309
GRIDFORMAT_END
 95
        2
302
GRIDFORMAT
  1
GRIDFORMAT_BEGIN
 90
        0
 91
        1
 62
     0
 92
       -2
340
0
 93
        0
 40
1.125
309
GRIDFORMAT_END
 95
        4
302
GRIDFORMAT
  1
GRIDFORMAT_BEGIN
 90
        0
 91
        1
 62
     0
 92
       -2
340
0
 93
        0
 40
1.125
309
GRIDFORMAT_END
 95
        8
302
GRIDFORMAT
  1
GRIDFORMAT_BEGIN
 90
        0
 91
        1
 62
     0
 92
       -2
340
0
 93
        0
 40
1.125
309
GRIDFORMAT_END
 95
       16
302
GRIDFORMAT
  1
GRIDFORMAT_BEGIN
 90
        0
 91
        1
 62
     0
 92
       -2
340
0
 93
        0
 40
1.125
309
GRIDFORMAT_END
 95
       32
302
GRIDFORMAT
  1
GRIDFORMAT_BEGIN
 90
        0
 91
        1
 62
     0
 92
       -2
340
0
 93
        0
 40
1.125
309
GRIDFORMAT_END
309
TABLEFORMAT_END
  1
CELLSTYLE_BEGIN
 90
        3
 91
        2
300
_DATA
309
CELLSTYLE_END
  0
XRECORD
  5
788
102
{ACAD_REACTORS
330
715
102
}
330
715
100
AcDbXrecord
280
     1
102
ACAD_ROUNDTRIP_PRE2007_TABLESTYLE
 90
      512
 91
        0
  1

 92
      512
 93
        0
  2

 94
      512
 95
        0
  3

  0
XRECORD
  5
763
102
{ACAD_REACTORS
330
762
102
}
330
762
100
AcDbXrecord
280
     1
102
RTVSPropertyOp0
 70
     1
102
RTVSPropertyOp1
 70
     1
102
RTVSPropertyOp2
 70
     1
102
RTVSPropertyOp3
 70
     1
102
RTVSPropertyOp4
 70
     1
102
RTVSPropertyOp5
 70
     1
102
RTVSPropertyOp6
 70
     1
102
RTVSPropertyOp7
 70
     1
102
RTVSPropertyOp8
 70
     1
102
RTVSPropertyOp9
 70
     1
102
RTVSPropertyOp10
 70
     1
102
RTVSPropertyOp11
 70
     1
102
RTVSPropertyOp12
 70
     1
102
RTVSPropertyOp13
 70
     1
102
RTVSPropertyOp14
 70
     1
102
RTVSPropertyOp15
 70
     1
102
RTVSPropertyOp16
 70
     1
102
RTVSPropertyOp17
 70
     1
102
RTVSPropertyOp18
 70
     1
102
RTVSPropertyOp19
 70
     1
102
RTVSPropertyOp20
 70
     1
102
RTVSPropertyOp21
 70
     1
102
RTVSPropertyOp22
 70
     1
102
RTVSPropertyOp23
 70
     1
102
RTVSPropertyOp24
 70
     1
102
RTVSPropertyOp25
 70
     1
102
RTVSPropertyOp26
 70
     1
102
RTVSPropertyOp27
 70
     1
102
RTVSPropertyOp28
 70
     1
102
RTVSPropertyOp29
 70
     1
102
RTVSPropertyOp30
 70
     1
102
RTVSPropertyOp31
 70
     1
102
RTVSPropertyOp32
 70
     1
  0
XRECORD
  5
761
102
{ACAD_REACTORS
330
760
102
}
330
760
100
AcDbXrecord
280
     1
102
RTVSPropertyOp0
 70
     1
102
RTVSPropertyOp1
 70
     1
102
RTVSPropertyOp2
 70
     1
102
RTVSPropertyOp3
 70
     1
102
RTVSPropertyOp4
 70
     1
102
RTVSPropertyOp5
 70
     1
102
RTVSPropertyOp6
 70
     1
102
RTVSPropertyOp7
 70
     1
102
RTVSPropertyOp8
 70
     1
102
RTVSPropertyOp9
 70
     1
102
RTVSPropertyOp10
 70
     1
102
RTVSPropertyOp11
 70
     1
102
RTVSPropertyOp12
 70
     1
102
RTVSPropertyOp13
 70
     1
102
RTVSPropertyOp14
 70
     1
102
RTVSPropertyOp15
 70
     1
102
RTVSPropertyOp16
 70
     1
102
RTVSPropertyOp17
 70
     1
102
RTVSPropertyOp18
 70
     1
102
RTVSPropertyOp19
 70
     1
102
RTVSPropertyOp20
 70
     1
102
RTVSPropertyOp21
 70
     1
102
RTVSPropertyOp22
 70
     1
102
RTVSPropertyOp23
 70
     1
102
RTVSPropertyOp24
 70
     1
102
RTVSPropertyOp25
 70
     1
102
RTVSPropertyOp26
 70
     1
102
RTVSPropertyOp27
 70
     1
102
RTVSPropertyOp28
 70
     1
102
RTVSPropertyOp29
 70
     1
102
RTVSPropertyOp30
 70
     1
102
RTVSPropertyOp31
 70
     1
102
RTVSPropertyOp32
 70
     1
  0
XRECORD
  5
76F
102
{ACAD_REACTORS
330
76E
102
}
330
76E
100
AcDbXrecord
280
     1
102
RTVSPropertyOp0
 70
     1
102
RTVSPropertyOp1
 70
     1
102
RTVSPropertyOp2
 70
     1
102
RTVSPropertyOp3
 70
     1
102
RTVSPropertyOp4
 70
     1
102
RTVSPropertyOp5
 70
     1
102
RTVSPropertyOp6
 70
     1
102
RTVSPropertyOp7
 70
     1
102
RTVSPropertyOp8
 70
     1
102
RTVSPropertyOp9
 70
     1
102
RTVSPropertyOp10
 70
     1
102
RTVSPropertyOp11
 70
     1
102
RTVSPropertyOp12
 70
     1
102
RTVSPropertyOp13
 70
     1
102
RTVSPropertyOp14
 70
     1
102
RTVSPropertyOp15
 70
     1
102
RTVSPropertyOp16
 70
     1
102
RTVSPropertyOp17
 70
     1
102
RTVSPropertyOp18
 70
     1
102
RTVSPropertyOp19
 70
     1
102
RTVSPropertyOp20
 70
     1
102
RTVSPropertyOp21
 70
     1
102
RTVSPropertyOp22
 70
     1
102
RTVSPropertyOp23
 70
     1
102
RTVSPropertyOp24
 70
     1
102
RTVSPropertyOp25
 70
     1
102
RTVSPropertyOp26
 70
     1
102
RTVSPropertyOp27
 70
     1
102
RTVSPropertyOp28
 70
     1
102
RTVSPropertyOp29
 70
     1
102
RTVSPropertyOp30
 70
     1
102
RTVSPropertyOp31
 70
     1
102
RTVSPropertyOp32
 70
     1
  0
XRECORD
  5
777
102
{ACAD_REACTORS
330
776
102
}
330
776
100
AcDbXrecord
280
     1
102
RTVSPropertyOp0
 70
     1
102
RTVSPropertyOp1
 70
     1
102
RTVSPropertyOp2
 70
     1
102
RTVSPropertyOp3
 70
     1
102
RTVSPropertyOp4
 70
     1
102
RTVSPropertyOp5
 70
     1
102
RTVSPropertyOp6
 70
     1
102
RTVSPropertyOp7
 70
     1
102
RTVSPropertyOp8
 70
     1
102
RTVSPropertyOp9
 70
     1
102
RTVSPropertyOp10
 70
     1
102
RTVSPropertyOp11
 70
     1
102
RTVSPropertyOp12
 70
     1
102
RTVSPropertyOp13
 70
     1
102
RTVSPropertyOp14
 70
     1
102
RTVSPropertyOp15
 70
     1
102
RTVSPropertyOp16
 70
     1
102
RTVSPropertyOp17
 70
     1
102
RTVSPropertyOp18
 70
     1
102
RTVSPropertyOp19
 70
     1
102
RTVSPropertyOp20
 70
     1
102
RTVSPropertyOp21
 70
     1
102
RTVSPropertyOp22
 70
     1
102
RTVSPropertyOp23
 70
     1
102
RTVSPropertyOp24
 70
     1
102
RTVSPropertyOp25
 70
     1
102
RTVSPropertyOp26
 70
     1
102
RTVSPropertyOp27
 70
     1
102
RTVSPropertyOp28
 70
     1
102
RTVSPropertyOp29
 70
     1
102
RTVSPropertyOp30
 70
     1
102
RTVSPropertyOp31
 70
     1
102
RTVSPropertyOp32
 70
     1
  0
XRECORD
  5
769
102
{ACAD_REACTORS
330
768
102
}
330
768
100
AcDbXrecord
280
     1
102
RTVSPropertyOp0
 70
     1
102
RTVSPropertyOp1
 70
     1
102
RTVSPropertyOp2
 70
     1
102
RTVSPropertyOp3
 70
     1
102
RTVSPropertyOp4
 70
     1
102
RTVSPropertyOp5
 70
     1
102
RTVSPropertyOp6
 70
     1
102
RTVSPropertyOp7
 70
     1
102
RTVSPropertyOp8
 70
     1
102
RTVSPropertyOp9
 70
     1
102
RTVSPropertyOp10
 70
     1
102
RTVSPropertyOp11
 70
     1
102
RTVSPropertyOp12
 70
     1
102
RTVSPropertyOp13
 70
     1
102
RTVSPropertyOp14
 70
     1
102
RTVSPropertyOp15
 70
     1
102
RTVSPropertyOp16
 70
     1
102
RTVSPropertyOp17
 70
     1
102
RTVSPropertyOp18
 70
     1
102
RTVSPropertyOp19
 70
     1
102
RTVSPropertyOp20
 70
     1
102
RTVSPropertyOp21
 70
     1
102
RTVSPropertyOp22
 70
     1
102
RTVSPropertyOp23
 70
     1
102
RTVSPropertyOp24
 70
     1
102
RTVSPropertyOp25
 70
     1
102
RTVSPropertyOp26
 70
     1
102
RTVSPropertyOp27
 70
     1
102
RTVSPropertyOp28
 70
     1
102
RTVSPropertyOp29
 70
     1
102
RTVSPropertyOp30
 70
     1
102
RTVSPropertyOp31
 70
     1
102
RTVSPropertyOp32
 70
     1
  0
XRECORD
  5
76D
102
{ACAD_REACTORS
330
76C
102
}
330
76C
100
AcDbXrecord
280
     1
102
RTVSPropertyOp0
 70
     1
102
RTVSPropertyOp1
 70
     1
102
RTVSPropertyOp2
 70
     1
102
RTVSPropertyOp3
 70
     1
102
RTVSPropertyOp4
 70
     1
102
RTVSPropertyOp5
 70
     1
102
RTVSPropertyOp6
 70
     1
102
RTVSPropertyOp7
 70
     1
102
RTVSPropertyOp8
 70
     1
102
RTVSPropertyOp9
 70
     1
102
RTVSPropertyOp10
 70
     1
102
RTVSPropertyOp11
 70
     1
102
RTVSPropertyOp12
 70
     1
102
RTVSPropertyOp13
 70
     1
102
RTVSPropertyOp14
 70
     1
102
RTVSPropertyOp15
 70
     1
102
RTVSPropertyOp16
 70
     1
102
RTVSPropertyOp17
 70
     1
102
RTVSPropertyOp18
 70
     1
102
RTVSPropertyOp19
 70
     1
102
RTVSPropertyOp20
 70
     1
102
RTVSPropertyOp21
 70
     1
102
RTVSPropertyOp22
 70
     1
102
RTVSPropertyOp23
 70
     1
102
RTVSPropertyOp24
 70
     1
102
RTVSPropertyOp25
 70
     1
102
RTVSPropertyOp26
 70
     1
102
RTVSPropertyOp27
 70
     1
102
RTVSPropertyOp28
 70
     1
102
RTVSPropertyOp29
 70
     1
102
RTVSPropertyOp30
 70
     1
102
RTVSPropertyOp31
 70
     1
102
RTVSPropertyOp32
 70
     1
  0
XRECORD
  5
787
102
{ACAD_REACTORS
330
786
102
}
330
786
100
AcDbXrecord
280
     1
102
RTVSPropertyOp0
 70
     0
102
RTVSPropertyOp1
 70
     0
102
RTVSPropertyOp2
 70
     0
102
RTVSPropertyOp3
 70
     0
102
RTVSPropertyOp4
 70
     0
102
RTVSPropertyOp5
 70
     0
102
RTVSPropertyOp6
 70
     0
102
RTVSPropertyOp7
 70
     0
102
RTVSPropertyOp8
 70
     0
102
RTVSPropertyOp9
 70
     0
102
RTVSPropertyOp10
 70
     0
102
RTVSPropertyOp11
 70
     0
102
RTVSPropertyOp12
 70
     0
102
RTVSPropertyOp13
 70
     0
102
RTVSPropertyOp14
 70
     2
102
RTVSPropertyOp15
 70
     0
102
RTVSPropertyOp16
 70
     0
102
RTVSPropertyOp17
 70
     0
102
RTVSPropertyOp18
 70
     0
102
RTVSPropertyOp19
 70
     0
102
RTVSPropertyOp20
 70
     0
102
RTVSPropertyOp21
 70
     0
102
RTVSPropertyOp22
 70
     0
102
RTVSPropertyOp23
 70
     0
102
RTVSPropertyOp24
 70
     0
102
RTVSPropertyOp25
 70
     0
102
RTVSPropertyOp26
 70
     0
102
RTVSPropertyOp27
 70
     0
102
RTVSPropertyOp28
 70
     0
102
RTVSPropertyOp29
 70
     0
102
RTVSPropertyOp30
 70
     0
102
RTVSPropertyOp31
 70
     0
102
RTVSPropertyOp32
 70
     0
  0
XRECORD
  5
775
102
{ACAD_REACTORS
330
774
102
}
330
774
100
AcDbXrecord
280
     1
102
RTVSPropertyOp0
 70
     1
102
RTVSPropertyOp1
 70
     1
102
RTVSPropertyOp2
 70
     1
102
RTVSPropertyOp3
 70
     1
102
RTVSPropertyOp4
 70
     1
102
RTVSPropertyOp5
 70
     1
102
RTVSPropertyOp6
 70
     1
102
RTVSPropertyOp7
 70
     1
102
RTVSPropertyOp8
 70
     1
102
RTVSPropertyOp9
 70
     1
102
RTVSPropertyOp10
 70
     1
102
RTVSPropertyOp11
 70
     1
102
RTVSPropertyOp12
 70
     1
102
RTVSPropertyOp13
 70
     1
102
RTVSPropertyOp14
 70
     1
102
RTVSPropertyOp15
 70
     1
102
RTVSPropertyOp16
 70
     1
102
RTVSPropertyOp17
 70
     1
102
RTVSPropertyOp18
 70
     1
102
RTVSPropertyOp19
 70
     1
102
RTVSPropertyOp20
 70
     1
102
RTVSPropertyOp21
 70
     1
102
RTVSPropertyOp22
 70
     1
102
RTVSPropertyOp23
 70
     1
102
RTVSPropertyOp24
 70
     1
102
RTVSPropertyOp25
 70
     1
102
RTVSPropertyOp26
 70
     1
102
RTVSPropertyOp27
 70
     1
102
RTVSPropertyOp28
 70
     1
102
RTVSPropertyOp29
 70
     1
102
RTVSPropertyOp30
 70
     1
102
RTVSPropertyOp31
 70
     1
102
RTVSPropertyOp32
 70
     1
  0
XRECORD
  5
759
102
{ACAD_REACTORS
330
758
102
}
330
758
100
AcDbXrecord
280
     1
102
RTVSPropertyOp0
 70
     1
102
RTVSPropertyOp1
 70
     1
102
RTVSPropertyOp2
 70
     1
102
RTVSPropertyOp3
 70
     1
102
RTVSPropertyOp4
 70
     1
102
RTVSPropertyOp5
 70
     1
102
RTVSPropertyOp6
 70
     1
102
RTVSPropertyOp7
 70
     1
102
RTVSPropertyOp8
 70
     1
102
RTVSPropertyOp9
 70
     1
102
RTVSPropertyOp10
 70
     1
102
RTVSPropertyOp11
 70
     1
102
RTVSPropertyOp12
 70
     1
102
RTVSPropertyOp13
 70
     1
102
RTVSPropertyOp14
 70
     1
102
RTVSPropertyOp15
 70
     1
102
RTVSPropertyOp16
 70
     1
102
RTVSPropertyOp17
 70
     1
102
RTVSPropertyOp18
 70
     1
102
RTVSPropertyOp19
 70
     1
102
RTVSPropertyOp20
 70
     1
102
RTVSPropertyOp21
 70
     1
102
RTVSPropertyOp22
 70
     1
102
RTVSPropertyOp23
 70
     1
102
RTVSPropertyOp24
 70
     1
102
RTVSPropertyOp25
 70
     1
102
RTVSPropertyOp26
 70
     1
102
RTVSPropertyOp27
 70
     1
102
RTVSPropertyOp28
 70
     1
102
RTVSPropertyOp29
 70
     1
102
RTVSPropertyOp30
 70
     1
102
RTVSPropertyOp31
 70
     1
102
RTVSPropertyOp32
 70
     1
  0
XRECORD
  5
75B
102
{ACAD_REACTORS
330
75A
102
}
330
75A
100
AcDbXrecord
280
     1
102
RTVSPropertyOp0
 70
     1
102
RTVSPropertyOp1
 70
     1
102
RTVSPropertyOp2
 70
     1
102
RTVSPropertyOp3
 70
     1
102
RTVSPropertyOp4
 70
     1
102
RTVSPropertyOp5
 70
     1
102
RTVSPropertyOp6
 70
     1
102
RTVSPropertyOp7
 70
     1
102
RTVSPropertyOp8
 70
     1
102
RTVSPropertyOp9
 70
     1
102
RTVSPropertyOp10
 70
     1
102
RTVSPropertyOp11
 70
     1
102
RTVSPropertyOp12
 70
     1
102
RTVSPropertyOp13
 70
     1
102
RTVSPropertyOp14
 70
     1
102
RTVSPropertyOp15
 70
     1
102
RTVSPropertyOp16
 70
     1
102
RTVSPropertyOp17
 70
     1
102
RTVSPropertyOp18
 70
     1
102
RTVSPropertyOp19
 70
     1
102
RTVSPropertyOp20
 70
     1
102
RTVSPropertyOp21
 70
     1
102
RTVSPropertyOp22
 70
     1
102
RTVSPropertyOp23
 70
     1
102
RTVSPropertyOp24
 70
     1
102
RTVSPropertyOp25
 70
     1
102
RTVSPropertyOp26
 70
     1
102
RTVSPropertyOp27
 70
     1
102
RTVSPropertyOp28
 70
     1
102
RTVSPropertyOp29
 70
     1
102
RTVSPropertyOp30
 70
     1
102
RTVSPropertyOp31
 70
     1
102
RTVSPropertyOp32
 70
     1
  0
XRECORD
  5
75D
102
{ACAD_REACTORS
330
75C
102
}
330
75C
100
AcDbXrecord
280
     1
102
RTVSPropertyOp0
 70
     1
102
RTVSPropertyOp1
 70
     1
102
RTVSPropertyOp2
 70
     1
102
RTVSPropertyOp3
 70
     1
102
RTVSPropertyOp4
 70
     1
102
RTVSPropertyOp5
 70
     1
102
RTVSPropertyOp6
 70
     1
102
RTVSPropertyOp7
 70
     1
102
RTVSPropertyOp8
 70
     1
102
RTVSPropertyOp9
 70
     1
102
RTVSPropertyOp10
 70
     1
102
RTVSPropertyOp11
 70
     1
102
RTVSPropertyOp12
 70
     1
102
RTVSPropertyOp13
 70
     1
102
RTVSPropertyOp14
 70
     1
102
RTVSPropertyOp15
 70
     1
102
RTVSPropertyOp16
 70
     1
102
RTVSPropertyOp17
 70
     1
102
RTVSPropertyOp18
 70
     1
102
RTVSPropertyOp19
 70
     1
102
RTVSPropertyOp20
 70
     1
102
RTVSPropertyOp21
 70
     1
102
RTVSPropertyOp22
 70
     1
102
RTVSPropertyOp23
 70
     1
102
RTVSPropertyOp24
 70
     1
102
RTVSPropertyOp25
 70
     1
102
RTVSPropertyOp26
 70
     1
102
RTVSPropertyOp27
 70
     1
102
RTVSPropertyOp28
 70
     1
102
RTVSPropertyOp29
 70
     1
102
RTVSPropertyOp30
 70
     1
102
RTVSPropertyOp31
 70
     1
102
RTVSPropertyOp32
 70
     1
  0
XRECORD
  5
75F
102
{ACAD_REACTORS
330
75E
102
}
330
75E
100
AcDbXrecord
280
     1
102
RTVSPropertyOp0
 70
     1
102
RTVSPropertyOp1
 70
     1
102
RTVSPropertyOp2
 70
     1
102
RTVSPropertyOp3
 70
     1
102
RTVSPropertyOp4
 70
     1
102
RTVSPropertyOp5
 70
     1
102
RTVSPropertyOp6
 70
     1
102
RTVSPropertyOp7
 70
     1
102
RTVSPropertyOp8
 70
     1
102
RTVSPropertyOp9
 70
     1
102
RTVSPropertyOp10
 70
     1
102
RTVSPropertyOp11
 70
     1
102
RTVSPropertyOp12
 70
     1
102
RTVSPropertyOp13
 70
     1
102
RTVSPropertyOp14
 70
     1
102
RTVSPropertyOp15
 70
     1
102
RTVSPropertyOp16
 70
     1
102
RTVSPropertyOp17
 70
     1
102
RTVSPropertyOp18
 70
     1
102
RTVSPropertyOp19
 70
     1
102
RTVSPropertyOp20
 70
     1
102
RTVSPropertyOp21
 70
     1
102
RTVSPropertyOp22
 70
     1
102
RTVSPropertyOp23
 70
     1
102
RTVSPropertyOp24
 70
     1
102
RTVSPropertyOp25
 70
     1
102
RTVSPropertyOp26
 70
     1
102
RTVSPropertyOp27
 70
     1
102
RTVSPropertyOp28
 70
     1
102
RTVSPropertyOp29
 70
     1
102
RTVSPropertyOp30
 70
     1
102
RTVSPropertyOp31
 70
     1
102
RTVSPropertyOp32
 70
     1
  0
XRECORD
  5
767
102
{ACAD_REACTORS
330
766
102
}
330
766
100
AcDbXrecord
280
     1
102
RTVSPropertyOp0
 70
     1
102
RTVSPropertyOp1
 70
     1
102
RTVSPropertyOp2
 70
     1
102
RTVSPropertyOp3
 70
     1
102
RTVSPropertyOp4
 70
     1
102
RTVSPropertyOp5
 70
     1
102
RTVSPropertyOp6
 70
     1
102
RTVSPropertyOp7
 70
     1
102
RTVSPropertyOp8
 70
     1
102
RTVSPropertyOp9
 70
     1
102
RTVSPropertyOp10
 70
     1
102
RTVSPropertyOp11
 70
     1
102
RTVSPropertyOp12
 70
     1
102
RTVSPropertyOp13
 70
     1
102
RTVSPropertyOp14
 70
     1
102
RTVSPropertyOp15
 70
     1
102
RTVSPropertyOp16
 70
     1
102
RTVSPropertyOp17
 70
     1
102
RTVSPropertyOp18
 70
     1
102
RTVSPropertyOp19
 70
     1
102
RTVSPropertyOp20
 70
     1
102
RTVSPropertyOp21
 70
     1
102
RTVSPropertyOp22
 70
     1
102
RTVSPropertyOp23
 70
     1
102
RTVSPropertyOp24
 70
     1
102
RTVSPropertyOp25
 70
     1
102
RTVSPropertyOp26
 70
     1
102
RTVSPropertyOp27
 70
     1
102
RTVSPropertyOp28
 70
     1
102
RTVSPropertyOp29
 70
     1
102
RTVSPropertyOp30
 70
     1
102
RTVSPropertyOp31
 70
     1
102
RTVSPropertyOp32
 70
     1
  0
XRECORD
  5
783
102
{ACAD_REACTORS
330
782
102
}
330
782
100
AcDbXrecord
280
     1
102
RTVSPropertyOp0
 70
     0
102
RTVSPropertyOp1
 70
     0
102
RTVSPropertyOp2
 70
     0
102
RTVSPropertyOp3
 70
     0
102
RTVSPropertyOp4
 70
     0
102
RTVSPropertyOp5
 70
     0
102
RTVSPropertyOp6
 70
     0
102
RTVSPropertyOp7
 70
     0
102
RTVSPropertyOp8
 70
     0
102
RTVSPropertyOp9
 70
     0
102
RTVSPropertyOp10
 70
     0
102
RTVSPropertyOp11
 70
     0
102
RTVSPropertyOp12
 70
     0
102
RTVSPropertyOp13
 70
     0
102
RTVSPropertyOp14
 70
     2
102
RTVSPropertyOp15
 70
     0
102
RTVSPropertyOp16
 70
     0
102
RTVSPropertyOp17
 70
     0
102
RTVSPropertyOp18
 70
     0
102
RTVSPropertyOp19
 70
     0
102
RTVSPropertyOp20
 70
     0
102
RTVSPropertyOp21
 70
     0
102
RTVSPropertyOp22
 70
     0
102
RTVSPropertyOp23
 70
     0
102
RTVSPropertyOp24
 70
     0
102
RTVSPropertyOp25
 70
     0
102
RTVSPropertyOp26
 70
     0
102
RTVSPropertyOp27
 70
     0
102
RTVSPropertyOp28
 70
     0
102
RTVSPropertyOp29
 70
     0
102
RTVSPropertyOp30
 70
     0
102
RTVSPropertyOp31
 70
     0
102
RTVSPropertyOp32
 70
     0
  0
XRECORD
  5
773
102
{ACAD_REACTORS
330
772
102
}
330
772
100
AcDbXrecord
280
     1
102
RTVSPropertyOp0
 70
     1
102
RTVSPropertyOp1
 70
     1
102
RTVSPropertyOp2
 70
     1
102
RTVSPropertyOp3
 70
     1
102
RTVSPropertyOp4
 70
     1
102
RTVSPropertyOp5
 70
     1
102
RTVSPropertyOp6
 70
     1
102
RTVSPropertyOp7
 70
     1
102
RTVSPropertyOp8
 70
     1
102
RTVSPropertyOp9
 70
     1
102
RTVSPropertyOp10
 70
     1
102
RTVSPropertyOp11
 70
     1
102
RTVSPropertyOp12
 70
     1
102
RTVSPropertyOp13
 70
     1
102
RTVSPropertyOp14
 70
     1
102
RTVSPropertyOp15
 70
     1
102
RTVSPropertyOp16
 70
     1
102
RTVSPropertyOp17
 70
     1
102
RTVSPropertyOp18
 70
     1
102
RTVSPropertyOp19
 70
     1
102
RTVSPropertyOp20
 70
     1
102
RTVSPropertyOp21
 70
     1
102
RTVSPropertyOp22
 70
     1
102
RTVSPropertyOp23
 70
     1
102
RTVSPropertyOp24
 70
     1
102
RTVSPropertyOp25
 70
     1
102
RTVSPropertyOp26
 70
     1
102
RTVSPropertyOp27
 70
     1
102
RTVSPropertyOp28
 70
     1
102
RTVSPropertyOp29
 70
     1
102
RTVSPropertyOp30
 70
     1
102
RTVSPropertyOp31
 70
     1
102
RTVSPropertyOp32
 70
     1
  0
XRECORD
  5
785
102
{ACAD_REACTORS
330
784
102
}
330
784
100
AcDbXrecord
280
     1
102
RTVSPropertyOp0
 70
     0
102
RTVSPropertyOp1
 70
     0
102
RTVSPropertyOp2
 70
     0
102
RTVSPropertyOp3
 70
     0
102
RTVSPropertyOp4
 70
     0
102
RTVSPropertyOp5
 70
     0
102
RTVSPropertyOp6
 70
     0
102
RTVSPropertyOp7
 70
     0
102
RTVSPropertyOp8
 70
     0
102
RTVSPropertyOp9
 70
     0
102
RTVSPropertyOp10
 70
     0
102
RTVSPropertyOp11
 70
     0
102
RTVSPropertyOp12
 70
     0
102
RTVSPropertyOp13
 70
     0
102
RTVSPropertyOp14
 70
     2
102
RTVSPropertyOp15
 70
     0
102
RTVSPropertyOp16
 70
     0
102
RTVSPropertyOp17
 70
     0
102
RTVSPropertyOp18
 70
     0
102
RTVSPropertyOp19
 70
     0
102
RTVSPropertyOp20
 70
     0
102
RTVSPropertyOp21
 70
     0
102
RTVSPropertyOp22
 70
     0
102
RTVSPropertyOp23
 70
     0
102
RTVSPropertyOp24
 70
     0
102
RTVSPropertyOp25
 70
     0
102
RTVSPropertyOp26
 70
     0
102
RTVSPropertyOp27
 70
     0
102
RTVSPropertyOp28
 70
     0
102
RTVSPropertyOp29
 70
     0
102
RTVSPropertyOp30
 70
     0
102
RTVSPropertyOp31
 70
     0
102
RTVSPropertyOp32
 70
     0
  0
XRECORD
  5
76B
102
{ACAD_REACTORS
330
76A
102
}
330
76A
100
AcDbXrecord
280
     1
102
RTVSPropertyOp0
 70
     1
102
RTVSPropertyOp1
 70
     1
102
RTVSPropertyOp2
 70
     1
102
RTVSPropertyOp3
 70
     1
102
RTVSPropertyOp4
 70
     1
102
RTVSPropertyOp5
 70
     1
102
RTVSPropertyOp6
 70
     1
102
RTVSPropertyOp7
 70
     1
102
RTVSPropertyOp8
 70
     1
102
RTVSPropertyOp9
 70
     1
102
RTVSPropertyOp10
 70
     1
102
RTVSPropertyOp11
 70
     1
102
RTVSPropertyOp12
 70
     1
102
RTVSPropertyOp13
 70
     1
102
RTVSPropertyOp14
 70
     1
102
RTVSPropertyOp15
 70
     1
102
RTVSPropertyOp16
 70
     1
102
RTVSPropertyOp17
 70
     1
102
RTVSPropertyOp18
 70
     1
102
RTVSPropertyOp19
 70
     1
102
RTVSPropertyOp20
 70
     1
102
RTVSPropertyOp21
 70
     1
102
RTVSPropertyOp22
 70
     1
102
RTVSPropertyOp23
 70
     1
102
RTVSPropertyOp24
 70
     1
102
RTVSPropertyOp25
 70
     1
102
RTVSPropertyOp26
 70
     1
102
RTVSPropertyOp27
 70
     1
102
RTVSPropertyOp28
 70
     1
102
RTVSPropertyOp29
 70
     1
102
RTVSPropertyOp30
 70
     1
102
RTVSPropertyOp31
 70
     1
102
RTVSPropertyOp32
 70
     1
  0
XRECORD
  5
781
102
{ACAD_REACTORS
330
780
102
}
330
780
100
AcDbXrecord
280
     1
102
RTVSPropertyOp0
 70
     1
102
RTVSPropertyOp1
 70
     1
102
RTVSPropertyOp2
 70
     1
102
RTVSPropertyOp3
 70
     1
102
RTVSPropertyOp4
 70
     1
102
RTVSPropertyOp5
 70
     1
102
RTVSPropertyOp6
 70
     1
102
RTVSPropertyOp7
 70
     1
102
RTVSPropertyOp8
 70
     1
102
RTVSPropertyOp9
 70
     1
102
RTVSPropertyOp10
 70
     1
102
RTVSPropertyOp11
 70
     1
102
RTVSPropertyOp12
 70
     1
102
RTVSPropertyOp13
 70
     1
102
RTVSPropertyOp14
 70
     1
102
RTVSPropertyOp15
 70
     1
102
RTVSPropertyOp16
 70
     1
102
RTVSPropertyOp17
 70
     1
102
RTVSPropertyOp18
 70
     1
102
RTVSPropertyOp19
 70
     1
102
RTVSPropertyOp20
 70
     1
102
RTVSPropertyOp21
 70
     1
102
RTVSPropertyOp22
 70
     1
102
RTVSPropertyOp23
 70
     1
102
RTVSPropertyOp24
 70
     1
102
RTVSPropertyOp25
 70
     1
102
RTVSPropertyOp26
 70
     1
102
RTVSPropertyOp27
 70
     1
102
RTVSPropertyOp28
 70
     1
102
RTVSPropertyOp29
 70
     1
102
RTVSPropertyOp30
 70
     1
102
RTVSPropertyOp31
 70
     1
102
RTVSPropertyOp32
 70
     1
  0
XRECORD
  5
77F
102
{ACAD_REACTORS
330
77E
102
}
330
77E
100
AcDbXrecord
280
     1
102
RTVSPropertyOp0
 70
     1
102
RTVSPropertyOp1
 70
     1
102
RTVSPropertyOp2
 70
     1
102
RTVSPropertyOp3
 70
     1
102
RTVSPropertyOp4
 70
     1
102
RTVSPropertyOp5
 70
     1
102
RTVSPropertyOp6
 70
     1
102
RTVSPropertyOp7
 70
     1
102
RTVSPropertyOp8
 70
     1
102
RTVSPropertyOp9
 70
     1
102
RTVSPropertyOp10
 70
     1
102
RTVSPropertyOp11
 70
     1
102
RTVSPropertyOp12
 70
     1
102
RTVSPropertyOp13
 70
     1
102
RTVSPropertyOp14
 70
     1
102
RTVSPropertyOp15
 70
     1
102
RTVSPropertyOp16
 70
     1
102
RTVSPropertyOp17
 70
     1
102
RTVSPropertyOp18
 70
     1
102
RTVSPropertyOp19
 70
     1
102
RTVSPropertyOp20
 70
     1
102
RTVSPropertyOp21
 70
     1
102
RTVSPropertyOp22
 70
     1
102
RTVSPropertyOp23
 70
     1
102
RTVSPropertyOp24
 70
     1
102
RTVSPropertyOp25
 70
     1
102
RTVSPropertyOp26
 70
     1
102
RTVSPropertyOp27
 70
     1
102
RTVSPropertyOp28
 70
     1
102
RTVSPropertyOp29
 70
     1
102
RTVSPropertyOp30
 70
     1
102
RTVSPropertyOp31
 70
     1
102
RTVSPropertyOp32
 70
     1
  0
XRECORD
  5
779
102
{ACAD_REACTORS
330
778
102
}
330
778
100
AcDbXrecord
280
     1
102
RTVSPropertyOp0
 70
     1
102
RTVSPropertyOp1
 70
     1
102
RTVSPropertyOp2
 70
     1
102
RTVSPropertyOp3
 70
     1
102
RTVSPropertyOp4
 70
     1
102
RTVSPropertyOp5
 70
     1
102
RTVSPropertyOp6
 70
     1
102
RTVSPropertyOp7
 70
     1
102
RTVSPropertyOp8
 70
     1
102
RTVSPropertyOp9
 70
     1
102
RTVSPropertyOp10
 70
     1
102
RTVSPropertyOp11
 70
     1
102
RTVSPropertyOp12
 70
     1
102
RTVSPropertyOp13
 70
     1
102
RTVSPropertyOp14
 70
     1
102
RTVSPropertyOp15
 70
     1
102
RTVSPropertyOp16
 70
     1
102
RTVSPropertyOp17
 70
     1
102
RTVSPropertyOp18
 70
     1
102
RTVSPropertyOp19
 70
     1
102
RTVSPropertyOp20
 70
     1
102
RTVSPropertyOp21
 70
     1
102
RTVSPropertyOp22
 70
     1
102
RTVSPropertyOp23
 70
     1
102
RTVSPropertyOp24
 70
     1
102
RTVSPropertyOp25
 70
     1
102
RTVSPropertyOp26
 70
     1
102
RTVSPropertyOp27
 70
     1
102
RTVSPropertyOp28
 70
     1
102
RTVSPropertyOp29
 70
     1
102
RTVSPropertyOp30
 70
     1
102
RTVSPropertyOp31
 70
     1
102
RTVSPropertyOp32
 70
     1
  0
XRECORD
  5
77B
102
{ACAD_REACTORS
330
77A
102
}
330
77A
100
AcDbXrecord
280
     1
102
RTVSPropertyOp0
 70
     1
102
RTVSPropertyOp1
 70
     1
102
RTVSPropertyOp2
 70
     1
102
RTVSPropertyOp3
 70
     1
102
RTVSPropertyOp4
 70
     1
102
RTVSPropertyOp5
 70
     1
102
RTVSPropertyOp6
 70
     1
102
RTVSPropertyOp7
 70
     1
102
RTVSPropertyOp8
 70
     1
102
RTVSPropertyOp9
 70
     1
102
RTVSPropertyOp10
 70
     1
102
RTVSPropertyOp11
 70
     1
102
RTVSPropertyOp12
 70
     1
102
RTVSPropertyOp13
 70
     1
102
RTVSPropertyOp14
 70
     1
102
RTVSPropertyOp15
 70
     1
102
RTVSPropertyOp16
 70
     1
102
RTVSPropertyOp17
 70
     1
102
RTVSPropertyOp18
 70
     1
102
RTVSPropertyOp19
 70
     1
102
RTVSPropertyOp20
 70
     1
102
RTVSPropertyOp21
 70
     1
102
RTVSPropertyOp22
 70
     1
102
RTVSPropertyOp23
 70
     1
102
RTVSPropertyOp24
 70
     1
102
RTVSPropertyOp25
 70
     1
102
RTVSPropertyOp26
 70
     1
102
RTVSPropertyOp27
 70
     1
102
RTVSPropertyOp28
 70
     1
102
RTVSPropertyOp29
 70
     1
102
RTVSPropertyOp30
 70
     1
102
RTVSPropertyOp31
 70
     1
102
RTVSPropertyOp32
 70
     1
  0
XRECORD
  5
771
102
{ACAD_REACTORS
330
770
102
}
330
770
100
AcDbXrecord
280
     1
102
RTVSPropertyOp0
 70
     1
102
RTVSPropertyOp1
 70
     1
102
RTVSPropertyOp2
 70
     1
102
RTVSPropertyOp3
 70
     1
102
RTVSPropertyOp4
 70
     1
102
RTVSPropertyOp5
 70
     1
102
RTVSPropertyOp6
 70
     1
102
RTVSPropertyOp7
 70
     1
102
RTVSPropertyOp8
 70
     1
102
RTVSPropertyOp9
 70
     1
102
RTVSPropertyOp10
 70
     1
102
RTVSPropertyOp11
 70
     1
102
RTVSPropertyOp12
 70
     1
102
RTVSPropertyOp13
 70
     1
102
RTVSPropertyOp14
 70
     1
102
RTVSPropertyOp15
 70
     1
102
RTVSPropertyOp16
 70
     1
102
RTVSPropertyOp17
 70
     1
102
RTVSPropertyOp18
 70
     1
102
RTVSPropertyOp19
 70
     1
102
RTVSPropertyOp20
 70
     1
102
RTVSPropertyOp21
 70
     1
102
RTVSPropertyOp22
 70
     1
102
RTVSPropertyOp23
 70
     1
102
RTVSPropertyOp24
 70
     1
102
RTVSPropertyOp25
 70
     1
102
RTVSPropertyOp26
 70
     1
102
RTVSPropertyOp27
 70
     1
102
RTVSPropertyOp28
 70
     1
102
RTVSPropertyOp29
 70
     1
102
RTVSPropertyOp30
 70
     1
102
RTVSPropertyOp31
 70
     1
102
RTVSPropertyOp32
 70
     1
  0
XRECORD
  5
765
102
{ACAD_REACTORS
330
764
102
}
330
764
100
AcDbXrecord
280
     1
102
RTVSPropertyOp0
 70
     1
102
RTVSPropertyOp1
 70
     1
102
RTVSPropertyOp2
 70
     1
102
RTVSPropertyOp3
 70
     1
102
RTVSPropertyOp4
 70
     1
102
RTVSPropertyOp5
 70
     1
102
RTVSPropertyOp6
 70
     1
102
RTVSPropertyOp7
 70
     1
102
RTVSPropertyOp8
 70
     1
102
RTVSPropertyOp9
 70
     1
102
RTVSPropertyOp10
 70
     1
102
RTVSPropertyOp11
 70
     1
102
RTVSPropertyOp12
 70
     1
102
RTVSPropertyOp13
 70
     1
102
RTVSPropertyOp14
 70
     1
102
RTVSPropertyOp15
 70
     1
102
RTVSPropertyOp16
 70
     1
102
RTVSPropertyOp17
 70
     1
102
RTVSPropertyOp18
 70
     1
102
RTVSPropertyOp19
 70
     1
102
RTVSPropertyOp20
 70
     1
102
RTVSPropertyOp21
 70
     1
102
RTVSPropertyOp22
 70
     1
102
RTVSPropertyOp23
 70
     1
102
RTVSPropertyOp24
 70
     1
102
RTVSPropertyOp25
 70
     1
102
RTVSPropertyOp26
 70
     1
102
RTVSPropertyOp27
 70
     1
102
RTVSPropertyOp28
 70
     1
102
RTVSPropertyOp29
 70
     1
102
RTVSPropertyOp30
 70
     1
102
RTVSPropertyOp31
 70
     1
102
RTVSPropertyOp32
 70
     1
  0
XRECORD
  5
77D
102
{ACAD_REACTORS
330
77C
102
}
330
77C
100
AcDbXrecord
280
     1
102
RTVSPropertyOp0
 70
     1
102
RTVSPropertyOp1
 70
     1
102
RTVSPropertyOp2
 70
     1
102
RTVSPropertyOp3
 70
     1
102
RTVSPropertyOp4
 70
     1
102
RTVSPropertyOp5
 70
     1
102
RTVSPropertyOp6
 70
     1
102
RTVSPropertyOp7
 70
     1
102
RTVSPropertyOp8
 70
     1
102
RTVSPropertyOp9
 70
     1
102
RTVSPropertyOp10
 70
     1
102
RTVSPropertyOp11
 70
     1
102
RTVSPropertyOp12
 70
     1
102
RTVSPropertyOp13
 70
     1
102
RTVSPropertyOp14
 70
     1
102
RTVSPropertyOp15
 70
     1
102
RTVSPropertyOp16
 70
     1
102
RTVSPropertyOp17
 70
     1
102
RTVSPropertyOp18
 70
     1
102
RTVSPropertyOp19
 70
     1
102
RTVSPropertyOp20
 70
     1
102
RTVSPropertyOp21
 70
     1
102
RTVSPropertyOp22
 70
     1
102
RTVSPropertyOp23
 70
     1
102
RTVSPropertyOp24
 70
     1
102
RTVSPropertyOp25
 70
     1
102
RTVSPropertyOp26
 70
     1
102
RTVSPropertyOp27
 70
     1
102
RTVSPropertyOp28
 70
     1
102
RTVSPropertyOp29
 70
     1
102
RTVSPropertyOp30
 70
     1
102
RTVSPropertyOp31
 70
     1
102
RTVSPropertyOp32
 70
     1
  0
ENDSEC
  0
EOF
