  0
SECTION
  2
HEADER
  9
$ACADVER
  1
AC1015
  9
$ACADMAINTVER
 70
    20
  9
$DWGCODEPAGE
  3
ANSI_932
  9
$INSBASE
 10
0.0
 20
0.0
 30
0.0
  9
$EXTMIN
 10
8814.5605127691
 20
2803.262497488998
 30
0.0
  9
$EXTMAX
 10
9218.281769542921
 20
3080.510690411288
 30
0.0
  9
$LIMMIN
 10
0.0
 20
0.0
  9
$LIMMAX
 10
12.0
 20
9.0
  9
$ORTHOMODE
 70
     0
  9
$REGENMODE
 70
     1
  9
$FILLMODE
 70
     1
  9
$QTEXTMODE
 70
     0
  9
$MIRRTEXT
 70
     1
  9
$LTSCALE
 40
1.0
  9
$ATTMODE
 70
     1
  9
$TEXTSIZE
 40
0.2
  9
$TRACEWID
 40
0.05
  9
$TEXTSTYLE
  7
Standard
  9
$CLAYER
  8
0
  9
$CELTYPE
  6
ByLayer
  9
$CECOLOR
 62
   256
  9
$CELTSCALE
 40
1.0
  9
$DISPSILH
 70
     0
  9
$DIMSCALE
 40
1.0
  9
$DIMASZ
 40
0.18
  9
$DIMEXO
 40
0.0625
  9
$DIMDLI
 40
0.38
  9
$DIMRND
 40
0.0
  9
$DIMDLE
 40
0.0
  9
$DIMEXE
 40
0.18
  9
$DIMTP
 40
0.0
  9
$DIMTM
 40
0.0
  9
$DIMTXT
 40
0.18
  9
$DIMCEN
 40
0.09
  9
$DIMTSZ
 40
0.0
  9
$DIMTOL
 70
     0
  9
$DIMLIM
 70
     0
  9
$DIMTIH
 70
     1
  9
$DIMTOH
 70
     1
  9
$DIMSE1
 70
     0
  9
$DIMSE2
 70
     0
  9
$DIMTAD
 70
     0
  9
$DIMZIN
 70
     0
  9
$DIMBLK
  1

  9
$DIMASO
 70
     1
  9
$DIMSHO
 70
     1
  9
$DIMPOST
  1

  9
$DIMAPOST
  1

  9
$DIMALT
 70
     0
  9
$DIMALTD
 70
     2
  9
$DIMALTF
 40
25.4
  9
$DIMLFAC
 40
1.0
  9
$DIMTOFL
 70
     0
  9
$DIMTVP
 40
0.0
  9
$DIMTIX
 70
     0
  9
$DIMSOXD
 70
     0
  9
$DIMSAH
 70
     0
  9
$DIMBLK1
  1

  9
$DIMBLK2
  1

  9
$DIMSTYLE
  2
Standard
  9
$DIMCLRD
 70
     0
  9
$DIMCLRE
 70
     0
  9
$DIMCLRT
 70
     0
  9
$DIMTFAC
 40
1.0
  9
$DIMGAP
 40
0.09
  9
$DIMJUST
 70
     0
  9
$DIMSD1
 70
     0
  9
$DIMSD2
 70
     0
  9
$DIMTOLJ
 70
     1
  9
$DIMTZIN
 70
     0
  9
$DIMALTZ
 70
     0
  9
$DIMALTTZ
 70
     0
  9
$DIMUPT
 70
     0
  9
$DIMDEC
 70
     4
  9
$DIMTDEC
 70
     4
  9
$DIMALTU
 70
     2
  9
$DIMALTTD
 70
     2
  9
$DIMTXSTY
  7
Standard
  9
$DIMAUNIT
 70
     0
  9
$DIMADEC
 70
     0
  9
$DIMALTRND
 40
0.0
  9
$DIMAZIN
 70
     0
  9
$DIMDSEP
 70
    46
  9
$DIMATFIT
 70
     3
  9
$DIMFRAC
 70
     0
  9
$DIMLDRBLK
  1

  9
$DIMLUNIT
 70
     2
  9
$DIMLWD
 70
    -2
  9
$DIMLWE
 70
    -2
  9
$DIMTMOVE
 70
     0
  9
$LUNITS
 70
     2
  9
$LUPREC
 70
     4
  9
$SKETCHINC
 40
0.1
  9
$FILLETRAD
 40
0.5
  9
$AUNITS
 70
     0
  9
$AUPREC
 70
     0
  9
$MENU
  1
.
  9
$ELEVATION
 40
0.0
  9
$PELEVATION
 40
0.0
  9
$THICKNESS
 40
0.0
  9
$LIMCHECK
 70
     0
  9
$CHAMFERA
 40
0.5
  9
$CHAMFERB
 40
0.5
  9
$CHAMFERC
 40
1.0
  9
$CHAMFERD
 40
0.0
  9
$SKPOLY
 70
     0
  9
$TDCREATE
 40
2454488.743421655
  9
$TDUCREATE
 40
2454488.368421655
  9
$TDUPDATE
 40
2457592.556566771
  9
$TDUUPDATE
 40
2457592.181566770
  9
$TDINDWG
 40
0.0017721759
  9
$TDUSRTIMER
 40
0.0017705556
  9
$USRTIMER
 70
     1
  9
$ANGBASE
 50
0.0
  9
$ANGDIR
 70
     0
  9
$PDMODE
 70
     0
  9
$PDSIZE
 40
0.0
  9
$PLINEWID
 40
0.0
  9
$SPLFRAME
 70
     0
  9
$SPLINETYPE
 70
     6
  9
$SPLINESEGS
 70
     8
  9
$HANDSEED
  5
5A0
  9
$SURFTAB1
 70
     6
  9
$SURFTAB2
 70
     6
  9
$SURFTYPE
 70
     6
  9
$SURFU
 70
     6
  9
$SURFV
 70
     6
  9
$UCSBASE
  2

  9
$UCSNAME
  2

  9
$UCSORG
 10
0.0
 20
0.0
 30
0.0
  9
$UCSXDIR
 10
1.0
 20
0.0
 30
0.0
  9
$UCSYDIR
 10
0.0
 20
1.0
 30
0.0
  9
$UCSORTHOREF
  2

  9
$UCSORTHOVIEW
 70
     0
  9
$UCSORGTOP
 10
0.0
 20
0.0
 30
0.0
  9
$UCSORGBOTTOM
 10
0.0
 20
0.0
 30
0.0
  9
$UCSORGLEFT
 10
0.0
 20
0.0
 30
0.0
  9
$UCSORGRIGHT
 10
0.0
 20
0.0
 30
0.0
  9
$UCSORGFRONT
 10
0.0
 20
0.0
 30
0.0
  9
$UCSORGBACK
 10
0.0
 20
0.0
 30
0.0
  9
$PUCSBASE
  2

  9
$PUCSNAME
  2

  9
$PUCSORG
 10
0.0
 20
0.0
 30
0.0
  9
$PUCSXDIR
 10
1.0
 20
0.0
 30
0.0
  9
$PUCSYDIR
 10
0.0
 20
1.0
 30
0.0
  9
$PUCSORTHOREF
  2

  9
$PUCSORTHOVIEW
 70
     0
  9
$PUCSORGTOP
 10
0.0
 20
0.0
 30
0.0
  9
$PUCSORGBOTTOM
 10
0.0
 20
0.0
 30
0.0
  9
$PUCSORGLEFT
 10
0.0
 20
0.0
 30
0.0
  9
$PUCSORGRIGHT
 10
0.0
 20
0.0
 30
0.0
  9
$PUCSORGFRONT
 10
0.0
 20
0.0
 30
0.0
  9
$PUCSORGBACK
 10
0.0
 20
0.0
 30
0.0
  9
$USERI1
 70
     0
  9
$USERI2
 70
     0
  9
$USERI3
 70
     0
  9
$USERI4
 70
     0
  9
$USERI5
 70
     0
  9
$USERR1
 40
14.0
  9
$USERR2
 40
0.0
  9
$USERR3
 40
0.0
  9
$USERR4
 40
0.0
  9
$USERR5
 40
0.0
  9
$WORLDVIEW
 70
     1
  9
$SHADEDGE
 70
     3
  9
$SHADEDIF
 70
    70
  9
$TILEMODE
 70
     1
  9
$MAXACTVP
 70
    64
  9
$PINSBASE
 10
0.0
 20
0.0
 30
0.0
  9
$PLIMCHECK
 70
     0
  9
$PEXTMIN
 10
1.000000000000000E+20
 20
1.000000000000000E+20
 30
1.000000000000000E+20
  9
$PEXTMAX
 10
-1.000000000000000E+20
 20
-1.000000000000000E+20
 30
-1.000000000000000E+20
  9
$PLIMMIN
 10
0.0
 20
0.0
  9
$PLIMMAX
 10
12.0
 20
9.0
  9
$UNITMODE
 70
     0
  9
$VISRETAIN
 70
     1
  9
$PLINEGEN
 70
     0
  9
$PSLTSCALE
 70
     1
  9
$TREEDEPTH
 70
  3020
  9
$CMLSTYLE
  2
Standard
  9
$CMLJUST
 70
     0
  9
$CMLSCALE
 40
1.0
  9
$PROXYGRAPHICS
 70
     1
  9
$MEASUREMENT
 70
     1
  9
$CELWEIGHT
370
    -1
  9
$ENDCAPS
280
     0
  9
$JOINSTYLE
280
     0
  9
$LWDISPLAY
290
     0
  9
$INSUNITS
 70
     1
  9
$HYPERLINKBASE
  1

  9
$STYLESHEET
  1

  9
$XEDIT
290
     1
  9
$CEPSNTYPE
380
     0
  9
$PSTYLEMODE
290
     1
  9
$FINGERPRINTGUID
  2
{FEC0C1B6-1D98-47C2-857F-52962CB6FA34}
  9
$VERSIONGUID
  2
{4645969A-3121-4225-B90B-29DAC77986EA}
  9
$EXTNAMES
290
     1
  9
$PSVPSCALE
 40
0.0
  9
$OLESTARTUP
290
     0
  0
ENDSEC
  0
SECTION
  2
CLASSES
  0
CLASS
  1
ACDBDICTIONARYWDFLT
  2
AcDbDictionaryWithDefault
  3
ObjectDBX Classes
 90
        0
280
     0
281
     0
  0
CLASS
  1

  2
exOdDbCircle
  3

 90
    32768
280
     0
281
     1
  0
CLASS
  1
ACDBPLACEHOLDER
  2
AcDbPlaceHolder
  3
ObjectDBX Classes
 90
        0
280
     0
281
     0
  0
CLASS
  1
LAYOUT
  2
AcDbLayout
  3
ObjectDBX Classes
 90
        0
280
     0
281
     0
  0
CLASS
  1
MATERIAL
  2
AcDbMaterial
  3
ObjectDBX Classes
 90
     1153
280
     0
281
     0
  0
CLASS
  1
VISUALSTYLE
  2
AcDbVisualStyle
  3
ObjectDBX Classes
 90
     4095
280
     0
281
     0
  0
CLASS
  1
TABLESTYLE
  2
AcDbTableStyle
  3
ObjectDBX Classes
 90
     4095
280
     0
281
     0
  0
CLASS
  1
SCALE
  2
AcDbScale
  3
ObjectDBX Classes
 90
     1153
280
     0
281
     0
  0
CLASS
  1
MLEADERSTYLE
  2
AcDbMLeaderStyle
  3
ACDB_MLEADERSTYLE_CLASS
 90
     4095
280
     0
281
     0
  0
CLASS
  1
SORTENTSTABLE
  2
AcDbSortentsTable
  3
ObjectDBX Classes
 90
        0
280
     0
281
     0
  0
CLASS
  1
DICTIONARYVAR
  2
AcDbDictionaryVar
  3
ObjectDBX Classes
 90
        0
280
     0
281
     0
  0
CLASS
  1
CELLSTYLEMAP
  2
AcDbCellStyleMap
  3
ObjectDBX Classes
 90
     1152
280
     0
281
     0
  0
ENDSEC
  0
SECTION
  2
TABLES
  0
TABLE
  2
VPORT
  5
8
330
0
100
AcDbSymbolTable
 70
     1
  0
VPORT
  5
29
330
8
100
AcDbSymbolTableRecord
100
AcDbViewportTableRecord
  2
*Active
 70
     0
 10
0.0
 20
0.0
 11
1.0
 21
1.0
 12
8977.346291116601
 22
2971.548717643623
 13
0.0
 23
0.0
 14
0.5
 24
0.5
 15
0.5
 25
0.5
 16
0.0
 26
0.0
 36
1.0
 17
0.0
 27
0.0
 37
0.0
 40
147.9365624331215
 41
2.026347305389221
 42
50.0
 43
0.0
 44
0.0
 50
0.0
 51
0.0
 71
     0
 72
   100
 73
     1
 74
     3
 75
     0
 76
     0
 77
     0
 78
     0
281
     0
 65
     1
110
0.0
120
0.0
130
0.0
111
1.0
121
0.0
131
0.0
112
0.0
122
1.0
132
0.0
 79
     0
146
0.0
1001
ACAD_NAV_VCDISPLAY
1070
     3
  0
ENDTAB
  0
TABLE
  2
LTYPE
  5
5
330
0
100
AcDbSymbolTable
 70
     8
  0
LTYPE
  5
14
330
5
100
AcDbSymbolTableRecord
100
AcDbLinetypeTableRecord
  2
ByBlock
 70
     0
  3

 72
    65
 73
     0
 40
0.0
  0
LTYPE
  5
15
330
5
100
AcDbSymbolTableRecord
100
AcDbLinetypeTableRecord
  2
ByLayer
 70
     0
  3

 72
    65
 73
     0
 40
0.0
  0
LTYPE
  5
16
330
5
100
AcDbSymbolTableRecord
100
AcDbLinetypeTableRecord
  2
Continuous
 70
     0
  3
Solid line
 72
    65
 73
     0
 40
0.0
  0
LTYPE
  5
2A
330
5
100
AcDbSymbolTableRecord
100
AcDbLinetypeTableRecord
  2
DASHED
 70
     0
  3
Dashed
 72
    65
 73
     2
 40
15.0
 49
7.0
 74
     0
 49
-8.0
 74
     0
  0
LTYPE
  5
2B
330
5
100
AcDbSymbolTableRecord
100
AcDbLinetypeTableRecord
  2
DOTTED
 70
     0
  3
Dotted
 72
    65
 73
     2
 40
1.0
 49
0.0
 74
     0
 49
-1.0
 74
     0
  0
LTYPE
  5
2C
330
5
100
AcDbSymbolTableRecord
100
AcDbLinetypeTableRecord
  2
DOT_CENTER
 70
     0
  3
Dot_Center
 72
    65
 73
     4
 40
14.0
 49
12.0
 74
     0
 49
-1.0
 74
     0
 49
0.0
 74
     0
 49
-1.0
 74
     0
  0
LTYPE
  5
2D
330
5
100
AcDbSymbolTableRecord
100
AcDbLinetypeTableRecord
  2
LONG_DASHED
 70
     0
  3
Long_Dashed
 72
    65
 73
     2
 40
15.0
 49
10.0
 74
     0
 49
-5.0
 74
     0
  0
LTYPE
  5
2E
330
5
100
AcDbSymbolTableRecord
100
AcDbLinetypeTableRecord
  2
DASH_CENTER
 70
     0
  3
Dash_Center
 72
    65
 73
     4
 40
14.0
 49
11.0
 74
     0
 49
-1.0
 74
     0
 49
1.0
 74
     0
 49
-1.0
 74
     0
  0
LTYPE
  5
2F
330
5
100
AcDbSymbolTableRecord
100
AcDbLinetypeTableRecord
  2
PHANTOM
 70
     0
  3
Phantom
 72
    65
 73
     6
 40
13.0
 49
10.0
 74
     0
 49
-1.0
 74
     0
 49
0.0
 74
     0
 49
-1.0
 74
     0
 49
0.0
 74
     0
 49
-1.0
 74
     0
  0
LTYPE
  5
30
330
5
100
AcDbSymbolTableRecord
100
AcDbLinetypeTableRecord
  2
CENTER_DASH_DASH
 70
     0
  3
Center_Dash_Dash
 72
    65
 73
     6
 40
14.0
 49
9.0
 74
     0
 49
-1.0
 74
     0
 49
1.0
 74
     0
 49
-1.0
 74
     0
 49
1.0
 74
     0
 49
-1.0
 74
     0
  0
ENDTAB
  0
TABLE
  2
LAYER
  5
2
330
0
100
AcDbSymbolTable
 70
     2
  0
LAYER
  5
10
102
{ACAD_XDICTIONARY
360
550
102
}
330
2
100
AcDbSymbolTableRecord
100
AcDbLayerTableRecord
  2
0
 70
     0
 62
     7
  6
Continuous
370
    -3
390
F
  0
LAYER
  5
31
102
{ACAD_XDICTIONARY
360
552
102
}
330
2
100
AcDbSymbolTableRecord
100
AcDbLayerTableRecord
  2
1
 70
     0
 62
     7
  6
Continuous
370
    -3
390
F
  0
ENDTAB
  0
TABLE
  2
STYLE
  5
3
330
0
100
AcDbSymbolTable
 70
     9
  0
STYLE
  5
11
330
3
100
AcDbSymbolTableRecord
100
AcDbTextStyleTableRecord
  2
Standard
 70
     0
 40
0.0
 41
1.0
 50
0.0
 71
     0
 42
0.2
  3
txt
  4

  0
STYLE
  5
D7
330
3
100
AcDbSymbolTableRecord
100
AcDbTextStyleTableRecord
  2
CONVERTER_1
 70
     0
 40
0.0
 41
0.8810999999999999
 50
0.0
 71
     0
 42
0.2
  3
msmincho.ttc
  4

1001
ACAD
1000
MS Mincho
1071
    32785
  0
STYLE
  5
22B
330
3
100
AcDbSymbolTableRecord
100
AcDbTextStyleTableRecord
  2
CONVERTER_2
 70
     0
 40
0.0
 41
0.6167699999999999
 50
0.0
 71
     0
 42
0.2
  3
msmincho.ttc
  4

1001
ACAD
1000
MS Mincho
1071
    32785
  0
STYLE
  5
22D
330
3
100
AcDbSymbolTableRecord
100
AcDbTextStyleTableRecord
  2
CONVERTER_3
 70
     0
 40
0.0
 41
0.6230000000000001
 50
0.0
 71
     0
 42
0.2
  3
msmincho.ttc
  4

1001
ACAD
1000
MS Mincho
1071
    32785
  0
STYLE
  5
22F
330
3
100
AcDbSymbolTableRecord
100
AcDbTextStyleTableRecord
  2
CONVERTER_4
 70
     0
 40
0.0
 41
0.63
 50
0.0
 71
     0
 42
0.2
  3
txt.shx
  4

  0
STYLE
  5
242
330
3
100
AcDbSymbolTableRecord
100
AcDbTextStyleTableRecord
  2
CONVERTER_5
 70
     0
 40
0.0
 41
0.4895
 50
0.0
 71
     0
 42
0.2
  3
msmincho.ttc
  4

1001
ACAD
1000
MS Mincho
1071
    32785
  0
STYLE
  5
251
330
3
100
AcDbSymbolTableRecord
100
AcDbTextStyleTableRecord
  2
CONVERTER_6
 70
     0
 40
0.0
 41
0.6237
 50
0.0
 71
     0
 42
0.2
  3
txt.shx
  4

  0
STYLE
  5
2E1
330
3
100
AcDbSymbolTableRecord
100
AcDbTextStyleTableRecord
  2
CONVERTER_7
 70
     0
 40
0.0
 41
0.6978312
 50
0.0
 71
     0
 42
0.2
  3
msmincho.ttc
  4

1001
ACAD
1000
MS Mincho
1071
    32785
  0
STYLE
  5
305
330
3
100
AcDbSymbolTableRecord
100
AcDbTextStyleTableRecord
  2
CONVERTER_8
 70
     0
 40
0.0
 41
0.6650000000000001
 50
0.0
 71
     0
 42
0.2
  3
simplex.shx
  4

  0
ENDTAB
  0
TABLE
  2
VIEW
  5
6
330
0
100
AcDbSymbolTable
 70
     0
  0
ENDTAB
  0
TABLE
  2
UCS
  5
7
330
0
100
AcDbSymbolTable
 70
     0
  0
ENDTAB
  0
TABLE
  2
APPID
  5
9
330
0
100
AcDbSymbolTable
 70
     4
  0
APPID
  5
12
330
9
100
AcDbSymbolTableRecord
100
AcDbRegAppTableRecord
  2
ACAD
 70
     0
  0
APPID
  5
556
330
9
100
AcDbSymbolTableRecord
100
AcDbRegAppTableRecord
  2
DCO15
 70
     0
  0
APPID
  5
560
330
9
100
AcDbSymbolTableRecord
100
AcDbRegAppTableRecord
  2
ACAD_NAV_VCDISPLAY
 70
     0
  0
APPID
  5
59F
330
9
100
AcDbSymbolTableRecord
100
AcDbRegAppTableRecord
  2
ACAD_MLEADERVER
 70
     0
  0
ENDTAB
  0
TABLE
  2
DIMSTYLE
  5
A
330
0
100
AcDbSymbolTable
 70
    24
100
AcDbDimStyleTable
 71
     0
  0
DIMSTYLE
105
27
330
A
100
AcDbSymbolTableRecord
100
AcDbDimStyleTableRecord
  2
Standard
 70
     0
340
11
  0
DIMSTYLE
105
30F
330
A
100
AcDbSymbolTableRecord
100
AcDbDimStyleTableRecord
  2
ME10_DIM_0
 70
     0
 41
2.45
 42
1.0
 44
1.0
 73
     0
 74
     0
 77
     1
 78
     8
140
3.5
147
1.0
172
     1
173
     1
176
     2
177
     2
178
     3
271
     2
340
305
343
309
344
309
  0
DIMSTYLE
105
31C
330
A
100
AcDbSymbolTableRecord
100
AcDbDimStyleTableRecord
  2
ME10_DIM_1
 70
     0
 41
2.45
 42
1.0
 44
1.0
 73
     0
 74
     0
 77
     1
 78
     8
140
3.5
147
1.0
172
     1
173
     1
176
     2
177
     2
178
     3
271
     2
340
305
343
309
344
309
  0
DIMSTYLE
105
32B
330
A
100
AcDbSymbolTableRecord
100
AcDbDimStyleTableRecord
  2
ME10_DIM_2
 70
     0
 41
2.45
 42
1.0
 44
1.0
 73
     0
 74
     0
 77
     1
 78
     8
140
3.5
147
1.0
172
     1
173
     1
176
     2
177
     2
178
     3
271
     2
340
305
343
309
344
309
  0
DIMSTYLE
105
338
330
A
100
AcDbSymbolTableRecord
100
AcDbDimStyleTableRecord
  2
ME10_DIM_3
 70
     0
 41
2.45
 42
1.0
 44
1.0
 73
     0
 74
     0
 77
     1
 78
     8
140
3.5
147
1.0
172
     1
173
     1
176
     2
177
     2
178
     3
271
     2
340
305
343
309
344
309
  0
DIMSTYLE
105
345
330
A
100
AcDbSymbolTableRecord
100
AcDbDimStyleTableRecord
  2
ME10_DIM_4
 70
     0
 41
2.45
 42
1.0
 44
1.0
 73
     0
 74
     0
 77
     1
 78
     8
140
3.5
147
1.0
172
     1
173
     1
176
     2
177
     2
178
     3
271
     2
340
305
343
309
344
309
  0
DIMSTYLE
105
352
330
A
100
AcDbSymbolTableRecord
100
AcDbDimStyleTableRecord
  2
ME10_DIM_5
 70
     0
 41
2.45
 42
1.0
 44
1.0
 73
     0
 74
     0
 77
     1
 78
     8
140
3.5
147
1.0
172
     1
173
     1
176
     2
177
     2
178
     3
271
     2
340
305
343
309
344
309
  0
DIMSTYLE
105
35F
330
A
100
AcDbSymbolTableRecord
100
AcDbDimStyleTableRecord
  2
ME10_DIM_6
 70
     0
 41
2.45
 42
1.0
 44
1.0
 73
     0
 74
     0
 77
     1
 78
     8
140
3.5
147
1.0
172
     1
173
     1
176
     2
177
     2
178
     3
271
     2
340
305
343
309
344
309
  0
DIMSTYLE
105
36C
330
A
100
AcDbSymbolTableRecord
100
AcDbDimStyleTableRecord
  2
ME10_DIM_7
 70
     0
 41
2.45
 42
1.0
 44
1.0
 73
     0
 74
     0
 77
     1
 78
     8
140
3.5
147
1.0
172
     1
173
     1
176
     2
177
     2
178
     3
271
     2
340
305
343
309
344
309
  0
DIMSTYLE
105
379
330
A
100
AcDbSymbolTableRecord
100
AcDbDimStyleTableRecord
  2
ME10_DIM_8
 70
     0
 41
2.45
 42
1.0
 44
1.0
 73
     0
 74
     0
 77
     1
 78
     8
140
3.5
147
1.0
172
     1
173
     1
176
     2
177
     2
178
     3
271
     2
340
305
343
309
344
309
  0
DIMSTYLE
105
386
330
A
100
AcDbSymbolTableRecord
100
AcDbDimStyleTableRecord
  2
ME10_DIM_9
 70
     0
 41
2.45
 42
1.0
 44
1.0
 73
     0
 74
     0
 77
     1
 78
     8
140
3.5
147
1.0
172
     1
173
     1
176
     2
177
     2
178
     3
271
     2
340
305
343
309
344
309
  0
DIMSTYLE
105
393
330
A
100
AcDbSymbolTableRecord
100
AcDbDimStyleTableRecord
  2
ME10_DIM_10
 70
     0
 41
2.45
 42
1.0
 44
1.0
 73
     0
 74
     0
 77
     1
 78
     8
140
3.5
147
1.0
172
     1
173
     1
176
     2
177
     2
178
     3
271
     2
340
305
343
309
344
309
  0
DIMSTYLE
105
3A0
330
A
100
AcDbSymbolTableRecord
100
AcDbDimStyleTableRecord
  2
ME10_DIM_11
 70
     0
 41
2.45
 42
1.0
 44
1.0
 73
     0
 74
     0
 77
     1
 78
     8
140
3.5
147
1.0
172
     1
173
     1
176
     2
177
     2
178
     3
271
     2
340
305
343
309
344
309
  0
DIMSTYLE
105
3AF
330
A
100
AcDbSymbolTableRecord
100
AcDbDimStyleTableRecord
  2
ME10_DIM_12
 70
     0
 41
2.45
 42
1.0
 44
1.0
 73
     0
 74
     0
 77
     1
 78
     8
140
3.5
147
1.0
172
     1
173
     1
176
     2
177
     2
178
     3
271
     2
340
305
343
309
344
309
  0
DIMSTYLE
105
3BC
330
A
100
AcDbSymbolTableRecord
100
AcDbDimStyleTableRecord
  2
ME10_DIM_13
 70
     0
 41
2.45
 42
1.0
 44
1.0
 73
     0
 74
     0
 77
     1
 78
     8
140
3.5
147
1.0
172
     1
173
     1
176
     2
177
     2
178
     3
271
     2
340
305
343
309
344
309
  0
DIMSTYLE
105
3CB
330
A
100
AcDbSymbolTableRecord
100
AcDbDimStyleTableRecord
  2
ME10_DIM_14
 70
     0
 41
2.45
 42
1.0
 44
1.0
 73
     0
 74
     0
 77
     1
 78
     8
140
3.5
147
1.0
172
     1
173
     1
176
     2
177
     2
178
     3
271
     2
340
305
343
309
344
309
  0
DIMSTYLE
105
3D8
330
A
100
AcDbSymbolTableRecord
100
AcDbDimStyleTableRecord
  2
ME10_DIM_15
 70
     0
 41
2.45
 42
1.0
 44
1.0
 73
     0
 74
     0
 77
     1
 78
     8
140
3.5
147
1.0
172
     1
173
     1
176
     2
177
     2
178
     3
271
     2
340
22D
343
309
344
309
  0
DIMSTYLE
105
3E5
330
A
100
AcDbSymbolTableRecord
100
AcDbDimStyleTableRecord
  2
ME10_DIM_16
 70
     0
 41
2.45
 42
1.0
 44
1.0
 73
     0
 74
     0
 77
     1
 78
     8
140
3.5
147
1.0
172
     1
173
     1
176
     2
177
     2
178
     3
271
     2
340
305
343
309
344
309
  0
DIMSTYLE
105
3F2
330
A
100
AcDbSymbolTableRecord
100
AcDbDimStyleTableRecord
  2
ME10_DIM_17
 70
     0
 41
2.45
 42
1.0
 44
1.0
 73
     0
 74
     0
 77
     1
 78
     8
140
3.5
147
1.0
172
     1
173
     1
176
     2
177
     2
178
     3
271
     2
340
305
343
309
344
309
  0
DIMSTYLE
105
401
330
A
100
AcDbSymbolTableRecord
100
AcDbDimStyleTableRecord
  2
ME10_DIM_18
 70
     0
 41
2.45
 42
1.0
 44
1.0
 73
     0
 74
     0
 77
     1
 78
     8
140
3.5
147
1.0
172
     1
173
     1
176
     2
177
     2
178
     3
271
     2
340
305
343
309
344
309
  0
DIMSTYLE
105
40E
330
A
100
AcDbSymbolTableRecord
100
AcDbDimStyleTableRecord
  2
ME10_DIM_19
 70
     0
 41
2.45
 42
1.0
 44
1.0
 73
     0
 74
     0
 77
     1
 78
     8
140
3.5
147
1.0
172
     1
173
     1
176
     2
177
     2
178
     3
271
     2
340
305
343
309
344
309
  0
DIMSTYLE
105
41B
330
A
100
AcDbSymbolTableRecord
100
AcDbDimStyleTableRecord
  2
ME10_DIM_20
 70
     0
 41
2.45
 42
1.0
 44
1.0
 73
     0
 74
     0
 77
     1
 78
     8
140
3.5
147
1.0
172
     1
173
     1
176
     2
177
     2
178
     3
271
     2
340
305
343
309
344
309
  0
DIMSTYLE
105
428
330
A
100
AcDbSymbolTableRecord
100
AcDbDimStyleTableRecord
  2
ME10_DIM_21
 70
     0
 41
2.45
 42
1.0
 44
1.0
 73
     0
 74
     0
 77
     1
 78
     8
140
3.5
147
1.0
172
     1
173
     1
176
     2
177
     2
178
     3
271
     2
340
305
343
309
344
309
  0
DIMSTYLE
105
437
330
A
100
AcDbSymbolTableRecord
100
AcDbDimStyleTableRecord
  2
ME10_DIM_22
 70
     0
 41
2.45
 42
1.0
 44
1.0
 73
     0
 74
     0
 77
     1
 78
     8
140
3.5
147
1.0
172
     1
173
     1
176
     2
177
     2
178
     3
271
     2
340
305
343
309
344
309
  0
ENDTAB
  0
TABLE
  2
BLOCK_RECORD
  5
1
330
0
100
AcDbSymbolTable
 70
    41
  0
BLOCK_RECORD
  5
1F
102
{ACAD_XDICTIONARY
360
4A2
102
}
330
1
100
AcDbSymbolTableRecord
100
AcDbBlockTableRecord
  2
*Model_Space
340
22
  0
BLOCK_RECORD
  5
1B
330
1
100
AcDbSymbolTableRecord
100
AcDbBlockTableRecord
  2
*Paper_Space
340
1E
  0
BLOCK_RECORD
  5
23
330
1
100
AcDbSymbolTableRecord
100
AcDbBlockTableRecord
  2
*Paper_Space0
340
26
  0
BLOCK_RECORD
  5
32
330
1
100
AcDbSymbolTableRecord
100
AcDbBlockTableRecord
  2
_G_P_P___O_P___O_V_S_____X_G_B_
340
0
102
{BLKREFS
331
49
102
}
  0
BLOCK_RECORD
  5
35
330
1
100
AcDbSymbolTableRecord
100
AcDbBlockTableRecord
  2
_G_P_P___O_P___O_V_S_____X_G_70__1
340
0
102
{BLKREFS
331
4B0
331
44
102
}
  0
BLOCK_RECORD
  5
38
330
1
100
AcDbSymbolTableRecord
100
AcDbBlockTableRecord
  2
_4__115
340
0
102
{BLKREFS
331
4B3
331
3C
102
}
  0
BLOCK_RECORD
  5
3B
330
1
100
AcDbSymbolTableRecord
100
AcDbBlockTableRecord
  2
TOP__117
340
0
102
{BLKREFS
331
40
102
}
  0
BLOCK_RECORD
  5
3F
330
1
100
AcDbSymbolTableRecord
100
AcDbBlockTableRecord
  2
TOP__118
340
0
102
{BLKREFS
331
45
102
}
  0
BLOCK_RECORD
  5
43
330
1
100
AcDbSymbolTableRecord
100
AcDbBlockTableRecord
  2
TOP__2
340
0
102
{BLKREFS
331
4A
102
}
  0
BLOCK_RECORD
  5
48
330
1
100
AcDbSymbolTableRecord
100
AcDbBlockTableRecord
  2
TOP__3
340
0
  0
BLOCK_RECORD
  5
4D
330
1
100
AcDbSymbolTableRecord
100
AcDbBlockTableRecord
  2
______
340
0
102
{BLKREFS
331
51
102
}
  0
BLOCK_RECORD
  5
50
330
1
100
AcDbSymbolTableRecord
100
AcDbBlockTableRecord
  2
FORMAT_A3
340
0
102
{BLKREFS
331
55
102
}
  0
BLOCK_RECORD
  5
54
330
1
100
AcDbSymbolTableRecord
100
AcDbBlockTableRecord
  2
_G_P_P___O_P___O_V_S_____X_G_69
340
0
102
{BLKREFS
331
59
102
}
  0
BLOCK_RECORD
  5
58
330
1
100
AcDbSymbolTableRecord
100
AcDbBlockTableRecord
  2
_G_P_P___O_P___O_V_S_____X_G_70__4
340
0
102
{BLKREFS
331
5D
102
}
  0
BLOCK_RECORD
  5
5C
330
1
100
AcDbSymbolTableRecord
100
AcDbBlockTableRecord
  2
TOP__95
340
0
  0
BLOCK_RECORD
  5
60
330
1
100
AcDbSymbolTableRecord
100
AcDbBlockTableRecord
  2
_5
340
0
102
{BLKREFS
331
64
102
}
  0
BLOCK_RECORD
  5
63
330
1
100
AcDbSymbolTableRecord
100
AcDbBlockTableRecord
  2
TOP__121
340
0
102
{BLKREFS
331
68
102
}
  0
BLOCK_RECORD
  5
67
330
1
100
AcDbSymbolTableRecord
100
AcDbBlockTableRecord
  2
_G_P_P___O_P___O_V_S_____X_G_88
340
0
102
{BLKREFS
331
70
102
}
  0
BLOCK_RECORD
  5
6B
330
1
100
AcDbSymbolTableRecord
100
AcDbBlockTableRecord
  2
_1
340
0
  0
BLOCK_RECORD
  5
2FD
330
1
100
AcDbSymbolTableRecord
100
AcDbBlockTableRecord
  2
*D17
340
0
  0
BLOCK_RECORD
  5
309
330
1
100
AcDbSymbolTableRecord
100
AcDbBlockTableRecord
  2
_Open30
340
0
  0
BLOCK_RECORD
  5
311
330
1
100
AcDbSymbolTableRecord
100
AcDbBlockTableRecord
  2
*D19
340
0
  0
BLOCK_RECORD
  5
31E
330
1
100
AcDbSymbolTableRecord
100
AcDbBlockTableRecord
  2
*D20
340
0
  0
BLOCK_RECORD
  5
32D
330
1
100
AcDbSymbolTableRecord
100
AcDbBlockTableRecord
  2
*D21
340
0
  0
BLOCK_RECORD
  5
33A
330
1
100
AcDbSymbolTableRecord
100
AcDbBlockTableRecord
  2
*D22
340
0
  0
BLOCK_RECORD
  5
347
330
1
100
AcDbSymbolTableRecord
100
AcDbBlockTableRecord
  2
*D23
340
0
  0
BLOCK_RECORD
  5
354
330
1
100
AcDbSymbolTableRecord
100
AcDbBlockTableRecord
  2
*D24
340
0
  0
BLOCK_RECORD
  5
361
330
1
100
AcDbSymbolTableRecord
100
AcDbBlockTableRecord
  2
*D25
340
0
  0
BLOCK_RECORD
  5
36E
330
1
100
AcDbSymbolTableRecord
100
AcDbBlockTableRecord
  2
*D26
340
0
  0
BLOCK_RECORD
  5
37B
330
1
100
AcDbSymbolTableRecord
100
AcDbBlockTableRecord
  2
*D27
340
0
  0
BLOCK_RECORD
  5
388
330
1
100
AcDbSymbolTableRecord
100
AcDbBlockTableRecord
  2
*D28
340
0
  0
BLOCK_RECORD
  5
395
330
1
100
AcDbSymbolTableRecord
100
AcDbBlockTableRecord
  2
*D29
340
0
  0
BLOCK_RECORD
  5
3A2
330
1
100
AcDbSymbolTableRecord
100
AcDbBlockTableRecord
  2
*D30
340
0
  0
BLOCK_RECORD
  5
3B1
330
1
100
AcDbSymbolTableRecord
100
AcDbBlockTableRecord
  2
*D31
340
0
  0
BLOCK_RECORD
  5
3BE
330
1
100
AcDbSymbolTableRecord
100
AcDbBlockTableRecord
  2
*D32
340
0
  0
BLOCK_RECORD
  5
3CD
330
1
100
AcDbSymbolTableRecord
100
AcDbBlockTableRecord
  2
*D33
340
0
  0
BLOCK_RECORD
  5
3DA
330
1
100
AcDbSymbolTableRecord
100
AcDbBlockTableRecord
  2
*D34
340
0
  0
BLOCK_RECORD
  5
3E7
330
1
100
AcDbSymbolTableRecord
100
AcDbBlockTableRecord
  2
*D35
340
0
  0
BLOCK_RECORD
  5
3F4
330
1
100
AcDbSymbolTableRecord
100
AcDbBlockTableRecord
  2
*D36
340
0
  0
BLOCK_RECORD
  5
403
330
1
100
AcDbSymbolTableRecord
100
AcDbBlockTableRecord
  2
*D37
340
0
  0
BLOCK_RECORD
  5
410
330
1
100
AcDbSymbolTableRecord
100
AcDbBlockTableRecord
  2
*D38
340
0
  0
BLOCK_RECORD
  5
41D
330
1
100
AcDbSymbolTableRecord
100
AcDbBlockTableRecord
  2
*D39
340
0
  0
BLOCK_RECORD
  5
42A
330
1
100
AcDbSymbolTableRecord
100
AcDbBlockTableRecord
  2
*D40
340
0
  0
ENDTAB
  0
ENDSEC
  0
SECTION
  2
BLOCKS
  0
BLOCK
  5
20
330
1F
100
AcDbEntity
  8
0
100
AcDbBlockBegin
  2
*Model_Space
 70
     0
 10
0.0
 20
0.0
 30
0.0
  3
*Model_Space
  1

  0
ENDBLK
  5
21
330
1F
100
AcDbEntity
  8
0
100
AcDbBlockEnd
  0
BLOCK
  5
1C
330
1B
100
AcDbEntity
 67
     1
  8
0
100
AcDbBlockBegin
  2
*Paper_Space
 70
     0
 10
0.0
 20
0.0
 30
0.0
  3
*Paper_Space
  1

  0
ENDBLK
  5
1D
330
1B
100
AcDbEntity
 67
     1
  8
0
100
AcDbBlockEnd
  0
BLOCK
  5
24
330
23
100
AcDbEntity
 67
     1
  8
0
100
AcDbBlockBegin
  2
*Paper_Space0
 70
     0
 10
0.0
 20
0.0
 30
0.0
  3
*Paper_Space0
  1

  0
ENDBLK
  5
25
330
23
100
AcDbEntity
 67
     1
  8
0
100
AcDbBlockEnd
  0
BLOCK
  5
33
330
32
100
AcDbEntity
  8
0
100
AcDbBlockBegin
  2
_G_P_P___O_P___O_V_S_____X_G_B_
 70
     0
 10
6443.28635721166
 20
916.131079562478
 30
0.0
  3
_G_P_P___O_P___O_V_S_____X_G_B_
  1

  0
LINE
  5
72
330
32
100
AcDbEntity
  8
1
  6
DOT_CENTER
 62
     2
100
AcDbLine
 10
8892.44155073897
 20
2947.380707470607
 30
0.0
 11
8901.47755268398
 21
2947.380707470607
 31
0.0
  0
LINE
  5
73
330
32
100
AcDbEntity
  8
1
  6
DOT_CENTER
 62
     2
100
AcDbLine
 10
8892.44155073897
 20
2973.880707470608
 30
0.0
 11
8901.47755268398
 21
2973.880707470608
 31
0.0
  0
LINE
  5
74
330
32
100
AcDbEntity
  8
1
  6
Continuous
 62
     7
100
AcDbLine
 10
8883.675048032241
 20
2984.880707470607
 30
0.0
 11
8894.175048032241
 21
2984.880707470607
 31
0.0
  0
LINE
  5
75
330
32
100
AcDbEntity
  8
1
  6
Continuous
 62
     4
100
AcDbLine
 10
8883.675048032241
 20
2984.880707470607
 30
0.0
 11
8883.675048032241
 21
2946.880707470608
 31
0.0
  0
LINE
  5
76
330
32
100
AcDbEntity
  8
1
  6
Continuous
 62
     4
100
AcDbLine
 10
8899.675048032241
 20
2984.880707470607
 30
0.0
 11
8899.675048032241
 21
2941.880707470608
 31
0.0
  0
LINE
  5
77
330
32
100
AcDbEntity
  8
1
  6
Continuous
 62
     7
100
AcDbLine
 10
8899.675048032241
 20
2984.880707470607
 30
0.0
 11
8900.175048032242
 21
2984.380707470608
 31
0.0
  0
LINE
  5
78
330
32
100
AcDbEntity
  8
1
  6
Continuous
 62
     7
100
AcDbLine
 10
8900.175048032242
 20
2942.380707470608
 30
0.0
 11
8899.675048032241
 21
2941.880707470608
 31
0.0
  0
LINE
  5
79
330
32
100
AcDbEntity
  8
1
  6
Continuous
 62
     7
100
AcDbLine
 10
8882.67504803224
 20
2947.880707470608
 30
0.0
 11
8883.675048032241
 21
2946.880707470608
 31
0.0
  0
LINE
  5
7A
330
32
100
AcDbEntity
  8
1
  6
Continuous
 62
     7
100
AcDbLine
 10
8893.27504803224
 20
2978.880707470608
 30
0.0
 11
8890.675048032241
 21
2978.880707470608
 31
0.0
  0
LINE
  5
7B
330
32
100
AcDbEntity
  8
1
  6
Continuous
 62
     7
100
AcDbLine
 10
8893.775048032239
 20
2955.880707470607
 30
0.0
 11
8893.775048032239
 21
2978.380707470608
 31
0.0
  0
LINE
  5
7C
330
32
100
AcDbEntity
  8
1
  6
Continuous
 62
     7
100
AcDbLine
 10
8890.675048032241
 20
2955.380707470608
 30
0.0
 11
8893.27504803224
 21
2955.380707470608
 31
0.0
  0
LINE
  5
7D
330
32
100
AcDbEntity
  8
1
  6
Continuous
 62
     7
100
AcDbLine
 10
8890.17504803224
 20
2978.380707470608
 30
0.0
 11
8890.17504803224
 21
2955.880707470607
 31
0.0
  0
LINE
  5
7E
330
32
100
AcDbEntity
  8
1
  6
Continuous
 62
     7
100
AcDbLine
 10
8894.175048032241
 20
2941.880707470608
 30
0.0
 11
8899.675048032241
 21
2941.880707470608
 31
0.0
  0
LINE
  5
7F
330
32
100
AcDbEntity
  8
1
  6
Continuous
 62
     7
100
AcDbLine
 10
8894.175048032241
 20
2984.880707470607
 30
0.0
 11
8899.675048032241
 21
2984.880707470607
 31
0.0
  0
LINE
  5
80
330
32
100
AcDbEntity
  8
1
  6
Continuous
 62
     7
100
AcDbLine
 10
8894.175048032241
 20
2984.880707470607
 30
0.0
 11
8894.175048032241
 21
2941.880707470608
 31
0.0
  0
LINE
  5
81
330
32
100
AcDbEntity
  8
1
  6
Continuous
 62
     7
100
AcDbLine
 10
8900.175048032242
 20
2984.380707470608
 30
0.0
 11
8900.175048032242
 21
2942.380707470608
 31
0.0
  0
LINE
  5
82
330
32
100
AcDbEntity
  8
1
  6
Continuous
 62
     7
100
AcDbLine
 10
8882.67504803224
 20
2984.880707470607
 30
0.0
 11
8883.675048032241
 21
2984.880707470607
 31
0.0
  0
LINE
  5
83
330
32
100
AcDbEntity
  8
1
  6
Continuous
 62
     7
100
AcDbLine
 10
8883.675048032241
 20
2946.880707470608
 30
0.0
 11
8894.175048032241
 21
2946.880707470608
 31
0.0
  0
LINE
  5
84
330
32
100
AcDbEntity
  8
1
  6
Continuous
 62
     7
100
AcDbLine
 10
8882.67504803224
 20
2984.880707470607
 30
0.0
 11
8882.67504803224
 21
2947.880707470608
 31
0.0
  0
LINE
  5
85
330
32
100
AcDbEntity
  8
1
  6
Continuous
 62
     4
100
AcDbLine
 10
8985.435690755313
 20
2984.380707470608
 30
0.0
 11
8957.685690755312
 21
2984.380707470608
 31
0.0
  0
LINE
  5
86
330
32
100
AcDbEntity
  8
1
  6
Continuous
 62
     4
100
AcDbLine
 10
9021.685690755312
 20
2984.380707470608
 30
0.0
 11
8993.935690755312
 21
2984.380707470608
 31
0.0
  0
LINE
  5
87
330
32
100
AcDbEntity
  8
1
  6
Continuous
 62
     4
100
AcDbLine
 10
9021.685690755312
 20
2946.880707470608
 30
0.0
 11
9021.685690755312
 21
2984.380707470608
 31
0.0
  0
LINE
  5
88
330
32
100
AcDbEntity
  8
1
  6
Continuous
 62
     4
100
AcDbLine
 10
8962.185690755312
 20
2942.380707470608
 30
0.0
 11
9017.185690755312
 21
2942.380707470608
 31
0.0
  0
LINE
  5
89
330
32
100
AcDbEntity
  8
1
  6
Continuous
 62
     4
100
AcDbLine
 10
8957.685690755312
 20
2984.380707470608
 30
0.0
 11
8957.685690755312
 21
2946.880707470608
 31
0.0
  0
LINE
  5
8A
330
32
100
AcDbEntity
  8
1
  6
Continuous
 62
     7
100
AcDbLine
 10
9017.685690755312
 20
2961.880707470607
 30
0.0
 11
9017.685690755312
 21
2965.880707470608
 31
0.0
  0
LINE
  5
8B
330
32
100
AcDbEntity
  8
1
  6
Continuous
 62
     7
100
AcDbLine
 10
9010.185690755312
 20
2963.880707470608
 30
0.0
 11
9017.685690755312
 21
2961.880707470607
 31
0.0
  0
LINE
  5
8C
330
32
100
AcDbEntity
  8
1
  6
Continuous
 62
     7
100
AcDbLine
 10
9017.685690755312
 20
2965.880707470608
 30
0.0
 11
9010.185690755312
 21
2963.880707470608
 31
0.0
  0
LINE
  5
8D
330
32
100
AcDbEntity
  8
1
  6
Continuous
 62
     7
100
AcDbLine
 10
9020.685690755312
 20
2954.880707470607
 30
0.0
 11
9020.685690755312
 21
2966.380707470607
 31
0.0
  0
LINE
  5
8E
330
32
100
AcDbEntity
  8
1
  6
Continuous
 62
     7
100
AcDbLine
 10
9018.685690755312
 20
2968.380707470608
 30
0.0
 11
9016.685690755313
 21
2968.380707470608
 31
0.0
  0
LINE
  5
8F
330
32
100
AcDbEntity
  8
1
  6
Continuous
 62
     7
100
AcDbLine
 10
8961.685690755313
 20
2965.880707470608
 30
0.0
 11
8961.685690755313
 21
2961.880707470607
 31
0.0
  0
LINE
  5
90
330
32
100
AcDbEntity
  8
1
  6
Continuous
 62
     7
100
AcDbLine
 10
8961.685690755313
 20
2961.880707470607
 30
0.0
 11
8969.185690755312
 21
2963.880707470608
 31
0.0
  0
LINE
  5
91
330
32
100
AcDbEntity
  8
1
  6
Continuous
 62
     7
100
AcDbLine
 10
8969.185690755312
 20
2963.880707470608
 30
0.0
 11
8961.685690755313
 21
2965.880707470608
 31
0.0
  0
LINE
  5
92
330
32
100
AcDbEntity
  8
1
  6
Continuous
 62
     7
100
AcDbLine
 10
9011.208465180258
 20
2973.380707470608
 30
0.0
 11
9002.935690755313
 21
2973.380707470608
 31
0.0
  0
LINE
  5
93
330
32
100
AcDbEntity
  8
1
  6
Continuous
 62
     7
100
AcDbLine
 10
8960.685690755312
 20
2952.880707470607
 30
0.0
 11
8976.444698869924
 21
2952.880707470607
 31
0.0
  0
LINE
  5
94
330
32
100
AcDbEntity
  8
1
  6
Continuous
 62
     7
100
AcDbLine
 10
8958.685690755313
 20
2966.380707470607
 30
0.0
 11
8958.685690755313
 21
2954.880707470607
 31
0.0
  0
LINE
  5
95
330
32
100
AcDbEntity
  8
1
  6
Continuous
 62
     7
100
AcDbLine
 10
8962.685690755312
 20
2968.380707470608
 30
0.0
 11
8960.685690755312
 21
2968.380707470608
 31
0.0
  0
LINE
  5
96
330
32
100
AcDbEntity
  8
1
  6
Continuous
 62
     7
100
AcDbLine
 10
8976.435690755312
 20
2973.380707470608
 30
0.0
 11
8968.162916330362
 21
2973.380707470608
 31
0.0
  0
LINE
  5
97
330
32
100
AcDbEntity
  8
1
  6
Continuous
 62
     7
100
AcDbLine
 10
8976.435690755312
 20
2956.380707470608
 30
0.0
 11
8976.435690755312
 21
2977.880707470607
 31
0.0
  0
LINE
  5
98
330
32
100
AcDbEntity
  8
1
  6
Continuous
 62
     7
100
AcDbLine
 10
9002.935690755313
 20
2977.880707470607
 30
0.0
 11
9002.935690755313
 21
2956.380707470608
 31
0.0
  0
LINE
  5
99
330
32
100
AcDbEntity
  8
1
  6
Continuous
 62
     7
100
AcDbLine
 10
8976.435690755312
 20
2979.880707470608
 30
0.0
 11
8976.435690755312
 21
2980.880707470607
 31
0.0
  0
LINE
  5
9A
330
32
100
AcDbEntity
  8
1
  6
Continuous
 62
     7
100
AcDbLine
 10
8985.485690755311
 20
2984.880707470607
 30
0.0
 11
8993.885690755309
 21
2984.880707470607
 31
0.0
  0
LINE
  5
9B
330
32
100
AcDbEntity
  8
1
  6
Continuous
 62
     7
100
AcDbLine
 10
8988.185690755312
 20
2950.180707470607
 30
0.0
 11
8988.185690755312
 21
2948.180707470607
 31
0.0
  0
LINE
  5
9C
330
32
100
AcDbEntity
  8
1
  6
Continuous
 62
     7
100
AcDbLine
 10
8990.185690755312
 20
2951.180707470607
 30
0.0
 11
8989.185690755311
 21
2951.180707470607
 31
0.0
  0
LINE
  5
9D
330
32
100
AcDbEntity
  8
1
  6
Continuous
 62
     7
100
AcDbLine
 10
8991.185690755312
 20
2948.180707470607
 30
0.0
 11
8991.185690755312
 21
2950.180707470607
 31
0.0
  0
LINE
  5
9E
330
32
100
AcDbEntity
  8
1
  6
Continuous
 62
     7
100
AcDbLine
 10
8985.435690755313
 20
2981.880707470608
 30
0.0
 11
8985.435690755313
 21
2984.880707470607
 31
0.0
  0
LINE
  5
9F
330
32
100
AcDbEntity
  8
1
  6
Continuous
 62
     7
100
AcDbLine
 10
8977.435690755312
 20
2981.880707470608
 30
0.0
 11
8985.435690755313
 21
2981.880707470608
 31
0.0
  0
LINE
  5
A0
330
32
100
AcDbEntity
  8
1
  6
Continuous
 62
     7
100
AcDbLine
 10
8976.435690755312
 20
2953.180707470608
 30
0.0
 11
8976.435690755312
 21
2980.880707470607
 31
0.0
  0
LINE
  5
A1
330
32
100
AcDbEntity
  8
1
  6
Continuous
 62
     7
100
AcDbLine
 10
8997.935690755312
 20
2948.180707470607
 30
0.0
 11
8981.435690755311
 21
2948.180707470607
 31
0.0
  0
LINE
  5
A2
330
32
100
AcDbEntity
  8
1
  6
Continuous
 62
     7
100
AcDbLine
 10
9002.935690755313
 20
2980.880707470607
 30
0.0
 11
9002.935690755313
 21
2953.180707470608
 31
0.0
  0
LINE
  5
A3
330
32
100
AcDbEntity
  8
1
  6
Continuous
 62
     7
100
AcDbLine
 10
8993.935690755312
 20
2981.880707470608
 30
0.0
 11
9001.935690755312
 21
2981.880707470608
 31
0.0
  0
LINE
  5
A4
330
32
100
AcDbEntity
  8
1
  6
Continuous
 62
     7
100
AcDbLine
 10
8993.935690755312
 20
2984.880707470607
 30
0.0
 11
8993.935690755312
 21
2981.880707470608
 31
0.0
  0
LINE
  5
A5
330
32
100
AcDbEntity
  8
1
  6
Continuous
 62
     7
100
AcDbLine
 10
8957.185690755313
 20
2946.880707470608
 30
0.0
 11
8957.185690755313
 21
2983.880707470607
 31
0.0
  0
LINE
  5
A6
330
32
100
AcDbEntity
  8
1
  6
Continuous
 62
     7
100
AcDbLine
 10
9017.185690755312
 20
2941.880707470608
 30
0.0
 11
8962.185690755312
 21
2941.880707470608
 31
0.0
  0
LINE
  5
A7
330
32
100
AcDbEntity
  8
1
  6
Continuous
 62
     7
100
AcDbLine
 10
9022.185690755312
 20
2983.880707470607
 30
0.0
 11
9022.185690755312
 21
2946.880707470608
 31
0.0
  0
LINE
  5
A8
330
32
100
AcDbEntity
  8
1
  6
Continuous
 62
     7
100
AcDbLine
 10
8958.185690755312
 20
2984.880707470607
 30
0.0
 11
9021.185690755313
 21
2984.880707470607
 31
0.0
  0
LINE
  5
A9
330
32
100
AcDbEntity
  8
1
  6
DOT_CENTER
 62
     2
100
AcDbLine
 10
9016.685690755313
 20
2952.589437295417
 30
0.0
 11
9016.685690755313
 21
2942.171977645797
 31
0.0
  0
LINE
  5
AA
330
32
100
AcDbEntity
  8
1
  6
DOT_CENTER
 62
     2
100
AcDbLine
 10
9021.894420580123
 20
2947.380707470607
 30
0.0
 11
9011.476960930499
 21
2947.380707470607
 31
0.0
  0
LINE
  5
AB
330
32
100
AcDbEntity
  8
1
  6
DOT_CENTER
 62
     2
100
AcDbLine
 10
9016.685690755313
 20
2979.089437295417
 30
0.0
 11
9016.685690755313
 21
2968.671977645798
 31
0.0
  0
LINE
  5
AC
330
32
100
AcDbEntity
  8
1
  6
DOT_CENTER
 62
     2
100
AcDbLine
 10
9021.894420580123
 20
2973.880707470608
 30
0.0
 11
9011.476960930499
 21
2973.880707470608
 31
0.0
  0
LINE
  5
AD
330
32
100
AcDbEntity
  8
1
  6
DOT_CENTER
 62
     2
100
AcDbLine
 10
8962.685690755312
 20
2979.089437295417
 30
0.0
 11
8962.685690755312
 21
2968.671977645798
 31
0.0
  0
LINE
  5
AE
330
32
100
AcDbEntity
  8
1
  6
DOT_CENTER
 62
     2
100
AcDbLine
 10
8967.894420580121
 20
2973.880707470608
 30
0.0
 11
8957.476960930501
 21
2973.880707470608
 31
0.0
  0
LINE
  5
AF
330
32
100
AcDbEntity
  8
1
  6
DOT_CENTER
 62
     2
100
AcDbLine
 10
8962.685690755312
 20
2952.589437295417
 30
0.0
 11
8962.685690755312
 21
2942.171977645797
 31
0.0
  0
LINE
  5
B0
330
32
100
AcDbEntity
  8
1
  6
DOT_CENTER
 62
     2
100
AcDbLine
 10
8967.894420580121
 20
2947.380707470607
 30
0.0
 11
8957.476960930501
 21
2947.380707470607
 31
0.0
  0
LINE
  5
B1
330
32
100
AcDbEntity
  8
1
  6
Continuous
 62
     7
100
AcDbLine
 10
9002.926682640701
 20
2952.880707470607
 30
0.0
 11
9018.685690755312
 21
2952.880707470607
 31
0.0
  0
LINE
  5
B2
330
32
100
AcDbEntity
  8
1
  6
DOTTED
 62
     7
100
AcDbLine
 10
8974.785690755309
 20
2984.880707470607
 30
0.0
 11
8974.785690755309
 21
2954.880707470607
 31
0.0
  0
LINE
  5
B3
330
32
100
AcDbEntity
  8
1
  6
DOTTED
 62
     7
100
AcDbLine
 10
8982.785690755312
 20
2946.880707470608
 30
0.0
 11
8989.685690755312
 21
2946.880707470608
 31
0.0
  0
LINE
  5
B4
330
32
100
AcDbEntity
  8
1
  6
DOTTED
 62
     7
100
AcDbLine
 10
9004.585690755313
 20
2954.880707470607
 30
0.0
 11
9004.585690755313
 21
2984.880707470607
 31
0.0
  0
LINE
  5
B5
330
32
100
AcDbEntity
  8
1
  6
DOTTED
 62
     7
100
AcDbLine
 10
8989.685690755312
 20
2946.880707470608
 30
0.0
 11
8996.585690755313
 21
2946.880707470608
 31
0.0
  0
ARC
  5
B6
330
32
100
AcDbEntity
  8
1
  6
Continuous
 62
     7
100
AcDbCircle
 10
8893.27504803224
 20
2955.880707470607
 30
0.0
 40
0.5
100
AcDbArc
 50
-90.0
 51
0.0
  0
ARC
  5
B7
330
32
100
AcDbEntity
  8
1
  6
Continuous
 62
     7
100
AcDbCircle
 10
8890.675048032241
 20
2955.880707470607
 30
0.0
 40
0.5
100
AcDbArc
 50
180.0
 51
-90.0
  0
ARC
  5
B8
330
32
100
AcDbEntity
  8
1
  6
Continuous
 62
     7
100
AcDbCircle
 10
8893.27504803224
 20
2978.380707470608
 30
0.0
 40
0.5
100
AcDbArc
 50
0.0
 51
90.0
  0
ARC
  5
B9
330
32
100
AcDbEntity
  8
1
  6
Continuous
 62
     7
100
AcDbCircle
 10
8890.675048032241
 20
2978.380707470608
 30
0.0
 40
0.5
100
AcDbArc
 50
90.0
 51
180.0
  0
ARC
  5
BA
330
32
100
AcDbEntity
  8
1
  6
Continuous
 62
     7
100
AcDbCircle
 10
9018.685690755312
 20
2966.380707470607
 30
0.0
 40
2.0
100
AcDbArc
 50
0.0
 51
90.0
  0
ARC
  5
BB
330
32
100
AcDbEntity
  8
1
  6
Continuous
 62
     7
100
AcDbCircle
 10
9018.685690755312
 20
2954.880707470607
 30
0.0
 40
2.0
100
AcDbArc
 50
-90.0
 51
0.0
  0
ARC
  5
BC
330
32
100
AcDbEntity
  8
1
  6
Continuous
 62
     7
100
AcDbCircle
 10
8960.685690755312
 20
2966.380707470607
 30
0.0
 40
2.0
100
AcDbArc
 50
90.0
 51
180.0
  0
ARC
  5
BD
330
32
100
AcDbEntity
  8
1
  6
Continuous
 62
     7
100
AcDbCircle
 10
8960.685690755312
 20
2954.880707470607
 30
0.0
 40
2.0
100
AcDbArc
 50
180.0
 51
-90.0
  0
ARC
  5
BE
330
32
100
AcDbEntity
  8
1
  6
Continuous
 62
     7
100
AcDbCircle
 10
8977.435690755312
 20
2980.880707470607
 30
0.0
 40
1.0
100
AcDbArc
 50
90.0
 51
180.0
  0
ARC
  5
BF
330
32
100
AcDbEntity
  8
1
  6
Continuous
 62
     7
100
AcDbCircle
 10
8989.185690755311
 20
2950.180707470607
 30
0.0
 40
1.0
100
AcDbArc
 50
90.0
 51
180.0
  0
ARC
  5
C0
330
32
100
AcDbEntity
  8
1
  6
Continuous
 62
     7
100
AcDbCircle
 10
8990.185690755312
 20
2950.180707470607
 30
0.0
 40
1.0
100
AcDbArc
 50
0.0
 51
90.0
  0
ARC
  5
C1
330
32
100
AcDbEntity
  8
1
  6
Continuous
 62
     7
100
AcDbCircle
 10
8981.435690755311
 20
2953.180707470608
 30
0.0
 40
5.0
100
AcDbArc
 50
180.0
 51
-90.0
  0
ARC
  5
C2
330
32
100
AcDbEntity
  8
1
  6
Continuous
 62
     7
100
AcDbCircle
 10
8997.935690755312
 20
2953.180707470608
 30
0.0
 40
5.0
100
AcDbArc
 50
-90.0
 51
0.0
  0
ARC
  5
C3
330
32
100
AcDbEntity
  8
1
  6
Continuous
 62
     7
100
AcDbCircle
 10
8977.435690755312
 20
2980.880707470607
 30
0.0
 40
1.0
100
AcDbArc
 50
90.0
 51
180.0
  0
ARC
  5
C4
330
32
100
AcDbEntity
  8
1
  6
Continuous
 62
     7
100
AcDbCircle
 10
9001.935690755312
 20
2980.880707470607
 30
0.0
 40
1.0
100
AcDbArc
 50
0.0
 51
90.0
  0
ARC
  5
C5
330
32
100
AcDbEntity
  8
1
  6
Continuous
 62
     7
100
AcDbCircle
 10
8962.185690755312
 20
2946.880707470608
 30
0.0
 40
5.0
100
AcDbArc
 50
180.0
 51
-90.0
  0
ARC
  5
C6
330
32
100
AcDbEntity
  8
1
  6
Continuous
 62
     7
100
AcDbCircle
 10
9017.185690755312
 20
2946.880707470608
 30
0.0
 40
5.0
100
AcDbArc
 50
-90.0
 51
0.0
  0
ARC
  5
C7
330
32
100
AcDbEntity
  8
1
  6
Continuous
 62
     7
100
AcDbCircle
 10
8958.185690755312
 20
2983.880707470607
 30
0.0
 40
1.0
100
AcDbArc
 50
90.0
 51
180.0
  0
ARC
  5
C8
330
32
100
AcDbEntity
  8
1
  6
Continuous
 62
     7
100
AcDbCircle
 10
9021.185690755313
 20
2983.880707470607
 30
0.0
 40
1.0
100
AcDbArc
 50
0.0
 51
90.0
  0
ARC
  5
C9
330
32
100
AcDbEntity
  8
1
  6
Continuous
 62
     4
100
AcDbCircle
 10
9017.185690755312
 20
2946.880707470608
 30
0.0
 40
4.5
100
AcDbArc
 50
-90.0
 51
0.0
  0
ARC
  5
CA
330
32
100
AcDbEntity
  8
1
  6
Continuous
 62
     4
100
AcDbCircle
 10
8962.185690755312
 20
2946.880707470608
 30
0.0
 40
4.5
100
AcDbArc
 50
180.0
 51
-90.0
  0
ARC
  5
CB
330
32
100
AcDbEntity
  8
1
  6
Continuous
 62
     7
100
AcDbCircle
 10
9016.685690755313
 20
2973.880707470608
 30
0.0
 40
5.500000000002362
100
AcDbArc
 50
-174.7840914295481
 51
-90.0
  0
ARC
  5
CC
330
32
100
AcDbEntity
  8
1
  6
Continuous
 62
     7
100
AcDbCircle
 10
8962.685690755312
 20
2973.880707470608
 30
0.0
 40
5.5
100
AcDbArc
 50
-90.0
 51
-5.21590857045532
  0
ARC
  5
CD
330
32
100
AcDbEntity
  8
1
  6
DOTTED
 62
     7
100
AcDbCircle
 10
8982.785690755312
 20
2954.880707470607
 30
0.0
 40
8.0
100
AcDbArc
 50
180.0
 51
-90.0
  0
ARC
  5
CE
330
32
100
AcDbEntity
  8
1
  6
DOTTED
 62
     7
100
AcDbCircle
 10
8996.585690755313
 20
2954.880707470607
 30
0.0
 40
8.0
100
AcDbArc
 50
-90.0
 51
0.0
  0
CIRCLE
  5
CF
330
32
100
AcDbEntity
  8
1
  6
Continuous
 62
     7
100
AcDbCircle
 10
9016.685690755313
 20
2947.380707470607
 30
0.0
 40
4.25
  0
CIRCLE
  5
D0
330
32
100
AcDbEntity
  8
1
  6
Continuous
 62
     7
100
AcDbCircle
 10
9016.685690755313
 20
2947.380707470607
 30
0.0
 40
2.0
  0
CIRCLE
  5
D1
330
32
100
AcDbEntity
  8
1
  6
Continuous
 62
     7
100
AcDbCircle
 10
9016.685690755313
 20
2973.880707470608
 30
0.0
 40
4.25
  0
CIRCLE
  5
D2
330
32
100
AcDbEntity
  8
1
  6
Continuous
 62
     7
100
AcDbCircle
 10
9016.685690755313
 20
2973.880707470608
 30
0.0
 40
2.0
  0
CIRCLE
  5
D3
330
32
100
AcDbEntity
  8
1
  6
Continuous
 62
     7
100
AcDbCircle
 10
8962.685690755312
 20
2973.880707470608
 30
0.0
 40
4.25
  0
CIRCLE
  5
D4
330
32
100
AcDbEntity
  8
1
  6
Continuous
 62
     7
100
AcDbCircle
 10
8962.685690755312
 20
2973.880707470608
 30
0.0
 40
2.0
  0
CIRCLE
  5
D5
330
32
100
AcDbEntity
  8
1
  6
Continuous
 62
     7
100
AcDbCircle
 10
8962.685690755312
 20
2947.380707470607
 30
0.0
 40
4.25
  0
CIRCLE
  5
D6
330
32
100
AcDbEntity
  8
1
  6
Continuous
 62
     7
100
AcDbCircle
 10
8962.685690755312
 20
2947.380707470607
 30
0.0
 40
2.0
  0
MTEXT
  5
D8
330
32
100
AcDbEntity
  8
1
 62
     3
100
AcDbMText
 10
9012.685690755311
 20
2957.380707470607
 30
0.0
 40
5.0
 41
0.0
 71
     5
 72
     1
  1
外す
  7
CONVERTER_1
 73
     1
 44
0.6002400960384202
1001
ACAD
1000
MTEXTBEGIN
1070
    73
1070
     1
1070
    44
1040
0.6002400960384202
1070
    74
1070
     0
1000
MTEXTEND
  0
MTEXT
  5
D9
330
32
100
AcDbEntity
  8
1
 62
     3
100
AcDbMText
 10
8966.685690755312
 20
2957.380707470607
 30
0.0
 40
5.0
 41
0.0
 71
     5
 72
     1
  1
外す
  7
CONVERTER_1
 73
     1
 44
0.6002400960384202
1001
ACAD
1000
MTEXTBEGIN
1070
    73
1070
     1
1070
    44
1040
0.6002400960384202
1070
    74
1070
     0
1000
MTEXTEND
  0
ENDBLK
  5
34
330
32
100
AcDbEntity
  8
0
100
AcDbBlockEnd
  0
BLOCK
  5
36
330
35
100
AcDbEntity
  8
0
100
AcDbBlockBegin
  2
_G_P_P___O_P___O_V_S_____X_G_70__1
 70
     0
 10
6765.555054277763
 20
2171.545276962928
 30
0.0
  3
_G_P_P___O_P___O_V_S_____X_G_70__1
  1

  0
LINE
  5
DA
330
35
100
AcDbEntity
  8
1
  6
DOT_CENTER
 62
     2
100
AcDbLine
 10
8989.685690755312
 20
2937.066218853441
 30
0.0
 11
8989.685690755312
 21
2999.785533486665
 31
0.0
  0
LINE
  5
DB
330
35
100
AcDbEntity
  8
1
  6
DOT_CENTER
 62
     2
100
AcDbLine
 10
8890.675048032241
 20
2999.785533486665
 30
0.0
 11
8890.675048032241
 21
2937.066218853441
 31
0.0
  0
LINE
  5
DC
330
35
100
AcDbEntity
  8
1
  6
DOT_CENTER
 62
     2
100
AcDbLine
 10
8890.675048032241
 20
2999.785533486665
 30
0.0
 11
8890.675048032241
 21
2937.066218853441
 31
0.0
  0
ENDBLK
  5
37
330
35
100
AcDbEntity
  8
0
100
AcDbBlockEnd
  0
BLOCK
  5
39
330
38
100
AcDbEntity
  8
0
100
AcDbBlockBegin
  2
_4__115
 70
     0
 10
8782.900508220803
 20
3354.731883867202
 30
0.0
  3
_4__115
  1

  0
LINE
  5
DD
330
38
100
AcDbEntity
  8
1
  6
Continuous
 62
     7
100
AcDbLine
 10
8887.675048032241
 20
2984.880707470607
 30
0.0
 11
8887.675048032241
 21
2990.380707470608
 31
0.0
  0
LINE
  5
DE
330
38
100
AcDbEntity
  8
1
  6
Continuous
 62
     7
100
AcDbLine
 10
8893.675048032241
 20
2990.380707470608
 30
0.0
 11
8893.675048032241
 21
2984.880707470607
 31
0.0
  0
LINE
  5
DF
330
38
100
AcDbEntity
  8
1
  6
Continuous
 62
     7
100
AcDbLine
 10
8992.685690755312
 20
2990.380707470608
 30
0.0
 11
8992.685690755312
 21
2984.880707470607
 31
0.0
  0
LINE
  5
E0
330
38
100
AcDbEntity
  8
1
  6
Continuous
 62
     7
100
AcDbLine
 10
8986.685690755313
 20
2984.880707470607
 30
0.0
 11
8986.685690755313
 21
2990.380707470608
 31
0.0
  0
ENDBLK
  5
3A
330
38
100
AcDbEntity
  8
0
100
AcDbBlockEnd
  0
BLOCK
  5
3D
330
3B
100
AcDbEntity
  8
0
100
AcDbBlockBegin
  2
TOP__117
 70
     0
 10
7340.068907406133
 20
1697.93469737682
 30
0.0
  3
TOP__117
  1

  0
INSERT
  5
3C
330
3B
100
AcDbEntity
  8
0
100
AcDbBlockReference
  2
_4__115
 10
8782.900508220803
 20
3354.731883867202
 30
0.0
  0
LINE
  5
E1
330
3B
100
AcDbEntity
  8
1
  6
Continuous
 62
     7
100
AcDbLine
 10
8957.685690755312
 20
2991.380707470608
 30
0.0
 11
8984.435690755312
 21
2991.380707470608
 31
0.0
  0
LINE
  5
E2
330
3B
100
AcDbEntity
  8
1
  6
Continuous
 62
     7
100
AcDbLine
 10
9026.685690755313
 20
2992.380707470608
 30
0.0
 11
9026.685690755313
 21
2993.131092108753
 31
0.0
  0
LINE
  5
E3
330
3B
100
AcDbEntity
  8
1
  6
Continuous
 62
     7
100
AcDbLine
 10
9025.685690755311
 20
3009.680707470607
 30
0.0
 11
8995.685690755312
 21
3009.680707470607
 31
0.0
  0
LINE
  5
E4
330
3B
100
AcDbEntity
  8
1
  6
Continuous
 62
     7
100
AcDbLine
 10
8956.685690755312
 20
3008.680707470607
 30
0.0
 11
8956.685690755312
 21
2993.131092108753
 31
0.0
  0
LINE
  5
E5
330
3B
100
AcDbEntity
  8
1
  6
Continuous
 62
     7
100
AcDbLine
 10
8901.07504803224
 20
3008.680707470607
 30
0.0
 11
8900.67504803224
 21
3008.680707470607
 31
0.0
  0
LINE
  5
E6
330
3B
100
AcDbEntity
  8
1
  6
Continuous
 62
     7
100
AcDbLine
 10
8878.275048032241
 20
3006.680707470608
 30
0.0
 11
8878.275048032241
 21
2992.131092108753
 31
0.0
  0
LINE
  5
E7
330
3B
100
AcDbEntity
  8
1
  6
Continuous
 62
     7
100
AcDbLine
 10
8880.675048032241
 20
3008.680707470607
 30
0.0
 11
8880.675048032241
 21
3006.680707470608
 31
0.0
  0
LINE
  5
E8
330
3B
100
AcDbEntity
  8
1
  6
Continuous
 62
     7
100
AcDbLine
 10
8880.675048032241
 20
3008.680707470607
 30
0.0
 11
8880.275048032242
 21
3008.680707470607
 31
0.0
  0
LINE
  5
E9
330
3B
100
AcDbEntity
  8
1
  6
Continuous
 62
     7
100
AcDbLine
 10
8881.67504803224
 20
3005.680707470607
 30
0.0
 11
8899.675048032241
 21
3005.680707470607
 31
0.0
  0
LINE
  5
EA
330
3B
100
AcDbEntity
  8
1
  6
Continuous
 62
     7
100
AcDbLine
 10
8900.67504803224
 20
3006.680707470608
 30
0.0
 11
8900.67504803224
 21
3008.680707470607
 31
0.0
  0
LINE
  5
EB
330
3B
100
AcDbEntity
  8
1
  6
Continuous
 62
     7
100
AcDbLine
 10
8903.07504803224
 20
2992.131092108753
 30
0.0
 11
8903.07504803224
 21
3006.680707470608
 31
0.0
  0
LINE
  5
EC
330
3B
100
AcDbEntity
  8
1
  6
Continuous
 62
     7
100
AcDbLine
 10
8896.17504803224
 20
2991.457698421421
 30
0.0
 11
8896.17504803224
 21
2991.880707470608
 31
0.0
  0
LINE
  5
ED
330
3B
100
AcDbEntity
  8
1
  6
Continuous
 62
     7
100
AcDbLine
 10
8885.175048032241
 20
2991.457698421421
 30
0.0
 11
8885.175048032241
 21
2991.880707470608
 31
0.0
  0
LINE
  5
EE
330
3B
100
AcDbEntity
  8
1
  6
Continuous
 62
     7
100
AcDbLine
 10
8885.925048032241
 20
2990.380707470608
 30
0.0
 11
8895.425048032242
 21
2990.380707470608
 31
0.0
  0
LINE
  5
EF
330
3B
100
AcDbEntity
  8
1
  6
Continuous
 62
     7
100
AcDbLine
 10
8885.175048032241
 20
2991.880707470608
 30
0.0
 11
8896.17504803224
 21
2991.880707470608
 31
0.0
  0
LINE
  5
F0
330
3B
100
AcDbEntity
  8
1
  6
Continuous
 62
     7
100
AcDbLine
 10
8885.42504803224
 20
2991.130707470608
 30
0.0
 11
8885.42504803224
 21
2990.880707470608
 31
0.0
  0
LINE
  5
F1
330
3B
100
AcDbEntity
  8
1
  6
Continuous
 62
     7
100
AcDbLine
 10
8956.685690755312
 20
2993.131092108753
 30
0.0
 11
9026.685690755313
 21
2993.131092108753
 31
0.0
  0
LINE
  5
F2
330
3B
100
AcDbEntity
  8
1
  6
Continuous
 62
     7
100
AcDbLine
 10
9026.685690755313
 20
2993.131092108753
 30
0.0
 11
9026.685690755313
 21
3008.680707470607
 31
0.0
  0
LINE
  5
F3
330
3B
100
AcDbEntity
  8
1
  6
Continuous
 62
     7
100
AcDbLine
 10
8956.685690755312
 20
2993.131092108753
 30
0.0
 11
8956.685690755312
 21
2992.380707470608
 31
0.0
  0
LINE
  5
F4
330
3B
100
AcDbEntity
  8
1
  6
Continuous
 62
     7
100
AcDbLine
 10
8984.435690755312
 20
2991.380707470608
 30
0.0
 11
8984.435690755312
 21
2990.880707470608
 31
0.0
  0
LINE
  5
F5
330
3B
100
AcDbEntity
  8
1
  6
Continuous
 62
     7
100
AcDbLine
 10
8984.435690755312
 20
2991.380707470608
 30
0.0
 11
8994.935690755312
 21
2991.380707470608
 31
0.0
  0
LINE
  5
F6
330
3B
100
AcDbEntity
  8
1
  6
Continuous
 62
     7
100
AcDbLine
 10
8984.935690755312
 20
2990.380707470608
 30
0.0
 11
8994.435690755311
 21
2990.380707470608
 31
0.0
  0
LINE
  5
F7
330
3B
100
AcDbEntity
  8
1
  6
Continuous
 62
     7
100
AcDbLine
 10
8994.935690755312
 20
2990.880707470608
 30
0.0
 11
8994.935690755312
 21
2991.380707470608
 31
0.0
  0
LINE
  5
F8
330
3B
100
AcDbEntity
  8
1
  6
Continuous
 62
     7
100
AcDbLine
 10
8994.935690755312
 20
2991.380707470608
 30
0.0
 11
9025.685690755311
 21
2991.380707470608
 31
0.0
  0
LINE
  5
F9
330
3B
100
AcDbEntity
  8
1
  6
Continuous
 62
     7
100
AcDbLine
 10
8994.685690755312
 20
3003.380707470608
 30
0.0
 11
8994.685690755312
 21
3006.680707470608
 31
0.0
  0
LINE
  5
FA
330
3B
100
AcDbEntity
  8
1
  6
Continuous
 62
     7
100
AcDbLine
 10
8984.685690755311
 20
3003.380707470608
 30
0.0
 11
8984.685690755311
 21
3006.680707470608
 31
0.0
  0
LINE
  5
FB
330
3B
100
AcDbEntity
  8
1
  6
Continuous
 62
     7
100
AcDbLine
 10
8983.685690755313
 20
3009.680707470607
 30
0.0
 11
8957.685690755312
 21
3009.680707470607
 31
0.0
  0
LINE
  5
FC
330
3B
100
AcDbEntity
  8
1
  6
DOT_CENTER
 62
     2
100
AcDbLine
 10
8986.510690755309
 20
3003.380707470608
 30
0.0
 11
8992.860690755312
 21
3003.380707470608
 31
0.0
  0
LINE
  5
FD
330
3B
100
AcDbEntity
  8
1
  6
Continuous
 62
     7
100
AcDbLine
 10
8984.685690755311
 20
3006.680707470608
 30
0.0
 11
8994.685690755312
 21
3006.680707470608
 31
0.0
  0
LINE
  5
FE
330
3B
100
AcDbEntity
  8
1
  6
Continuous
 62
     7
100
AcDbLine
 10
8994.685690755312
 20
3006.680707470608
 30
0.0
 11
8994.685690755312
 21
3008.680707470607
 31
0.0
  0
LINE
  5
FF
330
3B
100
AcDbEntity
  8
1
  6
Continuous
 62
     7
100
AcDbLine
 10
8984.685690755311
 20
3006.680707470608
 30
0.0
 11
8984.685690755311
 21
3008.680707470607
 31
0.0
  0
LINE
  5
100
330
3B
100
AcDbEntity
  8
1
  6
DOT_CENTER
 62
     2
100
AcDbLine
 10
9019.685690755313
 20
3011.680707470607
 30
0.0
 11
9019.685690755313
 21
2989.380707470608
 31
0.0
  0
ARC
  5
101
330
3B
100
AcDbEntity
  8
1
  6
Continuous
 62
     7
100
AcDbCircle
 10
8885.925048032241
 20
2990.880707470608
 30
0.0
 40
0.5
100
AcDbArc
 50
180.0
 51
-90.0
  0
ARC
  5
102
330
3B
100
AcDbEntity
  8
1
  6
Continuous
 62
     7
100
AcDbCircle
 10
8895.425048032242
 20
2990.880707470608
 30
0.0
 40
0.5
100
AcDbArc
 50
-90.0
 51
0.0
  0
ARC
  5
103
330
3B
100
AcDbEntity
  8
1
  6
Continuous
 62
     7
100
AcDbCircle
 10
8957.685690755312
 20
3008.680707470607
 30
0.0
 40
1.0
100
AcDbArc
 50
90.0
 51
180.0
  0
ARC
  5
104
330
3B
100
AcDbEntity
  8
1
  6
Continuous
 62
     7
100
AcDbCircle
 10
8957.685690755312
 20
2992.380707470608
 30
0.0
 40
1.0
100
AcDbArc
 50
180.0
 51
-90.0
  0
ARC
  5
105
330
3B
100
AcDbEntity
  8
1
  6
Continuous
 62
     7
100
AcDbCircle
 10
9025.685690755311
 20
2992.380707470608
 30
0.0
 40
1.0
100
AcDbArc
 50
-90.0
 51
0.0
  0
ARC
  5
106
330
3B
100
AcDbEntity
  8
1
  6
Continuous
 62
     7
100
AcDbCircle
 10
9025.685690755311
 20
3008.680707470607
 30
0.0
 40
1.0
100
AcDbArc
 50
0.0
 51
90.0
  0
ARC
  5
107
330
3B
100
AcDbEntity
  8
1
  6
Continuous
 62
     7
100
AcDbCircle
 10
8984.935690755312
 20
2990.880707470608
 30
0.0
 40
0.5
100
AcDbArc
 50
180.0
 51
-90.0
  0
ARC
  5
108
330
3B
100
AcDbEntity
  8
1
  6
Continuous
 62
     7
100
AcDbCircle
 10
8994.435690755311
 20
2990.880707470608
 30
0.0
 40
0.5
100
AcDbArc
 50
-90.0
 51
0.0
  0
ARC
  5
109
330
3B
100
AcDbEntity
  8
1
  6
Continuous
 62
     7
100
AcDbCircle
 10
8983.685690755313
 20
3008.680707470607
 30
0.0
 40
1.0
100
AcDbArc
 50
0.0
 51
90.0
  0
ARC
  5
10A
330
3B
100
AcDbEntity
  8
1
  6
Continuous
 62
     7
100
AcDbCircle
 10
8995.685690755312
 20
3008.680707470607
 30
0.0
 40
1.0
100
AcDbArc
 50
90.0
 51
180.0
  0
ARC
  5
10B
330
3B
100
AcDbEntity
  8
1
  6
Continuous
 62
     7
100
AcDbCircle
 10
8880.275048032242
 20
3006.680707470608
 30
0.0
 40
2.0
100
AcDbArc
 50
90.0
 51
180.0
  0
ARC
  5
10C
330
3B
100
AcDbEntity
  8
1
  6
Continuous
 62
     7
100
AcDbCircle
 10
8901.07504803224
 20
3006.680707470608
 30
0.0
 40
2.0
100
AcDbArc
 50
0.0
 51
90.0
  0
ARC
  5
10D
330
3B
100
AcDbEntity
  8
1
  6
Continuous
 62
     7
100
AcDbCircle
 10
8881.67504803224
 20
3006.680707470608
 30
0.0
 40
1.0
100
AcDbArc
 50
180.0
 51
-90.0
  0
ARC
  5
10E
330
3B
100
AcDbEntity
  8
1
  6
Continuous
 62
     7
100
AcDbCircle
 10
8899.675048032241
 20
3006.680707470608
 30
0.0
 40
1.0
100
AcDbArc
 50
-90.0
 51
0.0
  0
ARC
  5
10F
330
3B
100
AcDbEntity
  8
1
  6
Continuous
 62
     7
100
AcDbCircle
 10
8899.275048032242
 20
2995.380707470607
 30
0.0
 40
5.0
100
AcDbArc
 50
-90.0
 51
-40.53580211131873
  0
ARC
  5
110
330
3B
100
AcDbEntity
  8
1
  6
Continuous
 62
     7
100
AcDbCircle
 10
8882.075048032239
 20
2995.380707470607
 30
0.0
 40
4.999999999999205
100
AcDbArc
 50
-139.4641978886813
 51
-51.68386552632682
  0
ARC
  5
111
330
3B
100
AcDbEntity
  8
1
  6
Continuous
 62
     7
100
AcDbCircle
 10
8884.67504803224
 20
2991.130707470608
 30
0.0
 40
0.75
100
AcDbArc
 50
0.0
 51
48.18968510423783
  0
ARC
  5
112
330
3B
100
AcDbEntity
  8
1
  6
Continuous
 62
     7
100
AcDbCircle
 10
8896.925048032242
 20
2990.880707470608
 30
0.0
 40
0.9999999999998323
100
AcDbArc
 50
138.59037789074
 51
180.0
  0
ARC
  5
113
330
3B
100
AcDbEntity
  8
1
  6
Continuous
 62
     7
100
AcDbCircle
 10
8989.685690755312
 20
3003.380707470608
 30
0.0
 40
5.0
100
AcDbArc
 50
180.0
 51
0.0
  0
ARC
  5
114
330
3B
100
AcDbEntity
  8
1
  6
Continuous
 62
     7
100
AcDbCircle
 10
8899.275048032242
 20
2995.380707470607
 30
0.0
 40
4.999999999999766
100
AcDbArc
 50
-128.3161344736732
 51
-90.0
  0
CIRCLE
  5
115
330
3B
100
AcDbEntity
  8
1
  6
Continuous
 62
     7
100
AcDbCircle
 10
8989.685690755312
 20
3003.380707470608
 30
0.0
 40
1.174999999999271
  0
ENDBLK
  5
3E
330
3B
100
AcDbEntity
  8
0
100
AcDbBlockEnd
  0
BLOCK
  5
41
330
3F
100
AcDbEntity
  8
0
100
AcDbBlockBegin
  2
TOP__118
 70
     0
 10
7375.092044579654
 20
2610.95057709433
 30
0.0
  3
TOP__118
  1

  0
INSERT
  5
40
330
3F
100
AcDbEntity
  8
0
100
AcDbBlockReference
  2
TOP__117
 10
7340.068907406133
 20
1697.93469737682
 30
0.0
  0
ENDBLK
  5
42
330
3F
100
AcDbEntity
  8
0
100
AcDbBlockEnd
  0
BLOCK
  5
46
330
43
100
AcDbEntity
  8
0
100
AcDbBlockBegin
  2
TOP__2
 70
     0
 10
5472.882176853541
 20
2960.417427980118
 30
0.0
  3
TOP__2
  1

  0
INSERT
  5
44
330
43
100
AcDbEntity
  8
0
100
AcDbBlockReference
  2
_G_P_P___O_P___O_V_S_____X_G_70__1
 10
6765.555054277763
 20
2171.545276962928
 30
0.0
  0
INSERT
  5
45
330
43
100
AcDbEntity
  8
0
100
AcDbBlockReference
  2
TOP__118
 10
7375.092044579654
 20
2610.95057709433
 30
0.0
  0
ENDBLK
  5
47
330
43
100
AcDbEntity
  8
0
100
AcDbBlockEnd
  0
BLOCK
  5
4B
330
48
100
AcDbEntity
  8
0
100
AcDbBlockBegin
  2
TOP__3
 70
     0
 10
5150.613479787439
 20
1705.003230579667
 30
0.0
  3
TOP__3
  1

  0
INSERT
  5
49
330
48
100
AcDbEntity
  8
0
100
AcDbBlockReference
  2
_G_P_P___O_P___O_V_S_____X_G_B_
 10
6443.28635721166
 20
916.131079562478
 30
0.0
  0
INSERT
  5
4A
330
48
100
AcDbEntity
  8
0
100
AcDbBlockReference
  2
TOP__2
 10
5472.882176853541
 20
2960.417427980118
 30
0.0
  0
ENDBLK
  5
4C
330
48
100
AcDbEntity
  8
0
100
AcDbBlockEnd
  0
BLOCK
  5
4E
330
4D
100
AcDbEntity
  8
0
100
AcDbBlockBegin
  2
______
 70
     0
 10
5254.137562489628
 20
1438.63168601319
 30
0.0
  3
______
  1

  0
LINE
  5
116
330
4D
100
AcDbEntity
  8
1
  6
Continuous
 62
     5
100
AcDbLine
 10
9172.5605127691
 20
2852.510690411288
 30
0.0
 11
9172.5605127691
 21
2845.510690411288
 31
0.0
  0
LINE
  5
117
330
4D
100
AcDbEntity
  8
1
  6
Continuous
 62
     5
100
AcDbLine
 10
9172.5605127691
 20
2845.510690411288
 30
0.0
 11
9172.5605127691
 21
2838.510690411288
 31
0.0
  0
LINE
  5
118
330
4D
100
AcDbEntity
  8
1
  6
Continuous
 62
     5
100
AcDbLine
 10
9122.5605127691
 20
2845.510690411288
 30
0.0
 11
9172.5605127691
 21
2845.510690411288
 31
0.0
  0
LINE
  5
119
330
4D
100
AcDbEntity
  8
1
  6
Continuous
 62
     5
100
AcDbLine
 10
9172.5605127691
 20
2845.510690411288
 30
0.0
 11
9214.5605127691
 21
2845.510690411288
 31
0.0
  0
LINE
  5
11A
330
4D
100
AcDbEntity
  8
1
  6
Continuous
 62
     5
100
AcDbLine
 10
9122.5605127691
 20
2852.510690411288
 30
0.0
 11
9122.5605127691
 21
2845.510690411288
 31
0.0
  0
LINE
  5
11B
330
4D
100
AcDbEntity
  8
1
  6
Continuous
 62
     5
100
AcDbLine
 10
9115.5605127691
 20
2852.510690411288
 30
0.0
 11
9115.5605127691
 21
2845.510690411288
 31
0.0
  0
LINE
  5
11C
330
4D
100
AcDbEntity
  8
1
  6
Continuous
 62
     5
100
AcDbLine
 10
9087.560512769099
 20
2852.510690411288
 30
0.0
 11
9087.560512769099
 21
2845.510690411288
 31
0.0
  0
LINE
  5
11D
330
4D
100
AcDbEntity
  8
1
  6
Continuous
 62
     5
100
AcDbLine
 10
9037.560512769097
 20
2852.510690411288
 30
0.0
 11
9037.560512769097
 21
2845.510690411288
 31
0.0
  0
LINE
  5
11E
330
4D
100
AcDbEntity
  8
1
  6
Continuous
 62
     5
100
AcDbLine
 10
9030.560512769097
 20
2845.510690411288
 30
0.0
 11
9030.560512769097
 21
2852.510690411288
 31
0.0
  0
LINE
  5
11F
330
4D
100
AcDbEntity
  8
1
  6
Continuous
 62
     5
100
AcDbLine
 10
9030.560512769097
 20
2873.510690411288
 30
0.0
 11
9030.560512769097
 21
2880.510690411288
 31
0.0
  0
LINE
  5
120
330
4D
100
AcDbEntity
  8
1
  6
Continuous
 62
     5
100
AcDbLine
 10
9030.560512769097
 20
2866.510690411288
 30
0.0
 11
9030.560512769097
 21
2873.510690411288
 31
0.0
  0
LINE
  5
121
330
4D
100
AcDbEntity
  8
1
  6
Continuous
 62
     5
100
AcDbLine
 10
9030.560512769097
 20
2859.510690411288
 30
0.0
 11
9030.560512769097
 21
2866.510690411288
 31
0.0
  0
LINE
  5
122
330
4D
100
AcDbEntity
  8
1
  6
Continuous
 62
     5
100
AcDbLine
 10
9030.560512769097
 20
2880.510690411288
 30
0.0
 11
9037.560512769097
 21
2880.510690411288
 31
0.0
  0
LINE
  5
123
330
4D
100
AcDbEntity
  8
1
  6
Continuous
 62
     5
100
AcDbLine
 10
9030.560512769097
 20
2873.510690411288
 30
0.0
 11
9037.560512769097
 21
2873.510690411288
 31
0.0
  0
LINE
  5
124
330
4D
100
AcDbEntity
  8
1
  6
Continuous
 62
     5
100
AcDbLine
 10
9030.560512769097
 20
2866.510690411288
 30
0.0
 11
9037.560512769097
 21
2866.510690411288
 31
0.0
  0
LINE
  5
125
330
4D
100
AcDbEntity
  8
1
  6
Continuous
 62
     5
100
AcDbLine
 10
9037.560512769097
 20
2880.510690411288
 30
0.0
 11
9037.560512769097
 21
2873.510690411288
 31
0.0
  0
LINE
  5
126
330
4D
100
AcDbEntity
  8
1
  6
Continuous
 62
     5
100
AcDbLine
 10
9037.560512769097
 20
2873.510690411288
 30
0.0
 11
9037.560512769097
 21
2866.510690411288
 31
0.0
  0
LINE
  5
127
330
4D
100
AcDbEntity
  8
1
  6
Continuous
 62
     5
100
AcDbLine
 10
9037.560512769097
 20
2866.510690411288
 30
0.0
 11
9037.560512769097
 21
2859.510690411288
 31
0.0
  0
LINE
  5
128
330
4D
100
AcDbEntity
  8
1
  6
Continuous
 62
     5
100
AcDbLine
 10
9030.560512769097
 20
2859.510690411288
 30
0.0
 11
9037.560512769097
 21
2859.510690411288
 31
0.0
  0
LINE
  5
129
330
4D
100
AcDbEntity
  8
1
  6
Continuous
 62
     5
100
AcDbLine
 10
9030.560512769097
 20
2852.510690411288
 30
0.0
 11
9030.560512769097
 21
2859.510690411288
 31
0.0
  0
LINE
  5
12A
330
4D
100
AcDbEntity
  8
1
  6
Continuous
 62
     5
100
AcDbLine
 10
9030.560512769097
 20
2852.510690411288
 30
0.0
 11
9037.560512769097
 21
2852.510690411288
 31
0.0
  0
LINE
  5
12B
330
4D
100
AcDbEntity
  8
1
  6
Continuous
 62
     5
100
AcDbLine
 10
9037.560512769097
 20
2859.510690411288
 30
0.0
 11
9037.560512769097
 21
2852.510690411288
 31
0.0
  0
LINE
  5
12C
330
4D
100
AcDbEntity
  8
1
  6
Continuous
 62
     5
100
AcDbLine
 10
9037.560512769097
 20
2880.510690411288
 30
0.0
 11
9087.560512769099
 21
2880.510690411288
 31
0.0
  0
LINE
  5
12D
330
4D
100
AcDbEntity
  8
1
  6
Continuous
 62
     5
100
AcDbLine
 10
9037.560512769097
 20
2873.510690411288
 30
0.0
 11
9087.560512769099
 21
2873.510690411288
 31
0.0
  0
LINE
  5
12E
330
4D
100
AcDbEntity
  8
1
  6
Continuous
 62
     5
100
AcDbLine
 10
9087.560512769099
 20
2880.510690411288
 30
0.0
 11
9087.560512769099
 21
2873.510690411288
 31
0.0
  0
LINE
  5
12F
330
4D
100
AcDbEntity
  8
1
  6
Continuous
 62
     5
100
AcDbLine
 10
9087.560512769099
 20
2880.510690411288
 30
0.0
 11
9115.5605127691
 21
2880.510690411288
 31
0.0
  0
LINE
  5
130
330
4D
100
AcDbEntity
  8
1
  6
Continuous
 62
     5
100
AcDbLine
 10
9087.560512769099
 20
2873.510690411288
 30
0.0
 11
9115.5605127691
 21
2873.510690411288
 31
0.0
  0
LINE
  5
131
330
4D
100
AcDbEntity
  8
1
  6
Continuous
 62
     5
100
AcDbLine
 10
9087.560512769099
 20
2873.510690411288
 30
0.0
 11
9087.560512769099
 21
2866.510690411288
 31
0.0
  0
LINE
  5
132
330
4D
100
AcDbEntity
  8
1
  6
Continuous
 62
     5
100
AcDbLine
 10
9087.560512769099
 20
2866.510690411288
 30
0.0
 11
9115.5605127691
 21
2866.510690411288
 31
0.0
  0
LINE
  5
133
330
4D
100
AcDbEntity
  8
1
  6
Continuous
 62
     5
100
AcDbLine
 10
9037.560512769097
 20
2866.510690411288
 30
0.0
 11
9087.560512769099
 21
2866.510690411288
 31
0.0
  0
LINE
  5
134
330
4D
100
AcDbEntity
  8
1
  6
Continuous
 62
     5
100
AcDbLine
 10
9037.560512769097
 20
2859.510690411288
 30
0.0
 11
9087.560512769099
 21
2859.510690411288
 31
0.0
  0
LINE
  5
135
330
4D
100
AcDbEntity
  8
1
  6
Continuous
 62
     5
100
AcDbLine
 10
9037.560512769097
 20
2852.510690411288
 30
0.0
 11
9087.560512769099
 21
2852.510690411288
 31
0.0
  0
LINE
  5
136
330
4D
100
AcDbEntity
  8
1
  6
Continuous
 62
     5
100
AcDbLine
 10
9087.560512769099
 20
2866.510690411288
 30
0.0
 11
9087.560512769099
 21
2859.510690411288
 31
0.0
  0
LINE
  5
137
330
4D
100
AcDbEntity
  8
1
  6
Continuous
 62
     5
100
AcDbLine
 10
9087.560512769099
 20
2859.510690411288
 30
0.0
 11
9087.560512769099
 21
2852.510690411288
 31
0.0
  0
LINE
  5
138
330
4D
100
AcDbEntity
  8
1
  6
Continuous
 62
     5
100
AcDbLine
 10
9087.560512769099
 20
2859.510690411288
 30
0.0
 11
9115.5605127691
 21
2859.510690411288
 31
0.0
  0
LINE
  5
139
330
4D
100
AcDbEntity
  8
1
  6
Continuous
 62
     5
100
AcDbLine
 10
9115.5605127691
 20
2880.510690411288
 30
0.0
 11
9115.5605127691
 21
2873.510690411288
 31
0.0
  0
LINE
  5
13A
330
4D
100
AcDbEntity
  8
1
  6
Continuous
 62
     5
100
AcDbLine
 10
9115.5605127691
 20
2873.510690411288
 30
0.0
 11
9115.5605127691
 21
2866.510690411288
 31
0.0
  0
LINE
  5
13B
330
4D
100
AcDbEntity
  8
1
  6
Continuous
 62
     5
100
AcDbLine
 10
9115.5605127691
 20
2866.510690411288
 30
0.0
 11
9115.5605127691
 21
2859.510690411288
 31
0.0
  0
LINE
  5
13C
330
4D
100
AcDbEntity
  8
1
  6
Continuous
 62
     5
100
AcDbLine
 10
9115.5605127691
 20
2859.510690411288
 30
0.0
 11
9115.5605127691
 21
2852.510690411288
 31
0.0
  0
LINE
  5
13D
330
4D
100
AcDbEntity
  8
1
  6
Continuous
 62
     5
100
AcDbLine
 10
9087.560512769099
 20
2852.510690411288
 30
0.0
 11
9115.5605127691
 21
2852.510690411288
 31
0.0
  0
LINE
  5
13E
330
4D
100
AcDbEntity
  8
1
  6
Continuous
 62
     5
100
AcDbLine
 10
9115.5605127691
 20
2880.510690411288
 30
0.0
 11
9122.5605127691
 21
2880.510690411288
 31
0.0
  0
LINE
  5
13F
330
4D
100
AcDbEntity
  8
1
  6
Continuous
 62
     5
100
AcDbLine
 10
9115.5605127691
 20
2873.510690411288
 30
0.0
 11
9122.5605127691
 21
2873.510690411288
 31
0.0
  0
LINE
  5
140
330
4D
100
AcDbEntity
  8
1
  6
Continuous
 62
     5
100
AcDbLine
 10
9122.5605127691
 20
2880.510690411288
 30
0.0
 11
9122.5605127691
 21
2873.510690411288
 31
0.0
  0
LINE
  5
141
330
4D
100
AcDbEntity
  8
1
  6
Continuous
 62
     5
100
AcDbLine
 10
9122.5605127691
 20
2873.510690411288
 30
0.0
 11
9122.5605127691
 21
2866.510690411288
 31
0.0
  0
LINE
  5
142
330
4D
100
AcDbEntity
  8
1
  6
Continuous
 62
     5
100
AcDbLine
 10
9122.5605127691
 20
2880.510690411288
 30
0.0
 11
9172.5605127691
 21
2880.510690411288
 31
0.0
  0
LINE
  5
143
330
4D
100
AcDbEntity
  8
1
  6
Continuous
 62
     5
100
AcDbLine
 10
9122.5605127691
 20
2873.510690411288
 30
0.0
 11
9172.5605127691
 21
2873.510690411288
 31
0.0
  0
LINE
  5
144
330
4D
100
AcDbEntity
  8
1
  6
Continuous
 62
     5
100
AcDbLine
 10
9122.5605127691
 20
2866.510690411288
 30
0.0
 11
9122.5605127691
 21
2859.510690411288
 31
0.0
  0
LINE
  5
145
330
4D
100
AcDbEntity
  8
1
  6
Continuous
 62
     5
100
AcDbLine
 10
9122.5605127691
 20
2859.510690411288
 30
0.0
 11
9122.5605127691
 21
2852.510690411288
 31
0.0
  0
LINE
  5
146
330
4D
100
AcDbEntity
  8
1
  6
Continuous
 62
     5
100
AcDbLine
 10
9115.5605127691
 20
2866.510690411288
 30
0.0
 11
9122.5605127691
 21
2866.510690411288
 31
0.0
  0
LINE
  5
147
330
4D
100
AcDbEntity
  8
1
  6
Continuous
 62
     5
100
AcDbLine
 10
9115.5605127691
 20
2859.510690411288
 30
0.0
 11
9122.5605127691
 21
2859.510690411288
 31
0.0
  0
LINE
  5
148
330
4D
100
AcDbEntity
  8
1
  6
Continuous
 62
     5
100
AcDbLine
 10
9115.5605127691
 20
2852.510690411288
 30
0.0
 11
9122.5605127691
 21
2852.510690411288
 31
0.0
  0
LINE
  5
149
330
4D
100
AcDbEntity
  8
1
  6
Continuous
 62
     5
100
AcDbLine
 10
9122.5605127691
 20
2866.510690411288
 30
0.0
 11
9172.5605127691
 21
2866.510690411288
 31
0.0
  0
LINE
  5
14A
330
4D
100
AcDbEntity
  8
1
  6
Continuous
 62
     5
100
AcDbLine
 10
9122.5605127691
 20
2859.510690411288
 30
0.0
 11
9172.5605127691
 21
2859.510690411288
 31
0.0
  0
LINE
  5
14B
330
4D
100
AcDbEntity
  8
1
  6
Continuous
 62
     5
100
AcDbLine
 10
9122.5605127691
 20
2852.510690411288
 30
0.0
 11
9172.5605127691
 21
2852.510690411288
 31
0.0
  0
LINE
  5
14C
330
4D
100
AcDbEntity
  8
1
  6
Continuous
 62
     5
100
AcDbLine
 10
9172.5605127691
 20
2880.510690411288
 30
0.0
 11
9172.5605127691
 21
2873.510690411288
 31
0.0
  0
LINE
  5
14D
330
4D
100
AcDbEntity
  8
1
  6
Continuous
 62
     5
100
AcDbLine
 10
9172.5605127691
 20
2873.510690411288
 30
0.0
 11
9172.5605127691
 21
2866.510690411288
 31
0.0
  0
LINE
  5
14E
330
4D
100
AcDbEntity
  8
1
  6
Continuous
 62
     5
100
AcDbLine
 10
9172.5605127691
 20
2866.510690411288
 30
0.0
 11
9172.5605127691
 21
2859.510690411288
 31
0.0
  0
LINE
  5
14F
330
4D
100
AcDbEntity
  8
1
  6
Continuous
 62
     5
100
AcDbLine
 10
9172.5605127691
 20
2859.510690411288
 30
0.0
 11
9172.5605127691
 21
2852.510690411288
 31
0.0
  0
LINE
  5
150
330
4D
100
AcDbEntity
  8
1
  6
Continuous
 62
     5
100
AcDbLine
 10
9172.5605127691
 20
2880.510690411288
 30
0.0
 11
9214.5605127691
 21
2880.510690411288
 31
0.0
  0
LINE
  5
151
330
4D
100
AcDbEntity
  8
1
  6
Continuous
 62
     5
100
AcDbLine
 10
9172.5605127691
 20
2873.510690411288
 30
0.0
 11
9214.5605127691
 21
2873.510690411288
 31
0.0
  0
LINE
  5
152
330
4D
100
AcDbEntity
  8
1
  6
Continuous
 62
     5
100
AcDbLine
 10
9172.5605127691
 20
2866.510690411288
 30
0.0
 11
9214.5605127691
 21
2866.510690411288
 31
0.0
  0
LINE
  5
153
330
4D
100
AcDbEntity
  8
1
  6
Continuous
 62
     5
100
AcDbLine
 10
9172.5605127691
 20
2859.510690411288
 30
0.0
 11
9214.5605127691
 21
2859.510690411288
 31
0.0
  0
LINE
  5
154
330
4D
100
AcDbEntity
  8
1
  6
Continuous
 62
     5
100
AcDbLine
 10
9172.5605127691
 20
2852.510690411288
 30
0.0
 11
9214.5605127691
 21
2852.510690411288
 31
0.0
  0
LINE
  5
155
330
4D
100
AcDbEntity
  8
1
  6
Continuous
 62
     5
100
AcDbLine
 10
9189.5605127691
 20
3066.510690411288
 30
0.0
 11
9214.5605127691
 21
3066.510690411288
 31
0.0
  0
LINE
  5
156
330
4D
100
AcDbEntity
  8
1
  6
Continuous
 62
     7
100
AcDbLine
 10
9189.5605127691
 20
3073.510690411288
 30
0.0
 11
9214.5605127691
 21
3073.510690411288
 31
0.0
  0
LINE
  5
157
330
4D
100
AcDbEntity
  8
1
  6
Continuous
 62
     5
100
AcDbLine
 10
9189.5605127691
 20
3073.510690411288
 30
0.0
 11
9189.5605127691
 21
3066.510690411288
 31
0.0
  0
LINE
  5
158
330
4D
100
AcDbEntity
  8
1
  6
Continuous
 62
     7
100
AcDbLine
 10
9189.5605127691
 20
3080.510690411288
 30
0.0
 11
9189.5605127691
 21
3073.510690411288
 31
0.0
  0
LINE
  5
159
330
4D
100
AcDbEntity
  8
1
  6
Continuous
 62
     7
100
AcDbLine
 10
9030.560512769099
 20
3080.510690411288
 30
0.0
 11
9030.560512769099
 21
3073.510690411288
 31
0.0
  0
LINE
  5
15A
330
4D
100
AcDbEntity
  8
1
  6
Continuous
 62
     7
100
AcDbLine
 10
9030.560512769099
 20
3073.510690411288
 30
0.0
 11
9037.5605127691
 21
3073.510690411288
 31
0.0
  0
LINE
  5
15B
330
4D
100
AcDbEntity
  8
1
  6
Continuous
 62
     7
100
AcDbLine
 10
9037.5605127691
 20
3073.510690411288
 30
0.0
 11
9134.5605127691
 21
3073.510690411288
 31
0.0
  0
LINE
  5
15C
330
4D
100
AcDbEntity
  8
1
  6
Continuous
 62
     7
100
AcDbLine
 10
9037.5605127691
 20
3080.510690411288
 30
0.0
 11
9037.5605127691
 21
3073.510690411288
 31
0.0
  0
LINE
  5
15D
330
4D
100
AcDbEntity
  8
1
  6
Continuous
 62
     7
100
AcDbLine
 10
9174.560512769099
 20
3080.510690411288
 30
0.0
 11
9174.560512769099
 21
3073.510690411288
 31
0.0
  0
LINE
  5
15E
330
4D
100
AcDbEntity
  8
1
  6
Continuous
 62
     7
100
AcDbLine
 10
9174.560512769099
 20
3073.510690411288
 30
0.0
 11
9189.5605127691
 21
3073.510690411288
 31
0.0
  0
LINE
  5
15F
330
4D
100
AcDbEntity
  8
1
  6
Continuous
 62
     7
100
AcDbLine
 10
9149.560512769099
 20
3080.510690411288
 30
0.0
 11
9149.560512769099
 21
3073.510690411288
 31
0.0
  0
LINE
  5
160
330
4D
100
AcDbEntity
  8
1
  6
Continuous
 62
     7
100
AcDbLine
 10
9149.560512769099
 20
3073.510690411288
 30
0.0
 11
9174.560512769099
 21
3073.510690411288
 31
0.0
  0
LINE
  5
161
330
4D
100
AcDbEntity
  8
1
  6
Continuous
 62
     7
100
AcDbLine
 10
9134.5605127691
 20
3080.510690411288
 30
0.0
 11
9134.5605127691
 21
3073.510690411288
 31
0.0
  0
LINE
  5
162
330
4D
100
AcDbEntity
  8
1
  6
Continuous
 62
     5
100
AcDbLine
 10
9030.560512769099
 20
3073.510690411288
 30
0.0
 11
9030.560512769099
 21
3066.510690411288
 31
0.0
  0
LINE
  5
163
330
4D
100
AcDbEntity
  8
1
  6
Continuous
 62
     5
100
AcDbLine
 10
9030.560512769099
 20
3066.510690411288
 30
0.0
 11
9037.5605127691
 21
3066.510690411288
 31
0.0
  0
LINE
  5
164
330
4D
100
AcDbEntity
  8
1
  6
Continuous
 62
     5
100
AcDbLine
 10
9174.560512769099
 20
3073.510690411288
 30
0.0
 11
9174.560512769099
 21
3066.510690411288
 31
0.0
  0
LINE
  5
165
330
4D
100
AcDbEntity
  8
1
  6
Continuous
 62
     5
100
AcDbLine
 10
9174.560512769099
 20
3066.510690411288
 30
0.0
 11
9189.5605127691
 21
3066.510690411288
 31
0.0
  0
LINE
  5
166
330
4D
100
AcDbEntity
  8
1
  6
Continuous
 62
     5
100
AcDbLine
 10
9149.560512769099
 20
3073.510690411288
 30
0.0
 11
9149.560512769099
 21
3066.510690411288
 31
0.0
  0
LINE
  5
167
330
4D
100
AcDbEntity
  8
1
  6
Continuous
 62
     5
100
AcDbLine
 10
9149.560512769099
 20
3066.510690411288
 30
0.0
 11
9174.560512769099
 21
3066.510690411288
 31
0.0
  0
LINE
  5
168
330
4D
100
AcDbEntity
  8
1
  6
Continuous
 62
     5
100
AcDbLine
 10
9134.5605127691
 20
3073.510690411288
 30
0.0
 11
9134.5605127691
 21
3066.510690411288
 31
0.0
  0
LINE
  5
169
330
4D
100
AcDbEntity
  8
1
  6
Continuous
 62
     7
100
AcDbLine
 10
9134.5605127691
 20
3073.510690411288
 30
0.0
 11
9149.560512769099
 21
3073.510690411288
 31
0.0
  0
LINE
  5
16A
330
4D
100
AcDbEntity
  8
1
  6
Continuous
 62
     5
100
AcDbLine
 10
9134.5605127691
 20
3066.510690411288
 30
0.0
 11
9149.560512769099
 21
3066.510690411288
 31
0.0
  0
LINE
  5
16B
330
4D
100
AcDbEntity
  8
1
  6
Continuous
 62
     5
100
AcDbLine
 10
9037.5605127691
 20
3073.510690411288
 30
0.0
 11
9037.5605127691
 21
3066.510690411288
 31
0.0
  0
LINE
  5
16C
330
4D
100
AcDbEntity
  8
1
  6
Continuous
 62
     5
100
AcDbLine
 10
9037.5605127691
 20
3066.510690411288
 30
0.0
 11
9134.5605127691
 21
3066.510690411288
 31
0.0
  0
LINE
  5
16D
330
4D
100
AcDbEntity
  8
1
  6
Continuous
 62
     7
100
AcDbLine
 10
9058.5605127691
 20
2831.510690411288
 30
0.0
 11
9058.5605127691
 21
2824.510690411288
 31
0.0
  0
LINE
  5
16E
330
4D
100
AcDbEntity
  8
1
  6
Continuous
 62
     7
100
AcDbLine
 10
9068.560512769101
 20
2824.510690411288
 30
0.0
 11
9120.060512769098
 21
2824.510690411288
 31
0.0
  0
LINE
  5
16F
330
4D
100
AcDbEntity
  8
1
  6
Continuous
 62
     7
100
AcDbLine
 10
9065.560512769101
 20
2824.510690411288
 30
0.0
 11
9068.560512769101
 21
2824.510690411288
 31
0.0
  0
LINE
  5
170
330
4D
100
AcDbEntity
  8
1
  6
Continuous
 62
     7
100
AcDbLine
 10
9046.560512769099
 20
2824.510690411288
 30
0.0
 11
9065.560512769101
 21
2824.510690411288
 31
0.0
  0
LINE
  5
171
330
4D
100
AcDbEntity
  8
1
  6
Continuous
 62
     7
100
AcDbLine
 10
9123.060512769098
 20
2803.510690411288
 30
0.0
 11
9158.560512769099
 21
2803.510690411288
 31
0.0
  0
LINE
  5
172
330
4D
100
AcDbEntity
  8
1
  6
Continuous
 62
     7
100
AcDbLine
 10
9123.060512769098
 20
2810.510690411288
 30
0.0
 11
9158.560512769099
 21
2810.510690411288
 31
0.0
  0
LINE
  5
173
330
4D
100
AcDbEntity
  8
1
  6
Continuous
 62
     7
100
AcDbLine
 10
9123.060512769098
 20
2810.510690411288
 30
0.0
 11
9123.060512769098
 21
2803.510690411288
 31
0.0
  0
LINE
  5
174
330
4D
100
AcDbEntity
  8
1
  6
Continuous
 62
     7
100
AcDbLine
 10
9120.060512769098
 20
2810.510690411288
 30
0.0
 11
9123.060512769098
 21
2810.510690411288
 31
0.0
  0
LINE
  5
175
330
4D
100
AcDbEntity
  8
1
  6
Continuous
 62
     7
100
AcDbLine
 10
9123.060512769098
 20
2817.510690411288
 30
0.0
 11
9158.560512769099
 21
2817.510690411288
 31
0.0
  0
LINE
  5
176
330
4D
100
AcDbEntity
  8
1
  6
Continuous
 62
     7
100
AcDbLine
 10
9123.060512769098
 20
2817.510690411288
 30
0.0
 11
9123.060512769098
 21
2810.510690411288
 31
0.0
  0
LINE
  5
177
330
4D
100
AcDbEntity
  8
1
  6
Continuous
 62
     7
100
AcDbLine
 10
9120.060512769098
 20
2817.510690411288
 30
0.0
 11
9123.060512769098
 21
2817.510690411288
 31
0.0
  0
LINE
  5
178
330
4D
100
AcDbEntity
  8
1
  6
Continuous
 62
     7
100
AcDbLine
 10
9123.060512769098
 20
2824.510690411288
 30
0.0
 11
9123.060512769098
 21
2817.510690411288
 31
0.0
  0
LINE
  5
179
330
4D
100
AcDbEntity
  8
1
  6
Continuous
 62
     7
100
AcDbLine
 10
9123.060512769098
 20
2824.510690411288
 30
0.0
 11
9158.560512769099
 21
2824.510690411288
 31
0.0
  0
LINE
  5
17A
330
4D
100
AcDbEntity
  8
1
  6
Continuous
 62
     7
100
AcDbLine
 10
9030.560512769099
 20
2831.510690411288
 30
0.0
 11
9030.560512769099
 21
2803.510690411287
 31
0.0
  0
LINE
  5
17B
330
4D
100
AcDbEntity
  8
1
  6
Continuous
 62
     7
100
AcDbLine
 10
9030.560512769099
 20
2831.510690411288
 30
0.0
 11
9158.0605127691
 21
2831.510690411288
 31
0.0
  0
LINE
  5
17C
330
4D
100
AcDbEntity
  8
1
  6
Continuous
 62
     7
100
AcDbLine
 10
9030.560512769099
 20
2803.510690411287
 30
0.0
 11
9120.060512769098
 21
2803.510690411288
 31
0.0
  0
LINE
  5
17D
330
4D
100
AcDbEntity
  8
1
  6
Continuous
 62
     7
100
AcDbLine
 10
9214.5605127691
 20
2838.510690411288
 30
0.0
 11
9214.5605127691
 21
2845.510690411288
 31
0.0
  0
LINE
  5
17E
330
4D
100
AcDbEntity
  8
1
  6
Continuous
 62
     7
100
AcDbLine
 10
9158.560512769099
 20
2803.510690411288
 30
0.0
 11
9204.0605127691
 21
2803.510690411288
 31
0.0
  0
LINE
  5
17F
330
4D
100
AcDbEntity
  8
1
  6
Continuous
 62
     7
100
AcDbLine
 10
9158.560512769099
 20
2810.510690411288
 30
0.0
 11
9204.0605127691
 21
2810.510690411288
 31
0.0
  0
LINE
  5
180
330
4D
100
AcDbEntity
  8
1
  6
Continuous
 62
     7
100
AcDbLine
 10
9158.560512769099
 20
2810.510690411288
 30
0.0
 11
9204.0605127691
 21
2810.510690411288
 31
0.0
  0
LINE
  5
181
330
4D
100
AcDbEntity
  8
1
  6
Continuous
 62
     7
100
AcDbLine
 10
9214.5605127691
 20
2817.510690411288
 30
0.0
 11
9214.5605127691
 21
2810.510690411288
 31
0.0
  0
LINE
  5
182
330
4D
100
AcDbEntity
  8
1
  6
Continuous
 62
     7
100
AcDbLine
 10
9158.560512769099
 20
2817.510690411288
 30
0.0
 11
9214.5605127691
 21
2817.510690411288
 31
0.0
  0
LINE
  5
183
330
4D
100
AcDbEntity
  8
1
  6
Continuous
 62
     7
100
AcDbLine
 10
9214.5605127691
 20
2824.510690411288
 30
0.0
 11
9214.5605127691
 21
2817.510690411288
 31
0.0
  0
LINE
  5
184
330
4D
100
AcDbEntity
  8
1
  6
Continuous
 62
     7
100
AcDbLine
 10
9158.560512769099
 20
2824.510690411288
 30
0.0
 11
9214.5605127691
 21
2824.510690411288
 31
0.0
  0
LINE
  5
185
330
4D
100
AcDbEntity
  8
1
  6
Continuous
 62
     7
100
AcDbLine
 10
9214.5605127691
 20
2831.510690411288
 30
0.0
 11
9214.5605127691
 21
2824.510690411288
 31
0.0
  0
LINE
  5
186
330
4D
100
AcDbEntity
  8
1
  6
Continuous
 62
     7
100
AcDbLine
 10
9158.560512769099
 20
2831.510690411288
 30
0.0
 11
9214.5605127691
 21
2831.510690411288
 31
0.0
  0
LINE
  5
187
330
4D
100
AcDbEntity
  8
1
  6
Continuous
 62
     7
100
AcDbLine
 10
9030.560512769099
 20
2824.510690411288
 30
0.0
 11
9043.560512769101
 21
2824.510690411288
 31
0.0
  0
LINE
  5
188
330
4D
100
AcDbEntity
  8
1
  6
Continuous
 62
     7
100
AcDbLine
 10
9214.5605127691
 20
2838.510690411288
 30
0.0
 11
9214.5605127691
 21
2831.510690411288
 31
0.0
  0
LINE
  5
189
330
4D
100
AcDbEntity
  8
1
  6
Continuous
 62
     7
100
AcDbLine
 10
9158.0605127691
 20
2831.510690411288
 30
0.0
 11
9158.560512769099
 21
2831.510690411288
 31
0.0
  0
LINE
  5
18A
330
4D
100
AcDbEntity
  8
1
  6
Continuous
 62
     7
100
AcDbLine
 10
9087.560512769099
 20
2831.510690411288
 30
0.0
 11
9087.560512769099
 21
2838.510690411288
 31
0.0
  0
LINE
  5
18B
330
4D
100
AcDbEntity
  8
1
  6
DASH_CENTER
 62
     2
100
AcDbLine
 10
9034.259088382889
 20
2830.672660298649
 30
0.0
 11
9034.259088382889
 21
2824.867902566764
 31
0.0
  0
LINE
  5
18C
330
4D
100
AcDbEntity
  8
1
  6
DASH_CENTER
 62
     2
100
AcDbLine
 10
9031.360512769101
 20
2827.845953748078
 30
0.0
 11
9042.760512769101
 21
2827.845953748078
 31
0.0
  0
LINE
  5
18D
330
4D
100
AcDbEntity
  8
1
  6
Continuous
 62
     7
100
AcDbLine
 10
9042.160512769099
 20
2825.535225662564
 30
0.0
 11
9038.33739073028
 21
2826.685881329008
 31
0.0
  0
LINE
  5
18E
330
4D
100
AcDbEntity
  8
1
  6
Continuous
 62
     7
100
AcDbLine
 10
9042.160512769099
 20
2830.156681833592
 30
0.0
 11
9042.160512769099
 21
2825.535225662564
 31
0.0
  0
LINE
  5
18F
330
4D
100
AcDbEntity
  8
1
  6
Continuous
 62
     7
100
AcDbLine
 10
9038.154725794063
 20
2828.969931363962
 30
0.0
 11
9042.160512769099
 21
2830.156681833592
 31
0.0
  0
LINE
  5
190
330
4D
100
AcDbEntity
  8
1
  6
Continuous
 62
     7
100
AcDbLine
 10
9038.154725794063
 20
2826.721976132195
 30
0.0
 11
9038.154725794063
 21
2828.969931363962
 31
0.0
  0
LINE
  5
191
330
4D
100
AcDbEntity
  8
1
  6
Continuous
 62
     7
100
AcDbLine
 10
9046.560512769099
 20
2824.510690411288
 30
0.0
 11
9046.560512769099
 21
2831.510690411288
 31
0.0
  0
LINE
  5
192
330
4D
100
AcDbEntity
  8
1
  6
Continuous
 62
     7
100
AcDbLine
 10
9043.560512769101
 20
2824.510690411288
 30
0.0
 11
9046.560512769099
 21
2824.510690411288
 31
0.0
  0
LINE
  5
193
330
4D
100
AcDbEntity
  8
1
  6
Continuous
 62
     7
100
AcDbLine
 10
9043.560512769101
 20
2831.510690411288
 30
0.0
 11
9043.560512769101
 21
2824.510690411288
 31
0.0
  0
LINE
  5
194
330
4D
100
AcDbEntity
  8
1
  6
Continuous
 62
     7
100
AcDbLine
 10
9120.060512769098
 20
2824.510690411288
 30
0.0
 11
9123.060512769098
 21
2824.510690411288
 31
0.0
  0
LINE
  5
195
330
4D
100
AcDbEntity
  8
1
  6
Continuous
 62
     7
100
AcDbLine
 10
9120.060512769098
 20
2831.510690411288
 30
0.0
 11
9120.060512769098
 21
2824.510690411288
 31
0.0
  0
LINE
  5
196
330
4D
100
AcDbEntity
  8
1
  6
Continuous
 62
     7
100
AcDbLine
 10
9120.060512769098
 20
2824.510690411288
 30
0.0
 11
9120.060512769098
 21
2817.510690411288
 31
0.0
  0
LINE
  5
197
330
4D
100
AcDbEntity
  8
1
  6
Continuous
 62
     7
100
AcDbLine
 10
9123.060512769098
 20
2831.510690411288
 30
0.0
 11
9123.060512769098
 21
2824.510690411288
 31
0.0
  0
LINE
  5
198
330
4D
100
AcDbEntity
  8
1
  6
Continuous
 62
     4
100
AcDbLine
 10
9136.560512769099
 20
2831.510690411288
 30
0.0
 11
9136.560512769099
 21
2803.510690411288
 31
0.0
  0
LINE
  5
199
330
4D
100
AcDbEntity
  8
1
  6
Continuous
 62
     7
100
AcDbLine
 10
9120.060512769098
 20
2810.510690411288
 30
0.0
 11
9120.060512769098
 21
2803.510690411288
 31
0.0
  0
LINE
  5
19A
330
4D
100
AcDbEntity
  8
1
  6
Continuous
 62
     7
100
AcDbLine
 10
9120.060512769098
 20
2803.510690411288
 30
0.0
 11
9123.060512769098
 21
2803.510690411288
 31
0.0
  0
LINE
  5
19B
330
4D
100
AcDbEntity
  8
1
  6
Continuous
 62
     7
100
AcDbLine
 10
9120.060512769098
 20
2817.510690411288
 30
0.0
 11
9120.060512769098
 21
2810.510690411288
 31
0.0
  0
LINE
  5
19C
330
4D
100
AcDbEntity
  8
1
  6
Continuous
 62
     7
100
AcDbLine
 10
9161.560512769099
 20
2831.510690411288
 30
0.0
 11
9161.560512769099
 21
2824.510690411288
 31
0.0
  0
LINE
  5
19D
330
4D
100
AcDbEntity
  8
1
  6
Continuous
 62
     7
100
AcDbLine
 10
9065.560512769101
 20
2831.510690411288
 30
0.0
 11
9065.560512769101
 21
2824.510690411288
 31
0.0
  0
LINE
  5
19E
330
4D
100
AcDbEntity
  8
1
  6
Continuous
 62
     7
100
AcDbLine
 10
9068.560512769101
 20
2831.510690411288
 30
0.0
 11
9068.560512769101
 21
2824.510690411288
 31
0.0
  0
LINE
  5
19F
330
4D
100
AcDbEntity
  8
1
  6
Continuous
 62
     7
100
AcDbLine
 10
9158.0605127691
 20
2831.510690411288
 30
0.0
 11
9158.560512769099
 21
2831.510690411288
 31
0.0
  0
LINE
  5
1A0
330
4D
100
AcDbEntity
  8
1
  6
Continuous
 62
     7
100
AcDbLine
 10
9158.560512769099
 20
2831.510690411288
 30
0.0
 11
9158.560512769099
 21
2824.510690411288
 31
0.0
  0
LINE
  5
1A1
330
4D
100
AcDbEntity
  8
1
  6
Continuous
 62
     7
100
AcDbLine
 10
9158.560512769099
 20
2810.510690411288
 30
0.0
 11
9158.560512769099
 21
2817.510690411288
 31
0.0
  0
LINE
  5
1A2
330
4D
100
AcDbEntity
  8
1
  6
Continuous
 62
     7
100
AcDbLine
 10
9204.0605127691
 20
2803.510690411288
 30
0.0
 11
9214.5605127691
 21
2803.510690411287
 31
0.0
  0
LINE
  5
1A3
330
4D
100
AcDbEntity
  8
1
  6
Continuous
 62
     7
100
AcDbLine
 10
9204.0605127691
 20
2810.510690411288
 30
0.0
 11
9214.5605127691
 21
2810.510690411288
 31
0.0
  0
LINE
  5
1A4
330
4D
100
AcDbEntity
  8
1
  6
Continuous
 62
     4
100
AcDbLine
 10
9204.0605127691
 20
2803.510690411288
 30
0.0
 11
9204.0605127691
 21
2810.510690411288
 31
0.0
  0
LINE
  5
1A5
330
4D
100
AcDbEntity
  8
1
  6
Continuous
 62
     7
100
AcDbLine
 10
9158.560512769099
 20
2817.510690411288
 30
0.0
 11
9158.560512769099
 21
2824.510690411288
 31
0.0
  0
LINE
  5
1A6
330
4D
100
AcDbEntity
  8
1
  6
Continuous
 62
     7
100
AcDbLine
 10
9161.560512769099
 20
2817.510690411288
 30
0.0
 11
9161.560512769099
 21
2824.510690411288
 31
0.0
  0
LINE
  5
1A7
330
4D
100
AcDbEntity
  8
1
  6
Continuous
 62
     7
100
AcDbLine
 10
9161.560512769099
 20
2810.510690411288
 30
0.0
 11
9161.560512769099
 21
2817.510690411288
 31
0.0
  0
LINE
  5
1A8
330
4D
100
AcDbEntity
  8
1
  6
Continuous
 62
     7
100
AcDbLine
 10
9158.560512769099
 20
2803.510690411288
 30
0.0
 11
9158.560512769099
 21
2810.510690411288
 31
0.0
  0
LINE
  5
1A9
330
4D
100
AcDbEntity
  8
1
  6
Continuous
 62
     7
100
AcDbLine
 10
9161.560512769099
 20
2803.510690411288
 30
0.0
 11
9161.560512769099
 21
2810.510690411288
 31
0.0
  0
LINE
  5
1AA
330
4D
100
AcDbEntity
  8
1
  6
Continuous
 62
     7
100
AcDbLine
 10
9030.560512769099
 20
2838.510690411288
 30
0.0
 11
9030.560512769099
 21
2831.510690411288
 31
0.0
  0
LINE
  5
1AB
330
4D
100
AcDbEntity
  8
1
  6
Continuous
 62
     7
100
AcDbLine
 10
9172.5605127691
 20
2838.510690411288
 30
0.0
 11
9172.5605127691
 21
2831.510690411288
 31
0.0
  0
LINE
  5
1AC
330
4D
100
AcDbEntity
  8
1
  6
Continuous
 62
     7
100
AcDbLine
 10
9172.5605127691
 20
2838.510690411288
 30
0.0
 11
9122.5605127691
 21
2838.510690411288
 31
0.0
  0
LINE
  5
1AD
330
4D
100
AcDbEntity
  8
1
  6
Continuous
 62
     7
100
AcDbLine
 10
9122.5605127691
 20
2838.510690411288
 30
0.0
 11
9122.5605127691
 21
2831.510690411288
 31
0.0
  0
LINE
  5
1AE
330
4D
100
AcDbEntity
  8
1
  6
Continuous
 62
     7
100
AcDbLine
 10
9122.5605127691
 20
2838.510690411288
 30
0.0
 11
9115.5605127691
 21
2838.510690411288
 31
0.0
  0
LINE
  5
1AF
330
4D
100
AcDbEntity
  8
1
  6
Continuous
 62
     7
100
AcDbLine
 10
9115.5605127691
 20
2838.510690411288
 30
0.0
 11
9115.5605127691
 21
2831.510690411288
 31
0.0
  0
LINE
  5
1B0
330
4D
100
AcDbEntity
  8
1
  6
Continuous
 62
     7
100
AcDbLine
 10
9115.5605127691
 20
2838.510690411288
 30
0.0
 11
9087.560512769099
 21
2838.510690411288
 31
0.0
  0
LINE
  5
1B1
330
4D
100
AcDbEntity
  8
1
  6
Continuous
 62
     7
100
AcDbLine
 10
9087.560512769099
 20
2838.510690411288
 30
0.0
 11
9037.5605127691
 21
2838.510690411288
 31
0.0
  0
LINE
  5
1B2
330
4D
100
AcDbEntity
  8
1
  6
Continuous
 62
     7
100
AcDbLine
 10
9037.5605127691
 20
2838.510690411288
 30
0.0
 11
9037.5605127691
 21
2831.510690411288
 31
0.0
  0
LINE
  5
1B3
330
4D
100
AcDbEntity
  8
1
  6
Continuous
 62
     7
100
AcDbLine
 10
9037.5605127691
 20
2838.510690411288
 30
0.0
 11
9030.560512769099
 21
2838.510690411288
 31
0.0
  0
LINE
  5
1B4
330
4D
100
AcDbEntity
  8
1
  6
Continuous
 62
     5
100
AcDbLine
 10
9030.560512769099
 20
2838.510690411288
 30
0.0
 11
9030.560512769099
 21
2845.510690411288
 31
0.0
  0
LINE
  5
1B5
330
4D
100
AcDbEntity
  8
1
  6
Continuous
 62
     5
100
AcDbLine
 10
9030.560512769099
 20
2845.510690411288
 30
0.0
 11
9037.5605127691
 21
2845.510690411288
 31
0.0
  0
LINE
  5
1B6
330
4D
100
AcDbEntity
  8
1
  6
Continuous
 62
     5
100
AcDbLine
 10
9172.5605127691
 20
2845.510690411288
 30
0.0
 11
9172.5605127691
 21
2838.510690411288
 31
0.0
  0
LINE
  5
1B7
330
4D
100
AcDbEntity
  8
1
  6
Continuous
 62
     5
100
AcDbLine
 10
9122.5605127691
 20
2845.510690411288
 30
0.0
 11
9122.5605127691
 21
2838.510690411288
 31
0.0
  0
LINE
  5
1B8
330
4D
100
AcDbEntity
  8
1
  6
Continuous
 62
     5
100
AcDbLine
 10
9122.5605127691
 20
2845.510690411288
 30
0.0
 11
9172.5605127691
 21
2845.510690411288
 31
0.0
  0
LINE
  5
1B9
330
4D
100
AcDbEntity
  8
1
  6
Continuous
 62
     5
100
AcDbLine
 10
9115.5605127691
 20
2845.510690411288
 30
0.0
 11
9115.5605127691
 21
2838.510690411288
 31
0.0
  0
LINE
  5
1BA
330
4D
100
AcDbEntity
  8
1
  6
Continuous
 62
     5
100
AcDbLine
 10
9115.5605127691
 20
2845.510690411288
 30
0.0
 11
9122.5605127691
 21
2845.510690411288
 31
0.0
  0
LINE
  5
1BB
330
4D
100
AcDbEntity
  8
1
  6
Continuous
 62
     5
100
AcDbLine
 10
9087.560512769099
 20
2845.510690411288
 30
0.0
 11
9087.560512769099
 21
2838.510690411288
 31
0.0
  0
LINE
  5
1BC
330
4D
100
AcDbEntity
  8
1
  6
Continuous
 62
     5
100
AcDbLine
 10
9087.560512769099
 20
2845.510690411288
 30
0.0
 11
9115.5605127691
 21
2845.510690411288
 31
0.0
  0
LINE
  5
1BD
330
4D
100
AcDbEntity
  8
1
  6
Continuous
 62
     5
100
AcDbLine
 10
9037.5605127691
 20
2845.510690411288
 30
0.0
 11
9037.5605127691
 21
2838.510690411288
 31
0.0
  0
LINE
  5
1BE
330
4D
100
AcDbEntity
  8
1
  6
Continuous
 62
     5
100
AcDbLine
 10
9037.5605127691
 20
2845.510690411288
 30
0.0
 11
9087.560512769099
 21
2845.510690411288
 31
0.0
  0
LINE
  5
1BF
330
4D
100
AcDbEntity
  8
1
  6
Continuous
 62
     7
100
AcDbLine
 10
9214.5605127691
 20
2810.510690411288
 30
0.0
 11
9214.5605127691
 21
2803.510690411287
 31
0.0
  0
LINE
  5
1C0
330
4D
100
AcDbEntity
  8
1
  6
Continuous
 62
     7
100
AcDbLine
 10
9172.5605127691
 20
2838.510690411288
 30
0.0
 11
9214.5605127691
 21
2838.510690411288
 31
0.0
  0
LINE
  5
1C1
330
4D
100
AcDbEntity
  8
1
  6
Continuous
 62
     5
100
AcDbLine
 10
9172.5605127691
 20
2845.510690411288
 30
0.0
 11
9214.5605127691
 21
2845.510690411288
 31
0.0
  0
LINE
  5
1C2
330
4D
100
AcDbEntity
  8
1
  6
Continuous
 62
     7
100
AcDbLine
 10
9038.638595942398
 20
2812.042083026233
 30
0.0
 11
9036.319755362688
 21
2812.042083026233
 31
0.0
  0
LINE
  5
1C3
330
4D
100
AcDbEntity
  8
1
  6
Continuous
 62
     7
100
AcDbLine
 10
9036.319755362688
 20
2812.042083026233
 30
0.0
 11
9036.319755362688
 21
2812.621793171161
 31
0.0
  0
LINE
  5
1C4
330
4D
100
AcDbEntity
  8
1
  6
Continuous
 62
     7
100
AcDbLine
 10
9036.46468289892
 20
2812.766720707392
 30
0.0
 11
9036.819797672441
 21
2812.766720707392
 31
0.0
  0
LINE
  5
1C5
330
4D
100
AcDbEntity
  8
1
  6
Continuous
 62
     7
100
AcDbLine
 10
9037.166284902857
 20
2813.023107770899
 30
0.0
 11
9039.92366235373
 21
2822.042083026233
 31
0.0
  0
LINE
  5
1C6
330
4D
100
AcDbEntity
  8
1
  6
Continuous
 62
     7
100
AcDbLine
 10
9039.92366235373
 20
2822.042083026233
 30
0.0
 11
9042.284754922309
 21
2822.042083026233
 31
0.0
  0
LINE
  5
1C7
330
4D
100
AcDbEntity
  8
1
  6
Continuous
 62
     7
100
AcDbLine
 10
9042.284754922309
 20
2822.042083026233
 30
0.0
 11
9045.042132373181
 21
2813.023107770899
 31
0.0
  0
LINE
  5
1C8
330
4D
100
AcDbEntity
  8
1
  6
Continuous
 62
     7
100
AcDbLine
 10
9045.388619603603
 20
2812.766720707392
 30
0.0
 11
9045.884972753992
 21
2812.766720707392
 31
0.0
  0
LINE
  5
1C9
330
4D
100
AcDbEntity
  8
1
  6
Continuous
 62
     7
100
AcDbLine
 10
9046.029900290225
 20
2812.621793171161
 30
0.0
 11
9046.029900290225
 21
2812.042083026233
 31
0.0
  0
LINE
  5
1CA
330
4D
100
AcDbEntity
  8
1
  6
Continuous
 62
     7
100
AcDbLine
 10
9046.029900290225
 20
2812.042083026233
 30
0.0
 11
9041.682074203269
 21
2812.042083026233
 31
0.0
  0
LINE
  5
1CB
330
4D
100
AcDbEntity
  8
1
  6
Continuous
 62
     7
100
AcDbLine
 10
9041.682074203269
 20
2812.042083026233
 30
0.0
 11
9041.682074203269
 21
2812.621793171161
 31
0.0
  0
LINE
  5
1CC
330
4D
100
AcDbEntity
  8
1
  6
Continuous
 62
     7
100
AcDbLine
 10
9041.827001739498
 20
2812.766720707392
 30
0.0
 11
9042.228233872373
 21
2812.766720707392
 31
0.0
  0
LINE
  5
1CD
330
4D
100
AcDbEntity
  8
1
  6
Continuous
 62
     7
100
AcDbLine
 10
9042.505423656709
 20
2813.141321201515
 30
0.0
 11
9041.796482946081
 21
2815.460161781225
 31
0.0
  0
LINE
  5
1CE
330
4D
100
AcDbEntity
  8
1
  6
Continuous
 62
     7
100
AcDbLine
 10
9041.519293161742
 20
2815.66527143203
 30
0.0
 11
9038.892684152401
 21
2815.66527143203
 31
0.0
  0
LINE
  5
1CF
330
4D
100
AcDbEntity
  8
1
  6
Continuous
 62
     7
100
AcDbLine
 10
9038.684791814148
 20
2815.511439193926
 30
0.0
 11
9037.931542309104
 21
2813.047671077984
 31
0.0
  0
LINE
  5
1D0
330
4D
100
AcDbEntity
  8
1
  6
Continuous
 62
     7
100
AcDbLine
 10
9038.139434647355
 20
2812.766720707394
 30
0.0
 11
9038.493668406166
 21
2812.766720707392
 31
0.0
  0
LINE
  5
1D1
330
4D
100
AcDbEntity
  8
1
  6
Continuous
 62
     7
100
AcDbLine
 10
9038.638595942398
 20
2812.621793171161
 30
0.0
 11
9038.638595942398
 21
2812.042083026233
 31
0.0
  0
LINE
  5
1D2
330
4D
100
AcDbEntity
  8
1
  6
Continuous
 62
     7
100
AcDbLine
 10
9040.024906502697
 20
2819.894756832037
 30
0.0
 11
9039.039262169461
 21
2816.670859483781
 31
0.0
  0
LINE
  5
1D3
330
4D
100
AcDbEntity
  8
1
  6
Continuous
 62
     7
100
AcDbLine
 10
9039.247154507712
 20
2816.389909113189
 30
0.0
 11
9041.218443174185
 21
2816.389909113189
 31
0.0
  0
LINE
  5
1D4
330
4D
100
AcDbEntity
  8
1
  6
Continuous
 62
     7
100
AcDbLine
 10
9041.426335512436
 20
2816.670859483781
 30
0.0
 11
9040.440691179201
 21
2819.894756832037
 31
0.0
  0
LINE
  5
1D5
330
4D
100
AcDbEntity
  8
1
  6
Continuous
 62
     7
100
AcDbLine
 10
9049.435697391674
 20
2822.042083026233
 30
0.0
 11
9053.421204638048
 21
2822.042083026233
 31
0.0
  0
LINE
  5
1D6
330
4D
100
AcDbEntity
  8
1
  6
Continuous
 62
     7
100
AcDbLine
 10
9053.421204638048
 20
2822.042083026233
 30
0.0
 11
9053.493479056363
 21
2819.807418351406
 31
0.0
  0
LINE
  5
1D7
330
4D
100
AcDbEntity
  8
1
  6
Continuous
 62
     7
100
AcDbLine
 10
9052.785748424154
 20
2819.686918378555
 30
0.0
 11
9052.495950625043
 21
2820.607558532485
 31
0.0
  0
LINE
  5
1D8
330
4D
100
AcDbEntity
  8
1
  6
Continuous
 62
     7
100
AcDbLine
 10
9051.528267429032
 20
2821.317445345073
 30
0.0
 11
9051.319755362689
 21
2821.317445345073
 31
0.0
  0
LINE
  5
1D9
330
4D
100
AcDbEntity
  8
1
  6
Continuous
 62
     7
100
AcDbLine
 10
9050.812508985876
 20
2820.810198968262
 30
0.0
 11
9050.812508985876
 21
2813.129039547972
 31
0.0
  0
LINE
  5
1DA
330
4D
100
AcDbEntity
  8
1
  6
Continuous
 62
     7
100
AcDbLine
 10
9051.174827826455
 20
2812.766720707392
 30
0.0
 11
9051.464682898918
 21
2812.766720707392
 31
0.0
  0
LINE
  5
1DB
330
4D
100
AcDbEntity
  8
1
  6
Continuous
 62
     7
100
AcDbLine
 10
9051.609610435153
 20
2812.621793171161
 30
0.0
 11
9051.609610435153
 21
2812.042083026233
 31
0.0
  0
LINE
  5
1DC
330
4D
100
AcDbEntity
  8
1
  6
Continuous
 62
     7
100
AcDbLine
 10
9051.609610435153
 20
2812.042083026233
 30
0.0
 11
9049.435697391674
 21
2812.042083026233
 31
0.0
  0
LINE
  5
1DD
330
4D
100
AcDbEntity
  8
1
  6
Continuous
 62
     7
100
AcDbLine
 10
9045.450190145295
 20
2822.042083026233
 30
0.0
 11
9049.435697391674
 21
2822.042083026233
 31
0.0
  0
LINE
  5
1DE
330
4D
100
AcDbEntity
  8
1
  6
Continuous
 62
     7
100
AcDbLine
 10
9045.377915726982
 20
2819.807418351406
 30
0.0
 11
9045.450190145295
 21
2822.042083026233
 31
0.0
  0
LINE
  5
1DF
330
4D
100
AcDbEntity
  8
1
  6
Continuous
 62
     7
100
AcDbLine
 10
9046.375444158302
 20
2820.607558532485
 30
0.0
 11
9046.085646359193
 21
2819.686918378555
 31
0.0
  0
LINE
  5
1E0
330
4D
100
AcDbEntity
  8
1
  6
Continuous
 62
     7
100
AcDbLine
 10
9047.55163942066
 20
2821.317445345073
 30
0.0
 11
9047.343127354315
 21
2821.317445345073
 31
0.0
  0
LINE
  5
1E1
330
4D
100
AcDbEntity
  8
1
  6
Continuous
 62
     7
100
AcDbLine
 10
9048.05888579747
 20
2813.129039547972
 30
0.0
 11
9048.05888579747
 21
2820.810198968262
 31
0.0
  0
LINE
  5
1E2
330
4D
100
AcDbEntity
  8
1
  6
Continuous
 62
     7
100
AcDbLine
 10
9047.406711884427
 20
2812.766720707392
 30
0.0
 11
9047.696566956892
 21
2812.766720707392
 31
0.0
  0
LINE
  5
1E3
330
4D
100
AcDbEntity
  8
1
  6
Continuous
 62
     7
100
AcDbLine
 10
9047.261784348197
 20
2812.042083026233
 30
0.0
 11
9047.261784348197
 21
2812.621793171161
 31
0.0
  0
LINE
  5
1E4
330
4D
100
AcDbEntity
  8
1
  6
Continuous
 62
     7
100
AcDbLine
 10
9049.435697391674
 20
2812.042083026233
 30
0.0
 11
9047.261784348197
 21
2812.042083026233
 31
0.0
  0
LINE
  5
1E5
330
4D
100
AcDbEntity
  8
1
  6
Continuous
 62
     7
100
AcDbLine
 10
9062.373938494193
 20
2818.630511302811
 30
0.0
 11
9057.557414042632
 21
2813.813986851251
 31
0.0
  0
LINE
  5
1E6
330
4D
100
AcDbEntity
  8
1
  6
Continuous
 62
     7
100
AcDbLine
 10
9055.917746144229
 20
2815.453654749654
 30
0.0
 11
9060.734270595789
 21
2820.270179201216
 31
0.0
  0
LINE
  5
1E7
330
4D
100
AcDbEntity
  8
1
  6
Continuous
 62
     7
100
AcDbLine
 10
9069.363233623555
 20
2822.042083026233
 30
0.0
 11
9070.530061342481
 21
2817.687422695534
 31
0.0
  0
LINE
  5
1E8
330
4D
100
AcDbEntity
  8
1
  6
Continuous
 62
     7
100
AcDbLine
 10
9070.950029093038
 20
2817.687422695534
 30
0.0
 11
9072.116856811964
 21
2822.042083026233
 31
0.0
  0
LINE
  5
1E9
330
4D
100
AcDbEntity
  8
1
  6
Continuous
 62
     7
100
AcDbLine
 10
9066.827001739499
 20
2812.766720707392
 30
0.0
 11
9067.044393043847
 21
2812.766720707392
 31
0.0
  0
LINE
  5
1EA
330
4D
100
AcDbEntity
  8
1
  6
Continuous
 62
     7
100
AcDbLine
 10
9067.189320580082
 20
2812.621793171161
 30
0.0
 11
9067.189320580082
 21
2812.042083026233
 31
0.0
  0
LINE
  5
1EB
330
4D
100
AcDbEntity
  8
1
  6
Continuous
 62
     7
100
AcDbLine
 10
9067.189320580082
 20
2812.042083026233
 30
0.0
 11
9065.160335072834
 21
2812.042083026233
 31
0.0
  0
LINE
  5
1EC
330
4D
100
AcDbEntity
  8
1
  6
Continuous
 62
     7
100
AcDbLine
 10
9065.160335072834
 20
2812.042083026233
 30
0.0
 11
9065.160335072834
 21
2812.621793171161
 31
0.0
  0
LINE
  5
1ED
330
4D
100
AcDbEntity
  8
1
  6
Continuous
 62
     7
100
AcDbLine
 10
9065.305262609063
 20
2812.766720707392
 30
0.0
 11
9065.667581449643
 21
2812.766720707392
 31
0.0
  0
LINE
  5
1EE
330
4D
100
AcDbEntity
  8
1
  6
Continuous
 62
     7
100
AcDbLine
 10
9065.884972753991
 20
2812.98411201174
 30
0.0
 11
9065.884972753991
 21
2821.100054040726
 31
0.0
  0
LINE
  5
1EF
330
4D
100
AcDbEntity
  8
1
  6
Continuous
 62
     7
100
AcDbLine
 10
9065.667581449643
 20
2821.317445345073
 30
0.0
 11
9065.305262609063
 21
2821.317445345073
 31
0.0
  0
LINE
  5
1F0
330
4D
100
AcDbEntity
  8
1
  6
Continuous
 62
     7
100
AcDbLine
 10
9065.160335072834
 20
2821.462372881305
 30
0.0
 11
9065.160335072834
 21
2822.042083026233
 31
0.0
  0
LINE
  5
1F1
330
4D
100
AcDbEntity
  8
1
  6
Continuous
 62
     7
100
AcDbLine
 10
9065.160335072834
 20
2822.042083026233
 30
0.0
 11
9069.363233623555
 21
2822.042083026233
 31
0.0
  0
LINE
  5
1F2
330
4D
100
AcDbEntity
  8
1
  6
Continuous
 62
     7
100
AcDbLine
 10
9072.116856811964
 20
2822.042083026233
 30
0.0
 11
9076.319755362689
 21
2822.042083026233
 31
0.0
  0
LINE
  5
1F3
330
4D
100
AcDbEntity
  8
1
  6
Continuous
 62
     7
100
AcDbLine
 10
9076.319755362689
 20
2822.042083026233
 30
0.0
 11
9076.319755362689
 21
2821.462372881305
 31
0.0
  0
LINE
  5
1F4
330
4D
100
AcDbEntity
  8
1
  6
Continuous
 62
     7
100
AcDbLine
 10
9076.174827826456
 20
2821.317445345073
 30
0.0
 11
9075.884972753991
 21
2821.317445345073
 31
0.0
  0
LINE
  5
1F5
330
4D
100
AcDbEntity
  8
1
  6
Continuous
 62
     7
100
AcDbLine
 10
9075.522653913411
 20
2820.955126504494
 30
0.0
 11
9075.522653913411
 21
2813.129039547972
 31
0.0
  0
LINE
  5
1F6
330
4D
100
AcDbEntity
  8
1
  6
Continuous
 62
     7
100
AcDbLine
 10
9075.884972753991
 20
2812.766720707392
 30
0.0
 11
9076.174827826456
 21
2812.766720707392
 31
0.0
  0
LINE
  5
1F7
330
4D
100
AcDbEntity
  8
1
  6
Continuous
 62
     7
100
AcDbLine
 10
9076.319755362689
 20
2812.621793171161
 30
0.0
 11
9076.319755362689
 21
2812.042083026233
 31
0.0
  0
LINE
  5
1F8
330
4D
100
AcDbEntity
  8
1
  6
Continuous
 62
     7
100
AcDbLine
 10
9076.319755362689
 20
2812.042083026233
 30
0.0
 11
9072.261784348198
 21
2812.042083026233
 31
0.0
  0
LINE
  5
1F9
330
4D
100
AcDbEntity
  8
1
  6
Continuous
 62
     7
100
AcDbLine
 10
9072.261784348198
 20
2812.042083026233
 30
0.0
 11
9072.261784348198
 21
2812.621793171161
 31
0.0
  0
LINE
  5
1FA
330
4D
100
AcDbEntity
  8
1
  6
Continuous
 62
     7
100
AcDbLine
 10
9072.406711884427
 20
2812.766720707392
 30
0.0
 11
9072.696566956892
 21
2812.766720707392
 31
0.0
  0
LINE
  5
1FB
330
4D
100
AcDbEntity
  8
1
  6
Continuous
 62
     7
100
AcDbLine
 10
9070.187565018384
 20
2812.042083026233
 30
0.0
 11
9069.492045103379
 21
2812.042083026233
 31
0.0
  0
LINE
  5
1FC
330
4D
100
AcDbEntity
  8
1
  6
Continuous
 62
     7
100
AcDbLine
 10
9066.609610435152
 20
2812.98411201174
 30
0.0
 11
9066.609610435152
 21
2821.148224763489
 31
0.0
  0
LINE
  5
1FD
330
4D
100
AcDbEntity
  8
1
  6
Continuous
 62
     7
100
AcDbLine
 10
9067.036985614782
 20
2821.204489773293
 30
0.0
 11
9069.492045103379
 21
2812.042083026233
 31
0.0
  0
LINE
  5
1FE
330
4D
100
AcDbEntity
  8
1
  6
Continuous
 62
     7
100
AcDbLine
 10
9070.187565018384
 20
2812.042083026233
 30
0.0
 11
9072.631510617844
 21
2821.163012174346
 31
0.0
  0
LINE
  5
1FF
330
4D
100
AcDbEntity
  8
1
  6
Continuous
 62
     7
100
AcDbLine
 10
9073.058885797472
 20
2821.106747164541
 30
0.0
 11
9073.058885797472
 21
2813.129039547972
 31
0.0
  0
ARC
  5
200
330
4D
100
AcDbEntity
  8
1
  6
Continuous
 62
     7
100
AcDbCircle
 10
9040.23279884095
 20
2819.831197765793
 30
0.0
 40
0.2173913043472454
100
AcDbArc
 50
16.99999999993562
 51
163.0000000002046
  0
ARC
  5
201
330
4D
100
AcDbEntity
  8
1
  6
Continuous
 62
     7
100
AcDbCircle
 10
9039.247154507712
 20
2816.607300417537
 30
0.0
 40
0.2173913043473783
100
AcDbArc
 50
162.9999999999498
 51
-90.0
  0
ARC
  5
202
330
4D
100
AcDbEntity
  8
1
  6
Continuous
 62
     7
100
AcDbCircle
 10
9041.218443174185
 20
2816.607300417537
 30
0.0
 40
0.2173913043479843
100
AcDbArc
 50
-90.0
 51
16.99999999991007
  0
ARC
  5
203
330
4D
100
AcDbEntity
  8
1
  6
Continuous
 62
     7
100
AcDbCircle
 10
9038.892684152401
 20
2815.447880127682
 30
0.0
 40
0.2173913043479843
100
AcDbArc
 50
90.0
 51
162.9999999999498
  0
ARC
  5
204
330
4D
100
AcDbEntity
  8
1
  6
Continuous
 62
     7
100
AcDbCircle
 10
9038.139434647355
 20
2812.98411201174
 30
0.0
 40
0.2173913043473783
100
AcDbArc
 50
162.9999999999498
 51
-90.0
  0
ARC
  5
205
330
4D
100
AcDbEntity
  8
1
  6
Continuous
 62
     7
100
AcDbCircle
 10
9041.519293161742
 20
2815.375416359566
 30
0.0
 40
0.2898550724644194
100
AcDbArc
 50
17.00000000003746
 51
90.0
  0
ARC
  5
206
330
4D
100
AcDbEntity
  8
1
  6
Continuous
 62
     7
100
AcDbCircle
 10
9042.228233872373
 20
2813.056575779856
 30
0.0
 40
0.289855072463979
100
AcDbArc
 50
-90.0
 51
17.00000000014258
  0
ARC
  5
207
330
4D
100
AcDbEntity
  8
1
  6
Continuous
 62
     7
100
AcDbCircle
 10
9036.819797672441
 20
2813.129039547972
 30
0.0
 40
0.3623188405799738
100
AcDbArc
 50
-90.0
 51
-16.99999999990758
  0
ARC
  5
208
330
4D
100
AcDbEntity
  8
1
  6
Continuous
 62
     7
100
AcDbCircle
 10
9045.388619603603
 20
2813.129039547972
 30
0.0
 40
0.3623188405793221
100
AcDbArc
 50
-163.0000000000924
 51
-90.0
  0
ARC
  5
209
330
4D
100
AcDbEntity
  8
1
  6
Continuous
 62
     7
100
AcDbCircle
 10
9036.46468289892
 20
2812.621793171161
 30
0.0
 40
0.1449275362319895
100
AcDbArc
 50
90.0
 51
180.0
  0
ARC
  5
20A
330
4D
100
AcDbEntity
  8
1
  6
Continuous
 62
     7
100
AcDbCircle
 10
9038.493668406166
 20
2812.621793171161
 30
0.0
 40
0.1449275362319895
100
AcDbArc
 50
0.0
 51
90.0
  0
ARC
  5
20B
330
4D
100
AcDbEntity
  8
1
  6
Continuous
 62
     7
100
AcDbCircle
 10
9041.827001739498
 20
2812.621793171161
 30
0.0
 40
0.1449275362319895
100
AcDbArc
 50
90.0
 51
180.0
  0
ARC
  5
20C
330
4D
100
AcDbEntity
  8
1
  6
Continuous
 62
     7
100
AcDbCircle
 10
9045.884972753992
 20
2812.621793171161
 30
0.0
 40
0.1449275362319895
100
AcDbArc
 50
0.0
 51
90.0
  0
ARC
  5
20D
330
4D
100
AcDbEntity
  8
1
  6
Continuous
 62
     7
100
AcDbCircle
 10
9047.55163942066
 20
2820.810198968262
 30
0.0
 40
0.5072463768101443
100
AcDbArc
 50
0.0
 51
90.0
  0
ARC
  5
20E
330
4D
100
AcDbEntity
  8
1
  6
Continuous
 62
     7
100
AcDbCircle
 10
9051.319755362689
 20
2820.810198968262
 30
0.0
 40
0.5072463768110538
100
AcDbArc
 50
90.0
 51
180.0
  0
ARC
  5
20F
330
4D
100
AcDbEntity
  8
1
  6
Continuous
 62
     7
100
AcDbCircle
 10
9051.528267429032
 20
2820.30295259145
 30
0.0
 40
1.014492753624228
100
AcDbArc
 50
17.47288527030434
 51
90.0
  0
ARC
  5
210
330
4D
100
AcDbEntity
  8
1
  6
Continuous
 62
     7
100
AcDbCircle
 10
9047.343127354315
 20
2820.30295259145
 30
0.0
 40
1.014492753623017
100
AcDbArc
 50
90.0
 51
162.5271147296956
  0
ARC
  5
211
330
4D
100
AcDbEntity
  8
1
  6
Continuous
 62
     7
100
AcDbCircle
 10
9047.696566956892
 20
2813.129039547972
 30
0.0
 40
0.3623188405799738
100
AcDbArc
 50
-90.0
 51
0.0
  0
ARC
  5
212
330
4D
100
AcDbEntity
  8
1
  6
Continuous
 62
     7
100
AcDbCircle
 10
9051.174827826455
 20
2813.129039547972
 30
0.0
 40
0.3623188405799738
100
AcDbArc
 50
180.0
 51
-90.0
  0
ARC
  5
213
330
4D
100
AcDbEntity
  8
1
  6
Continuous
 62
     7
100
AcDbCircle
 10
9051.464682898918
 20
2812.621793171161
 30
0.0
 40
0.1449275362319895
100
AcDbArc
 50
0.0
 51
90.0
  0
ARC
  5
214
330
4D
100
AcDbEntity
  8
1
  6
Continuous
 62
     7
100
AcDbCircle
 10
9047.406711884427
 20
2812.621793171161
 30
0.0
 40
0.1449275362319895
100
AcDbArc
 50
90.0
 51
180.0
  0
ARC
  5
215
330
4D
100
AcDbEntity
  8
1
  6
Continuous
 62
     7
100
AcDbCircle
 10
9065.305262609063
 20
2821.462372881305
 30
0.0
 40
0.1449275362319895
100
AcDbArc
 50
180.0
 51
-90.0
  0
ARC
  5
216
330
4D
100
AcDbEntity
  8
1
  6
Continuous
 62
     7
100
AcDbCircle
 10
9076.174827826456
 20
2821.462372881305
 30
0.0
 40
0.1449275362319895
100
AcDbArc
 50
-90.0
 51
0.0
  0
ARC
  5
217
330
4D
100
AcDbEntity
  8
1
  6
Continuous
 62
     7
100
AcDbCircle
 10
9076.174827826456
 20
2812.621793171161
 30
0.0
 40
0.1449275362319895
100
AcDbArc
 50
0.0
 51
90.0
  0
ARC
  5
218
330
4D
100
AcDbEntity
  8
1
  6
Continuous
 62
     7
100
AcDbCircle
 10
9072.406711884427
 20
2812.621793171161
 30
0.0
 40
0.1449275362319895
100
AcDbArc
 50
90.0
 51
180.0
  0
ARC
  5
219
330
4D
100
AcDbEntity
  8
1
  6
Continuous
 62
     7
100
AcDbCircle
 10
9065.305262609063
 20
2812.621793171161
 30
0.0
 40
0.1449275362319895
100
AcDbArc
 50
90.0
 51
180.0
  0
ARC
  5
21A
330
4D
100
AcDbEntity
  8
1
  6
Continuous
 62
     7
100
AcDbCircle
 10
9067.044393043847
 20
2812.621793171161
 30
0.0
 40
0.1449275362319895
100
AcDbArc
 50
0.0
 51
90.0
  0
ARC
  5
21B
330
4D
100
AcDbEntity
  8
1
  6
Continuous
 62
     7
100
AcDbCircle
 10
9065.667581449643
 20
2821.100054040726
 30
0.0
 40
0.2173913043461653
100
AcDbArc
 50
0.0
 51
90.0
  0
ARC
  5
21C
330
4D
100
AcDbEntity
  8
1
  6
Continuous
 62
     7
100
AcDbCircle
 10
9065.667581449643
 20
2812.98411201174
 30
0.0
 40
0.2173913043479843
100
AcDbArc
 50
-90.0
 51
0.0
  0
ARC
  5
21D
330
4D
100
AcDbEntity
  8
1
  6
Continuous
 62
     7
100
AcDbCircle
 10
9066.827001739499
 20
2812.98411201174
 30
0.0
 40
0.2173913043479843
100
AcDbArc
 50
180.0
 51
-90.0
  0
ARC
  5
21E
330
4D
100
AcDbEntity
  8
1
  6
Continuous
 62
     7
100
AcDbCircle
 10
9066.827001739499
 20
2821.148224763489
 30
0.0
 40
0.2173913043475401
100
AcDbArc
 50
14.99999999979347
 51
180.0
  0
ARC
  5
21F
330
4D
100
AcDbEntity
  8
1
  6
Continuous
 62
     7
100
AcDbCircle
 10
9070.74004521776
 20
2817.743687705339
 30
0.0
 40
0.2173913043495326
100
AcDbArc
 50
-165.0000000000991
 51
-15.00000000002502
  0
ARC
  5
220
330
4D
100
AcDbEntity
  8
1
  6
Continuous
 62
     7
100
AcDbCircle
 10
9072.841494493124
 20
2821.106747164541
 30
0.0
 40
0.2173913043479843
100
AcDbArc
 50
0.0
 51
164.999999999975
  0
ARC
  5
221
330
4D
100
AcDbEntity
  8
1
  6
Continuous
 62
     7
100
AcDbCircle
 10
9075.884972753991
 20
2820.955126504494
 30
0.0
 40
0.3623188405790643
100
AcDbArc
 50
90.0
 51
180.0
  0
ARC
  5
222
330
4D
100
AcDbEntity
  8
1
  6
Continuous
 62
     7
100
AcDbCircle
 10
9072.696566956892
 20
2813.129039547972
 30
0.0
 40
0.3623188405799738
100
AcDbArc
 50
-90.0
 51
0.0
  0
ARC
  5
223
330
4D
100
AcDbEntity
  8
1
  6
Continuous
 62
     7
100
AcDbCircle
 10
9075.884972753991
 20
2813.129039547972
 30
0.0
 40
0.3623188405799738
100
AcDbArc
 50
180.0
 51
-90.0
  0
ARC
  5
224
330
4D
100
AcDbEntity
  8
1
  6
Continuous
 62
     7
100
AcDbCircle
 10
9053.131349565589
 20
2819.79570621464
 30
0.0
 40
0.3623188405802152
100
AcDbArc
 50
-162.5271147296969
 51
1.852437285292109
  0
ARC
  5
225
330
4D
100
AcDbEntity
  8
1
  6
Continuous
 62
     7
100
AcDbCircle
 10
9045.74004521776
 20
2819.79570621464
 30
0.0
 40
0.3623188405784567
100
AcDbArc
 50
178.1475627147079
 51
-17.47288527030307
  0
ARC
  5
226
330
4D
100
AcDbEntity
  8
1
  6
Continuous
 62
     7
100
AcDbCircle
 10
9061.55410454499
 20
2819.450345252013
 30
0.0
 40
1.159420289854569
100
AcDbArc
 50
-45.00000000003178
 51
135.0000000000318
  0
ARC
  5
227
330
4D
100
AcDbEntity
  8
1
  6
Continuous
 62
     7
100
AcDbCircle
 10
9056.737580093429
 20
2814.633820800452
 30
0.0
 40
1.159420289854569
100
AcDbArc
 50
134.9999999999682
 51
-44.99999999995232
  0
CIRCLE
  5
228
330
4D
100
AcDbEntity
  8
1
  6
Continuous
 62
     7
100
AcDbCircle
 10
9034.259088382889
 20
2827.845953748078
 30
0.0
 40
2.310728085512891
  0
CIRCLE
  5
229
330
4D
100
AcDbEntity
  8
1
  6
Continuous
 62
     7
100
AcDbCircle
 10
9034.259088382889
 20
2827.845953748078
 30
0.0
 40
1.123977615883632
  0
CIRCLE
  5
22A
330
4D
100
AcDbEntity
  8
1
  6
Continuous
 62
     7
100
AcDbCircle
 10
9059.145842319207
 20
2817.142083026233
 30
0.0
 40
5.289855072463978
  0
MTEXT
  5
22C
330
4D
100
AcDbEntity
  8
1
 62
     3
100
AcDbMText
 10
9163.060512769099
 20
2814.010690411288
 30
0.0
 40
3.5
 41
0.0
 71
     4
 72
     1
  1
組立図
  7
CONVERTER_2
 73
     1
 44
0.6002400960384202
1001
ACAD
1000
MTEXTBEGIN
1070
    73
1070
     1
1070
    44
1040
0.6002400960384202
1070
    74
1070
     0
1000
MTEXTEND
  0
MTEXT
  5
22E
330
4D
100
AcDbEntity
  8
1
 62
     3
100
AcDbMText
 10
9125.269521081287
 20
2869.830084144428
 30
0.0
 40
4.5
 41
0.0
 71
     4
 72
     1
  1
クロメート処理
  7
CONVERTER_3
 73
     1
 44
1.32052821128451
1001
ACAD
1000
MTEXTBEGIN
1070
    73
1070
     1
1070
    44
1040
1.32052821128451
1070
    74
1070
     0
1000
MTEXTEND
  0
MTEXT
  5
230
330
4D
100
AcDbEntity
  8
1
 62
     3
100
AcDbMText
 10
9118.668265072747
 20
2869.993068992727
 30
0.0
 40
4.5
 41
0.0
 71
     4
 72
     1
  1
1
  7
CONVERTER_4
 73
     1
 44
1.32052821128451
1001
ACAD
1000
MTEXTBEGIN
1070
    73
1070
     1
1070
    44
1040
1.32052821128451
1070
    74
1070
     0
1000
MTEXTEND
  0
MTEXT
  5
231
330
4D
100
AcDbEntity
  8
1
 62
     3
100
AcDbMText
 10
9089.316251749059
 20
2869.947963716009
 30
0.0
 40
4.5
 41
0.0
 71
     4
 72
     1
  1
SWCH10A
  7
CONVERTER_4
 73
     1
 44
1.32052821128451
1001
ACAD
1000
MTEXTBEGIN
1070
    73
1070
     1
1070
    44
1040
1.32052821128451
1070
    74
1070
     0
1000
MTEXTEND
  0
MTEXT
  5
232
330
4D
100
AcDbEntity
  8
1
 62
     3
100
AcDbMText
 10
9175.396229542919
 20
2869.830084144428
 30
0.0
 40
4.5
 41
0.0
 71
     4
 72
     1
  1
+なべ小ねじM6剣先ねじ
  7
CONVERTER_3
 73
     1
 44
1.32052821128451
1001
ACAD
1000
MTEXTBEGIN
1070
    73
1070
     1
1070
    44
1040
1.32052821128451
1070
    74
1070
     0
1000
MTEXTEND
  0
MTEXT
  5
233
330
4D
100
AcDbEntity
  8
1
 62
     3
100
AcDbMText
 10
9125.505280224448
 20
2862.875189421147
 30
0.0
 40
4.5
 41
0.0
 71
     4
 72
     1
  1
指定色
  7
CONVERTER_3
 73
     1
 44
1.32052821128451
1001
ACAD
1000
MTEXTBEGIN
1070
    73
1070
     1
1070
    44
1040
1.32052821128451
1070
    74
1070
     0
1000
MTEXTEND
  0
MTEXT
  5
234
330
4D
100
AcDbEntity
  8
1
 62
     3
100
AcDbMText
 10
9118.668265072747
 20
2862.993068992727
 30
0.0
 40
4.5
 41
0.0
 71
     4
 72
     1
  1
1
  7
CONVERTER_4
 73
     1
 44
1.32052821128451
1001
ACAD
1000
MTEXTBEGIN
1070
    73
1070
     1
1070
    44
1040
1.32052821128451
1070
    74
1070
     0
1000
MTEXTEND
  0
MTEXT
  5
235
330
4D
100
AcDbEntity
  8
1
 62
     3
100
AcDbMText
 10
9088.96261303432
 20
2862.757309849568
 30
0.0
 40
4.0
 41
0.0
 71
     4
 72
     1
  1
66ナイロン複合材
  7
CONVERTER_3
 73
     1
 44
1.32052821128451
1001
ACAD
1000
MTEXTBEGIN
1070
    73
1070
     1
1070
    44
1040
1.32052821128451
1070
    74
1070
     0
1000
MTEXTEND
  0
MTEXT
  5
236
330
4D
100
AcDbEntity
  8
1
 62
     3
100
AcDbMText
 10
9040.396229542919
 20
2863.110948564307
 30
0.0
 40
4.5
 41
0.0
 71
     4
 72
     1
  1
固定ブロック
  7
CONVERTER_3
 73
     1
 44
1.32052821128451
1001
ACAD
1000
MTEXTBEGIN
1070
    73
1070
     1
1070
    44
1040
1.32052821128451
1070
    74
1070
     0
1000
MTEXTEND
  0
MTEXT
  5
237
330
4D
100
AcDbEntity
  8
1
 62
     3
100
AcDbMText
 10
9040.152970778125
 20
2856.010690411288
 30
0.0
 40
4.5
 41
0.0
 71
     4
 72
     1
  1
吊りボルト
  7
CONVERTER_3
 73
     1
 44
1.32052821128451
1001
ACAD
1000
MTEXTBEGIN
1070
    73
1070
     1
1070
    44
1040
1.32052821128451
1070
    74
1070
     0
1000
MTEXTEND
  0
MTEXT
  5
238
330
4D
100
AcDbEntity
  8
1
 62
     3
100
AcDbMText
 10
9088.617337615886
 20
2856.010690411288
 30
0.0
 40
4.5
 41
0.0
 71
     4
 72
     1
  1
SWCH 10 A
  7
CONVERTER_4
 73
     1
 44
1.32052821128451
1001
ACAD
1000
MTEXTBEGIN
1070
    73
1070
     1
1070
    44
1040
1.32052821128451
1070
    74
1070
     0
1000
MTEXTEND
  0
MTEXT
  5
239
330
4D
100
AcDbEntity
  8
1
 62
     3
100
AcDbMText
 10
9118.701838553553
 20
2856.010690411288
 30
0.0
 40
4.5
 41
0.0
 71
     5
 72
     1
  1
1
  7
CONVERTER_4
 73
     1
 44
1.32052821128451
1001
ACAD
1000
MTEXTBEGIN
1070
    73
1070
     1
1070
    44
1040
1.32052821128451
1070
    74
1070
     0
1000
MTEXTEND
  0
MTEXT
  5
23A
330
4D
100
AcDbEntity
  8
1
 62
     3
100
AcDbMText
 10
9118.701838553553
 20
2849.010690411288
 30
0.0
 40
4.5
 41
0.0
 71
     5
 72
     1
  1
1
  7
CONVERTER_4
 73
     1
 44
1.32052821128451
1001
ACAD
1000
MTEXTBEGIN
1070
    73
1070
     1
1070
    44
1040
1.32052821128451
1070
    74
1070
     0
1000
MTEXTEND
  0
MTEXT
  5
23B
330
4D
100
AcDbEntity
  8
1
 62
     3
100
AcDbMText
 10
9125.553304715804
 20
2849.010690411288
 30
0.0
 40
4.5
 41
0.0
 71
     4
 72
     1
  1
DG(ディープグレー)色
  7
CONVERTER_3
 73
     1
 44
1.32052821128451
1001
ACAD
1000
MTEXTBEGIN
1070
    73
1070
     1
1070
    44
1040
1.32052821128451
1070
    74
1070
     0
1000
MTEXTEND
  0
MTEXT
  5
23C
330
4D
100
AcDbEntity
  8
1
 62
     3
100
AcDbMText
 10
9090.617337615887
 20
2849.010690411288
 30
0.0
 40
4.5
 41
0.0
 71
     4
 72
     1
  1
PBT
  7
CONVERTER_4
 73
     1
 44
1.32052821128451
1001
ACAD
1000
MTEXTBEGIN
1070
    73
1070
     1
1070
    44
1040
1.32052821128451
1070
    74
1070
     0
1000
MTEXTEND
  0
MTEXT
  5
23D
330
4D
100
AcDbEntity
  8
1
 62
     3
100
AcDbMText
 10
9040.152970778125
 20
2849.01069041129
 30
0.0
 40
4.5
 41
0.0
 71
     4
 72
     1
  1
着脱ホルダー
  7
CONVERTER_3
 73
     1
 44
1.32052821128451
1001
ACAD
1000
MTEXTBEGIN
1070
    73
1070
     1
1070
    44
1040
1.32052821128451
1070
    74
1070
     0
1000
MTEXTEND
  0
MTEXT
  5
23E
330
4D
100
AcDbEntity
  8
1
 62
     3
100
AcDbMText
 10
9040.152970778125
 20
2877.010690411288
 30
0.0
 40
4.5
 41
0.0
 71
     4
 72
     1
  1
取付けねじ
  7
CONVERTER_3
 73
     1
 44
1.32052821128451
1001
ACAD
1000
MTEXTBEGIN
1070
    73
1070
     1
1070
    44
1040
1.32052821128451
1070
    74
1070
     0
1000
MTEXTEND
  0
MTEXT
  5
23F
330
4D
100
AcDbEntity
  8
1
 62
     3
100
AcDbMText
 10
9090.617337615887
 20
2877.010690411288
 30
0.0
 40
4.5
 41
0.0
 71
     4
 72
     1
  1
SWCH
  7
CONVERTER_4
 73
     1
 44
1.32052821128451
1001
ACAD
1000
MTEXTBEGIN
1070
    73
1070
     1
1070
    44
1040
1.32052821128451
1070
    74
1070
     0
1000
MTEXTEND
  0
MTEXT
  5
240
330
4D
100
AcDbEntity
  8
1
 62
     3
100
AcDbMText
 10
9118.701838553553
 20
2877.010690411288
 30
0.0
 40
4.5
 41
0.0
 71
     5
 72
     1
  1
3
  7
CONVERTER_4
 73
     1
 44
1.32052821128451
1001
ACAD
1000
MTEXTBEGIN
1070
    73
1070
     1
1070
    44
1040
1.32052821128451
1070
    74
1070
     0
1000
MTEXTEND
  0
MTEXT
  5
241
330
4D
100
AcDbEntity
  8
1
 62
     3
100
AcDbMText
 10
9125.553304715804
 20
2877.010690411288
 30
0.0
 40
4.5
 41
0.0
 71
     4
 72
     1
  1
ユニクロメッキ
  7
CONVERTER_3
 73
     1
 44
1.32052821128451
1001
ACAD
1000
MTEXTBEGIN
1070
    73
1070
     1
1070
    44
1040
1.32052821128451
1070
    74
1070
     0
1000
MTEXTEND
  0
MTEXT
  5
243
330
4D
100
AcDbEntity
  8
1
 62
     3
100
AcDbMText
 10
9175.553304715803
 20
2877.010690411288
 30
0.0
 40
4.5
 41
0.0
 71
     4
 72
     1
  1
なべ3.5\U+00D725タッピンネジ
  7
CONVERTER_5
 73
     1
 44
1.32052821128451
1001
ACAD
1000
MTEXTBEGIN
1070
    73
1070
     1
1070
    44
1040
1.32052821128451
1070
    74
1070
     0
1000
MTEXTEND
  0
MTEXT
  5
244
330
4D
100
AcDbEntity
  8
1
 62
     3
100
AcDbMText
 10
9125.553304715804
 20
2856.010690411288
 30
0.0
 40
4.5
 41
0.0
 71
     4
 72
     1
  1
クロメート
  7
CONVERTER_3
 73
     1
 44
1.32052821128451
1001
ACAD
1000
MTEXTBEGIN
1070
    73
1070
     1
1070
    44
1040
1.32052821128451
1070
    74
1070
     0
1000
MTEXTEND
  0
MTEXT
  5
245
330
4D
100
AcDbEntity
  8
1
 62
     3
100
AcDbMText
 10
9033.442827127341
 20
2877.017830895697
 30
0.0
 40
4.5
 41
0.0
 71
     4
 72
     1
  1
6
  7
CONVERTER_4
 73
     1
 44
1.32052821128451
1001
ACAD
1000
MTEXTBEGIN
1070
    73
1070
     1
1070
    44
1040
1.32052821128451
1070
    74
1070
     0
1000
MTEXTEND
  0
MTEXT
  5
246
330
4D
100
AcDbEntity
  8
1
 62
     3
100
AcDbMText
 10
9033.442827127341
 20
2870.017830895697
 30
0.0
 40
4.5
 41
0.0
 71
     4
 72
     1
  1
5
  7
CONVERTER_4
 73
     1
 44
1.32052821128451
1001
ACAD
1000
MTEXTBEGIN
1070
    73
1070
     1
1070
    44
1040
1.32052821128451
1070
    74
1070
     0
1000
MTEXTEND
  0
MTEXT
  5
247
330
4D
100
AcDbEntity
  8
1
 62
     3
100
AcDbMText
 10
9033.442827127341
 20
2863.017830895697
 30
0.0
 40
4.5
 41
0.0
 71
     4
 72
     1
  1
4
  7
CONVERTER_4
 73
     1
 44
1.32052821128451
1001
ACAD
1000
MTEXTBEGIN
1070
    73
1070
     1
1070
    44
1040
1.32052821128451
1070
    74
1070
     0
1000
MTEXTEND
  0
MTEXT
  5
248
330
4D
100
AcDbEntity
  8
1
 62
     3
100
AcDbMText
 10
9033.442827127341
 20
2856.017830895697
 30
0.0
 40
4.5
 41
0.0
 71
     4
 72
     1
  1
3
  7
CONVERTER_4
 73
     1
 44
1.32052821128451
1001
ACAD
1000
MTEXTBEGIN
1070
    73
1070
     1
1070
    44
1040
1.32052821128451
1070
    74
1070
     0
1000
MTEXTEND
  0
MTEXT
  5
249
330
4D
100
AcDbEntity
  8
1
 62
     3
100
AcDbMText
 10
9033.442827127341
 20
2849.017830895697
 30
0.0
 40
4.5
 41
0.0
 71
     4
 72
     1
  1
2
  7
CONVERTER_4
 73
     1
 44
1.32052821128451
1001
ACAD
1000
MTEXTBEGIN
1070
    73
1070
     1
1070
    44
1040
1.32052821128451
1070
    74
1070
     0
1000
MTEXTEND
  0
MTEXT
  5
24A
330
4D
100
AcDbEntity
  8
1
 62
     3
100
AcDbMText
 10
9040.277560625407
 20
2870.037309624237
 30
0.0
 40
4.5
 41
0.0
 71
     4
 72
     1
  1
固定ねじ
  7
CONVERTER_3
 73
     1
 44
1.32052821128451
1001
ACAD
1000
MTEXTBEGIN
1070
    73
1070
     1
1070
    44
1040
1.32052821128451
1070
    74
1070
     0
1000
MTEXTEND
  0
MTEXT
  5
24B
330
4D
100
AcDbEntity
  8
1
 62
     3
100
AcDbMText
 10
9198.003258796946
 20
3076.97245218318
 30
0.0
 40
4.0
 41
0.0
 71
     4
 72
     1
  1
改泉日
  7
CONVERTER_2
 73
     1
 44
0.6002400960384202
1001
ACAD
1000
MTEXTBEGIN
1070
    73
1070
     1
1070
    44
1040
0.6002400960384202
1070
    74
1070
     0
1000
MTEXTEND
  0
MTEXT
  5
24C
330
4D
100
AcDbEntity
  8
1
 62
     3
100
AcDbMText
 10
9031.376160785759
 20
3077.126189285146
 30
0.0
 40
4.0
 41
0.0
 71
     4
 72
     1
  1
改番
  7
CONVERTER_2
 73
     1
 44
0.6002400960384202
1001
ACAD
1000
MTEXTBEGIN
1070
    73
1070
     1
1070
    44
1040
0.6002400960384202
1070
    74
1070
     0
1000
MTEXTEND
  0
MTEXT
  5
24D
330
4D
100
AcDbEntity
  8
1
 62
     3
100
AcDbMText
 10
9062.571664545613
 20
3076.849580665592
 30
0.0
 40
4.0
 41
0.0
 71
     4
 72
     1
  1
改     泉      理      由
  7
CONVERTER_2
 73
     1
 44
0.6002400960384202
1001
ACAD
1000
MTEXTBEGIN
1070
    73
1070
     1
1070
    44
1040
0.6002400960384202
1070
    74
1070
     0
1000
MTEXTEND
  0
MTEXT
  5
24E
330
4D
100
AcDbEntity
  8
1
 62
     3
100
AcDbMText
 10
9176.484162091774
 20
3077.061588935193
 30
0.0
 40
4.0
 41
0.0
 71
     4
 72
     1
  1
改泉担当
  7
CONVERTER_2
 73
     1
 44
0.6002400960384202
1001
ACAD
1000
MTEXTBEGIN
1070
    73
1070
     1
1070
    44
1040
0.6002400960384202
1070
    74
1070
     0
1000
MTEXTEND
  0
MTEXT
  5
24F
330
4D
100
AcDbEntity
  8
1
 62
     3
100
AcDbMText
 10
9136.31672436678
 20
3076.734876101409
 30
0.0
 40
4.0
 41
0.0
 71
     4
 72
     1
  1
改泉浄認
  7
CONVERTER_2
 73
     1
 44
0.6002400960384202
1001
ACAD
1000
MTEXTBEGIN
1070
    73
1070
     1
1070
    44
1040
0.6002400960384202
1070
    74
1070
     0
1000
MTEXTEND
  0
MTEXT
  5
250
330
4D
100
AcDbEntity
  8
1
 62
     3
100
AcDbMText
 10
9155.203258796944
 20
3076.97245218318
 30
0.0
 40
4.0
 41
0.0
 71
     4
 72
     1
  1
改泉浄認日
  7
CONVERTER_2
 73
     1
 44
0.6002400960384202
1001
ACAD
1000
MTEXTBEGIN
1070
    73
1070
     1
1070
    44
1040
0.6002400960384202
1070
    74
1070
     0
1000
MTEXTEND
  0
MTEXT
  5
252
330
4D
100
AcDbEntity
  8
1
 62
     3
100
AcDbMText
 10
9052.560512769099
 20
2828.010690411288
 30
0.0
 40
3.5
 41
0.0
 71
     5
 72
     1
  1
1:1
  7
CONVERTER_6
 73
     1
 44
0.6002400960384202
1001
ACAD
1000
MTEXTBEGIN
1070
    73
1070
     1
1070
    44
1040
0.6002400960384202
1070
    74
1070
     0
1000
MTEXTEND
  0
MTEXT
  5
253
330
4D
100
AcDbEntity
  8
1
 62
     3
100
AcDbMText
 10
9070.060512769099
 20
2828.010690411288
 30
0.0
 40
3.5
 41
0.0
 71
     4
 72
     1
  1
HRシステム
  7
CONVERTER_2
 73
     1
 44
0.6002400960384202
1001
ACAD
1000
MTEXTBEGIN
1070
    73
1070
     1
1070
    44
1040
0.6002400960384202
1070
    74
1070
     0
1000
MTEXTEND
  0
MTEXT
  5
254
330
4D
100
AcDbEntity
  8
1
 62
     3
100
AcDbMText
 10
9034.0605127691
 20
2842.010690411288
 30
0.0
 40
3.5
 41
0.0
 71
     5
 72
     1
  1
1
  7
CONVERTER_6
 73
     1
 44
0.6002400960384202
1001
ACAD
1000
MTEXTBEGIN
1070
    73
1070
     1
1070
    44
1040
0.6002400960384202
1070
    74
1070
     0
1000
MTEXTEND
  0
MTEXT
  5
255
330
4D
100
AcDbEntity
  8
1
 62
     3
100
AcDbMText
 10
9101.560512769101
 20
2842.010690411288
 30
0.0
 40
3.5
 41
0.0
 71
     5
 72
     1
  1
PBT
  7
CONVERTER_6
 73
     1
 44
0.6002400960384202
1001
ACAD
1000
MTEXTBEGIN
1070
    73
1070
     1
1070
    44
1040
0.6002400960384202
1070
    74
1070
     0
1000
MTEXTEND
  0
MTEXT
  5
256
330
4D
100
AcDbEntity
  8
1
 62
     3
100
AcDbMText
 10
9147.5605127691
 20
2842.010690411288
 30
0.0
 40
3.5
 41
0.0
 71
     5
 72
     1
  1
指定色
  7
CONVERTER_2
 73
     1
 44
0.6002400960384202
1001
ACAD
1000
MTEXTBEGIN
1070
    73
1070
     1
1070
    44
1040
0.6002400960384202
1070
    74
1070
     0
1000
MTEXTEND
  0
MTEXT
  5
257
330
4D
100
AcDbEntity
  8
1
 62
     3
100
AcDbMText
 10
9062.560512769101
 20
2842.010690411288
 30
0.0
 40
3.5
 41
0.0
 71
     5
 72
     1
  1
固定カップ
  7
CONVERTER_2
 73
     1
 44
0.6002400960384202
1001
ACAD
1000
MTEXTBEGIN
1070
    73
1070
     1
1070
    44
1040
0.6002400960384202
1070
    74
1070
     0
1000
MTEXTEND
  0
MTEXT
  5
258
330
4D
100
AcDbEntity
  8
1
 62
     3
100
AcDbMText
 10
9129.8105127691
 20
2828.010690411288
 30
0.0
 40
3.0
 41
0.0
 71
     5
 72
     1
  1
02.10.31
  7
CONVERTER_6
 73
     1
 44
0.6002400960384202
1001
ACAD
1000
MTEXTBEGIN
1070
    73
1070
     1
1070
    44
1040
0.6002400960384202
1070
    74
1070
     0
1000
MTEXTEND
  0
MTEXT
  5
259
330
4D
100
AcDbEntity
  8
1
 62
     3
100
AcDbMText
 10
9147.5605127691
 20
2828.010690411288
 30
0.0
 40
5.0
 41
0.0
 71
     5
 72
     1
  1
逢坂
  7
CONVERTER_2
 73
     1
 44
0.6002400960384202
1001
ACAD
1000
MTEXTBEGIN
1070
    73
1070
     1
1070
    44
1040
0.6002400960384202
1070
    74
1070
     0
1000
MTEXTEND
  0
MTEXT
  5
25A
330
4D
100
AcDbEntity
  8
1
 62
     3
100
AcDbMText
 10
9129.8105127691
 20
2821.010690411288
 30
0.0
 40
3.0
 41
0.0
 71
     5
 72
     1
  1
02.10.31
  7
CONVERTER_6
 73
     1
 44
0.6002400960384202
1001
ACAD
1000
MTEXTBEGIN
1070
    73
1070
     1
1070
    44
1040
0.6002400960384202
1070
    74
1070
     0
1000
MTEXTEND
  0
MTEXT
  5
25B
330
4D
100
AcDbEntity
  8
1
 62
     3
100
AcDbMText
 10
9129.8105127691
 20
2814.010690411288
 30
0.0
 40
3.0
 41
0.0
 71
     5
 72
     1
  1
02.10.31
  7
CONVERTER_6
 73
     1
 44
0.6002400960384202
1001
ACAD
1000
MTEXTBEGIN
1070
    73
1070
     1
1070
    44
1040
0.6002400960384202
1070
    74
1070
     0
1000
MTEXTEND
  0
MTEXT
  5
25C
330
4D
100
AcDbEntity
  8
1
 62
     3
100
AcDbMText
 10
9147.5605127691
 20
2821.010690411288
 30
0.0
 40
5.0
 41
0.0
 71
     5
 72
     1
  1
中島
  7
CONVERTER_2
 73
     1
 44
0.6002400960384202
1001
ACAD
1000
MTEXTBEGIN
1070
    73
1070
     1
1070
    44
1040
0.6002400960384202
1070
    74
1070
     0
1000
MTEXTEND
  0
MTEXT
  5
25D
330
4D
100
AcDbEntity
  8
1
 62
     3
100
AcDbMText
 10
9147.5605127691
 20
2814.010690411288
 30
0.0
 40
5.0
 41
0.0
 71
     5
 72
     1
  1
金本
  7
CONVERTER_2
 73
     1
 44
0.6002400960384202
1001
ACAD
1000
MTEXTBEGIN
1070
    73
1070
     1
1070
    44
1040
0.6002400960384202
1070
    74
1070
     0
1000
MTEXTEND
  0
MTEXT
  5
25E
330
4D
100
AcDbEntity
  8
1
 62
     3
100
AcDbMText
 10
9129.8105127691
 20
2807.010690411288
 30
0.0
 40
3.0
 41
0.0
 71
     5
 72
     1
  1
02.10.31
  7
CONVERTER_6
 73
     1
 44
0.6002400960384202
1001
ACAD
1000
MTEXTBEGIN
1070
    73
1070
     1
1070
    44
1040
0.6002400960384202
1070
    74
1070
     0
1000
MTEXTEND
  0
MTEXT
  5
25F
330
4D
100
AcDbEntity
  8
1
 62
     3
100
AcDbMText
 10
9147.5605127691
 20
2807.010690411288
 30
0.0
 40
5.0
 41
0.0
 71
     5
 72
     1
  1
飯島
  7
CONVERTER_2
 73
     1
 44
0.6002400960384202
1001
ACAD
1000
MTEXTBEGIN
1070
    73
1070
     1
1070
    44
1040
0.6002400960384202
1070
    74
1070
     0
1000
MTEXTEND
  0
MTEXT
  5
260
330
4D
100
AcDbEntity
  8
1
 62
     3
100
AcDbMText
 10
9163.060512769099
 20
2821.010690411288
 30
0.0
 40
3.5
 41
0.0
 71
     4
 72
     1
  1
HR-250-SL
  7
CONVERTER_6
 73
     1
 44
0.6002400960384202
1001
ACAD
1000
MTEXTBEGIN
1070
    73
1070
     1
1070
    44
1040
0.6002400960384202
1070
    74
1070
     0
1000
MTEXTEND
  0
MTEXT
  5
261
330
4D
100
AcDbEntity
  8
1
 62
     3
100
AcDbMText
 10
9060.023864144499
 20
2827.947023139294
 30
0.0
 40
3.5
 41
0.0
 71
     4
 72
     1
  1
A3
  7
CONVERTER_6
 73
     1
 44
0.6002400960384202
1001
ACAD
1000
MTEXTBEGIN
1070
    73
1070
     1
1070
    44
1040
0.6002400960384202
1070
    74
1070
     0
1000
MTEXTEND
  0
MTEXT
  5
262
330
4D
100
AcDbEntity
  8
1
 62
     4
100
AcDbMText
 10
9044.157463126488
 20
2829.530043411604
 30
0.0
 40
3.0
 41
0.0
 71
     4
 72
     1
  1
尺
  7
CONVERTER_2
 73
     1
 44
0.6002400960384202
1001
ACAD
1000
MTEXTBEGIN
1070
    73
1070
     1
1070
    44
1040
0.6002400960384202
1070
    74
1070
     0
1000
MTEXTEND
  0
MTEXT
  5
263
330
4D
100
AcDbEntity
  8
1
 62
     4
100
AcDbMText
 10
9044.159915258697
 20
2826.37964034614
 30
0.0
 40
3.0
 41
0.0
 71
     4
 72
     1
  1
度
  7
CONVERTER_2
 73
     1
 44
0.6002400960384202
1001
ACAD
1000
MTEXTBEGIN
1070
    73
1070
     1
1070
    44
1040
0.6002400960384202
1070
    74
1070
     0
1000
MTEXTEND
  0
MTEXT
  5
264
330
4D
100
AcDbEntity
  8
1
 62
     4
100
AcDbMText
 10
9120.657463126489
 20
2829.530043411604
 30
0.0
 40
3.0
 41
0.0
 71
     4
 72
     1
  1
浄
  7
CONVERTER_2
 73
     1
 44
0.6002400960384202
1001
ACAD
1000
MTEXTBEGIN
1070
    73
1070
     1
1070
    44
1040
0.6002400960384202
1070
    74
1070
     0
1000
MTEXTEND
  0
MTEXT
  5
265
330
4D
100
AcDbEntity
  8
1
 62
     4
100
AcDbMText
 10
9120.6599152587
 20
2826.37964034614
 30
0.0
 40
3.0
 41
0.0
 71
     4
 72
     1
  1
認
  7
CONVERTER_2
 73
     1
 44
0.6002400960384202
1001
ACAD
1000
MTEXTBEGIN
1070
    73
1070
     1
1070
    44
1040
0.6002400960384202
1070
    74
1070
     0
1000
MTEXTEND
  0
MTEXT
  5
266
330
4D
100
AcDbEntity
  8
1
 62
     4
100
AcDbMText
 10
9120.657463126489
 20
2822.530043411603
 30
0.0
 40
3.0
 41
0.0
 71
     4
 72
     1
  1
検
  7
CONVERTER_2
 73
     1
 44
0.6002400960384202
1001
ACAD
1000
MTEXTBEGIN
1070
    73
1070
     1
1070
    44
1040
0.6002400960384202
1070
    74
1070
     0
1000
MTEXTEND
  0
MTEXT
  5
267
330
4D
100
AcDbEntity
  8
1
 62
     4
100
AcDbMText
 10
9120.6599152587
 20
2819.37964034614
 30
0.0
 40
3.0
 41
0.0
 71
     4
 72
     1
  1
図
  7
CONVERTER_2
 73
     1
 44
0.6002400960384202
1001
ACAD
1000
MTEXTBEGIN
1070
    73
1070
     1
1070
    44
1040
0.6002400960384202
1070
    74
1070
     0
1000
MTEXTEND
  0
MTEXT
  5
268
330
4D
100
AcDbEntity
  8
1
 62
     4
100
AcDbMText
 10
9120.657463126489
 20
2808.530043411603
 30
0.0
 40
3.0
 41
0.0
 71
     4
 72
     1
  1
作
  7
CONVERTER_2
 73
     1
 44
0.6002400960384202
1001
ACAD
1000
MTEXTBEGIN
1070
    73
1070
     1
1070
    44
1040
0.6002400960384202
1070
    74
1070
     0
1000
MTEXTEND
  0
MTEXT
  5
269
330
4D
100
AcDbEntity
  8
1
 62
     4
100
AcDbMText
 10
9120.6599152587
 20
2805.37964034614
 30
0.0
 40
3.0
 41
0.0
 71
     4
 72
     1
  1
図
  7
CONVERTER_2
 73
     1
 44
0.6002400960384202
1001
ACAD
1000
MTEXTBEGIN
1070
    73
1070
     1
1070
    44
1040
0.6002400960384202
1070
    74
1070
     0
1000
MTEXTEND
  0
MTEXT
  5
26A
330
4D
100
AcDbEntity
  8
1
 62
     4
100
AcDbMText
 10
9120.657463126489
 20
2815.530043411604
 30
0.0
 40
3.0
 41
0.0
 71
     4
 72
     1
  1
設
  7
CONVERTER_2
 73
     1
 44
0.6002400960384202
1001
ACAD
1000
MTEXTBEGIN
1070
    73
1070
     1
1070
    44
1040
0.6002400960384202
1070
    74
1070
     0
1000
MTEXTEND
  0
MTEXT
  5
26B
330
4D
100
AcDbEntity
  8
1
 62
     4
100
AcDbMText
 10
9120.6599152587
 20
2812.37964034614
 30
0.0
 40
3.0
 41
0.0
 71
     4
 72
     1
  1
計
  7
CONVERTER_2
 73
     1
 44
0.6002400960384202
1001
ACAD
1000
MTEXTBEGIN
1070
    73
1070
     1
1070
    44
1040
0.6002400960384202
1070
    74
1070
     0
1000
MTEXTEND
  0
MTEXT
  5
26C
330
4D
100
AcDbEntity
  8
1
 62
     4
100
AcDbMText
 10
9159.159915258701
 20
2826.37964034614
 30
0.0
 40
3.0
 41
0.0
 71
     4
 72
     1
  1
名
  7
CONVERTER_2
 73
     1
 44
0.6002400960384202
1001
ACAD
1000
MTEXTBEGIN
1070
    73
1070
     1
1070
    44
1040
0.6002400960384202
1070
    74
1070
     0
1000
MTEXTEND
  0
MTEXT
  5
26D
330
4D
100
AcDbEntity
  8
1
 62
     4
100
AcDbMText
 10
9159.157463126488
 20
2829.530043411604
 30
0.0
 40
3.0
 41
0.0
 71
     4
 72
     1
  1
品
  7
CONVERTER_2
 73
     1
 44
0.6002400960384202
1001
ACAD
1000
MTEXTBEGIN
1070
    73
1070
     1
1070
    44
1040
0.6002400960384202
1070
    74
1070
     0
1000
MTEXTEND
  0
MTEXT
  5
26E
330
4D
100
AcDbEntity
  8
1
 62
     4
100
AcDbMText
 10
9066.159915258698
 20
2826.37964034614
 30
0.0
 40
3.0
 41
0.0
 71
     4
 72
     1
  1
称
  7
CONVERTER_2
 73
     1
 44
0.6002400960384202
1001
ACAD
1000
MTEXTBEGIN
1070
    73
1070
     1
1070
    44
1040
0.6002400960384202
1070
    74
1070
     0
1000
MTEXTEND
  0
MTEXT
  5
26F
330
4D
100
AcDbEntity
  8
1
 62
     4
100
AcDbMText
 10
9066.157463126488
 20
2829.530043411603
 30
0.0
 40
3.0
 41
0.0
 71
     4
 72
     1
  1
名
  7
CONVERTER_2
 73
     1
 44
0.6002400960384202
1001
ACAD
1000
MTEXTBEGIN
1070
    73
1070
     1
1070
    44
1040
0.6002400960384202
1070
    74
1070
     0
1000
MTEXTEND
  0
MTEXT
  5
270
330
4D
100
AcDbEntity
  8
1
 62
     4
100
AcDbMText
 10
9159.159915258701
 20
2812.37964034614
 30
0.0
 40
3.0
 41
0.0
 71
     4
 72
     1
  1
名
  7
CONVERTER_2
 73
     1
 44
0.6002400960384202
1001
ACAD
1000
MTEXTBEGIN
1070
    73
1070
     1
1070
    44
1040
0.6002400960384202
1070
    74
1070
     0
1000
MTEXTEND
  0
MTEXT
  5
271
330
4D
100
AcDbEntity
  8
1
 62
     4
100
AcDbMText
 10
9159.157463126488
 20
2815.530043411603
 30
0.0
 40
3.0
 41
0.0
 71
     4
 72
     1
  1
図
  7
CONVERTER_2
 73
     1
 44
0.6002400960384202
1001
ACAD
1000
MTEXTBEGIN
1070
    73
1070
     1
1070
    44
1040
0.6002400960384202
1070
    74
1070
     0
1000
MTEXTEND
  0
MTEXT
  5
272
330
4D
100
AcDbEntity
  8
1
 62
     4
100
AcDbMText
 10
9159.159915258701
 20
2819.37964034614
 30
0.0
 40
3.0
 41
0.0
 71
     4
 72
     1
  1
番
  7
CONVERTER_2
 73
     1
 44
0.6002400960384202
1001
ACAD
1000
MTEXTBEGIN
1070
    73
1070
     1
1070
    44
1040
0.6002400960384202
1070
    74
1070
     0
1000
MTEXTEND
  0
MTEXT
  5
273
330
4D
100
AcDbEntity
  8
1
 62
     4
100
AcDbMText
 10
9159.157463126488
 20
2822.530043411603
 30
0.0
 40
3.0
 41
0.0
 71
     4
 72
     1
  1
品
  7
CONVERTER_2
 73
     1
 44
0.6002400960384202
1001
ACAD
1000
MTEXTBEGIN
1070
    73
1070
     1
1070
    44
1040
0.6002400960384202
1070
    74
1070
     0
1000
MTEXTEND
  0
MTEXT
  5
274
330
4D
100
AcDbEntity
  8
1
 62
     4
100
AcDbMText
 10
9159.159915258701
 20
2805.37964034614
 30
0.0
 40
3.0
 41
0.0
 71
     4
 72
     1
  1
番
  7
CONVERTER_2
 73
     1
 44
0.6002400960384202
1001
ACAD
1000
MTEXTBEGIN
1070
    73
1070
     1
1070
    44
1040
0.6002400960384202
1070
    74
1070
     0
1000
MTEXTEND
  0
MTEXT
  5
275
330
4D
100
AcDbEntity
  8
1
 62
     4
100
AcDbMText
 10
9159.157463126488
 20
2808.530043411603
 30
0.0
 40
3.0
 41
0.0
 71
     4
 72
     1
  1
図
  7
CONVERTER_2
 73
     1
 44
0.6002400960384202
1001
ACAD
1000
MTEXTBEGIN
1070
    73
1070
     1
1070
    44
1040
0.6002400960384202
1070
    74
1070
     0
1000
MTEXTEND
  0
MTEXT
  5
276
330
4D
100
AcDbEntity
  8
1
 62
     4
100
AcDbMText
 10
9033.8605127691
 20
2835.010690411288
 30
0.0
 40
3.0
 41
0.0
 71
     5
 72
     1
  1
部番
  7
CONVERTER_1
 73
     1
 44
0.6002400960384202
1001
ACAD
1000
MTEXTBEGIN
1070
    73
1070
     1
1070
    44
1040
0.6002400960384202
1070
    74
1070
     0
1000
MTEXTEND
  0
MTEXT
  5
277
330
4D
100
AcDbEntity
  8
1
 62
     4
100
AcDbMText
 10
9062.360512769101
 20
2835.010690411288
 30
0.0
 40
3.0
 41
0.0
 71
     5
 72
     1
  1
部     品     名
  7
CONVERTER_1
 73
     1
 44
0.6002400960384202
1001
ACAD
1000
MTEXTBEGIN
1070
    73
1070
     1
1070
    44
1040
0.6002400960384202
1070
    74
1070
     0
1000
MTEXTEND
  0
MTEXT
  5
278
330
4D
100
AcDbEntity
  8
1
 62
     4
100
AcDbMText
 10
9101.493013774188
 20
2835.010690411288
 30
0.0
 40
3.0
 41
0.0
 71
     5
 72
     1
  1
坑   質
  7
CONVERTER_1
 73
     1
 44
0.6002400960384202
1001
ACAD
1000
MTEXTBEGIN
1070
    73
1070
     1
1070
    44
1040
0.6002400960384202
1070
    74
1070
     0
1000
MTEXTEND
  0
MTEXT
  5
279
330
4D
100
AcDbEntity
  8
1
 62
     4
100
AcDbMText
 10
9119.060512769101
 20
2835.010690411288
 30
0.0
 40
3.0
 41
0.0
 71
     5
 72
     1
  1
数量
  7
CONVERTER_1
 73
     1
 44
0.6002400960384202
1001
ACAD
1000
MTEXTBEGIN
1070
    73
1070
     1
1070
    44
1040
0.6002400960384202
1070
    74
1070
     0
1000
MTEXTEND
  0
MTEXT
  5
27A
330
4D
100
AcDbEntity
  8
1
 62
     4
100
AcDbMText
 10
9147.636996751213
 20
2835.010690411288
 30
0.0
 40
3.0
 41
0.0
 71
     5
 72
     1
  1
表   面   処   理
  7
CONVERTER_1
 73
     1
 44
0.6002400960384202
1001
ACAD
1000
MTEXTBEGIN
1070
    73
1070
     1
1070
    44
1040
0.6002400960384202
1070
    74
1070
     0
1000
MTEXTEND
  0
MTEXT
  5
27B
330
4D
100
AcDbEntity
  8
1
 62
     4
100
AcDbMText
 10
9193.31967889831
 20
2835.273961713932
 30
0.0
 40
3.0
 41
0.0
 71
     5
 72
     1
  1
備    考
  7
CONVERTER_1
 73
     1
 44
0.6002400960384202
1001
ACAD
1000
MTEXTBEGIN
1070
    73
1070
     1
1070
    44
1040
0.6002400960384202
1070
    74
1070
     0
1000
MTEXTEND
  0
MTEXT
  5
27C
330
4D
100
AcDbEntity
  8
1
 62
     3
100
AcDbMText
 10
9090.477028540353
 20
2815.549543683354
 30
0.0
 40
3.5
 41
0.0
 71
     4
 72
     1
  1
開  発  部
  7
CONVERTER_2
 73
     1
 44
0.6002400960384202
1001
ACAD
1000
MTEXTBEGIN
1070
    73
1070
     1
1070
    44
1040
0.6002400960384202
1070
    74
1070
     0
1000
MTEXTEND
  0
MTEXT
  5
27D
330
4D
100
AcDbEntity
  8
1
 62
     3
100
AcDbMText
 10
9090.413810730385
 20
2807.150976903545
 30
0.0
 40
2.5
 41
0.0
 71
     4
 72
     1
  1
東京都 台東区 入谷 1-27-4
  7
CONVERTER_2
 73
     1
 44
0.6002400960384202
1001
ACAD
1000
MTEXTBEGIN
1070
    73
1070
     1
1070
    44
1040
0.6002400960384202
1070
    74
1070
     0
1000
MTEXTEND
  0
MTEXT
  5
27E
330
4D
100
AcDbEntity
  8
1
 62
     3
100
AcDbMText
 10
9090.430460433422
 20
2810.994469695017
 30
0.0
 40
2.5
 41
0.0
 71
     4
 72
     1
  1
〒110-8680
  7
CONVERTER_2
 73
     1
 44
0.6002400960384202
1001
ACAD
1000
MTEXTBEGIN
1070
    73
1070
     1
1070
    44
1040
0.6002400960384202
1070
    74
1070
     0
1000
MTEXTEND
  0
MTEXT
  5
27F
330
4D
100
AcDbEntity
  8
1
 62
     3
100
AcDbMText
 10
9033.969078625535
 20
2807.678019974881
 30
0.0
 40
5.0
 41
0.0
 71
     4
 72
     1
  1
アトムリビンテック株式会社
  7
CONVERTER_2
 73
     1
 44
0.6002400960384202
1001
ACAD
1000
MTEXTBEGIN
1070
    73
1070
     1
1070
    44
1040
0.6002400960384202
1070
    74
1070
     0
1000
MTEXTEND
  0
ENDBLK
  5
4F
330
4D
100
AcDbEntity
  8
0
100
AcDbBlockEnd
  0
BLOCK
  5
52
330
50
100
AcDbEntity
  8
0
100
AcDbBlockBegin
  2
FORMAT_A3
 70
     0
 10
4857.71759878057
 20
1460.503230579666
 30
0.0
  3
FORMAT_A3
  1

  0
INSERT
  5
51
330
50
100
AcDbEntity
  8
0
100
AcDbBlockReference
  2
______
 10
5254.137562489628
 20
1438.63168601319
 30
0.0
  0
LINE
  5
280
330
50
100
AcDbEntity
  8
1
  6
Continuous
 62
     7
100
AcDbLine
 10
9214.5605127691
 20
2845.510690411288
 30
0.0
 11
9214.5605127691
 21
3080.510690411288
 31
0.0
  0
LINE
  5
281
330
50
100
AcDbEntity
  8
1
  6
Continuous
 62
     7
100
AcDbLine
 10
9214.5605127691
 20
3080.510690411288
 30
0.0
 11
8814.5605127691
 21
3080.510690411288
 31
0.0
  0
LINE
  5
282
330
50
100
AcDbEntity
  8
1
  6
Continuous
 62
     7
100
AcDbLine
 10
8814.5605127691
 20
3080.510690411288
 30
0.0
 11
8814.5605127691
 21
2803.510690411288
 31
0.0
  0
LINE
  5
283
330
50
100
AcDbEntity
  8
1
  6
Continuous
 62
     7
100
AcDbLine
 10
9030.560512769099
 20
2803.510690411288
 30
0.0
 11
8814.5605127691
 21
2803.510690411288
 31
0.0
  0
ENDBLK
  5
53
330
50
100
AcDbEntity
  8
0
100
AcDbBlockEnd
  0
BLOCK
  5
56
330
54
100
AcDbEntity
  8
0
100
AcDbBlockBegin
  2
_G_P_P___O_P___O_V_S_____X_G_69
 70
     0
 10
4776.280176700169
 20
1394.389409622694
 30
0.0
  3
_G_P_P___O_P___O_V_S_____X_G_69
  1

  0
INSERT
  5
55
330
54
100
AcDbEntity
  8
0
100
AcDbBlockReference
  2
FORMAT_A3
 10
4857.71759878057
 20
1460.503230579666
 30
0.0
  0
ENDBLK
  5
57
330
54
100
AcDbEntity
  8
0
100
AcDbBlockEnd
  0
BLOCK
  5
5A
330
58
100
AcDbEntity
  8
0
100
AcDbBlockBegin
  2
_G_P_P___O_P___O_V_S_____X_G_70__4
 70
     0
 10
1809.60729927595
 20
2183.261560639883
 30
0.0
  3
_G_P_P___O_P___O_V_S_____X_G_70__4
  1

  0
INSERT
  5
59
330
58
100
AcDbEntity
  8
0
100
AcDbBlockReference
  2
_G_P_P___O_P___O_V_S_____X_G_69
 10
4776.280176700169
 20
1394.389409622694
 30
0.0
  0
ENDBLK
  5
5B
330
58
100
AcDbEntity
  8
0
100
AcDbBlockEnd
  0
BLOCK
  5
5E
330
5C
100
AcDbEntity
  8
0
100
AcDbBlockBegin
  2
TOP__95
 70
     0
 10
4413.8845472765
 20
1990.380842854364
 30
0.0
  3
TOP__95
  1

  0
INSERT
  5
5D
330
5C
100
AcDbEntity
  8
0
100
AcDbBlockReference
  2
_G_P_P___O_P___O_V_S_____X_G_70__4
 10
1809.60729927595
 20
2183.261560639883
 30
0.0
  0
ENDBLK
  5
5F
330
5C
100
AcDbEntity
  8
0
100
AcDbBlockEnd
  0
BLOCK
  5
61
330
60
100
AcDbEntity
  8
0
100
AcDbBlockBegin
  2
_5
 70
     0
 10
5365.64766375945
 20
3039.155232272381
 30
0.0
  3
_5
  1

  0
LINE
  5
284
330
60
100
AcDbEntity
  8
1
  6
Continuous
 62
     7
100
AcDbLine
 10
8890.17504803224
 20
2977.880707470607
 30
0.0
 11
8891.175048032241
 21
2977.880707470607
 31
0.0
  0
LINE
  5
285
330
60
100
AcDbEntity
  8
1
  6
Continuous
 62
     7
100
AcDbLine
 10
8893.17504803224
 20
2977.880707470607
 30
0.0
 11
8893.775048032244
 21
2977.880707470607
 31
0.0
  0
LINE
  5
286
330
60
100
AcDbEntity
  8
1
  6
Continuous
 62
     7
100
AcDbLine
 10
8893.17504803224
 20
2977.880707470607
 30
0.0
 11
8893.17504803224
 21
2956.380707470608
 31
0.0
  0
LINE
  5
287
330
60
100
AcDbEntity
  8
1
  6
Continuous
 62
     7
100
AcDbLine
 10
8891.175048032241
 20
2977.880707470607
 30
0.0
 11
8891.175048032241
 21
2956.380707470608
 31
0.0
  0
LINE
  5
288
330
60
100
AcDbEntity
  8
1
  6
Continuous
 62
     7
100
AcDbLine
 10
8890.17504803224
 20
2956.380707470608
 30
0.0
 11
8891.175048032241
 21
2956.380707470608
 31
0.0
  0
LINE
  5
289
330
60
100
AcDbEntity
  8
1
  6
Continuous
 62
     7
100
AcDbLine
 10
8891.175048032241
 20
2956.380707470608
 30
0.0
 11
8893.17504803224
 21
2956.380707470608
 31
0.0
  0
LINE
  5
28A
330
60
100
AcDbEntity
  8
1
  6
Continuous
 62
     7
100
AcDbLine
 10
8893.17504803224
 20
2956.380707470608
 30
0.0
 11
8893.775048032244
 21
2956.380707470608
 31
0.0
  0
LINE
  5
28B
330
60
100
AcDbEntity
  8
1
  6
Continuous
 62
     7
100
AcDbLine
 10
8891.175048032241
 20
2977.880707470607
 30
0.0
 11
8893.17504803224
 21
2977.880707470607
 31
0.0
  0
LINE
  5
28C
330
60
100
AcDbEntity
  8
1
  6
Continuous
 62
     7
100
AcDbLine
 10
9002.985690755311
 20
2977.880707470607
 30
0.0
 11
9000.685690755309
 21
2977.880707470607
 31
0.0
  0
LINE
  5
28D
330
60
100
AcDbEntity
  8
1
  6
Continuous
 62
     7
100
AcDbLine
 10
8986.985690755311
 20
2980.380707470608
 30
0.0
 11
8986.985690755311
 21
2982.380707470607
 31
0.0
  0
LINE
  5
28E
330
60
100
AcDbEntity
  8
1
  6
Continuous
 62
     3
100
AcDbLine
 10
8987.685690755309
 20
2961.280707470608
 30
0.0
 11
8987.685690755309
 21
2960.480707470607
 31
0.0
  0
LINE
  5
28F
330
60
100
AcDbEntity
  8
1
  6
Continuous
 62
     3
100
AcDbLine
 10
8989.285690755311
 20
2961.780707470607
 30
0.0
 11
8989.285690755311
 21
2962.880707470608
 31
0.0
  0
LINE
  5
290
330
60
100
AcDbEntity
  8
1
  6
Continuous
 62
     3
100
AcDbLine
 10
8989.285690755311
 20
2958.880707470608
 30
0.0
 11
8989.285690755311
 21
2959.980707470608
 31
0.0
  0
LINE
  5
291
330
60
100
AcDbEntity
  8
1
  6
Continuous
 62
     3
100
AcDbLine
 10
8990.085690755313
 20
2959.980707470608
 30
0.0
 11
8990.085690755313
 21
2958.880707470608
 31
0.0
  0
LINE
  5
292
330
60
100
AcDbEntity
  8
1
  6
Continuous
 62
     3
100
AcDbLine
 10
8990.085690755313
 20
2962.880707470608
 30
0.0
 11
8990.085690755313
 21
2961.780707470607
 31
0.0
  0
LINE
  5
293
330
60
100
AcDbEntity
  8
1
  6
Continuous
 62
     3
100
AcDbLine
 10
8991.685690755309
 20
2961.280707470608
 30
0.0
 11
8991.685690755309
 21
2960.480707470607
 31
0.0
  0
LINE
  5
294
330
60
100
AcDbEntity
  8
1
  6
Continuous
 62
     3
100
AcDbLine
 10
8988.78569075531
 20
2960.480707470607
 30
0.0
 11
8987.685690755309
 21
2960.480707470607
 31
0.0
  0
LINE
  5
295
330
60
100
AcDbEntity
  8
1
  6
Continuous
 62
     3
100
AcDbLine
 10
8990.085690755313
 20
2958.880707470608
 30
0.0
 11
8989.285690755311
 21
2958.880707470608
 31
0.0
  0
LINE
  5
296
330
60
100
AcDbEntity
  8
1
  6
Continuous
 62
     3
100
AcDbLine
 10
8991.685690755309
 20
2960.480707470607
 30
0.0
 11
8990.585690755313
 21
2960.480707470607
 31
0.0
  0
LINE
  5
297
330
60
100
AcDbEntity
  8
1
  6
Continuous
 62
     3
100
AcDbLine
 10
8990.585690755313
 20
2961.280707470608
 30
0.0
 11
8991.685690755309
 21
2961.280707470608
 31
0.0
  0
LINE
  5
298
330
60
100
AcDbEntity
  8
1
  6
Continuous
 62
     3
100
AcDbLine
 10
8987.685690755309
 20
2961.280707470608
 30
0.0
 11
8988.78569075531
 21
2961.280707470608
 31
0.0
  0
LINE
  5
299
330
60
100
AcDbEntity
  8
1
  6
Continuous
 62
     3
100
AcDbLine
 10
8989.285690755311
 20
2962.880707470608
 30
0.0
 11
8990.085690755313
 21
2962.880707470608
 31
0.0
  0
LINE
  5
29A
330
60
100
AcDbEntity
  8
1
  6
Continuous
 62
     7
100
AcDbLine
 10
8993.885690755313
 20
2984.880707470607
 30
0.0
 11
8993.885690755313
 21
2981.880707470608
 31
0.0
  0
LINE
  5
29B
330
60
100
AcDbEntity
  8
1
  6
Continuous
 62
     7
100
AcDbLine
 10
8985.485690755311
 20
2984.880707470607
 30
0.0
 11
8993.885690755313
 21
2984.880707470607
 31
0.0
  0
LINE
  5
29C
330
60
100
AcDbEntity
  8
1
  6
Continuous
 62
     7
100
AcDbLine
 10
8985.485690755311
 20
2984.880707470607
 30
0.0
 11
8985.485690755311
 21
2981.880707470608
 31
0.0
  0
LINE
  5
29D
330
60
100
AcDbEntity
  8
1
  6
Continuous
 62
     7
100
AcDbLine
 10
8987.985690755312
 20
2983.380707470607
 30
0.0
 11
8991.385690755313
 21
2983.380707470607
 31
0.0
  0
LINE
  5
29E
330
60
100
AcDbEntity
  8
1
  6
Continuous
 62
     7
100
AcDbLine
 10
8992.385690755313
 20
2982.380707470607
 30
0.0
 11
8992.385690755313
 21
2980.380707470608
 31
0.0
  0
LINE
  5
29F
330
60
100
AcDbEntity
  8
1
  6
Continuous
 62
     7
100
AcDbLine
 10
8986.985690755311
 20
2980.380707470608
 30
0.0
 11
8984.685690755309
 21
2980.380707470608
 31
0.0
  0
LINE
  5
2A0
330
60
100
AcDbEntity
  8
1
  6
Continuous
 62
     7
100
AcDbLine
 10
8992.385690755313
 20
2980.380707470608
 30
0.0
 11
8994.685690755309
 21
2980.380707470608
 31
0.0
  0
LINE
  5
2A1
330
60
100
AcDbEntity
  8
1
  6
Continuous
 62
     7
100
AcDbLine
 10
8985.485690755311
 20
2981.880707470608
 30
0.0
 11
8977.485690755312
 21
2981.880707470608
 31
0.0
  0
LINE
  5
2A2
330
60
100
AcDbEntity
  8
1
  6
Continuous
 62
     7
100
AcDbLine
 10
8976.48569075531
 20
2980.880707470607
 30
0.0
 11
8976.48569075531
 21
2979.880707470608
 31
0.0
  0
LINE
  5
2A3
330
60
100
AcDbEntity
  8
1
  6
Continuous
 62
     7
100
AcDbLine
 10
9002.885690755313
 20
2980.880707470607
 30
0.0
 11
9002.885690755313
 21
2979.880707470608
 31
0.0
  0
LINE
  5
2A4
330
60
100
AcDbEntity
  8
1
  6
Continuous
 62
     7
100
AcDbLine
 10
8993.885690755313
 20
2981.880707470608
 30
0.0
 11
9001.885690755313
 21
2981.880707470608
 31
0.0
  0
LINE
  5
2A5
330
60
100
AcDbEntity
  8
1
  6
Continuous
 62
     7
100
AcDbLine
 10
8976.48569075531
 20
2979.880707470608
 30
0.0
 11
8981.185690755308
 21
2979.880707470608
 31
0.0
  0
LINE
  5
2A6
330
60
100
AcDbEntity
  8
1
  6
Continuous
 62
     7
100
AcDbLine
 10
8983.685690755308
 20
2979.380707470607
 30
0.0
 11
8983.685690755308
 21
2969.380707470607
 31
0.0
  0
LINE
  5
2A7
330
60
100
AcDbEntity
  8
1
  6
Continuous
 62
     7
100
AcDbLine
 10
8984.685690755309
 20
2968.380707470608
 30
0.0
 11
8994.685690755309
 21
2968.380707470608
 31
0.0
  0
LINE
  5
2A8
330
60
100
AcDbEntity
  8
1
  6
Continuous
 62
     7
100
AcDbLine
 10
8995.685690755308
 20
2969.380707470607
 30
0.0
 11
8995.685690755308
 21
2979.380707470607
 31
0.0
  0
LINE
  5
2A9
330
60
100
AcDbEntity
  8
1
  6
Continuous
 62
     7
100
AcDbLine
 10
8997.585690755313
 20
2948.280707470607
 30
0.0
 11
8991.235690755312
 21
2948.280707470607
 31
0.0
  0
LINE
  5
2AA
330
60
100
AcDbEntity
  8
1
  6
Continuous
 62
     7
100
AcDbLine
 10
8991.235690755312
 20
2948.280707470607
 30
0.0
 11
8991.235690755312
 21
2951.080707470607
 31
0.0
  0
LINE
  5
2AB
330
60
100
AcDbEntity
  8
1
  6
Continuous
 62
     7
100
AcDbLine
 10
8990.735690755311
 20
2951.580707470607
 30
0.0
 11
8988.635690755312
 21
2951.580707470607
 31
0.0
  0
LINE
  5
2AC
330
60
100
AcDbEntity
  8
1
  6
Continuous
 62
     7
100
AcDbLine
 10
8988.135690755312
 20
2951.080707470607
 30
0.0
 11
8988.135690755312
 21
2948.280707470607
 31
0.0
  0
LINE
  5
2AD
330
60
100
AcDbEntity
  8
1
  6
Continuous
 62
     7
100
AcDbLine
 10
8988.135690755312
 20
2948.280707470607
 30
0.0
 11
8981.785690755311
 21
2948.280707470607
 31
0.0
  0
LINE
  5
2AE
330
60
100
AcDbEntity
  8
1
  6
Continuous
 62
     7
100
AcDbLine
 10
8976.785690755312
 20
2953.280707470608
 30
0.0
 11
8976.785690755312
 21
2956.380707470608
 31
0.0
  0
LINE
  5
2AF
330
60
100
AcDbEntity
  8
1
  6
Continuous
 62
     7
100
AcDbLine
 10
8982.185690755308
 20
2978.880707470608
 30
0.0
 11
8982.185690755308
 21
2948.280707470607
 31
0.0
  0
LINE
  5
2B0
330
60
100
AcDbEntity
  8
1
  6
Continuous
 62
     7
100
AcDbLine
 10
8998.185690755308
 20
2979.880707470608
 30
0.0
 11
9002.885690755313
 21
2979.880707470608
 31
0.0
  0
LINE
  5
2B1
330
60
100
AcDbEntity
  8
1
  6
Continuous
 62
     7
100
AcDbLine
 10
8997.185690755308
 20
2948.280707470607
 30
0.0
 11
8997.185690755308
 21
2978.880707470608
 31
0.0
  0
LINE
  5
2B2
330
60
100
AcDbEntity
  8
1
  6
Continuous
 62
     7
100
AcDbLine
 10
8978.685690755309
 20
2977.880707470607
 30
0.0
 11
8976.385690755309
 21
2977.880707470607
 31
0.0
  0
LINE
  5
2B3
330
60
100
AcDbEntity
  8
1
  6
Continuous
 62
     7
100
AcDbLine
 10
8978.685690755309
 20
2956.380707470608
 30
0.0
 11
8978.685690755309
 21
2977.880707470607
 31
0.0
  0
LINE
  5
2B4
330
60
100
AcDbEntity
  8
1
  6
Continuous
 62
     7
100
AcDbLine
 10
8976.785690755312
 20
2977.880707470607
 30
0.0
 11
8976.785690755312
 21
2979.880707470608
 31
0.0
  0
LINE
  5
2B5
330
60
100
AcDbEntity
  8
1
  6
Continuous
 62
     7
100
AcDbLine
 10
8976.845322588703
 20
2956.380707470608
 30
0.0
 11
8976.845322588703
 21
2977.880707470607
 31
0.0
  0
LINE
  5
2B6
330
60
100
AcDbEntity
  8
1
  6
Continuous
 62
     7
100
AcDbLine
 10
9000.685690755309
 20
2956.380707470608
 30
0.0
 11
9002.985690755311
 21
2956.380707470608
 31
0.0
  0
LINE
  5
2B7
330
60
100
AcDbEntity
  8
1
  6
Continuous
 62
     7
100
AcDbLine
 10
9000.685690755309
 20
2977.880707470607
 30
0.0
 11
9000.685690755309
 21
2956.380707470608
 31
0.0
  0
LINE
  5
2B8
330
60
100
AcDbEntity
  8
1
  6
Continuous
 62
     7
100
AcDbLine
 10
9002.526058921919
 20
2977.880707470607
 30
0.0
 11
9002.526058921919
 21
2956.380707470608
 31
0.0
  0
LINE
  5
2B9
330
60
100
AcDbEntity
  8
1
  6
Continuous
 62
     7
100
AcDbLine
 10
9002.585690755314
 20
2956.380707470608
 30
0.0
 11
9002.585690755314
 21
2953.280707470608
 31
0.0
  0
LINE
  5
2BA
330
60
100
AcDbEntity
  8
1
  6
Continuous
 62
     7
100
AcDbLine
 10
9002.585690755314
 20
2979.880707470608
 30
0.0
 11
9002.585690755314
 21
2977.880707470607
 31
0.0
  0
LINE
  5
2BB
330
60
100
AcDbEntity
  8
1
  6
Continuous
 62
     3
100
AcDbLine
 10
8994.837864668353
 20
2962.805572133318
 30
0.0
 11
8994.099553435033
 21
2962.673676254875
 31
0.0
  0
LINE
  5
2BC
330
60
100
AcDbEntity
  8
1
  6
Continuous
 62
     3
100
AcDbLine
 10
8995.337530277364
 20
2962.894835077527
 30
0.0
 11
8996.068383390557
 21
2963.025398597391
 31
0.0
  0
LINE
  5
2BD
330
60
100
AcDbEntity
  8
1
  6
Continuous
 62
     3
100
AcDbLine
 10
8994.099553435033
 20
2962.673676254875
 30
0.0
 11
8995.435690755309
 21
2960.880707470608
 31
0.0
  0
LINE
  5
2BE
330
60
100
AcDbEntity
  8
1
  6
Continuous
 62
     3
100
AcDbLine
 10
8995.435690755309
 20
2960.880707470608
 30
0.0
 11
8996.068383390557
 21
2963.025398597391
 31
0.0
  0
LINE
  5
2BF
330
60
100
AcDbEntity
  8
1
  6
Continuous
 62
     3
100
AcDbLine
 10
8985.271828075589
 20
2962.673676254875
 30
0.0
 11
8984.533516842267
 21
2962.805572133318
 31
0.0
  0
LINE
  5
2C0
330
60
100
AcDbEntity
  8
1
  6
Continuous
 62
     3
100
AcDbLine
 10
8983.302998120064
 20
2963.025398597391
 30
0.0
 11
8984.033851233256
 21
2962.894835077527
 31
0.0
  0
LINE
  5
2C1
330
60
100
AcDbEntity
  8
1
  6
Continuous
 62
     3
100
AcDbLine
 10
8983.935690755307
 20
2960.880707470608
 30
0.0
 11
8985.271828075589
 21
2962.673676254875
 31
0.0
  0
LINE
  5
2C2
330
60
100
AcDbEntity
  8
1
  6
Continuous
 62
     3
100
AcDbLine
 10
8983.302998120064
 20
2963.025398597391
 30
0.0
 11
8983.935690755307
 21
2960.880707470608
 31
0.0
  0
LINE
  5
2C3
330
60
100
AcDbEntity
  8
1
  6
Continuous
 62
     7
100
AcDbLine
 10
8976.385690755309
 20
2956.380707470608
 30
0.0
 11
8978.685690755309
 21
2956.380707470608
 31
0.0
  0
ARC
  5
2C4
330
60
100
AcDbEntity
  8
1
  6
Continuous
 62
     3
100
AcDbCircle
 10
8988.78569075531
 20
2959.980707470608
 30
0.0
 40
0.5
100
AcDbArc
 50
0.0
 51
90.0
  0
ARC
  5
2C5
330
60
100
AcDbEntity
  8
1
  6
Continuous
 62
     3
100
AcDbCircle
 10
8988.78569075531
 20
2961.780707470607
 30
0.0
 40
0.5
100
AcDbArc
 50
-90.0
 51
0.0
  0
ARC
  5
2C6
330
60
100
AcDbEntity
  8
1
  6
Continuous
 62
     3
100
AcDbCircle
 10
8990.585690755313
 20
2959.980707470608
 30
0.0
 40
0.5
100
AcDbArc
 50
90.0
 51
180.0
  0
ARC
  5
2C7
330
60
100
AcDbEntity
  8
1
  6
Continuous
 62
     3
100
AcDbCircle
 10
8990.585690755313
 20
2961.780707470607
 30
0.0
 40
0.5
100
AcDbArc
 50
180.0
 51
-90.0
  0
ARC
  5
2C8
330
60
100
AcDbEntity
  8
1
  6
Continuous
 62
     7
100
AcDbCircle
 10
9001.885690755313
 20
2980.880707470607
 30
0.0
 40
1.0
100
AcDbArc
 50
0.0
 51
90.0
  0
ARC
  5
2C9
330
60
100
AcDbEntity
  8
1
  6
Continuous
 62
     7
100
AcDbCircle
 10
8977.485690755312
 20
2980.880707470607
 30
0.0
 40
1.0
100
AcDbArc
 50
90.0
 51
180.0
  0
ARC
  5
2CA
330
60
100
AcDbEntity
  8
1
  6
Continuous
 62
     7
100
AcDbCircle
 10
8987.985690755312
 20
2982.380707470607
 30
0.0
 40
1.0
100
AcDbArc
 50
90.0
 51
180.0
  0
ARC
  5
2CB
330
60
100
AcDbEntity
  8
1
  6
Continuous
 62
     7
100
AcDbCircle
 10
8991.385690755313
 20
2982.380707470607
 30
0.0
 40
1.0
100
AcDbArc
 50
0.0
 51
90.0
  0
ARC
  5
2CC
330
60
100
AcDbEntity
  8
1
  6
Continuous
 62
     7
100
AcDbCircle
 10
8997.585690755313
 20
2953.280707470608
 30
0.0
 40
5.0
100
AcDbArc
 50
-90.0
 51
0.0
  0
ARC
  5
2CD
330
60
100
AcDbEntity
  8
1
  6
Continuous
 62
     7
100
AcDbCircle
 10
8981.785690755311
 20
2953.280707470608
 30
0.0
 40
5.0
100
AcDbArc
 50
180.0
 51
-90.0
  0
ARC
  5
2CE
330
60
100
AcDbEntity
  8
1
  6
Continuous
 62
     7
100
AcDbCircle
 10
8990.735690755311
 20
2951.080707470607
 30
0.0
 40
0.5
100
AcDbArc
 50
0.0
 51
90.0
  0
ARC
  5
2CF
330
60
100
AcDbEntity
  8
1
  6
Continuous
 62
     7
100
AcDbCircle
 10
8988.635690755312
 20
2951.080707470607
 30
0.0
 40
0.5
100
AcDbArc
 50
90.0
 51
180.0
  0
ARC
  5
2D0
330
60
100
AcDbEntity
  8
1
  6
Continuous
 62
     7
100
AcDbCircle
 10
8981.185690755308
 20
2978.880707470608
 30
0.0
 40
1.0
100
AcDbArc
 50
0.0
 51
90.0
  0
ARC
  5
2D1
330
60
100
AcDbEntity
  8
1
  6
Continuous
 62
     7
100
AcDbCircle
 10
8984.685690755309
 20
2979.380707470607
 30
0.0
 40
1.0
100
AcDbArc
 50
90.0
 51
180.0
  0
ARC
  5
2D2
330
60
100
AcDbEntity
  8
1
  6
Continuous
 62
     7
100
AcDbCircle
 10
8998.185690755308
 20
2978.880707470608
 30
0.0
 40
1.0
100
AcDbArc
 50
90.0
 51
180.0
  0
ARC
  5
2D3
330
60
100
AcDbEntity
  8
1
  6
Continuous
 62
     7
100
AcDbCircle
 10
8984.685690755309
 20
2969.380707470607
 30
0.0
 40
1.0
100
AcDbArc
 50
180.0
 51
-90.0
  0
ARC
  5
2D4
330
60
100
AcDbEntity
  8
1
  6
Continuous
 62
     7
100
AcDbCircle
 10
8994.685690755309
 20
2969.380707470607
 30
0.0
 40
1.0
100
AcDbArc
 50
-90.0
 51
0.0
  0
ARC
  5
2D5
330
60
100
AcDbEntity
  8
1
  6
Continuous
 62
     7
100
AcDbCircle
 10
8994.685690755309
 20
2979.380707470607
 30
0.0
 40
1.0
100
AcDbArc
 50
0.0
 51
90.0
  0
ARC
  5
2D6
330
60
100
AcDbEntity
  8
1
  6
Continuous
 62
     7
100
AcDbCircle
 10
8993.53569075531
 20
2960.880707470608
 30
0.0
 40
0.4999999999992699
100
AcDbArc
 50
137.1483337872467
 51
-137.1483337872467
  0
ARC
  5
2D7
330
60
100
AcDbEntity
  8
1
  6
Continuous
 62
     7
100
AcDbCircle
 10
8989.685690755308
 20
2964.730707470608
 30
0.0
 40
0.4999999999996513
100
AcDbArc
 50
-132.8516662125705
 51
-47.14833378709946
  0
ARC
  5
2D8
330
60
100
AcDbEntity
  8
1
  6
Continuous
 62
     7
100
AcDbCircle
 10
8985.835690755314
 20
2960.880707470608
 30
0.0
 40
0.4999999999992699
100
AcDbArc
 50
-42.85166621275325
 51
42.85166621275325
  0
ARC
  5
2D9
330
60
100
AcDbEntity
  8
1
  6
Continuous
 62
     7
100
AcDbCircle
 10
8989.685690755308
 20
2957.030707470608
 30
0.0
 40
0.5000000000008884
100
AcDbArc
 50
47.14833378727665
 51
132.8516662125705
  0
ARC
  5
2DA
330
60
100
AcDbEntity
  8
1
  6
Continuous
 62
     7
100
AcDbCircle
 10
8989.685690755308
 20
2960.880707470608
 30
0.0
 40
3.499999999999491
100
AcDbArc
 50
-84.42448862019205
 51
-5.575511379793139
  0
ARC
  5
2DB
330
60
100
AcDbEntity
  8
1
  6
Continuous
 62
     7
100
AcDbCircle
 10
8989.685690755308
 20
2960.880707470608
 30
0.0
 40
3.499999999999404
100
AcDbArc
 50
-174.4244886202069
 51
-95.5755113797783
  0
ARC
  5
2DC
330
60
100
AcDbEntity
  8
1
  6
Continuous
 62
     7
100
AcDbCircle
 10
8989.685690755308
 20
2960.880707470608
 30
0.0
 40
3.499999999999315
100
AcDbArc
 50
95.5755113797783
 51
174.4244886202069
  0
ARC
  5
2DD
330
60
100
AcDbEntity
  8
1
  6
Continuous
 62
     7
100
AcDbCircle
 10
8989.685690755308
 20
2960.880707470608
 30
0.0
 40
3.500000000001214
100
AcDbArc
 50
5.57551137979025
 51
84.42448862019565
  0
ARC
  5
2DE
330
60
100
AcDbEntity
  8
1
  6
Continuous
 62
     3
100
AcDbCircle
 10
8989.685690755308
 20
2960.880707470608
 30
0.0
 40
6.0000000000001
100
AcDbArc
 50
19.61437630681279
 51
160.3856236931872
  0
ARC
  5
2DF
330
60
100
AcDbEntity
  8
1
  6
Continuous
 62
     3
100
AcDbCircle
 10
8989.685690755308
 20
2960.880707470608
 30
0.0
 40
5.500000000000418
100
AcDbArc
 50
20.4858100619714
 51
159.5141899380286
  0
CIRCLE
  5
2E0
330
60
100
AcDbEntity
  8
1
  6
Continuous
 62
     3
100
AcDbCircle
 10
8989.685690755308
 20
2960.880707470608
 30
0.0
 40
3.350000000000363
  0
MTEXT
  5
2E2
330
60
100
AcDbEntity
  8
1
 62
     3
100
AcDbMText
 10
8995.185690755308
 20
2957.880707470608
 30
0.0
 40
4.0
 41
0.0
 71
     5
 72
     1
  1
上
  7
CONVERTER_7
 73
     1
 44
0.6002400960384202
1001
ACAD
1000
MTEXTBEGIN
1070
    73
1070
     1
1070
    44
1040
0.6002400960384202
1070
    74
1070
     0
1000
MTEXTEND
  0
MTEXT
  5
2E3
330
60
100
AcDbEntity
  8
1
 62
     3
100
AcDbMText
 10
8984.185690755309
 20
2957.880707470608
 30
0.0
 40
4.0
 41
0.0
 71
     5
 72
     1
  1
下
  7
CONVERTER_7
 73
     1
 44
0.6002400960384202
1001
ACAD
1000
MTEXTBEGIN
1070
    73
1070
     1
1070
    44
1040
0.6002400960384202
1070
    74
1070
     0
1000
MTEXTEND
  0
ENDBLK
  5
62
330
60
100
AcDbEntity
  8
0
100
AcDbBlockEnd
  0
BLOCK
  5
65
330
63
100
AcDbEntity
  8
0
100
AcDbBlockBegin
  2
TOP__121
 70
     0
 10
3925.757916112141
 20
1564.876312593903
 30
0.0
  3
TOP__121
  1

  0
INSERT
  5
64
330
63
100
AcDbEntity
  8
0
100
AcDbBlockReference
  2
_5
 10
5365.64766375945
 20
3039.155232272381
 30
0.0
  0
ENDBLK
  5
66
330
63
100
AcDbEntity
  8
0
100
AcDbBlockEnd
  0
BLOCK
  5
69
330
67
100
AcDbEntity
  8
0
100
AcDbBlockBegin
  2
_G_P_P___O_P___O_V_S_____X_G_88
 70
     0
 10
1968.5312396518
 20
1430.10265475096
 30
0.0
  3
_G_P_P___O_P___O_V_S_____X_G_88
  1

  0
INSERT
  5
68
330
67
100
AcDbEntity
  8
0
100
AcDbBlockReference
  2
TOP__121
 10
3925.757916112141
 20
1564.876312593903
 30
0.0
  0
ENDBLK
  5
6A
330
67
100
AcDbEntity
  8
0
100
AcDbBlockEnd
  0
BLOCK
  5
6C
330
6B
100
AcDbEntity
  8
0
100
AcDbBlockBegin
  2
_1
 70
     0
 10
4836.1
 20
1742.823190699
 30
0.0
  3
_1
  1

  0
LINE
  5
2E4
330
6B
100
AcDbEntity
  8
1
  6
Continuous
 62
     2
100
AcDbLine
 10
8994.059898035557
 20
2957.08491927628
 30
0.0
 11
8991.080598720783
 21
2959.147268912521
 31
0.0
  0
LINE
  5
2E5
330
6B
100
AcDbEntity
  8
1
  6
Continuous
 62
     2
100
AcDbLine
 10
8994.691922430977
 20
2958.850871393438
 30
0.0
 11
8991.080598720783
 21
2959.147268912521
 31
0.0
  0
LINE
  5
2E6
330
6B
100
AcDbEntity
  8
1
  6
Continuous
 62
     2
100
AcDbLine
 10
9045.580010308674
 20
2939.642234022355
 30
0.0
 11
8991.080598720783
 21
2959.147268912521
 31
0.0
  0
LINE
  5
2E7
330
6B
100
AcDbEntity
  8
1
  6
Continuous
 62
     2
100
AcDbLine
 10
9021.824922044318
 20
2958.256414182038
 30
0.0
 11
9018.408741741634
 21
2959.464397033192
 31
0.0
  0
LINE
  5
2E8
330
6B
100
AcDbEntity
  8
1
  6
Continuous
 62
     2
100
AcDbLine
 10
9021.971232093241
 20
2960.126343348097
 30
0.0
 11
9018.408741741634
 21
2959.464397033192
 31
0.0
  0
LINE
  5
2E9
330
6B
100
AcDbEntity
  8
1
  6
Continuous
 62
     2
100
AcDbLine
 10
9045.165028893183
 20
2957.37088795634
 30
0.0
 11
9018.408741741634
 21
2959.464397033192
 31
0.0
  0
LINE
  5
2EA
330
6B
100
AcDbEntity
  8
1
  6
Continuous
 62
     2
100
AcDbLine
 10
9002.584309167694
 20
2976.811149528269
 30
0.0
 11
8999.170975828155
 21
2978.027153616381
 31
0.0
  0
LINE
  5
2EB
330
6B
100
AcDbEntity
  8
1
  6
Continuous
 62
     2
100
AcDbLine
 10
9002.735011255836
 20
2978.68072985474
 30
0.0
 11
8999.170975828155
 21
2978.027153616381
 31
0.0
  0
LINE
  5
2EC
330
6B
100
AcDbEntity
  8
1
  6
Continuous
 62
     2
100
AcDbLine
 10
9044.99485296545
 20
2974.333408087731
 30
0.0
 11
8999.170975828155
 21
2978.027153616381
 31
0.0
  0
LINE
  5
2ED
330
6B
100
AcDbEntity
  8
1
  6
Continuous
 62
     2
100
AcDbLine
 10
8931.160915634407
 20
2987.798864785403
 30
0.0
 11
8986.685690755313
 21
2987.798864785403
 31
0.0
  0
LINE
  5
2EE
330
6B
100
AcDbEntity
  8
1
  6
Continuous
 62
     2
100
AcDbLine
 10
8931.045466447274
 20
3009.914638952617
 30
0.0
 11
8962.212576072307
 21
3001.836060476743
 31
0.0
  0
LINE
  5
2EF
330
6B
100
AcDbEntity
  8
1
  6
Continuous
 62
     2
100
AcDbLine
 10
8958.958674438937
 20
3003.430310955649
 30
0.0
 11
8962.212576072307
 21
3001.836060476743
 31
0.0
  0
LINE
  5
2F0
330
6B
100
AcDbEntity
  8
1
  6
Continuous
 62
     2
100
AcDbLine
 10
8958.597489356941
 20
3001.589771074787
 30
0.0
 11
8962.212576072307
 21
3001.836060476743
 31
0.0
  0
LINE
  5
2F1
330
6B
100
AcDbEntity
  8
1
  6
Continuous
 62
     2
100
AcDbLine
 10
8983.185690755311
 20
2988.736686958912
 30
0.0
 11
8986.685690755313
 21
2987.798864785403
 31
0.0
  0
LINE
  5
2F2
330
6B
100
AcDbEntity
  8
1
  6
Continuous
 62
     2
100
AcDbLine
 10
8983.185690755311
 20
2986.861042611894
 30
0.0
 11
8986.685690755313
 21
2987.798864785403
 31
0.0
  0
CIRCLE
  5
2F3
330
6B
100
AcDbEntity
  8
1
  6
Continuous
 62
     2
100
AcDbCircle
 10
9049.845483912202
 20
2937.230650530622
 30
0.0
 40
4.900000000001455
  0
CIRCLE
  5
2F4
330
6B
100
AcDbEntity
  8
1
  6
Continuous
 62
     2
100
AcDbCircle
 10
9049.845483912202
 20
2955.920598049132
 30
0.0
 40
4.900000000001455
  0
CIRCLE
  5
2F5
330
6B
100
AcDbEntity
  8
1
  6
Continuous
 62
     2
100
AcDbCircle
 10
9049.845483912202
 20
2973.639592969441
 30
0.0
 40
4.900000000001455
  0
CIRCLE
  5
2F6
330
6B
100
AcDbEntity
  8
1
  6
Continuous
 62
     2
100
AcDbCircle
 10
8925.560915634408
 20
2987.798864785403
 30
0.0
 40
5.600000000000363
  0
CIRCLE
  5
2F7
330
6B
100
AcDbEntity
  8
1
  6
Continuous
 62
     2
100
AcDbCircle
 10
8925.560915634408
 20
3011.045878264653
 30
0.0
 40
5.600000000000363
  0
MTEXT
  5
2F8
330
6B
100
AcDbEntity
  8
1
 62
     3
100
AcDbMText
 10
9049.845483912202
 20
2937.230650530622
 30
0.0
 40
3.5
 41
0.0
 71
     5
 72
     1
  1
5
  7
CONVERTER_6
 73
     1
 44
0.6002400960384202
1001
ACAD
1000
MTEXTBEGIN
1070
    73
1070
     1
1070
    44
1040
0.6002400960384202
1070
    74
1070
     0
1000
MTEXTEND
  0
MTEXT
  5
2F9
330
6B
100
AcDbEntity
  8
1
 62
     3
100
AcDbMText
 10
9049.845483912202
 20
2955.920598049132
 30
0.0
 40
3.5
 41
0.0
 71
     5
 72
     1
  1
1
  7
CONVERTER_6
 73
     1
 44
0.6002400960384202
1001
ACAD
1000
MTEXTBEGIN
1070
    73
1070
     1
1070
    44
1040
0.6002400960384202
1070
    74
1070
     0
1000
MTEXTEND
  0
MTEXT
  5
2FA
330
6B
100
AcDbEntity
  8
1
 62
     3
100
AcDbMText
 10
9049.845483912202
 20
2973.639592969441
 30
0.0
 40
3.5
 41
0.0
 71
     5
 72
     1
  1
2
  7
CONVERTER_6
 73
     1
 44
0.6002400960384202
1001
ACAD
1000
MTEXTBEGIN
1070
    73
1070
     1
1070
    44
1040
0.6002400960384202
1070
    74
1070
     0
1000
MTEXTEND
  0
MTEXT
  5
2FB
330
6B
100
AcDbEntity
  8
1
 62
     3
100
AcDbMText
 10
8925.560915634408
 20
2987.798864785403
 30
0.0
 40
4.0
 41
0.0
 71
     5
 72
     1
  1
3
  7
CONVERTER_6
 73
     1
 44
0.6002400960384202
1001
ACAD
1000
MTEXTBEGIN
1070
    73
1070
     1
1070
    44
1040
0.6002400960384202
1070
    74
1070
     0
1000
MTEXTEND
  0
MTEXT
  5
2FC
330
6B
100
AcDbEntity
  8
1
 62
     3
100
AcDbMText
 10
8925.560915634408
 20
3011.045878264653
 30
0.0
 40
4.0
 41
0.0
 71
     5
 72
     1
  1
4
  7
CONVERTER_6
 73
     1
 44
0.6002400960384202
1001
ACAD
1000
MTEXTBEGIN
1070
    73
1070
     1
1070
    44
1040
0.6002400960384202
1070
    74
1070
     0
1000
MTEXTEND
  0
ENDBLK
  5
6D
330
6B
100
AcDbEntity
  8
0
100
AcDbBlockEnd
  0
BLOCK
  5
307
330
2FD
100
AcDbEntity
  8
0
100
AcDbBlockBegin
  2
*D17
 70
     1
 10
0.0
 20
0.0
 30
0.0
  3
*D17
  1

  0
LINE
  5
2FE
330
2FD
100
AcDbEntity
  8
1
  6
Continuous
 62
     2
100
AcDbLine
 10
8882.67504803224
 20
2922.691039826291
 30
0.0
 11
8894.175048032241
 21
2922.691039826291
 31
0.0
  0
LINE
  5
2FF
330
2FD
100
AcDbEntity
  8
1
  6
Continuous
 62
     2
100
AcDbLine
 10
8882.67504803224
 20
2946.880707470608
 30
0.0
 11
8882.67504803224
 21
2921.691039826291
 31
0.0
  0
LINE
  5
300
330
2FD
100
AcDbEntity
  8
1
  6
Continuous
 62
     2
100
AcDbLine
 10
8894.175048032241
 20
2940.880707470608
 30
0.0
 11
8894.175048032241
 21
2921.691039826291
 31
0.0
  0
LINE
  5
301
330
2FD
100
AcDbEntity
  8
1
 62
     2
100
AcDbLine
 10
8882.67504803224
 20
2922.691039826291
 30
0.0
 11
8885.125048032243
 21
2923.347515347748
 31
0.0
  0
LINE
  5
302
330
2FD
100
AcDbEntity
  8
1
 62
     2
100
AcDbLine
 10
8882.67504803224
 20
2922.691039826291
 30
0.0
 11
8885.125048032243
 21
2922.034564304836
 31
0.0
  0
LINE
  5
303
330
2FD
100
AcDbEntity
  8
1
 62
     2
100
AcDbLine
 10
8894.175048032241
 20
2922.691039826291
 30
0.0
 11
8891.725048032242
 21
2922.034564304836
 31
0.0
  0
LINE
  5
304
330
2FD
100
AcDbEntity
  8
1
 62
     2
100
AcDbLine
 10
8894.175048032241
 20
2922.691039826291
 30
0.0
 11
8891.725048032242
 21
2923.347515347748
 31
0.0
  0
MTEXT
  5
306
330
2FD
100
AcDbEntity
  8
1
 62
     3
100
AcDbMText
 10
8885.791298032243
 20
2923.691039826291
 30
0.0
 40
3.5
 41
0.0
 71
     7
 72
     1
  1
11.5
  7
CONVERTER_8
 11
0.999999999997062
 21
0.0000024240684055
 31
0.0
 73
     1
 44
0.6002400960384202
1001
ACAD
1000
MTEXTBEGIN
1070
    73
1070
     1
1070
    44
1040
0.6002400960384202
1070
    74
1070
     0
1000
MTEXTEND
  0
ENDBLK
  5
308
330
2FD
100
AcDbEntity
  8
0
100
AcDbBlockEnd
  0
BLOCK
  5
30A
330
309
100
AcDbEntity
  8
0
100
AcDbBlockBegin
  2
_Open30
 70
     0
 10
0.0
 20
0.0
 30
0.0
  3
_Open30
  1

  0
LINE
  5
30C
330
309
100
AcDbEntity
  8
0
  6
ByBlock
 62
     0
370
    -2
100
AcDbLine
 10
-1.0
 20
0.267949
 30
0.0
 11
0.0
 21
0.0
 31
0.0
  0
LINE
  5
30D
330
309
100
AcDbEntity
  8
0
  6
ByBlock
 62
     0
370
    -2
100
AcDbLine
 10
0.0
 20
0.0
 30
0.0
 11
-1.0
 21
-0.267949
 31
0.0
  0
LINE
  5
30E
330
309
100
AcDbEntity
  8
0
  6
ByBlock
 62
     0
370
    -2
100
AcDbLine
 10
0.0
 20
0.0
 30
0.0
 11
-1.0
 21
0.0
 31
0.0
  0
ENDBLK
  5
30B
330
309
100
AcDbEntity
  8
0
100
AcDbBlockEnd
  0
BLOCK
  5
31A
330
311
100
AcDbEntity
  8
0
100
AcDbBlockBegin
  2
*D19
 70
     1
 10
0.0
 20
0.0
 30
0.0
  3
*D19
  1

  0
LINE
  5
312
330
311
100
AcDbEntity
  8
1
  6
Continuous
 62
     2
100
AcDbLine
 10
8882.67504803224
 20
2931.353635468261
 30
0.0
 11
8890.675048032241
 21
2931.353635468261
 31
0.0
  0
LINE
  5
313
330
311
100
AcDbEntity
  8
1
  6
Continuous
 62
     2
100
AcDbLine
 10
8882.67504803224
 20
2946.880707470608
 30
0.0
 11
8882.67504803224
 21
2930.353635468261
 31
0.0
  0
LINE
  5
314
330
311
100
AcDbEntity
  8
1
  6
Continuous
 62
     2
100
AcDbLine
 10
8890.675048032241
 20
2936.066218853441
 30
0.0
 11
8890.675048032241
 21
2930.353635468261
 31
0.0
  0
LINE
  5
315
330
311
100
AcDbEntity
  8
1
 62
     2
100
AcDbLine
 10
8882.67504803224
 20
2931.353635468261
 30
0.0
 11
8885.125048032243
 21
2932.010110989717
 31
0.0
  0
LINE
  5
316
330
311
100
AcDbEntity
  8
1
 62
     2
100
AcDbLine
 10
8882.67504803224
 20
2931.353635468261
 30
0.0
 11
8885.125048032243
 21
2930.697159946805
 31
0.0
  0
LINE
  5
317
330
311
100
AcDbEntity
  8
1
 62
     2
100
AcDbLine
 10
8890.675048032241
 20
2931.353635468261
 30
0.0
 11
8888.225048032243
 21
2930.697159946805
 31
0.0
  0
LINE
  5
318
330
311
100
AcDbEntity
  8
1
 62
     2
100
AcDbLine
 10
8890.675048032241
 20
2931.353635468261
 30
0.0
 11
8888.225048032243
 21
2932.010110989717
 31
0.0
  0
MTEXT
  5
319
330
311
100
AcDbEntity
  8
1
 62
     3
100
AcDbMText
 10
8885.940048032242
 20
2932.353635468261
 30
0.0
 40
3.5
 41
0.0
 71
     7
 72
     1
  1
8
  7
CONVERTER_8
 11
0.999999999997062
 21
0.0000024240684055
 31
0.0
 73
     1
 44
0.6002400960384202
1001
ACAD
1000
MTEXTBEGIN
1070
    73
1070
     1
1070
    44
1040
0.6002400960384202
1070
    74
1070
     0
1000
MTEXTEND
  0
ENDBLK
  5
31B
330
311
100
AcDbEntity
  8
0
100
AcDbBlockEnd
  0
BLOCK
  5
329
330
31E
100
AcDbEntity
  8
0
100
AcDbBlockBegin
  2
*D20
 70
     1
 10
0.0
 20
0.0
 30
0.0
  3
*D20
  1

  0
LINE
  5
31F
330
31E
100
AcDbEntity
  8
1
  6
Continuous
 62
     2
100
AcDbLine
 10
8885.775048032241
 20
2931.353635468261
 30
0.0
 11
8890.675048032241
 21
2931.353635468261
 31
0.0
  0
LINE
  5
320
330
31E
100
AcDbEntity
  8
1
  6
Continuous
 62
     2
100
AcDbLine
 10
8890.675048032241
 20
2931.353635468261
 30
0.0
 11
8894.175048032241
 21
2931.353635468261
 31
0.0
  0
LINE
  5
321
330
31E
100
AcDbEntity
  8
1
  6
Continuous
 62
     2
100
AcDbLine
 10
8894.175048032241
 20
2931.353635468261
 30
0.0
 11
8900.391554410822
 21
2931.353635468261
 31
0.0
  0
LINE
  5
322
330
31E
100
AcDbEntity
  8
1
  6
Continuous
 62
     2
100
AcDbLine
 10
8890.675048032241
 20
2936.066218853441
 30
0.0
 11
8890.675048032241
 21
2930.353635468261
 31
0.0
  0
LINE
  5
323
330
31E
100
AcDbEntity
  8
1
  6
Continuous
 62
     2
100
AcDbLine
 10
8894.175048032241
 20
2940.880707470608
 30
0.0
 11
8894.175048032241
 21
2930.353635468261
 31
0.0
  0
LINE
  5
324
330
31E
100
AcDbEntity
  8
1
 62
     2
100
AcDbLine
 10
8890.675048032241
 20
2931.353635468261
 30
0.0
 11
8888.225048032243
 21
2930.697159946805
 31
0.0
  0
LINE
  5
325
330
31E
100
AcDbEntity
  8
1
 62
     2
100
AcDbLine
 10
8890.675048032241
 20
2931.353635468261
 30
0.0
 11
8888.225048032243
 21
2932.010110989717
 31
0.0
  0
LINE
  5
326
330
31E
100
AcDbEntity
  8
1
 62
     2
100
AcDbLine
 10
8894.175048032241
 20
2931.353635468261
 30
0.0
 11
8896.625048032243
 21
2932.010110989717
 31
0.0
  0
LINE
  5
327
330
31E
100
AcDbEntity
  8
1
 62
     2
100
AcDbLine
 10
8894.175048032241
 20
2931.353635468261
 30
0.0
 11
8896.625048032243
 21
2930.697159946805
 31
0.0
  0
MTEXT
  5
328
330
31E
100
AcDbEntity
  8
1
 62
     3
100
AcDbMText
 10
8895.859054410818
 20
2932.353635468261
 30
0.0
 40
3.5
 41
0.0
 71
     7
 72
     1
  1
3.5
  7
CONVERTER_8
 11
0.999999999997062
 21
0.0000024240684055
 31
0.0
 73
     1
 44
0.6002400960384202
1001
ACAD
1000
MTEXTBEGIN
1070
    73
1070
     1
1070
    44
1040
0.6002400960384202
1070
    74
1070
     0
1000
MTEXTEND
  0
ENDBLK
  5
32A
330
31E
100
AcDbEntity
  8
0
100
AcDbBlockEnd
  0
BLOCK
  5
336
330
32D
100
AcDbEntity
  8
0
100
AcDbBlockBegin
  2
*D21
 70
     1
 10
0.0
 20
0.0
 30
0.0
  3
*D21
  1

  0
LINE
  5
32E
330
32D
100
AcDbEntity
  8
1
  6
Continuous
 62
     2
100
AcDbLine
 10
8882.67504803224
 20
2915.163899479662
 30
0.0
 11
8900.175048032242
 21
2915.163899479662
 31
0.0
  0
LINE
  5
32F
330
32D
100
AcDbEntity
  8
1
  6
Continuous
 62
     2
100
AcDbLine
 10
8882.67504803224
 20
2946.880707470608
 30
0.0
 11
8882.67504803224
 21
2914.163899479661
 31
0.0
  0
LINE
  5
330
330
32D
100
AcDbEntity
  8
1
  6
Continuous
 62
     2
100
AcDbLine
 10
8900.175048032242
 20
2941.380707470607
 30
0.0
 11
8900.175048032242
 21
2914.163899479661
 31
0.0
  0
LINE
  5
331
330
32D
100
AcDbEntity
  8
1
 62
     2
100
AcDbLine
 10
8882.67504803224
 20
2915.163899479662
 30
0.0
 11
8885.125048032243
 21
2915.820375001117
 31
0.0
  0
LINE
  5
332
330
32D
100
AcDbEntity
  8
1
 62
     2
100
AcDbLine
 10
8882.67504803224
 20
2915.163899479662
 30
0.0
 11
8885.125048032243
 21
2914.507423958205
 31
0.0
  0
LINE
  5
333
330
32D
100
AcDbEntity
  8
1
 62
     2
100
AcDbLine
 10
8900.175048032242
 20
2915.163899479662
 30
0.0
 11
8897.725048032242
 21
2914.507423958205
 31
0.0
  0
LINE
  5
334
330
32D
100
AcDbEntity
  8
1
 62
     2
100
AcDbLine
 10
8900.175048032242
 20
2915.163899479662
 30
0.0
 11
8897.725048032242
 21
2915.820375001117
 31
0.0
  0
MTEXT
  5
335
330
32D
100
AcDbEntity
  8
1
 62
     3
100
AcDbMText
 10
8888.42379803224
 20
2916.163899479661
 30
0.0
 40
3.5
 41
0.0
 71
     7
 72
     1
  1
17.5
  7
CONVERTER_8
 11
0.999999999997062
 21
0.0000024240684055
 31
0.0
 73
     1
 44
0.6002400960384202
1001
ACAD
1000
MTEXTBEGIN
1070
    73
1070
     1
1070
    44
1040
0.6002400960384202
1070
    74
1070
     0
1000
MTEXTEND
  0
ENDBLK
  5
337
330
32D
100
AcDbEntity
  8
0
100
AcDbBlockEnd
  0
BLOCK
  5
343
330
33A
100
AcDbEntity
  8
0
100
AcDbBlockBegin
  2
*D22
 70
     1
 10
0.0
 20
0.0
 30
0.0
  3
*D22
  1

  0
LINE
  5
33B
330
33A
100
AcDbEntity
  8
1
  6
Continuous
 62
     2
100
AcDbLine
 10
8875.053469967301
 20
2946.880707470608
 30
0.0
 11
8875.053469967301
 21
2984.880707470607
 31
0.0
  0
LINE
  5
33C
330
33A
100
AcDbEntity
  8
1
  6
Continuous
 62
     2
100
AcDbLine
 10
8882.67504803224
 20
2946.880707470608
 30
0.0
 11
8874.0534699673
 21
2946.880707470608
 31
0.0
  0
LINE
  5
33D
330
33A
100
AcDbEntity
  8
1
  6
Continuous
 62
     2
100
AcDbLine
 10
8881.67504803224
 20
2984.880707470607
 30
0.0
 11
8874.0534699673
 21
2984.880707470607
 31
0.0
  0
LINE
  5
33E
330
33A
100
AcDbEntity
  8
1
 62
     2
100
AcDbLine
 10
8875.053469967301
 20
2984.880707470607
 30
0.0
 11
8875.709945488759
 21
2982.430707470607
 31
0.0
  0
LINE
  5
33F
330
33A
100
AcDbEntity
  8
1
 62
     2
100
AcDbLine
 10
8875.053469967301
 20
2984.880707470607
 30
0.0
 11
8874.396994445843
 21
2982.430707470607
 31
0.0
  0
LINE
  5
340
330
33A
100
AcDbEntity
  8
1
 62
     2
100
AcDbLine
 10
8875.053469967301
 20
2946.880707470608
 30
0.0
 11
8874.396994445843
 21
2949.330707470608
 31
0.0
  0
LINE
  5
341
330
33A
100
AcDbEntity
  8
1
 62
     2
100
AcDbLine
 10
8875.053469967301
 20
2946.880707470608
 30
0.0
 11
8875.709945488759
 21
2949.330707470608
 31
0.0
  0
MTEXT
  5
342
330
33A
100
AcDbEntity
  8
1
 62
     3
100
AcDbMText
 10
8874.0534699673
 20
2964.043207470608
 30
0.0
 40
3.5
 41
0.0
 71
     7
 72
     1
  1
38
  7
CONVERTER_8
 11
0.0
 21
1.0
 31
0.0
 73
     1
 44
0.6002400960384202
1001
ACAD
1000
MTEXTBEGIN
1070
    73
1070
     1
1070
    44
1040
0.6002400960384202
1070
    74
1070
     0
1000
MTEXTEND
  0
ENDBLK
  5
344
330
33A
100
AcDbEntity
  8
0
100
AcDbBlockEnd
  0
BLOCK
  5
350
330
347
100
AcDbEntity
  8
0
100
AcDbBlockBegin
  2
*D23
 70
     1
 10
0.0
 20
0.0
 30
0.0
  3
*D23
  1

  0
LINE
  5
348
330
347
100
AcDbEntity
  8
1
  6
Continuous
 62
     2
100
AcDbLine
 10
8878.275048032241
 20
3016.160400764011
 30
0.0
 11
8903.07504803224
 21
3016.160400764011
 31
0.0
  0
LINE
  5
349
330
347
100
AcDbEntity
  8
1
  6
Continuous
 62
     2
100
AcDbLine
 10
8878.275048032241
 20
3007.680707470607
 30
0.0
 11
8878.275048032241
 21
3017.160400764011
 31
0.0
  0
LINE
  5
34A
330
347
100
AcDbEntity
  8
1
  6
Continuous
 62
     2
100
AcDbLine
 10
8903.07504803224
 20
3007.680707470607
 30
0.0
 11
8903.07504803224
 21
3017.160400764011
 31
0.0
  0
LINE
  5
34B
330
347
100
AcDbEntity
  8
1
 62
     2
100
AcDbLine
 10
8878.275048032241
 20
3016.160400764011
 30
0.0
 11
8880.725048032243
 21
3016.816876285467
 31
0.0
  0
LINE
  5
34C
330
347
100
AcDbEntity
  8
1
 62
     2
100
AcDbLine
 10
8878.275048032241
 20
3016.160400764011
 30
0.0
 11
8880.725048032243
 21
3015.503925242555
 31
0.0
  0
LINE
  5
34D
330
347
100
AcDbEntity
  8
1
 62
     2
100
AcDbLine
 10
8903.07504803224
 20
3016.160400764011
 30
0.0
 11
8900.625048032242
 21
3015.503925242555
 31
0.0
  0
LINE
  5
34E
330
347
100
AcDbEntity
  8
1
 62
     2
100
AcDbLine
 10
8903.07504803224
 20
3016.160400764011
 30
0.0
 11
8900.625048032242
 21
3016.816876285467
 31
0.0
  0
MTEXT
  5
34F
330
347
100
AcDbEntity
  8
1
 62
     3
100
AcDbMText
 10
8887.306298032241
 20
3017.160400764011
 30
0.0
 40
3.5
 41
0.0
 71
     7
 72
     1
  1
24.8
  7
CONVERTER_8
 11
0.999999999997062
 21
0.0000024240684055
 31
0.0
 73
     1
 44
0.6002400960384202
1001
ACAD
1000
MTEXTBEGIN
1070
    73
1070
     1
1070
    44
1040
0.6002400960384202
1070
    74
1070
     0
1000
MTEXTEND
  0
ENDBLK
  5
351
330
347
100
AcDbEntity
  8
0
100
AcDbBlockEnd
  0
BLOCK
  5
35D
330
354
100
AcDbEntity
  8
0
100
AcDbBlockBegin
  2
*D24
 70
     1
 10
0.0
 20
0.0
 30
0.0
  3
*D24
  1

  0
LINE
  5
355
330
354
100
AcDbEntity
  8
1
  6
Continuous
 62
     2
100
AcDbLine
 10
8911.37900642918
 20
2990.380707470608
 30
0.0
 11
8911.37900642918
 21
3008.680707470607
 31
0.0
  0
LINE
  5
356
330
354
100
AcDbEntity
  8
1
  6
Continuous
 62
     2
100
AcDbLine
 10
8900.275048032241
 20
2990.380707470608
 30
0.0
 11
8912.379006429182
 21
2990.380707470608
 31
0.0
  0
LINE
  5
357
330
354
100
AcDbEntity
  8
1
  6
Continuous
 62
     2
100
AcDbLine
 10
8901.675048032242
 20
3008.680707470607
 30
0.0
 11
8912.379006429182
 21
3008.680707470607
 31
0.0
  0
LINE
  5
358
330
354
100
AcDbEntity
  8
1
 62
     2
100
AcDbLine
 10
8911.37900642918
 20
3008.680707470607
 30
0.0
 11
8912.035481950637
 21
3006.230707470607
 31
0.0
  0
LINE
  5
359
330
354
100
AcDbEntity
  8
1
 62
     2
100
AcDbLine
 10
8911.37900642918
 20
3008.680707470607
 30
0.0
 11
8910.722530907724
 21
3006.230707470607
 31
0.0
  0
LINE
  5
35A
330
354
100
AcDbEntity
  8
1
 62
     2
100
AcDbLine
 10
8911.37900642918
 20
2990.380707470608
 30
0.0
 11
8910.722530907724
 21
2992.830707470607
 31
0.0
  0
LINE
  5
35B
330
354
100
AcDbEntity
  8
1
 62
     2
100
AcDbLine
 10
8911.37900642918
 20
2990.380707470608
 30
0.0
 11
8912.035481950637
 21
2992.830707470607
 31
0.0
  0
MTEXT
  5
35C
330
354
100
AcDbEntity
  8
1
 62
     3
100
AcDbMText
 10
8910.379006429181
 20
2996.406957470608
 30
0.0
 40
3.5
 41
0.0
 71
     7
 72
     1
  1
18.3
  7
CONVERTER_8
 11
0.0
 21
1.0
 31
0.0
 73
     1
 44
0.6002400960384202
1001
ACAD
1000
MTEXTBEGIN
1070
    73
1070
     1
1070
    44
1040
0.6002400960384202
1070
    74
1070
     0
1000
MTEXTEND
  0
ENDBLK
  5
35E
330
354
100
AcDbEntity
  8
0
100
AcDbBlockEnd
  0
BLOCK
  5
36A
330
361
100
AcDbEntity
  8
0
100
AcDbBlockBegin
  2
*D25
 70
     1
 10
0.0
 20
0.0
 30
0.0
  3
*D25
  1

  0
LINE
  5
362
330
361
100
AcDbEntity
  8
1
  6
Continuous
 62
     2
100
AcDbLine
 10
8956.685690755312
 20
3016.160400764011
 30
0.0
 11
8989.685690755312
 21
3016.160400764011
 31
0.0
  0
LINE
  5
363
330
361
100
AcDbEntity
  8
1
  6
Continuous
 62
     2
100
AcDbLine
 10
8956.685690755312
 20
3009.680707470607
 30
0.0
 11
8956.685690755312
 21
3017.160400764011
 31
0.0
  0
LINE
  5
364
330
361
100
AcDbEntity
  8
1
  6
Continuous
 62
     2
100
AcDbLine
 10
8989.685690755312
 20
3000.785533486665
 30
0.0
 11
8989.685690755312
 21
3017.160400764011
 31
0.0
  0
LINE
  5
365
330
361
100
AcDbEntity
  8
1
 62
     2
100
AcDbLine
 10
8989.685690755312
 20
3016.160400764011
 30
0.0
 11
8987.23569075531
 21
3015.503925242555
 31
0.0
  0
LINE
  5
366
330
361
100
AcDbEntity
  8
1
 62
     2
100
AcDbLine
 10
8989.685690755312
 20
3016.160400764011
 30
0.0
 11
8987.23569075531
 21
3016.816876285467
 31
0.0
  0
LINE
  5
367
330
361
100
AcDbEntity
  8
1
 62
     2
100
AcDbLine
 10
8956.685690755312
 20
3016.160400764011
 30
0.0
 11
8959.135690755314
 21
3016.816876285467
 31
0.0
  0
LINE
  5
368
330
361
100
AcDbEntity
  8
1
 62
     2
100
AcDbLine
 10
8956.685690755312
 20
3016.160400764011
 30
0.0
 11
8959.135690755314
 21
3015.503925242555
 31
0.0
  0
MTEXT
  5
369
330
361
100
AcDbEntity
  8
1
 62
     3
100
AcDbMText
 10
8971.348190755312
 20
3017.160400764011
 30
0.0
 40
3.5
 41
0.0
 71
     7
 72
     1
  1
33
  7
CONVERTER_8
 11
0.999999999997062
 21
0.0000024240684055
 31
0.0
 73
     1
 44
0.6002400960384202
1001
ACAD
1000
MTEXTBEGIN
1070
    73
1070
     1
1070
    44
1040
0.6002400960384202
1070
    74
1070
     0
1000
MTEXTEND
  0
ENDBLK
  5
36B
330
361
100
AcDbEntity
  8
0
100
AcDbBlockEnd
  0
BLOCK
  5
377
330
36E
100
AcDbEntity
  8
0
100
AcDbBlockBegin
  2
*D26
 70
     1
 10
0.0
 20
0.0
 30
0.0
  3
*D26
  1

  0
LINE
  5
36F
330
36E
100
AcDbEntity
  8
1
  6
Continuous
 62
     2
100
AcDbLine
 10
8989.685690755312
 20
3016.160400764011
 30
0.0
 11
9026.685690755313
 21
3016.160400764011
 31
0.0
  0
LINE
  5
370
330
36E
100
AcDbEntity
  8
1
  6
Continuous
 62
     2
100
AcDbLine
 10
8989.685690755312
 20
3000.785533486665
 30
0.0
 11
8989.685690755312
 21
3017.160400764011
 31
0.0
  0
LINE
  5
371
330
36E
100
AcDbEntity
  8
1
  6
Continuous
 62
     2
100
AcDbLine
 10
9026.685690755313
 20
3009.680707470607
 30
0.0
 11
9026.685690755313
 21
3017.160400764011
 31
0.0
  0
LINE
  5
372
330
36E
100
AcDbEntity
  8
1
 62
     2
100
AcDbLine
 10
8989.685690755312
 20
3016.160400764011
 30
0.0
 11
8992.135690755313
 21
3016.816876285467
 31
0.0
  0
LINE
  5
373
330
36E
100
AcDbEntity
  8
1
 62
     2
100
AcDbLine
 10
8989.685690755312
 20
3016.160400764011
 30
0.0
 11
8992.135690755313
 21
3015.503925242555
 31
0.0
  0
LINE
  5
374
330
36E
100
AcDbEntity
  8
1
 62
     2
100
AcDbLine
 10
9026.685690755313
 20
3016.160400764011
 30
0.0
 11
9024.235690755313
 21
3015.503925242555
 31
0.0
  0
LINE
  5
375
330
36E
100
AcDbEntity
  8
1
 62
     2
100
AcDbLine
 10
9026.685690755313
 20
3016.160400764011
 30
0.0
 11
9024.235690755313
 21
3016.816876285467
 31
0.0
  0
MTEXT
  5
376
330
36E
100
AcDbEntity
  8
1
 62
     3
100
AcDbMText
 10
9006.348190755312
 20
3017.160400764011
 30
0.0
 40
3.5
 41
0.0
 71
     7
 72
     1
  1
37
  7
CONVERTER_8
 11
0.999999999997062
 21
0.0000024240684055
 31
0.0
 73
     1
 44
0.6002400960384202
1001
ACAD
1000
MTEXTBEGIN
1070
    73
1070
     1
1070
    44
1040
0.6002400960384202
1070
    74
1070
     0
1000
MTEXTEND
  0
ENDBLK
  5
378
330
36E
100
AcDbEntity
  8
0
100
AcDbBlockEnd
  0
BLOCK
  5
384
330
37B
100
AcDbEntity
  8
0
100
AcDbBlockBegin
  2
*D27
 70
     1
 10
0.0
 20
0.0
 30
0.0
  3
*D27
  1

  0
LINE
  5
37C
330
37B
100
AcDbEntity
  8
1
  6
Continuous
 62
     2
100
AcDbLine
 10
8956.685690755312
 20
3023.16167567733
 30
0.0
 11
9026.685690755313
 21
3023.16167567733
 31
0.0
  0
LINE
  5
37D
330
37B
100
AcDbEntity
  8
1
  6
Continuous
 62
     2
100
AcDbLine
 10
8956.685690755312
 20
3009.680707470607
 30
0.0
 11
8956.685690755312
 21
3024.16167567733
 31
0.0
  0
LINE
  5
37E
330
37B
100
AcDbEntity
  8
1
  6
Continuous
 62
     2
100
AcDbLine
 10
9026.685690755313
 20
3009.680707470607
 30
0.0
 11
9026.685690755313
 21
3024.16167567733
 31
0.0
  0
LINE
  5
37F
330
37B
100
AcDbEntity
  8
1
 62
     2
100
AcDbLine
 10
8956.685690755312
 20
3023.16167567733
 30
0.0
 11
8959.135690755314
 21
3023.818151198786
 31
0.0
  0
LINE
  5
380
330
37B
100
AcDbEntity
  8
1
 62
     2
100
AcDbLine
 10
8956.685690755312
 20
3023.16167567733
 30
0.0
 11
8959.135690755314
 21
3022.505200155874
 31
0.0
  0
LINE
  5
381
330
37B
100
AcDbEntity
  8
1
 62
     2
100
AcDbLine
 10
9026.685690755313
 20
3023.16167567733
 30
0.0
 11
9024.235690755313
 21
3022.505200155874
 31
0.0
  0
LINE
  5
382
330
37B
100
AcDbEntity
  8
1
 62
     2
100
AcDbLine
 10
9026.685690755313
 20
3023.16167567733
 30
0.0
 11
9024.235690755313
 21
3023.818151198786
 31
0.0
  0
MTEXT
  5
383
330
37B
100
AcDbEntity
  8
1
 62
     3
100
AcDbMText
 10
8989.848190755312
 20
3024.16167567733
 30
0.0
 40
3.5
 41
0.0
 71
     7
 72
     1
  1
70
  7
CONVERTER_8
 11
0.999999999997062
 21
0.0000024240684055
 31
0.0
 73
     1
 44
0.6002400960384202
1001
ACAD
1000
MTEXTBEGIN
1070
    73
1070
     1
1070
    44
1040
0.6002400960384202
1070
    74
1070
     0
1000
MTEXTEND
  0
ENDBLK
  5
385
330
37B
100
AcDbEntity
  8
0
100
AcDbBlockEnd
  0
BLOCK
  5
391
330
388
100
AcDbEntity
  8
0
100
AcDbBlockBegin
  2
*D28
 70
     1
 10
0.0
 20
0.0
 30
0.0
  3
*D28
  1

  0
LINE
  5
389
330
388
100
AcDbEntity
  8
1
  6
Continuous
 62
     2
100
AcDbLine
 10
8948.77729919629
 20
2973.880707470608
 30
0.0
 11
8948.77729919629
 21
2984.880707470607
 31
0.0
  0
LINE
  5
38A
330
388
100
AcDbEntity
  8
1
  6
Continuous
 62
     2
100
AcDbLine
 10
8956.476960930499
 20
2973.880707470608
 30
0.0
 11
8947.777299196291
 21
2973.880707470608
 31
0.0
  0
LINE
  5
38B
330
388
100
AcDbEntity
  8
1
  6
Continuous
 62
     2
100
AcDbLine
 10
8957.185690755313
 20
2984.880707470607
 30
0.0
 11
8947.777299196291
 21
2984.880707470607
 31
0.0
  0
LINE
  5
38C
330
388
100
AcDbEntity
  8
1
 62
     2
100
AcDbLine
 10
8948.77729919629
 20
2984.880707470607
 30
0.0
 11
8949.433774717746
 21
2982.430707470607
 31
0.0
  0
LINE
  5
38D
330
388
100
AcDbEntity
  8
1
 62
     2
100
AcDbLine
 10
8948.77729919629
 20
2984.880707470607
 30
0.0
 11
8948.120823674832
 21
2982.430707470607
 31
0.0
  0
LINE
  5
38E
330
388
100
AcDbEntity
  8
1
 62
     2
100
AcDbLine
 10
8948.77729919629
 20
2973.880707470608
 30
0.0
 11
8948.120823674832
 21
2976.330707470607
 31
0.0
  0
LINE
  5
38F
330
388
100
AcDbEntity
  8
1
 62
     2
100
AcDbLine
 10
8948.77729919629
 20
2973.880707470608
 30
0.0
 11
8949.433774717746
 21
2976.330707470607
 31
0.0
  0
MTEXT
  5
390
330
388
100
AcDbEntity
  8
1
 62
     3
100
AcDbMText
 10
8947.777299196291
 20
2978.278207470607
 30
0.0
 40
3.5
 41
0.0
 71
     7
 72
     1
  1
11
  7
CONVERTER_8
 11
0.0
 21
1.0
 31
0.0
 73
     1
 44
0.6002400960384202
1001
ACAD
1000
MTEXTBEGIN
1070
    73
1070
     1
1070
    44
1040
0.6002400960384202
1070
    74
1070
     0
1000
MTEXTEND
  0
ENDBLK
  5
392
330
388
100
AcDbEntity
  8
0
100
AcDbBlockEnd
  0
BLOCK
  5
39E
330
395
100
AcDbEntity
  8
0
100
AcDbBlockBegin
  2
*D29
 70
     1
 10
0.0
 20
0.0
 30
0.0
  3
*D29
  1

  0
LINE
  5
396
330
395
100
AcDbEntity
  8
1
  6
Continuous
 62
     2
100
AcDbLine
 10
8948.77729919629
 20
2947.380707470607
 30
0.0
 11
8948.77729919629
 21
2973.880707470608
 31
0.0
  0
LINE
  5
397
330
395
100
AcDbEntity
  8
1
  6
Continuous
 62
     2
100
AcDbLine
 10
8965.935690755312
 20
2947.380707470607
 30
0.0
 11
8947.777299196291
 21
2947.380707470607
 31
0.0
  0
LINE
  5
398
330
395
100
AcDbEntity
  8
1
  6
Continuous
 62
     2
100
AcDbLine
 10
8956.476960930499
 20
2973.880707470608
 30
0.0
 11
8947.777299196291
 21
2973.880707470608
 31
0.0
  0
LINE
  5
399
330
395
100
AcDbEntity
  8
1
 62
     2
100
AcDbLine
 10
8948.77729919629
 20
2973.880707470608
 30
0.0
 11
8949.433774717746
 21
2971.430707470607
 31
0.0
  0
LINE
  5
39A
330
395
100
AcDbEntity
  8
1
 62
     2
100
AcDbLine
 10
8948.77729919629
 20
2973.880707470608
 30
0.0
 11
8948.120823674832
 21
2971.430707470607
 31
0.0
  0
LINE
  5
39B
330
395
100
AcDbEntity
  8
1
 62
     2
100
AcDbLine
 10
8948.77729919629
 20
2947.380707470607
 30
0.0
 11
8948.120823674832
 21
2949.830707470607
 31
0.0
  0
LINE
  5
39C
330
395
100
AcDbEntity
  8
1
 62
     2
100
AcDbLine
 10
8948.77729919629
 20
2947.380707470607
 30
0.0
 11
8949.433774717746
 21
2949.830707470607
 31
0.0
  0
MTEXT
  5
39D
330
395
100
AcDbEntity
  8
1
 62
     3
100
AcDbMText
 10
8947.777299196291
 20
2957.261957470608
 30
0.0
 40
3.5
 41
0.0
 71
     7
 72
     1
  1
26.5
  7
CONVERTER_8
 11
0.0
 21
1.0
 31
0.0
 73
     1
 44
0.6002400960384202
1001
ACAD
1000
MTEXTBEGIN
1070
    73
1070
     1
1070
    44
1040
0.6002400960384202
1070
    74
1070
     0
1000
MTEXTEND
  0
ENDBLK
  5
39F
330
395
100
AcDbEntity
  8
0
100
AcDbBlockEnd
  0
BLOCK
  5
3AD
330
3A2
100
AcDbEntity
  8
0
100
AcDbBlockBegin
  2
*D30
 70
     1
 10
0.0
 20
0.0
 30
0.0
  3
*D30
  1

  0
LINE
  5
3A3
330
3A2
100
AcDbEntity
  8
1
  6
Continuous
 62
     2
100
AcDbLine
 10
8948.77729919629
 20
2941.880707470608
 30
0.0
 11
8948.77729919629
 21
2947.380707470607
 31
0.0
  0
LINE
  5
3A4
330
3A2
100
AcDbEntity
  8
1
  6
Continuous
 62
     2
100
AcDbLine
 10
8948.77729919629
 20
2941.880707470608
 30
0.0
 11
8948.77729919629
 21
2936.980707470608
 31
0.0
  0
LINE
  5
3A5
330
3A2
100
AcDbEntity
  8
1
  6
Continuous
 62
     2
100
AcDbLine
 10
8948.77729919629
 20
2947.380707470607
 30
0.0
 11
8948.77729919629
 21
2952.280707470608
 31
0.0
  0
LINE
  5
3A6
330
3A2
100
AcDbEntity
  8
1
  6
Continuous
 62
     2
100
AcDbLine
 10
8961.185690755312
 20
2941.880707470608
 30
0.0
 11
8947.777299196291
 21
2941.880707470608
 31
0.0
  0
LINE
  5
3A7
330
3A2
100
AcDbEntity
  8
1
  6
Continuous
 62
     2
100
AcDbLine
 10
8956.476960930499
 20
2947.380707470607
 30
0.0
 11
8947.777299196291
 21
2947.380707470607
 31
0.0
  0
LINE
  5
3A8
330
3A2
100
AcDbEntity
  8
1
 62
     2
100
AcDbLine
 10
8948.77729919629
 20
2947.380707470607
 30
0.0
 11
8948.120823674832
 21
2949.830707470607
 31
0.0
  0
LINE
  5
3A9
330
3A2
100
AcDbEntity
  8
1
 62
     2
100
AcDbLine
 10
8948.77729919629
 20
2947.380707470607
 30
0.0
 11
8949.433774717746
 21
2949.830707470607
 31
0.0
  0
LINE
  5
3AA
330
3A2
100
AcDbEntity
  8
1
 62
     2
100
AcDbLine
 10
8948.77729919629
 20
2941.880707470608
 30
0.0
 11
8949.433774717746
 21
2939.430707470607
 31
0.0
  0
LINE
  5
3AB
330
3A2
100
AcDbEntity
  8
1
 62
     2
100
AcDbLine
 10
8948.77729919629
 20
2941.880707470608
 30
0.0
 11
8948.120823674832
 21
2939.430707470607
 31
0.0
  0
MTEXT
  5
3AC
330
3A2
100
AcDbEntity
  8
1
 62
     3
100
AcDbMText
 10
8947.777299196291
 20
2942.364457470608
 30
0.0
 40
3.5
 41
0.0
 71
     7
 72
     1
  1
5.5
  7
CONVERTER_8
 11
0.0
 21
1.0
 31
0.0
 73
     1
 44
0.6002400960384202
1001
ACAD
1000
MTEXTBEGIN
1070
    73
1070
     1
1070
    44
1040
0.6002400960384202
1070
    74
1070
     0
1000
MTEXTEND
  0
ENDBLK
  5
3AE
330
3A2
100
AcDbEntity
  8
0
100
AcDbBlockEnd
  0
BLOCK
  5
3BA
330
3B1
100
AcDbEntity
  8
0
100
AcDbBlockBegin
  2
*D31
 70
     1
 10
0.0
 20
0.0
 30
0.0
  3
*D31
  1

  0
LINE
  5
3B2
330
3B1
100
AcDbEntity
  8
1
  6
Continuous
 62
     2
100
AcDbLine
 10
8939.927321518579
 20
2941.880707470608
 30
0.0
 11
8939.927321518579
 21
2984.880707470607
 31
0.0
  0
LINE
  5
3B3
330
3B1
100
AcDbEntity
  8
1
  6
Continuous
 62
     2
100
AcDbLine
 10
8961.185690755312
 20
2941.880707470608
 30
0.0
 11
8938.927321518578
 21
2941.880707470608
 31
0.0
  0
LINE
  5
3B4
330
3B1
100
AcDbEntity
  8
1
  6
Continuous
 62
     2
100
AcDbLine
 10
8957.185690755313
 20
2984.880707470607
 30
0.0
 11
8938.927321518578
 21
2984.880707470607
 31
0.0
  0
LINE
  5
3B5
330
3B1
100
AcDbEntity
  8
1
 62
     2
100
AcDbLine
 10
8939.927321518579
 20
2984.880707470607
 30
0.0
 11
8940.583797040037
 21
2982.430707470607
 31
0.0
  0
LINE
  5
3B6
330
3B1
100
AcDbEntity
  8
1
 62
     2
100
AcDbLine
 10
8939.927321518579
 20
2984.880707470607
 30
0.0
 11
8939.270845997123
 21
2982.430707470607
 31
0.0
  0
LINE
  5
3B7
330
3B1
100
AcDbEntity
  8
1
 62
     2
100
AcDbLine
 10
8939.927321518579
 20
2941.880707470608
 30
0.0
 11
8939.270845997123
 21
2944.330707470607
 31
0.0
  0
LINE
  5
3B8
330
3B1
100
AcDbEntity
  8
1
 62
     2
100
AcDbLine
 10
8939.927321518579
 20
2941.880707470608
 30
0.0
 11
8940.583797040037
 21
2944.330707470607
 31
0.0
  0
MTEXT
  5
3B9
330
3B1
100
AcDbEntity
  8
1
 62
     3
100
AcDbMText
 10
8938.927321518578
 20
2961.543207470608
 30
0.0
 40
3.5
 41
0.0
 71
     7
 72
     1
  1
43
  7
CONVERTER_8
 11
0.0
 21
1.0
 31
0.0
 73
     1
 44
0.6002400960384202
1001
ACAD
1000
MTEXTBEGIN
1070
    73
1070
     1
1070
    44
1040
0.6002400960384202
1070
    74
1070
     0
1000
MTEXTEND
  0
ENDBLK
  5
3BB
330
3B1
100
AcDbEntity
  8
0
100
AcDbBlockEnd
  0
BLOCK
  5
3C9
330
3BE
100
AcDbEntity
  8
0
100
AcDbBlockBegin
  2
*D32
 70
     1
 10
0.0
 20
0.0
 30
0.0
  3
*D32
  1

  0
LINE
  5
3BF
330
3BE
100
AcDbEntity
  8
1
  6
Continuous
 62
     2
100
AcDbLine
 10
8957.185690755313
 20
2922.691039826291
 30
0.0
 11
8962.685690755312
 21
2922.691039826291
 31
0.0
  0
LINE
  5
3C0
330
3BE
100
AcDbEntity
  8
1
  6
Continuous
 62
     2
100
AcDbLine
 10
8957.185690755313
 20
2922.691039826291
 30
0.0
 11
8952.285690755312
 21
2922.691039826291
 31
0.0
  0
LINE
  5
3C1
330
3BE
100
AcDbEntity
  8
1
  6
Continuous
 62
     2
100
AcDbLine
 10
8962.685690755312
 20
2922.691039826291
 30
0.0
 11
8967.585690755313
 21
2922.691039826291
 31
0.0
  0
LINE
  5
3C2
330
3BE
100
AcDbEntity
  8
1
  6
Continuous
 62
     2
100
AcDbLine
 10
8957.185690755313
 20
2945.880707470607
 30
0.0
 11
8957.185690755313
 21
2921.691039826291
 31
0.0
  0
LINE
  5
3C3
330
3BE
100
AcDbEntity
  8
1
  6
Continuous
 62
     2
100
AcDbLine
 10
8962.685690755312
 20
2941.171977645797
 30
0.0
 11
8962.685690755312
 21
2921.691039826291
 31
0.0
  0
LINE
  5
3C4
330
3BE
100
AcDbEntity
  8
1
 62
     2
100
AcDbLine
 10
8957.185690755313
 20
2922.691039826291
 30
0.0
 11
8954.735690755311
 21
2922.034564304836
 31
0.0
  0
LINE
  5
3C5
330
3BE
100
AcDbEntity
  8
1
 62
     2
100
AcDbLine
 10
8957.185690755313
 20
2922.691039826291
 30
0.0
 11
8954.735690755311
 21
2923.347515347748
 31
0.0
  0
LINE
  5
3C6
330
3BE
100
AcDbEntity
  8
1
 62
     2
100
AcDbLine
 10
8962.685690755312
 20
2922.691039826291
 30
0.0
 11
8965.135690755312
 21
2923.347515347748
 31
0.0
  0
LINE
  5
3C7
330
3BE
100
AcDbEntity
  8
1
 62
     2
100
AcDbLine
 10
8962.685690755312
 20
2922.691039826291
 30
0.0
 11
8965.135690755312
 21
2922.034564304836
 31
0.0
  0
MTEXT
  5
3C8
330
3BE
100
AcDbEntity
  8
1
 62
     3
100
AcDbMText
 10
8957.669440755312
 20
2923.691039826291
 30
0.0
 40
3.5
 41
0.0
 71
     7
 72
     1
  1
5.5
  7
CONVERTER_8
 11
0.999999999997062
 21
0.0000024240684055
 31
0.0
 73
     1
 44
0.6002400960384202
1001
ACAD
1000
MTEXTBEGIN
1070
    73
1070
     1
1070
    44
1040
0.6002400960384202
1070
    74
1070
     0
1000
MTEXTEND
  0
ENDBLK
  5
3CA
330
3BE
100
AcDbEntity
  8
0
100
AcDbBlockEnd
  0
BLOCK
  5
3D6
330
3CD
100
AcDbEntity
  8
0
100
AcDbBlockBegin
  2
*D33
 70
     1
 10
0.0
 20
0.0
 30
0.0
  3
*D33
  1

  0
LINE
  5
3CE
330
3CD
100
AcDbEntity
  8
1
  6
Continuous
 62
     2
100
AcDbLine
 10
8974.785690755309
 20
2931.353635468261
 30
0.0
 11
9004.585690755313
 21
2931.353635468261
 31
0.0
  0
LINE
  5
3CF
330
3CD
100
AcDbEntity
  8
1
  6
Continuous
 62
     2
100
AcDbLine
 10
8974.785690755309
 20
2953.880707470608
 30
0.0
 11
8974.785690755309
 21
2930.353635468261
 31
0.0
  0
LINE
  5
3D0
330
3CD
100
AcDbEntity
  8
1
  6
Continuous
 62
     2
100
AcDbLine
 10
9004.585690755313
 20
2953.880707470608
 30
0.0
 11
9004.585690755313
 21
2930.353635468261
 31
0.0
  0
LINE
  5
3D1
330
3CD
100
AcDbEntity
  8
1
 62
     2
100
AcDbLine
 10
8974.785690755309
 20
2931.353635468261
 30
0.0
 11
8977.235690755312
 21
2932.010110989717
 31
0.0
  0
LINE
  5
3D2
330
3CD
100
AcDbEntity
  8
1
 62
     2
100
AcDbLine
 10
8974.785690755309
 20
2931.353635468261
 30
0.0
 11
8977.235690755312
 21
2930.697159946805
 31
0.0
  0
LINE
  5
3D3
330
3CD
100
AcDbEntity
  8
1
 62
     2
100
AcDbLine
 10
9004.585690755313
 20
2931.353635468261
 30
0.0
 11
9002.135690755313
 21
2930.697159946805
 31
0.0
  0
LINE
  5
3D4
330
3CD
100
AcDbEntity
  8
1
 62
     2
100
AcDbLine
 10
9004.585690755313
 20
2931.353635468261
 30
0.0
 11
9002.135690755313
 21
2932.010110989717
 31
0.0
  0
MTEXT
  5
3D5
330
3CD
100
AcDbEntity
  8
1
 62
     3
100
AcDbMText
 10
8990.476655247604
 20
2932.353635468261
 30
0.0
 40
3.5
 41
0.0
 71
     7
 72
     1
  1
30(掘込)
  7
CONVERTER_3
 11
0.999999999997062
 21
0.0000024240684055
 31
0.0
 73
     1
 44
0.6002400960384202
1001
ACAD
1000
MTEXTBEGIN
1070
    73
1070
     1
1070
    44
1040
0.6002400960384202
1070
    74
1070
     0
1000
MTEXTEND
  0
ENDBLK
  5
3D7
330
3CD
100
AcDbEntity
  8
0
100
AcDbBlockEnd
  0
BLOCK
  5
3E3
330
3DA
100
AcDbEntity
  8
0
100
AcDbBlockBegin
  2
*D34
 70
     1
 10
0.0
 20
0.0
 30
0.0
  3
*D34
  1

  0
LINE
  5
3DB
330
3DA
100
AcDbEntity
  8
1
  6
Continuous
 62
     2
100
AcDbLine
 10
8962.685690755312
 20
2931.353635468261
 30
0.0
 11
8974.785690755309
 21
2931.353635468261
 31
0.0
  0
LINE
  5
3DC
330
3DA
100
AcDbEntity
  8
1
  6
Continuous
 62
     2
100
AcDbLine
 10
8962.685690755312
 20
2941.171977645797
 30
0.0
 11
8962.685690755312
 21
2930.353635468261
 31
0.0
  0
LINE
  5
3DD
330
3DA
100
AcDbEntity
  8
1
  6
Continuous
 62
     2
100
AcDbLine
 10
8974.785690755309
 20
2953.880707470608
 30
0.0
 11
8974.785690755309
 21
2930.353635468261
 31
0.0
  0
LINE
  5
3DE
330
3DA
100
AcDbEntity
  8
1
 62
     2
100
AcDbLine
 10
8962.685690755312
 20
2931.353635468261
 30
0.0
 11
8965.135690755312
 21
2932.010110989717
 31
0.0
  0
LINE
  5
3DF
330
3DA
100
AcDbEntity
  8
1
 62
     2
100
AcDbLine
 10
8962.685690755312
 20
2931.353635468261
 30
0.0
 11
8965.135690755312
 21
2930.697159946805
 31
0.0
  0
LINE
  5
3E0
330
3DA
100
AcDbEntity
  8
1
 62
     2
100
AcDbLine
 10
8974.785690755309
 20
2931.353635468261
 30
0.0
 11
8972.335690755308
 21
2930.697159946805
 31
0.0
  0
LINE
  5
3E1
330
3DA
100
AcDbEntity
  8
1
 62
     2
100
AcDbLine
 10
8974.785690755309
 20
2931.353635468261
 30
0.0
 11
8972.335690755308
 21
2932.010110989717
 31
0.0
  0
MTEXT
  5
3E2
330
3DA
100
AcDbEntity
  8
1
 62
     3
100
AcDbMText
 10
8967.265690755311
 20
2932.353635468261
 30
0.0
 40
3.5
 41
0.0
 71
     7
 72
     1
  1
12
  7
CONVERTER_8
 11
0.999999999997062
 21
0.0000024240684055
 31
0.0
 73
     1
 44
0.6002400960384202
1001
ACAD
1000
MTEXTBEGIN
1070
    73
1070
     1
1070
    44
1040
0.6002400960384202
1070
    74
1070
     0
1000
MTEXTEND
  0
ENDBLK
  5
3E4
330
3DA
100
AcDbEntity
  8
0
100
AcDbBlockEnd
  0
BLOCK
  5
3F0
330
3E7
100
AcDbEntity
  8
0
100
AcDbBlockBegin
  2
*D35
 70
     1
 10
0.0
 20
0.0
 30
0.0
  3
*D35
  1

  0
LINE
  5
3E8
330
3E7
100
AcDbEntity
  8
1
  6
Continuous
 62
     2
100
AcDbLine
 10
9004.585690755313
 20
2931.353635468261
 30
0.0
 11
9016.685690755313
 21
2931.353635468261
 31
0.0
  0
LINE
  5
3E9
330
3E7
100
AcDbEntity
  8
1
  6
Continuous
 62
     2
100
AcDbLine
 10
9004.585690755313
 20
2953.880707470608
 30
0.0
 11
9004.585690755313
 21
2930.353635468261
 31
0.0
  0
LINE
  5
3EA
330
3E7
100
AcDbEntity
  8
1
  6
Continuous
 62
     2
100
AcDbLine
 10
9016.685690755313
 20
2941.171977645797
 30
0.0
 11
9016.685690755313
 21
2930.353635468261
 31
0.0
  0
LINE
  5
3EB
330
3E7
100
AcDbEntity
  8
1
 62
     2
100
AcDbLine
 10
9004.585690755313
 20
2931.353635468261
 30
0.0
 11
9007.035690755314
 21
2932.010110989717
 31
0.0
  0
LINE
  5
3EC
330
3E7
100
AcDbEntity
  8
1
 62
     2
100
AcDbLine
 10
9004.585690755313
 20
2931.353635468261
 30
0.0
 11
9007.035690755314
 21
2930.697159946805
 31
0.0
  0
LINE
  5
3ED
330
3E7
100
AcDbEntity
  8
1
 62
     2
100
AcDbLine
 10
9016.685690755313
 20
2931.353635468261
 30
0.0
 11
9014.235690755313
 21
2930.697159946805
 31
0.0
  0
LINE
  5
3EE
330
3E7
100
AcDbEntity
  8
1
 62
     2
100
AcDbLine
 10
9016.685690755313
 20
2931.353635468261
 30
0.0
 11
9014.235690755313
 21
2932.010110989717
 31
0.0
  0
MTEXT
  5
3EF
330
3E7
100
AcDbEntity
  8
1
 62
     3
100
AcDbMText
 10
9009.165690755313
 20
2932.353635468261
 30
0.0
 40
3.5
 41
0.0
 71
     7
 72
     1
  1
12
  7
CONVERTER_8
 11
0.999999999997062
 21
0.0000024240684055
 31
0.0
 73
     1
 44
0.6002400960384202
1001
ACAD
1000
MTEXTBEGIN
1070
    73
1070
     1
1070
    44
1040
0.6002400960384202
1070
    74
1070
     0
1000
MTEXTEND
  0
ENDBLK
  5
3F1
330
3E7
100
AcDbEntity
  8
0
100
AcDbBlockEnd
  0
BLOCK
  5
3FF
330
3F4
100
AcDbEntity
  8
0
100
AcDbBlockBegin
  2
*D36
 70
     1
 10
0.0
 20
0.0
 30
0.0
  3
*D36
  1

  0
LINE
  5
3F5
330
3F4
100
AcDbEntity
  8
1
  6
Continuous
 62
     2
100
AcDbLine
 10
9016.685690755313
 20
2922.691039826291
 30
0.0
 11
9022.185690755312
 21
2922.691039826291
 31
0.0
  0
LINE
  5
3F6
330
3F4
100
AcDbEntity
  8
1
  6
Continuous
 62
     2
100
AcDbLine
 10
9016.685690755313
 20
2922.691039826291
 30
0.0
 11
9011.785690755312
 21
2922.691039826291
 31
0.0
  0
LINE
  5
3F7
330
3F4
100
AcDbEntity
  8
1
  6
Continuous
 62
     2
100
AcDbLine
 10
9022.185690755312
 20
2922.691039826291
 30
0.0
 11
9027.085690755313
 21
2922.691039826291
 31
0.0
  0
LINE
  5
3F8
330
3F4
100
AcDbEntity
  8
1
  6
Continuous
 62
     2
100
AcDbLine
 10
9016.685690755313
 20
2941.171977645797
 30
0.0
 11
9016.685690755313
 21
2921.691039826291
 31
0.0
  0
LINE
  5
3F9
330
3F4
100
AcDbEntity
  8
1
  6
Continuous
 62
     2
100
AcDbLine
 10
9022.185690755312
 20
2945.880707470607
 30
0.0
 11
9022.185690755312
 21
2921.691039826291
 31
0.0
  0
LINE
  5
3FA
330
3F4
100
AcDbEntity
  8
1
 62
     2
100
AcDbLine
 10
9022.185690755312
 20
2922.691039826291
 30
0.0
 11
9024.635690755314
 21
2923.347515347748
 31
0.0
  0
LINE
  5
3FB
330
3F4
100
AcDbEntity
  8
1
 62
     2
100
AcDbLine
 10
9022.185690755312
 20
2922.691039826291
 30
0.0
 11
9024.635690755314
 21
2922.034564304836
 31
0.0
  0
LINE
  5
3FC
330
3F4
100
AcDbEntity
  8
1
 62
     2
100
AcDbLine
 10
9016.685690755313
 20
2922.691039826291
 30
0.0
 11
9014.235690755313
 21
2922.034564304836
 31
0.0
  0
LINE
  5
3FD
330
3F4
100
AcDbEntity
  8
1
 62
     2
100
AcDbLine
 10
9016.685690755313
 20
2922.691039826291
 30
0.0
 11
9014.235690755313
 21
2923.347515347748
 31
0.0
  0
MTEXT
  5
3FE
330
3F4
100
AcDbEntity
  8
1
 62
     3
100
AcDbMText
 10
9017.169440755314
 20
2923.691039826291
 30
0.0
 40
3.5
 41
0.0
 71
     7
 72
     1
  1
5.5
  7
CONVERTER_8
 11
0.999999999997062
 21
0.0000024240684055
 31
0.0
 73
     1
 44
0.6002400960384202
1001
ACAD
1000
MTEXTBEGIN
1070
    73
1070
     1
1070
    44
1040
0.6002400960384202
1070
    74
1070
     0
1000
MTEXTEND
  0
ENDBLK
  5
400
330
3F4
100
AcDbEntity
  8
0
100
AcDbBlockEnd
  0
BLOCK
  5
40C
330
403
100
AcDbEntity
  8
0
100
AcDbBlockBegin
  2
*D37
 70
     1
 10
0.0
 20
0.0
 30
0.0
  3
*D37
  1

  0
LINE
  5
404
330
403
100
AcDbEntity
  8
1
  6
Continuous
 62
     2
100
AcDbLine
 10
8962.685690755312
 20
2922.691039826291
 30
0.0
 11
8989.685690755312
 21
2922.691039826291
 31
0.0
  0
LINE
  5
405
330
403
100
AcDbEntity
  8
1
  6
Continuous
 62
     2
100
AcDbLine
 10
8962.685690755312
 20
2941.171977645797
 30
0.0
 11
8962.685690755312
 21
2921.691039826291
 31
0.0
  0
LINE
  5
406
330
403
100
AcDbEntity
  8
1
  6
Continuous
 62
     2
100
AcDbLine
 10
8989.685690755312
 20
2936.066218853441
 30
0.0
 11
8989.685690755312
 21
2921.691039826291
 31
0.0
  0
LINE
  5
407
330
403
100
AcDbEntity
  8
1
 62
     2
100
AcDbLine
 10
8962.685690755312
 20
2922.691039826291
 30
0.0
 11
8965.135690755312
 21
2923.347515347748
 31
0.0
  0
LINE
  5
408
330
403
100
AcDbEntity
  8
1
 62
     2
100
AcDbLine
 10
8962.685690755312
 20
2922.691039826291
 30
0.0
 11
8965.135690755312
 21
2922.034564304836
 31
0.0
  0
LINE
  5
409
330
403
100
AcDbEntity
  8
1
 62
     2
100
AcDbLine
 10
8989.685690755312
 20
2922.691039826291
 30
0.0
 11
8987.23569075531
 21
2922.034564304836
 31
0.0
  0
LINE
  5
40A
330
403
100
AcDbEntity
  8
1
 62
     2
100
AcDbLine
 10
8989.685690755312
 20
2922.691039826291
 30
0.0
 11
8987.23569075531
 21
2923.347515347748
 31
0.0
  0
MTEXT
  5
40B
330
403
100
AcDbEntity
  8
1
 62
     3
100
AcDbMText
 10
8974.348190755312
 20
2923.691039826291
 30
0.0
 40
3.5
 41
0.0
 71
     7
 72
     1
  1
27
  7
CONVERTER_8
 11
0.999999999997062
 21
0.0000024240684055
 31
0.0
 73
     1
 44
0.6002400960384202
1001
ACAD
1000
MTEXTBEGIN
1070
    73
1070
     1
1070
    44
1040
0.6002400960384202
1070
    74
1070
     0
1000
MTEXTEND
  0
ENDBLK
  5
40D
330
403
100
AcDbEntity
  8
0
100
AcDbBlockEnd
  0
BLOCK
  5
419
330
410
100
AcDbEntity
  8
0
100
AcDbBlockBegin
  2
*D38
 70
     1
 10
0.0
 20
0.0
 30
0.0
  3
*D38
  1

  0
LINE
  5
411
330
410
100
AcDbEntity
  8
1
  6
Continuous
 62
     2
100
AcDbLine
 10
8989.685690755312
 20
2922.691039826291
 30
0.0
 11
9016.685690755313
 21
2922.691039826291
 31
0.0
  0
LINE
  5
412
330
410
100
AcDbEntity
  8
1
  6
Continuous
 62
     2
100
AcDbLine
 10
8989.685690755312
 20
2936.066218853441
 30
0.0
 11
8989.685690755312
 21
2921.691039826291
 31
0.0
  0
LINE
  5
413
330
410
100
AcDbEntity
  8
1
  6
Continuous
 62
     2
100
AcDbLine
 10
9016.685690755313
 20
2941.171977645797
 30
0.0
 11
9016.685690755313
 21
2921.691039826291
 31
0.0
  0
LINE
  5
414
330
410
100
AcDbEntity
  8
1
 62
     2
100
AcDbLine
 10
8989.685690755312
 20
2922.691039826291
 30
0.0
 11
8992.135690755313
 21
2923.347515347748
 31
0.0
  0
LINE
  5
415
330
410
100
AcDbEntity
  8
1
 62
     2
100
AcDbLine
 10
8989.685690755312
 20
2922.691039826291
 30
0.0
 11
8992.135690755313
 21
2922.034564304836
 31
0.0
  0
LINE
  5
416
330
410
100
AcDbEntity
  8
1
 62
     2
100
AcDbLine
 10
9016.685690755313
 20
2922.691039826291
 30
0.0
 11
9014.235690755313
 21
2922.034564304836
 31
0.0
  0
LINE
  5
417
330
410
100
AcDbEntity
  8
1
 62
     2
100
AcDbLine
 10
9016.685690755313
 20
2922.691039826291
 30
0.0
 11
9014.235690755313
 21
2923.347515347748
 31
0.0
  0
MTEXT
  5
418
330
410
100
AcDbEntity
  8
1
 62
     3
100
AcDbMText
 10
9001.348190755313
 20
2923.691039826291
 30
0.0
 40
3.5
 41
0.0
 71
     7
 72
     1
  1
27
  7
CONVERTER_8
 11
0.999999999997062
 21
0.0000024240684055
 31
0.0
 73
     1
 44
0.6002400960384202
1001
ACAD
1000
MTEXTBEGIN
1070
    73
1070
     1
1070
    44
1040
0.6002400960384202
1070
    74
1070
     0
1000
MTEXTEND
  0
ENDBLK
  5
41A
330
410
100
AcDbEntity
  8
0
100
AcDbBlockEnd
  0
BLOCK
  5
426
330
41D
100
AcDbEntity
  8
0
100
AcDbBlockBegin
  2
*D39
 70
     1
 10
0.0
 20
0.0
 30
0.0
  3
*D39
  1

  0
LINE
  5
41E
330
41D
100
AcDbEntity
  8
1
  6
Continuous
 62
     2
100
AcDbLine
 10
8957.185690755313
 20
2914.50862429492
 30
0.0
 11
9022.185690755312
 21
2914.50862429492
 31
0.0
  0
LINE
  5
41F
330
41D
100
AcDbEntity
  8
1
  6
Continuous
 62
     2
100
AcDbLine
 10
8957.185690755313
 20
2945.880707470607
 30
0.0
 11
8957.185690755313
 21
2913.50862429492
 31
0.0
  0
LINE
  5
420
330
41D
100
AcDbEntity
  8
1
  6
Continuous
 62
     2
100
AcDbLine
 10
9022.185690755312
 20
2945.880707470607
 30
0.0
 11
9022.185690755312
 21
2913.50862429492
 31
0.0
  0
LINE
  5
421
330
41D
100
AcDbEntity
  8
1
 62
     2
100
AcDbLine
 10
8957.185690755313
 20
2914.50862429492
 30
0.0
 11
8959.635690755312
 21
2915.165099816376
 31
0.0
  0
LINE
  5
422
330
41D
100
AcDbEntity
  8
1
 62
     2
100
AcDbLine
 10
8957.185690755313
 20
2914.50862429492
 30
0.0
 11
8959.635690755312
 21
2913.852148773464
 31
0.0
  0
LINE
  5
423
330
41D
100
AcDbEntity
  8
1
 62
     2
100
AcDbLine
 10
9022.185690755312
 20
2914.50862429492
 30
0.0
 11
9019.735690755313
 21
2913.852148773464
 31
0.0
  0
LINE
  5
424
330
41D
100
AcDbEntity
  8
1
 62
     2
100
AcDbLine
 10
9022.185690755312
 20
2914.50862429492
 30
0.0
 11
9019.735690755313
 21
2915.165099816376
 31
0.0
  0
MTEXT
  5
425
330
41D
100
AcDbEntity
  8
1
 62
     3
100
AcDbMText
 10
8987.848190755313
 20
2915.50862429492
 30
0.0
 40
3.5
 41
0.0
 71
     7
 72
     1
  1
65
  7
CONVERTER_8
 11
0.999999999997062
 21
0.0000024240684055
 31
0.0
 73
     1
 44
0.6002400960384202
1001
ACAD
1000
MTEXTBEGIN
1070
    73
1070
     1
1070
    44
1040
0.6002400960384202
1070
    74
1070
     0
1000
MTEXTEND
  0
ENDBLK
  5
427
330
41D
100
AcDbEntity
  8
0
100
AcDbBlockEnd
  0
BLOCK
  5
435
330
42A
100
AcDbEntity
  8
0
100
AcDbBlockBegin
  2
*D40
 70
     1
 10
0.0
 20
0.0
 30
0.0
  3
*D40
  1

  0
LINE
  5
42B
330
42A
100
AcDbEntity
  8
1
  6
Continuous
 62
     2
100
AcDbLine
 10
9040.29405133143
 20
2979.980707470608
 30
0.0
 11
9040.29405133143
 21
2984.880707470607
 31
0.0
  0
LINE
  5
42C
330
42A
100
AcDbEntity
  8
1
  6
Continuous
 62
     2
100
AcDbLine
 10
9040.29405133143
 20
2984.880707470607
 30
0.0
 11
9040.29405133143
 21
2991.380707470608
 31
0.0
  0
LINE
  5
42D
330
42A
100
AcDbEntity
  8
1
  6
Continuous
 62
     2
100
AcDbLine
 10
9040.29405133143
 20
2991.380707470608
 30
0.0
 11
9040.29405133143
 21
3006.696885905611
 31
0.0
  0
LINE
  5
42E
330
42A
100
AcDbEntity
  8
1
  6
Continuous
 62
     2
100
AcDbLine
 10
9022.185690755312
 20
2984.880707470607
 30
0.0
 11
9041.29405133143
 21
2984.880707470607
 31
0.0
  0
LINE
  5
42F
330
42A
100
AcDbEntity
  8
1
  6
Continuous
 62
     2
100
AcDbLine
 10
9026.685690755313
 20
2991.380707470608
 30
0.0
 11
9041.29405133143
 21
2991.380707470608
 31
0.0
  0
LINE
  5
430
330
42A
100
AcDbEntity
  8
1
 62
     2
100
AcDbLine
 10
9040.29405133143
 20
2991.380707470608
 30
0.0
 11
9039.637575809971
 21
2993.830707470607
 31
0.0
  0
LINE
  5
431
330
42A
100
AcDbEntity
  8
1
 62
     2
100
AcDbLine
 10
9040.29405133143
 20
2991.380707470608
 30
0.0
 11
9040.950526852888
 21
2993.830707470607
 31
0.0
  0
LINE
  5
432
330
42A
100
AcDbEntity
  8
1
 62
     2
100
AcDbLine
 10
9040.29405133143
 20
2984.880707470607
 30
0.0
 11
9040.950526852888
 21
2982.430707470607
 31
0.0
  0
LINE
  5
433
330
42A
100
AcDbEntity
  8
1
 62
     2
100
AcDbLine
 10
9040.29405133143
 20
2984.880707470607
 30
0.0
 11
9039.637575809971
 21
2982.430707470607
 31
0.0
  0
MTEXT
  5
434
330
42A
100
AcDbEntity
  8
1
 62
     3
100
AcDbMText
 10
9039.294051331429
 20
3002.16438590561
 30
0.0
 40
3.5
 41
0.0
 71
     7
 72
     1
  1
6.5
  7
CONVERTER_8
 11
0.0
 21
1.0
 31
0.0
 73
     1
 44
0.6002400960384202
1001
ACAD
1000
MTEXTBEGIN
1070
    73
1070
     1
1070
    44
1040
0.6002400960384202
1070
    74
1070
     0
1000
MTEXTEND
  0
ENDBLK
  5
436
330
42A
100
AcDbEntity
  8
0
100
AcDbBlockEnd
  0
ENDSEC
  0
SECTION
  2
ENTITIES
  0
INSERT
  5
70
330
1F
100
AcDbEntity
  8
0
100
AcDbBlockReference
  2
_G_P_P___O_P___O_V_S_____X_G_88
 10
1968.5312396518
 20
1430.10265475096
 30
0.0
  0
INSERT
  5
4B0
330
1F
100
AcDbEntity
  8
0
100
AcDbBlockReference
  2
_G_P_P___O_P___O_V_S_____X_G_70__1
 10
6765.555054277763
 20
2171.545276962928
 30
0.0
  0
INSERT
  5
4B3
330
1F
100
AcDbEntity
  8
0
100
AcDbBlockReference
  2
_4__115
 10
8782.900508220803
 20
3354.731883867202
 30
0.0
  0
LINE
  5
4B4
330
1F
100
AcDbEntity
  8
1
  6
Continuous
 62
     7
100
AcDbLine
 10
8957.685690755312
 20
2991.380707470608
 30
0.0
 11
8984.435690755312
 21
2991.380707470608
 31
0.0
  0
LINE
  5
4B5
330
1F
100
AcDbEntity
  8
1
  6
Continuous
 62
     7
100
AcDbLine
 10
9026.685690755313
 20
2992.380707470608
 30
0.0
 11
9026.685690755313
 21
2993.131092108753
 31
0.0
  0
LINE
  5
4B6
330
1F
100
AcDbEntity
  8
1
  6
Continuous
 62
     7
100
AcDbLine
 10
9025.685690755311
 20
3009.680707470607
 30
0.0
 11
8995.685690755312
 21
3009.680707470607
 31
0.0
  0
LINE
  5
4B7
330
1F
100
AcDbEntity
  8
1
  6
Continuous
 62
     7
100
AcDbLine
 10
8956.685690755312
 20
3008.680707470607
 30
0.0
 11
8956.685690755312
 21
2993.131092108753
 31
0.0
  0
LINE
  5
4B8
330
1F
100
AcDbEntity
  8
1
  6
Continuous
 62
     7
100
AcDbLine
 10
8901.07504803224
 20
3008.680707470607
 30
0.0
 11
8900.67504803224
 21
3008.680707470607
 31
0.0
  0
LINE
  5
4B9
330
1F
100
AcDbEntity
  8
1
  6
Continuous
 62
     7
100
AcDbLine
 10
8878.275048032241
 20
3006.680707470608
 30
0.0
 11
8878.275048032241
 21
2992.131092108753
 31
0.0
  0
LINE
  5
4BA
330
1F
100
AcDbEntity
  8
1
  6
Continuous
 62
     7
100
AcDbLine
 10
8880.675048032241
 20
3008.680707470607
 30
0.0
 11
8880.675048032241
 21
3006.680707470608
 31
0.0
  0
LINE
  5
4BB
330
1F
100
AcDbEntity
  8
1
  6
Continuous
 62
     7
100
AcDbLine
 10
8880.675048032241
 20
3008.680707470607
 30
0.0
 11
8880.275048032242
 21
3008.680707470607
 31
0.0
  0
LINE
  5
4BC
330
1F
100
AcDbEntity
  8
1
  6
Continuous
 62
     7
100
AcDbLine
 10
8881.67504803224
 20
3005.680707470607
 30
0.0
 11
8899.675048032241
 21
3005.680707470607
 31
0.0
  0
LINE
  5
4BD
330
1F
100
AcDbEntity
  8
1
  6
Continuous
 62
     7
100
AcDbLine
 10
8900.67504803224
 20
3006.680707470608
 30
0.0
 11
8900.67504803224
 21
3008.680707470607
 31
0.0
  0
LINE
  5
4BE
330
1F
100
AcDbEntity
  8
1
  6
Continuous
 62
     7
100
AcDbLine
 10
8903.07504803224
 20
2992.131092108753
 30
0.0
 11
8903.07504803224
 21
3006.680707470608
 31
0.0
  0
LINE
  5
4BF
330
1F
100
AcDbEntity
  8
1
  6
Continuous
 62
     7
100
AcDbLine
 10
8896.17504803224
 20
2991.457698421421
 30
0.0
 11
8896.17504803224
 21
2991.880707470608
 31
0.0
  0
LINE
  5
4C0
330
1F
100
AcDbEntity
  8
1
  6
Continuous
 62
     7
100
AcDbLine
 10
8885.175048032241
 20
2991.457698421421
 30
0.0
 11
8885.175048032241
 21
2991.880707470608
 31
0.0
  0
LINE
  5
4C1
330
1F
100
AcDbEntity
  8
1
  6
Continuous
 62
     7
100
AcDbLine
 10
8885.925048032241
 20
2990.380707470608
 30
0.0
 11
8895.425048032242
 21
2990.380707470608
 31
0.0
  0
LINE
  5
4C2
330
1F
100
AcDbEntity
  8
1
  6
Continuous
 62
     7
100
AcDbLine
 10
8885.175048032241
 20
2991.880707470608
 30
0.0
 11
8896.17504803224
 21
2991.880707470608
 31
0.0
  0
LINE
  5
4C3
330
1F
100
AcDbEntity
  8
1
  6
Continuous
 62
     7
100
AcDbLine
 10
8885.42504803224
 20
2991.130707470608
 30
0.0
 11
8885.42504803224
 21
2990.880707470608
 31
0.0
  0
LINE
  5
4C4
330
1F
100
AcDbEntity
  8
1
  6
Continuous
 62
     7
100
AcDbLine
 10
8956.685690755312
 20
2993.131092108753
 30
0.0
 11
9026.685690755313
 21
2993.131092108753
 31
0.0
  0
LINE
  5
4C5
330
1F
100
AcDbEntity
  8
1
  6
Continuous
 62
     7
100
AcDbLine
 10
9026.685690755313
 20
2993.131092108753
 30
0.0
 11
9026.685690755313
 21
3008.680707470607
 31
0.0
  0
LINE
  5
4C6
330
1F
100
AcDbEntity
  8
1
  6
Continuous
 62
     7
100
AcDbLine
 10
8956.685690755312
 20
2993.131092108753
 30
0.0
 11
8956.685690755312
 21
2992.380707470608
 31
0.0
  0
LINE
  5
4C7
330
1F
100
AcDbEntity
  8
1
  6
Continuous
 62
     7
100
AcDbLine
 10
8984.435690755312
 20
2991.380707470608
 30
0.0
 11
8984.435690755312
 21
2990.880707470608
 31
0.0
  0
LINE
  5
4C8
330
1F
100
AcDbEntity
  8
1
  6
Continuous
 62
     7
100
AcDbLine
 10
8984.435690755312
 20
2991.380707470608
 30
0.0
 11
8994.935690755312
 21
2991.380707470608
 31
0.0
  0
LINE
  5
4C9
330
1F
100
AcDbEntity
  8
1
  6
Continuous
 62
     7
100
AcDbLine
 10
8984.935690755312
 20
2990.380707470608
 30
0.0
 11
8994.435690755311
 21
2990.380707470608
 31
0.0
  0
LINE
  5
4CA
330
1F
100
AcDbEntity
  8
1
  6
Continuous
 62
     7
100
AcDbLine
 10
8994.935690755312
 20
2990.880707470608
 30
0.0
 11
8994.935690755312
 21
2991.380707470608
 31
0.0
  0
LINE
  5
4CB
330
1F
100
AcDbEntity
  8
1
  6
Continuous
 62
     7
100
AcDbLine
 10
8994.935690755312
 20
2991.380707470608
 30
0.0
 11
9025.685690755311
 21
2991.380707470608
 31
0.0
  0
LINE
  5
4CC
330
1F
100
AcDbEntity
  8
1
  6
Continuous
 62
     7
100
AcDbLine
 10
8994.685690755312
 20
3003.380707470608
 30
0.0
 11
8994.685690755312
 21
3006.680707470608
 31
0.0
  0
LINE
  5
4CD
330
1F
100
AcDbEntity
  8
1
  6
Continuous
 62
     7
100
AcDbLine
 10
8984.685690755311
 20
3003.380707470608
 30
0.0
 11
8984.685690755311
 21
3006.680707470608
 31
0.0
  0
LINE
  5
4CE
330
1F
100
AcDbEntity
  8
1
  6
Continuous
 62
     7
100
AcDbLine
 10
8983.685690755313
 20
3009.680707470607
 30
0.0
 11
8957.685690755312
 21
3009.680707470607
 31
0.0
  0
LINE
  5
4CF
330
1F
100
AcDbEntity
  8
1
  6
DOT_CENTER
 62
     2
100
AcDbLine
 10
8986.510690755309
 20
3003.380707470608
 30
0.0
 11
8992.860690755312
 21
3003.380707470608
 31
0.0
  0
LINE
  5
4D0
330
1F
100
AcDbEntity
  8
1
  6
Continuous
 62
     7
100
AcDbLine
 10
8984.685690755311
 20
3006.680707470608
 30
0.0
 11
8994.685690755312
 21
3006.680707470608
 31
0.0
  0
LINE
  5
4D1
330
1F
100
AcDbEntity
  8
1
  6
Continuous
 62
     7
100
AcDbLine
 10
8994.685690755312
 20
3006.680707470608
 30
0.0
 11
8994.685690755312
 21
3008.680707470607
 31
0.0
  0
LINE
  5
4D2
330
1F
100
AcDbEntity
  8
1
  6
Continuous
 62
     7
100
AcDbLine
 10
8984.685690755311
 20
3006.680707470608
 30
0.0
 11
8984.685690755311
 21
3008.680707470607
 31
0.0
  0
ARC
  5
4D4
330
1F
100
AcDbEntity
  8
1
  6
Continuous
 62
     7
100
AcDbCircle
 10
8885.925048032241
 20
2990.880707470608
 30
0.0
 40
0.5
100
AcDbArc
 50
180.0
 51
270.0
  0
ARC
  5
4D5
330
1F
100
AcDbEntity
  8
1
  6
Continuous
 62
     7
100
AcDbCircle
 10
8895.425048032242
 20
2990.880707470608
 30
0.0
 40
0.5
100
AcDbArc
 50
270.0
 51
0.0
  0
ARC
  5
4D6
330
1F
100
AcDbEntity
  8
1
  6
Continuous
 62
     7
100
AcDbCircle
 10
8957.685690755312
 20
3008.680707470607
 30
0.0
 40
1.0
100
AcDbArc
 50
90.0
 51
180.0
  0
ARC
  5
4D7
330
1F
100
AcDbEntity
  8
1
  6
Continuous
 62
     7
100
AcDbCircle
 10
8957.685690755312
 20
2992.380707470608
 30
0.0
 40
1.0
100
AcDbArc
 50
180.0
 51
270.0
  0
ARC
  5
4D8
330
1F
100
AcDbEntity
  8
1
  6
Continuous
 62
     7
100
AcDbCircle
 10
9025.685690755311
 20
2992.380707470608
 30
0.0
 40
1.0
100
AcDbArc
 50
270.0
 51
0.0
  0
ARC
  5
4D9
330
1F
100
AcDbEntity
  8
1
  6
Continuous
 62
     7
100
AcDbCircle
 10
9025.685690755311
 20
3008.680707470607
 30
0.0
 40
1.0
100
AcDbArc
 50
0.0
 51
90.0
  0
ARC
  5
4DA
330
1F
100
AcDbEntity
  8
1
  6
Continuous
 62
     7
100
AcDbCircle
 10
8984.935690755312
 20
2990.880707470608
 30
0.0
 40
0.5
100
AcDbArc
 50
180.0
 51
270.0
  0
ARC
  5
4DB
330
1F
100
AcDbEntity
  8
1
  6
Continuous
 62
     7
100
AcDbCircle
 10
8994.435690755311
 20
2990.880707470608
 30
0.0
 40
0.5
100
AcDbArc
 50
270.0
 51
0.0
  0
ARC
  5
4DC
330
1F
100
AcDbEntity
  8
1
  6
Continuous
 62
     7
100
AcDbCircle
 10
8983.685690755313
 20
3008.680707470607
 30
0.0
 40
1.0
100
AcDbArc
 50
0.0
 51
90.0
  0
ARC
  5
4DD
330
1F
100
AcDbEntity
  8
1
  6
Continuous
 62
     7
100
AcDbCircle
 10
8995.685690755312
 20
3008.680707470607
 30
0.0
 40
1.0
100
AcDbArc
 50
90.0
 51
180.0
  0
ARC
  5
4DE
330
1F
100
AcDbEntity
  8
1
  6
Continuous
 62
     7
100
AcDbCircle
 10
8880.275048032242
 20
3006.680707470608
 30
0.0
 40
2.0
100
AcDbArc
 50
90.0
 51
180.0
  0
ARC
  5
4DF
330
1F
100
AcDbEntity
  8
1
  6
Continuous
 62
     7
100
AcDbCircle
 10
8901.07504803224
 20
3006.680707470608
 30
0.0
 40
2.0
100
AcDbArc
 50
0.0
 51
90.0
  0
ARC
  5
4E0
330
1F
100
AcDbEntity
  8
1
  6
Continuous
 62
     7
100
AcDbCircle
 10
8881.67504803224
 20
3006.680707470608
 30
0.0
 40
1.0
100
AcDbArc
 50
180.0
 51
270.0
  0
ARC
  5
4E1
330
1F
100
AcDbEntity
  8
1
  6
Continuous
 62
     7
100
AcDbCircle
 10
8899.675048032241
 20
3006.680707470608
 30
0.0
 40
1.0
100
AcDbArc
 50
270.0
 51
0.0
  0
ARC
  5
4E2
330
1F
100
AcDbEntity
  8
1
  6
Continuous
 62
     7
100
AcDbCircle
 10
8899.275048032242
 20
2995.380707470607
 30
0.0
 40
5.0
100
AcDbArc
 50
270.0
 51
319.4641978886812
  0
ARC
  5
4E3
330
1F
100
AcDbEntity
  8
1
  6
Continuous
 62
     7
100
AcDbCircle
 10
8882.075048032239
 20
2995.380707470607
 30
0.0
 40
4.999999999999205
100
AcDbArc
 50
220.5358021113187
 51
308.3161344736732
  0
ARC
  5
4E4
330
1F
100
AcDbEntity
  8
1
  6
Continuous
 62
     7
100
AcDbCircle
 10
8884.67504803224
 20
2991.130707470608
 30
0.0
 40
0.75
100
AcDbArc
 50
0.0
 51
48.18968510423783
  0
ARC
  5
4E5
330
1F
100
AcDbEntity
  8
1
  6
Continuous
 62
     7
100
AcDbCircle
 10
8896.925048032242
 20
2990.880707470608
 30
0.0
 40
0.9999999999998323
100
AcDbArc
 50
138.59037789074
 51
180.0
  0
ARC
  5
4E6
330
1F
100
AcDbEntity
  8
1
  6
Continuous
 62
     7
100
AcDbCircle
 10
8989.685690755312
 20
3003.380707470608
 30
0.0
 40
5.0
100
AcDbArc
 50
180.0
 51
0.0
  0
ARC
  5
4E7
330
1F
100
AcDbEntity
  8
1
  6
Continuous
 62
     7
100
AcDbCircle
 10
8899.275048032242
 20
2995.380707470607
 30
0.0
 40
4.999999999999766
100
AcDbArc
 50
231.6838655263268
 51
270.0
  0
CIRCLE
  5
4E8
330
1F
100
AcDbEntity
  8
1
  6
Continuous
 62
     7
100
AcDbCircle
 10
8989.685690755312
 20
3003.380707470608
 30
0.0
 40
1.174999999999271
  0
LINE
  5
4EB
330
1F
100
AcDbEntity
  8
1
  6
Continuous
 62
     7
100
AcDbLine
 10
8883.675048032241
 20
2984.880707470607
 30
0.0
 11
8894.175048032241
 21
2984.880707470607
 31
0.0
  0
LINE
  5
4EC
330
1F
100
AcDbEntity
  8
1
  6
Continuous
 62
     4
100
AcDbLine
 10
8883.675048032241
 20
2984.880707470607
 30
0.0
 11
8883.675048032241
 21
2946.880707470608
 31
0.0
  0
LINE
  5
4ED
330
1F
100
AcDbEntity
  8
1
  6
Continuous
 62
     4
100
AcDbLine
 10
8899.675048032241
 20
2984.880707470607
 30
0.0
 11
8899.675048032241
 21
2941.880707470608
 31
0.0
  0
LINE
  5
4EE
330
1F
100
AcDbEntity
  8
1
  6
Continuous
 62
     7
100
AcDbLine
 10
8899.675048032241
 20
2984.880707470607
 30
0.0
 11
8900.175048032242
 21
2984.380707470608
 31
0.0
  0
LINE
  5
4EF
330
1F
100
AcDbEntity
  8
1
  6
Continuous
 62
     7
100
AcDbLine
 10
8900.175048032242
 20
2942.380707470608
 30
0.0
 11
8899.675048032241
 21
2941.880707470608
 31
0.0
  0
LINE
  5
4F0
330
1F
100
AcDbEntity
  8
1
  6
Continuous
 62
     7
100
AcDbLine
 10
8882.67504803224
 20
2947.880707470608
 30
0.0
 11
8883.675048032241
 21
2946.880707470608
 31
0.0
  0
LINE
  5
4F1
330
1F
100
AcDbEntity
  8
1
  6
Continuous
 62
     7
100
AcDbLine
 10
8893.27504803224
 20
2978.880707470608
 30
0.0
 11
8890.675048032241
 21
2978.880707470608
 31
0.0
  0
LINE
  5
4F2
330
1F
100
AcDbEntity
  8
1
  6
Continuous
 62
     7
100
AcDbLine
 10
8893.775048032239
 20
2955.880707470607
 30
0.0
 11
8893.775048032239
 21
2978.380707470608
 31
0.0
  0
LINE
  5
4F3
330
1F
100
AcDbEntity
  8
1
  6
Continuous
 62
     7
100
AcDbLine
 10
8890.675048032241
 20
2955.380707470608
 30
0.0
 11
8893.27504803224
 21
2955.380707470608
 31
0.0
  0
LINE
  5
4F4
330
1F
100
AcDbEntity
  8
1
  6
Continuous
 62
     7
100
AcDbLine
 10
8890.17504803224
 20
2978.380707470608
 30
0.0
 11
8890.17504803224
 21
2955.880707470607
 31
0.0
  0
LINE
  5
4F5
330
1F
100
AcDbEntity
  8
1
  6
Continuous
 62
     7
100
AcDbLine
 10
8894.175048032241
 20
2941.880707470608
 30
0.0
 11
8899.675048032241
 21
2941.880707470608
 31
0.0
  0
LINE
  5
4F6
330
1F
100
AcDbEntity
  8
1
  6
Continuous
 62
     7
100
AcDbLine
 10
8894.175048032241
 20
2984.880707470607
 30
0.0
 11
8899.675048032241
 21
2984.880707470607
 31
0.0
  0
LINE
  5
4F7
330
1F
100
AcDbEntity
  8
1
  6
Continuous
 62
     7
100
AcDbLine
 10
8894.175048032241
 20
2984.880707470607
 30
0.0
 11
8894.175048032241
 21
2941.880707470608
 31
0.0
  0
LINE
  5
4F8
330
1F
100
AcDbEntity
  8
1
  6
Continuous
 62
     7
100
AcDbLine
 10
8900.175048032242
 20
2984.380707470608
 30
0.0
 11
8900.175048032242
 21
2942.380707470608
 31
0.0
  0
LINE
  5
4F9
330
1F
100
AcDbEntity
  8
1
  6
Continuous
 62
     7
100
AcDbLine
 10
8882.67504803224
 20
2984.880707470607
 30
0.0
 11
8883.675048032241
 21
2984.880707470607
 31
0.0
  0
LINE
  5
4FA
330
1F
100
AcDbEntity
  8
1
  6
Continuous
 62
     7
100
AcDbLine
 10
8883.675048032241
 20
2946.880707470608
 30
0.0
 11
8894.175048032241
 21
2946.880707470608
 31
0.0
  0
LINE
  5
4FB
330
1F
100
AcDbEntity
  8
1
  6
Continuous
 62
     7
100
AcDbLine
 10
8882.67504803224
 20
2984.880707470607
 30
0.0
 11
8882.67504803224
 21
2947.880707470608
 31
0.0
  0
LINE
  5
4FC
330
1F
100
AcDbEntity
  8
1
  6
Continuous
 62
     4
100
AcDbLine
 10
8985.435690755313
 20
2984.380707470608
 30
0.0
 11
8957.685690755312
 21
2984.380707470608
 31
0.0
  0
LINE
  5
4FD
330
1F
100
AcDbEntity
  8
1
  6
Continuous
 62
     4
100
AcDbLine
 10
9021.685690755312
 20
2984.380707470608
 30
0.0
 11
8993.935690755312
 21
2984.380707470608
 31
0.0
  0
LINE
  5
4FE
330
1F
100
AcDbEntity
  8
1
  6
Continuous
 62
     4
100
AcDbLine
 10
9021.685690755312
 20
2946.880707470608
 30
0.0
 11
9021.685690755312
 21
2984.380707470608
 31
0.0
  0
LINE
  5
4FF
330
1F
100
AcDbEntity
  8
1
  6
Continuous
 62
     4
100
AcDbLine
 10
8962.185690755312
 20
2942.380707470608
 30
0.0
 11
9017.185690755312
 21
2942.380707470608
 31
0.0
  0
LINE
  5
500
330
1F
100
AcDbEntity
  8
1
  6
Continuous
 62
     4
100
AcDbLine
 10
8957.685690755312
 20
2984.380707470608
 30
0.0
 11
8957.685690755312
 21
2946.880707470608
 31
0.0
  0
LINE
  5
501
330
1F
100
AcDbEntity
  8
1
  6
Continuous
 62
     7
100
AcDbLine
 10
9017.685690755312
 20
2961.880707470607
 30
0.0
 11
9017.685690755312
 21
2965.880707470608
 31
0.0
  0
LINE
  5
502
330
1F
100
AcDbEntity
  8
1
  6
Continuous
 62
     7
100
AcDbLine
 10
9010.185690755312
 20
2963.880707470608
 30
0.0
 11
9017.685690755312
 21
2961.880707470607
 31
0.0
  0
LINE
  5
503
330
1F
100
AcDbEntity
  8
1
  6
Continuous
 62
     7
100
AcDbLine
 10
9017.685690755312
 20
2965.880707470608
 30
0.0
 11
9010.185690755312
 21
2963.880707470608
 31
0.0
  0
LINE
  5
504
330
1F
100
AcDbEntity
  8
1
  6
Continuous
 62
     7
100
AcDbLine
 10
9020.685690755312
 20
2954.880707470607
 30
0.0
 11
9020.685690755312
 21
2966.380707470607
 31
0.0
  0
LINE
  5
505
330
1F
100
AcDbEntity
  8
1
  6
Continuous
 62
     7
100
AcDbLine
 10
9018.685690755312
 20
2968.380707470608
 30
0.0
 11
9016.685690755313
 21
2968.380707470608
 31
0.0
  0
LINE
  5
506
330
1F
100
AcDbEntity
  8
1
  6
Continuous
 62
     7
100
AcDbLine
 10
8961.685690755313
 20
2965.880707470608
 30
0.0
 11
8961.685690755313
 21
2961.880707470607
 31
0.0
  0
LINE
  5
507
330
1F
100
AcDbEntity
  8
1
  6
Continuous
 62
     7
100
AcDbLine
 10
8961.685690755313
 20
2961.880707470607
 30
0.0
 11
8969.185690755312
 21
2963.880707470608
 31
0.0
  0
LINE
  5
508
330
1F
100
AcDbEntity
  8
1
  6
Continuous
 62
     7
100
AcDbLine
 10
8969.185690755312
 20
2963.880707470608
 30
0.0
 11
8961.685690755313
 21
2965.880707470608
 31
0.0
  0
LINE
  5
509
330
1F
100
AcDbEntity
  8
1
  6
Continuous
 62
     7
100
AcDbLine
 10
9011.208465180258
 20
2973.380707470608
 30
0.0
 11
9002.935690755313
 21
2973.380707470608
 31
0.0
  0
LINE
  5
50A
330
1F
100
AcDbEntity
  8
1
  6
Continuous
 62
     7
100
AcDbLine
 10
8960.685690755312
 20
2952.880707470607
 30
0.0
 11
8976.444698869924
 21
2952.880707470607
 31
0.0
  0
LINE
  5
50B
330
1F
100
AcDbEntity
  8
1
  6
Continuous
 62
     7
100
AcDbLine
 10
8958.685690755313
 20
2966.380707470607
 30
0.0
 11
8958.685690755313
 21
2954.880707470607
 31
0.0
  0
LINE
  5
50C
330
1F
100
AcDbEntity
  8
1
  6
Continuous
 62
     7
100
AcDbLine
 10
8962.685690755312
 20
2968.380707470608
 30
0.0
 11
8960.685690755312
 21
2968.380707470608
 31
0.0
  0
LINE
  5
50D
330
1F
100
AcDbEntity
  8
1
  6
Continuous
 62
     7
100
AcDbLine
 10
8976.435690755312
 20
2973.380707470608
 30
0.0
 11
8968.162916330362
 21
2973.380707470608
 31
0.0
  0
LINE
  5
50E
330
1F
100
AcDbEntity
  8
1
  6
Continuous
 62
     7
100
AcDbLine
 10
8976.435690755312
 20
2956.380707470608
 30
0.0
 11
8976.435690755312
 21
2977.880707470607
 31
0.0
  0
LINE
  5
50F
330
1F
100
AcDbEntity
  8
1
  6
Continuous
 62
     7
100
AcDbLine
 10
9002.935690755313
 20
2977.880707470607
 30
0.0
 11
9002.935690755313
 21
2956.380707470608
 31
0.0
  0
LINE
  5
510
330
1F
100
AcDbEntity
  8
1
  6
Continuous
 62
     7
100
AcDbLine
 10
8976.435690755312
 20
2979.880707470608
 30
0.0
 11
8976.435690755312
 21
2980.880707470607
 31
0.0
  0
LINE
  5
511
330
1F
100
AcDbEntity
  8
1
  6
Continuous
 62
     7
100
AcDbLine
 10
8985.485690755311
 20
2984.880707470607
 30
0.0
 11
8993.885690755309
 21
2984.880707470607
 31
0.0
  0
LINE
  5
512
330
1F
100
AcDbEntity
  8
1
  6
Continuous
 62
     7
100
AcDbLine
 10
8988.185690755312
 20
2950.180707470607
 30
0.0
 11
8988.185690755312
 21
2948.180707470607
 31
0.0
  0
LINE
  5
513
330
1F
100
AcDbEntity
  8
1
  6
Continuous
 62
     7
100
AcDbLine
 10
8990.185690755312
 20
2951.180707470607
 30
0.0
 11
8989.185690755311
 21
2951.180707470607
 31
0.0
  0
LINE
  5
514
330
1F
100
AcDbEntity
  8
1
  6
Continuous
 62
     7
100
AcDbLine
 10
8991.185690755312
 20
2948.180707470607
 30
0.0
 11
8991.185690755312
 21
2950.180707470607
 31
0.0
  0
LINE
  5
515
330
1F
100
AcDbEntity
  8
1
  6
Continuous
 62
     7
100
AcDbLine
 10
8985.435690755313
 20
2981.880707470608
 30
0.0
 11
8985.435690755313
 21
2984.880707470607
 31
0.0
  0
LINE
  5
516
330
1F
100
AcDbEntity
  8
1
  6
Continuous
 62
     7
100
AcDbLine
 10
8977.435690755312
 20
2981.880707470608
 30
0.0
 11
8985.435690755313
 21
2981.880707470608
 31
0.0
  0
LINE
  5
517
330
1F
100
AcDbEntity
  8
1
  6
Continuous
 62
     7
100
AcDbLine
 10
8976.435690755312
 20
2953.180707470608
 30
0.0
 11
8976.435690755312
 21
2980.880707470607
 31
0.0
  0
LINE
  5
518
330
1F
100
AcDbEntity
  8
1
  6
Continuous
 62
     7
100
AcDbLine
 10
8997.935690755312
 20
2948.180707470607
 30
0.0
 11
8981.435690755311
 21
2948.180707470607
 31
0.0
  0
LINE
  5
519
330
1F
100
AcDbEntity
  8
1
  6
Continuous
 62
     7
100
AcDbLine
 10
9002.935690755313
 20
2980.880707470607
 30
0.0
 11
9002.935690755313
 21
2953.180707470608
 31
0.0
  0
LINE
  5
51A
330
1F
100
AcDbEntity
  8
1
  6
Continuous
 62
     7
100
AcDbLine
 10
8993.935690755312
 20
2981.880707470608
 30
0.0
 11
9001.935690755312
 21
2981.880707470608
 31
0.0
  0
LINE
  5
51B
330
1F
100
AcDbEntity
  8
1
  6
Continuous
 62
     7
100
AcDbLine
 10
8993.935690755312
 20
2984.880707470607
 30
0.0
 11
8993.935690755312
 21
2981.880707470608
 31
0.0
  0
LINE
  5
51C
330
1F
100
AcDbEntity
  8
1
  6
Continuous
 62
     7
100
AcDbLine
 10
8957.185690755313
 20
2946.880707470608
 30
0.0
 11
8957.185690755313
 21
2983.880707470607
 31
0.0
  0
LINE
  5
51D
330
1F
100
AcDbEntity
  8
1
  6
Continuous
 62
     7
100
AcDbLine
 10
9017.185690755312
 20
2941.880707470608
 30
0.0
 11
8962.185690755312
 21
2941.880707470608
 31
0.0
  0
LINE
  5
51E
330
1F
100
AcDbEntity
  8
1
  6
Continuous
 62
     7
100
AcDbLine
 10
9022.185690755312
 20
2983.880707470607
 30
0.0
 11
9022.185690755312
 21
2946.880707470608
 31
0.0
  0
LINE
  5
51F
330
1F
100
AcDbEntity
  8
1
  6
Continuous
 62
     7
100
AcDbLine
 10
8958.185690755312
 20
2984.880707470607
 30
0.0
 11
9021.185690755313
 21
2984.880707470607
 31
0.0
  0
LINE
  5
520
330
1F
100
AcDbEntity
  8
1
  6
DOT_CENTER
 62
     2
100
AcDbLine
 10
9016.685690755313
 20
2952.589437295417
 30
0.0
 11
9016.685690755313
 21
2942.171977645797
 31
0.0
  0
LINE
  5
521
330
1F
100
AcDbEntity
  8
1
  6
DOT_CENTER
 62
     2
100
AcDbLine
 10
9021.894420580123
 20
2947.380707470607
 30
0.0
 11
9011.476960930499
 21
2947.380707470607
 31
0.0
  0
LINE
  5
522
330
1F
100
AcDbEntity
  8
1
  6
DOT_CENTER
 62
     2
100
AcDbLine
 10
9016.685690755313
 20
2979.089437295417
 30
0.0
 11
9016.685690755313
 21
2968.671977645798
 31
0.0
  0
LINE
  5
523
330
1F
100
AcDbEntity
  8
1
  6
DOT_CENTER
 62
     2
100
AcDbLine
 10
9021.894420580123
 20
2973.880707470608
 30
0.0
 11
9011.476960930499
 21
2973.880707470608
 31
0.0
  0
LINE
  5
524
330
1F
100
AcDbEntity
  8
1
  6
DOT_CENTER
 62
     2
100
AcDbLine
 10
8962.685690755312
 20
2979.089437295417
 30
0.0
 11
8962.685690755312
 21
2968.671977645798
 31
0.0
  0
LINE
  5
525
330
1F
100
AcDbEntity
  8
1
  6
DOT_CENTER
 62
     2
100
AcDbLine
 10
8967.894420580121
 20
2973.880707470608
 30
0.0
 11
8957.476960930501
 21
2973.880707470608
 31
0.0
  0
LINE
  5
526
330
1F
100
AcDbEntity
  8
1
  6
DOT_CENTER
 62
     2
100
AcDbLine
 10
8962.685690755312
 20
2952.589437295417
 30
0.0
 11
8962.685690755312
 21
2942.171977645797
 31
0.0
  0
LINE
  5
527
330
1F
100
AcDbEntity
  8
1
  6
DOT_CENTER
 62
     2
100
AcDbLine
 10
8967.894420580121
 20
2947.380707470607
 30
0.0
 11
8957.476960930501
 21
2947.380707470607
 31
0.0
  0
LINE
  5
528
330
1F
100
AcDbEntity
  8
1
  6
Continuous
 62
     7
100
AcDbLine
 10
9002.926682640701
 20
2952.880707470607
 30
0.0
 11
9018.685690755312
 21
2952.880707470607
 31
0.0
  0
LINE
  5
529
330
1F
100
AcDbEntity
  8
1
  6
DOTTED
 62
     7
100
AcDbLine
 10
8974.785690755309
 20
2984.880707470607
 30
0.0
 11
8974.785690755309
 21
2954.880707470607
 31
0.0
  0
LINE
  5
52A
330
1F
100
AcDbEntity
  8
1
  6
DOTTED
 62
     7
100
AcDbLine
 10
8982.785690755312
 20
2946.880707470608
 30
0.0
 11
8989.685690755312
 21
2946.880707470608
 31
0.0
  0
LINE
  5
52B
330
1F
100
AcDbEntity
  8
1
  6
DOTTED
 62
     7
100
AcDbLine
 10
9004.585690755313
 20
2954.880707470607
 30
0.0
 11
9004.585690755313
 21
2984.880707470607
 31
0.0
  0
LINE
  5
52C
330
1F
100
AcDbEntity
  8
1
  6
DOTTED
 62
     7
100
AcDbLine
 10
8989.685690755312
 20
2946.880707470608
 30
0.0
 11
8996.585690755313
 21
2946.880707470608
 31
0.0
  0
ARC
  5
52D
330
1F
100
AcDbEntity
  8
1
  6
Continuous
 62
     7
100
AcDbCircle
 10
8893.27504803224
 20
2955.880707470607
 30
0.0
 40
0.5
100
AcDbArc
 50
270.0
 51
0.0
  0
ARC
  5
52E
330
1F
100
AcDbEntity
  8
1
  6
Continuous
 62
     7
100
AcDbCircle
 10
8890.675048032241
 20
2955.880707470607
 30
0.0
 40
0.5
100
AcDbArc
 50
180.0
 51
270.0
  0
ARC
  5
52F
330
1F
100
AcDbEntity
  8
1
  6
Continuous
 62
     7
100
AcDbCircle
 10
8893.27504803224
 20
2978.380707470608
 30
0.0
 40
0.5
100
AcDbArc
 50
0.0
 51
90.0
  0
ARC
  5
530
330
1F
100
AcDbEntity
  8
1
  6
Continuous
 62
     7
100
AcDbCircle
 10
8890.675048032241
 20
2978.380707470608
 30
0.0
 40
0.5
100
AcDbArc
 50
90.0
 51
180.0
  0
ARC
  5
531
330
1F
100
AcDbEntity
  8
1
  6
Continuous
 62
     7
100
AcDbCircle
 10
9018.685690755312
 20
2966.380707470607
 30
0.0
 40
2.0
100
AcDbArc
 50
0.0
 51
90.0
  0
ARC
  5
532
330
1F
100
AcDbEntity
  8
1
  6
Continuous
 62
     7
100
AcDbCircle
 10
9018.685690755312
 20
2954.880707470607
 30
0.0
 40
2.0
100
AcDbArc
 50
270.0
 51
0.0
  0
ARC
  5
533
330
1F
100
AcDbEntity
  8
1
  6
Continuous
 62
     7
100
AcDbCircle
 10
8960.685690755312
 20
2966.380707470607
 30
0.0
 40
2.0
100
AcDbArc
 50
90.0
 51
180.0
  0
ARC
  5
534
330
1F
100
AcDbEntity
  8
1
  6
Continuous
 62
     7
100
AcDbCircle
 10
8960.685690755312
 20
2954.880707470607
 30
0.0
 40
2.0
100
AcDbArc
 50
180.0
 51
270.0
  0
ARC
  5
535
330
1F
100
AcDbEntity
  8
1
  6
Continuous
 62
     7
100
AcDbCircle
 10
8977.435690755312
 20
2980.880707470607
 30
0.0
 40
1.0
100
AcDbArc
 50
90.0
 51
180.0
  0
ARC
  5
536
330
1F
100
AcDbEntity
  8
1
  6
Continuous
 62
     7
100
AcDbCircle
 10
8989.185690755311
 20
2950.180707470607
 30
0.0
 40
1.0
100
AcDbArc
 50
90.0
 51
180.0
  0
ARC
  5
537
330
1F
100
AcDbEntity
  8
1
  6
Continuous
 62
     7
100
AcDbCircle
 10
8990.185690755312
 20
2950.180707470607
 30
0.0
 40
1.0
100
AcDbArc
 50
0.0
 51
90.0
  0
ARC
  5
538
330
1F
100
AcDbEntity
  8
1
  6
Continuous
 62
     7
100
AcDbCircle
 10
8981.435690755311
 20
2953.180707470608
 30
0.0
 40
5.0
100
AcDbArc
 50
180.0
 51
270.0
  0
ARC
  5
539
330
1F
100
AcDbEntity
  8
1
  6
Continuous
 62
     7
100
AcDbCircle
 10
8997.935690755312
 20
2953.180707470608
 30
0.0
 40
5.0
100
AcDbArc
 50
270.0
 51
0.0
  0
ARC
  5
53A
330
1F
100
AcDbEntity
  8
1
  6
Continuous
 62
     7
100
AcDbCircle
 10
8977.435690755312
 20
2980.880707470607
 30
0.0
 40
1.0
100
AcDbArc
 50
90.0
 51
180.0
  0
ARC
  5
53B
330
1F
100
AcDbEntity
  8
1
  6
Continuous
 62
     7
100
AcDbCircle
 10
9001.935690755312
 20
2980.880707470607
 30
0.0
 40
1.0
100
AcDbArc
 50
0.0
 51
90.0
  0
ARC
  5
53C
330
1F
100
AcDbEntity
  8
1
  6
Continuous
 62
     7
100
AcDbCircle
 10
8962.185690755312
 20
2946.880707470608
 30
0.0
 40
5.0
100
AcDbArc
 50
180.0
 51
270.0
  0
ARC
  5
53D
330
1F
100
AcDbEntity
  8
1
  6
Continuous
 62
     7
100
AcDbCircle
 10
9017.185690755312
 20
2946.880707470608
 30
0.0
 40
5.0
100
AcDbArc
 50
270.0
 51
0.0
  0
ARC
  5
53E
330
1F
100
AcDbEntity
  8
1
  6
Continuous
 62
     7
100
AcDbCircle
 10
8958.185690755312
 20
2983.880707470607
 30
0.0
 40
1.0
100
AcDbArc
 50
90.0
 51
180.0
  0
ARC
  5
53F
330
1F
100
AcDbEntity
  8
1
  6
Continuous
 62
     7
100
AcDbCircle
 10
9021.185690755313
 20
2983.880707470607
 30
0.0
 40
1.0
100
AcDbArc
 50
0.0
 51
90.0
  0
ARC
  5
540
330
1F
100
AcDbEntity
  8
1
  6
Continuous
 62
     4
100
AcDbCircle
 10
9017.185690755312
 20
2946.880707470608
 30
0.0
 40
4.5
100
AcDbArc
 50
270.0
 51
0.0
  0
ARC
  5
541
330
1F
100
AcDbEntity
  8
1
  6
Continuous
 62
     4
100
AcDbCircle
 10
8962.185690755312
 20
2946.880707470608
 30
0.0
 40
4.5
100
AcDbArc
 50
180.0
 51
270.0
  0
ARC
  5
542
330
1F
100
AcDbEntity
  8
1
  6
Continuous
 62
     7
100
AcDbCircle
 10
9016.685690755313
 20
2973.880707470608
 30
0.0
 40
5.500000000002362
100
AcDbArc
 50
185.2159085704519
 51
270.0
  0
ARC
  5
543
330
1F
100
AcDbEntity
  8
1
  6
Continuous
 62
     7
100
AcDbCircle
 10
8962.685690755312
 20
2973.880707470608
 30
0.0
 40
5.5
100
AcDbArc
 50
270.0
 51
354.7840914295447
  0
ARC
  5
544
330
1F
100
AcDbEntity
  8
1
  6
DOTTED
 62
     7
100
AcDbCircle
 10
8982.785690755312
 20
2954.880707470607
 30
0.0
 40
8.0
100
AcDbArc
 50
180.0
 51
270.0
  0
ARC
  5
545
330
1F
100
AcDbEntity
  8
1
  6
DOTTED
 62
     7
100
AcDbCircle
 10
8996.585690755313
 20
2954.880707470607
 30
0.0
 40
8.0
100
AcDbArc
 50
270.0
 51
0.0
  0
CIRCLE
  5
546
330
1F
100
AcDbEntity
  8
1
  6
Continuous
 62
     7
100
AcDbCircle
 10
9016.685690755313
 20
2947.380707470607
 30
0.0
 40
4.25
  0
CIRCLE
  5
547
330
1F
100
AcDbEntity
  8
1
  6
Continuous
 62
     7
100
AcDbCircle
 10
9016.685690755313
 20
2947.380707470607
 30
0.0
 40
2.0
  0
CIRCLE
  5
548
330
1F
100
AcDbEntity
  8
1
  6
Continuous
 62
     7
100
AcDbCircle
 10
9016.685690755313
 20
2973.880707470608
 30
0.0
 40
4.25
  0
CIRCLE
  5
549
330
1F
100
AcDbEntity
  8
1
  6
Continuous
 62
     7
100
AcDbCircle
 10
9016.685690755313
 20
2973.880707470608
 30
0.0
 40
2.0
  0
CIRCLE
  5
54A
330
1F
100
AcDbEntity
  8
1
  6
Continuous
 62
     7
100
AcDbCircle
 10
8962.685690755312
 20
2973.880707470608
 30
0.0
 40
4.25
  0
CIRCLE
  5
54B
330
1F
100
AcDbEntity
  8
1
  6
Continuous
 62
     7
100
AcDbCircle
 10
8962.685690755312
 20
2973.880707470608
 30
0.0
 40
2.0
  0
CIRCLE
  5
54C
330
1F
100
AcDbEntity
  8
1
  6
Continuous
 62
     7
100
AcDbCircle
 10
8962.685690755312
 20
2947.380707470607
 30
0.0
 40
4.25
  0
CIRCLE
  5
54D
330
1F
100
AcDbEntity
  8
1
  6
Continuous
 62
     7
100
AcDbCircle
 10
8962.685690755312
 20
2947.380707470607
 30
0.0
 40
2.0
  0
MTEXT
  5
54E
330
1F
100
AcDbEntity
  8
1
 62
     3
100
AcDbMText
 10
9012.685690755311
 20
2957.380707470607
 30
0.0
 40
5.0
 41
0.0
 71
     5
 72
     1
  1
外す
  7
CONVERTER_1
 73
     1
 44
0.6002400960384202
1001
ACAD
1000
MTEXTBEGIN
1070
    73
1070
     1
1070
    44
1040
0.6002400960384202
1070
    74
1070
     0
1000
MTEXTEND
  0
MTEXT
  5
54F
330
1F
100
AcDbEntity
  8
1
 62
     3
100
AcDbMText
 10
8966.685690755312
 20
2957.380707470607
 30
0.0
 40
5.0
 41
0.0
 71
     5
 72
     1
  1
外す
  7
CONVERTER_1
 73
     1
 44
0.6002400960384202
1001
ACAD
1000
MTEXTBEGIN
1070
    73
1070
     1
1070
    44
1040
0.6002400960384202
1070
    74
1070
     0
1000
MTEXTEND
  0
ENDSEC
  0
SECTION
  2
OBJECTS
  0
DICTIONARY
  5
C
330
0
100
AcDbDictionary
281
     1
  3
ACAD_CIP_PREVIOUS_PRODUCT_INFO
350
487
  3
ACAD_COLOR
350
46D
  3
ACAD_GROUP
350
D
  3
ACAD_LAYOUT
350
1A
  3
ACAD_MATERIAL
350
43B
  3
ACAD_MLEADERSTYLE
350
482
  3
ACAD_MLINESTYLE
350
17
  3
ACAD_PLOTSETTINGS
350
19
  3
ACAD_PLOTSTYLENAME
350
E
  3
ACAD_SCALELIST
350
470
  3
ACAD_TABLESTYLE
350
46E
  3
ACAD_VISUALSTYLE
350
454
  3
ACDB_RECOMPOSE_DATA
350
563
  3
AcDbVariableDictionary
350
558
  3
ASE_INDEX_DICTIONARY
350
555
  3
DWGPROPS
350
564
  0
DICTIONARY
  5
550
330
10
100
AcDbDictionary
280
     1
281
     1
  3
ADSK_XREC_LAYER_RECONCILED
360
551
  0
DICTIONARY
  5
552
330
31
100
AcDbDictionary
280
     1
281
     1
  3
ADSK_XREC_LAYER_RECONCILED
360
553
  0
DICTIONARY
  5
4A2
330
1F
100
AcDbDictionary
280
     1
281
     1
  3
ACAD_SORTENTS
360
4A3
  0
XRECORD
  5
487
102
{ACAD_REACTORS
330
C
102
}
330
C
100
AcDbXrecord
280
     1
300
ACD
300
2012
300
ACD_F_S
  0
DICTIONARY
  5
46D
102
{ACAD_REACTORS
330
C
102
}
330
C
100
AcDbDictionary
281
     1
  0
DICTIONARY
  5
D
102
{ACAD_REACTORS
330
C
102
}
330
C
100
AcDbDictionary
281
     1
  0
DICTIONARY
  5
1A
102
{ACAD_REACTORS
330
C
102
}
330
C
100
AcDbDictionary
281
     1
  3
Layout1
350
1E
  3
Layout2
350
26
  3
Model
350
22
  0
DICTIONARY
  5
43B
102
{ACAD_REACTORS
330
C
102
}
330
C
100
AcDbDictionary
281
     1
  3
ByBlock
350
444
  3
ByLayer
350
43C
  3
Global
350
44C
  0
DICTIONARY
  5
482
102
{ACAD_REACTORS
330
C
102
}
330
C
100
AcDbDictionary
281
     1
  3
Standard
350
483
  0
DICTIONARY
  5
17
102
{ACAD_REACTORS
330
C
102
}
330
C
100
AcDbDictionary
281
     1
  3
Standard
350
18
  0
DICTIONARY
  5
19
102
{ACAD_REACTORS
330
C
102
}
330
C
100
AcDbDictionary
281
     1
  0
ACDBDICTIONARYWDFLT
  5
E
102
{ACAD_REACTORS
330
C
102
}
330
C
100
AcDbDictionary
281
     1
  3
Normal
350
F
100
AcDbDictionaryWithDefault
340
F
  0
DICTIONARY
  5
470
102
{ACAD_REACTORS
330
C
102
}
330
C
100
AcDbDictionary
281
     1
  3
A0
350
471
  3
A1
350
472
  3
A2
350
473
  3
A3
350
474
  3
A4
350
475
  3
A5
350
476
  3
A6
350
477
  3
A7
350
478
  3
A8
350
479
  3
A9
350
47A
  3
B0
350
47B
  3
B1
350
47C
  3
B2
350
47D
  3
B3
350
47E
  3
B4
350
47F
  3
B5
350
480
  3
B6
350
481
  0
DICTIONARY
  5
46E
102
{ACAD_REACTORS
330
C
102
}
330
C
100
AcDbDictionary
281
     1
  3
Standard
350
46F
  0
DICTIONARY
  5
454
102
{ACAD_REACTORS
330
C
102
}
330
C
100
AcDbDictionary
281
     1
  3
2dWireframe
350
45A
  3
Basic
350
459
  3
Brighten
350
460
  3
ColorChange
350
464
  3
Conceptual
350
45D
  3
Dim
350
45F
  3
EdgeColorOff
350
46C
  3
Facepattern
350
463
  3
Flat
350
455
  3
FlatWithEdges
350
456
  3
Gouraud
350
457
  3
GouraudWithEdges
350
458
  3
Hidden
350
45C
  3
JitterOff
350
46A
  3
Linepattern
350
462
  3
OverhangOff
350
46B
  3
Realistic
350
45E
  3
Shaded
350
469
  3
Shaded with edges
350
468
  3
Shades of Gray
350
465
  3
Sketchy
350
466
  3
Thicken
350
461
  3
Wireframe
350
45B
  3
X-Ray
350
467
  0
XRECORD
  5
563
102
{ACAD_REACTORS
330
C
102
}
330
C
100
AcDbXrecord
280
     1
 90
        1
330
46F
  0
DICTIONARY
  5
558
102
{ACAD_REACTORS
330
C
102
}
330
C
100
AcDbDictionary
281
     1
  3
CANNOSCALE
350
55B
  3
CMLEADERSTYLE
350
55A
  3
CTABLESTYLE
350
559
  3
DIMASSOC
350
55E
  3
INDEXCTL
350
55D
  3
SORTENTS
350
55C
  3
XCLIPFRAME
350
55F
  0
DICTIONARY
  5
555
102
{ACAD_REACTORS
330
C
102
}
330
C
100
AcDbDictionary
281
     1
  3
ASEBlockHierarchyIndexRecord
350
557
1001
DCO15
1040
1882599383.369
  0
XRECORD
  5
564
102
{ACAD_REACTORS
330
C
102
}
330
C
100
AcDbXrecord
280
     1
  1
DWGPROPS COOKIE
  2

  3

  4

  6

  7

  8
0035sekine
  9

300
=
301
=
302
=
303
=
304
=
305
=
306
=
307
=
308
=
309
=
 40
0.001771087962963
 41
2454488.743421655
 42
2457592.556566771
  1

 90
        0
  0
XRECORD
  5
551
102
{ACAD_REACTORS
330
550
102
}
330
550
100
AcDbXrecord
280
     1
290
     1
  0
XRECORD
  5
553
102
{ACAD_REACTORS
330
552
102
}
330
552
100
AcDbXrecord
280
     1
290
     1
  0
SORTENTSTABLE
  5
4A3
102
{ACAD_REACTORS
330
4A2
102
}
330
4A2
100
AcDbSortentsTable
330
1F
331
4DF
  5
545
331
4BD
  5
524
331
54C
  5
515
331
52A
  5
4F3
331
512
  5
4BB
331
4F0
  5
3A1
331
4CE
  5
535
331
4B5
  5
51C
331
53B
  5
504
331
523
  5
4EC
331
501
  5
4A9
331
4DD
  5
543
331
4BB
  5
522
331
54A
  5
513
331
528
  5
4F1
331
510
  5
4B9
331
4CC
  5
533
331
4B3
  5
51A
331
539
  5
502
331
521
  5
4EA
331
4FF
  5
4A7
331
4EE
  5
37A
331
4DB
  5
541
331
4B9
  5
520
331
548
  5
511
331
4CA
  5
531
331
537
  5
500
331
51F
  5
4C8
331
4FD
  5
4A5
331
50E
  5
4B7
331
4EC
  5
360
331
4D9
  5
53F
331
4C8
  5
52F
331
535
  5
4FE
331
51D
  5
4C6
331
4FB
  5
4A0
331
546
  5
50F
331
50C
  5
4B5
331
4D7
  5
53D
331
4E8
  5
54E
331
4C6
  5
52D
331
533
  5
4FC
331
51B
  5
4C4
331
4F9
  5
49E
331
544
  5
50D
331
50A
  5
4B3
331
70
  5
54F
331
4D5
  5
53B
331
4E6
  5
54C
331
4C4
  5
52B
331
531
  5
4FA
331
519
  5
4C2
331
4F7
  5
49C
331
542
  5
50B
331
508
  5
4B0
331
4E4
  5
54A
331
4C2
  5
529
331
52F
  5
4F8
331
517
  5
4C0
331
4F5
  5
49A
331
540
  5
509
331
506
  5
4AE
331
4D1
  5
538
331
4E2
  5
548
331
4C0
  5
527
331
54F
  5
518
331
52D
  5
4F6
331
515
  5
4BE
331
4F3
  5
3CC
331
53E
  5
507
331
526
  5
4EF
331
504
  5
4AC
331
4E0
  5
546
331
4BE
  5
525
331
54D
  5
516
331
52B
  5
4F4
331
513
  5
4BC
331
4F1
  5
3B0
331
4CF
  5
536
331
4B6
  5
51D
331
53C
  5
505
331
524
  5
4ED
331
502
  5
4AA
331
4DE
  5
544
331
4BC
  5
523
331
54B
  5
514
331
529
  5
4F2
331
511
  5
4BA
331
4CD
  5
534
331
4B4
  5
51B
331
53A
  5
503
331
522
  5
4EB
331
4EF
  5
394
331
500
  5
4A8
331
4DC
  5
542
331
4BA
  5
521
331
549
  5
512
331
4CB
  5
532
331
538
  5
501
331
520
  5
4E9
331
4FE
  5
4A6
331
50F
  5
4B8
331
4ED
  5
36D
331
4DA
  5
540
331
4B8
  5
51F
331
4C9
  5
530
331
4B0
  5
519
331
536
  5
4FF
331
51E
  5
4C7
331
4FC
  5
4A4
331
547
  5
510
331
50D
  5
4B6
331
4EB
  5
353
331
4D8
  5
53E
331
534
  5
4FD
331
51C
  5
4C5
331
4FA
  5
49F
331
4C7
  5
52E
331
545
  5
50E
331
50B
  5
4B4
331
4D6
  5
53C
331
4E7
  5
54D
331
4C5
  5
52C
331
532
  5
4FB
331
51A
  5
4C3
331
4F8
  5
49D
331
543
  5
50C
331
509
  5
4B1
331
4D4
  5
53A
331
4E5
  5
54B
331
4C3
  5
52A
331
530
  5
4F9
331
518
  5
4C1
331
4F6
  5
49B
331
541
  5
50A
331
507
  5
4AF
331
4D2
  5
539
331
4E3
  5
549
331
4C1
  5
528
331
52E
  5
4F7
331
516
  5
4BF
331
4F4
  5
499
331
53F
  5
508
331
527
  5
4F0
331
505
  5
4AD
331
4D0
  5
537
331
4E1
  5
547
331
4BF
  5
526
331
54E
  5
517
331
52C
  5
4F5
331
514
  5
4BD
331
4F2
  5
3BD
331
4B7
  5
51E
331
53D
  5
506
331
525
  5
4EE
331
503
  5
4AB
  0
LAYOUT
  5
1E
102
{ACAD_XDICTIONARY
360
565
102
}
102
{ACAD_REACTORS
330
1A
102
}
330
1A
100
AcDbPlotSettings
  1

  2

  4

  6

 40
0.0
 41
0.0
 42
0.0
 43
0.0
 44
0.0
 45
0.0
 46
0.0
 47
0.0
 48
0.0
 49
0.0
140
0.0
141
0.0
142
1.0
143
1.0
 70
   688
 72
     0
 73
     0
 74
     5
  7

 75
    16
147
1.0
148
0.0
149
0.0
100
AcDbLayout
  1
Layout1
 70
     1
 71
     1
 10
0.0
 20
0.0
 11
12.0
 21
9.0
 12
0.0
 22
0.0
 32
0.0
 14
1.000000000000000E+20
 24
1.000000000000000E+20
 34
1.000000000000000E+20
 15
-1.000000000000000E+20
 25
-1.000000000000000E+20
 35
-1.000000000000000E+20
146
0.0
 13
0.0
 23
0.0
 33
0.0
 16
1.0
 26
0.0
 36
0.0
 17
0.0
 27
1.0
 37
0.0
 76
     0
330
1B
  0
LAYOUT
  5
26
102
{ACAD_XDICTIONARY
360
569
102
}
102
{ACAD_REACTORS
330
1A
102
}
330
1A
100
AcDbPlotSettings
  1

  2

  4

  6

 40
0.0
 41
0.0
 42
0.0
 43
0.0
 44
0.0
 45
0.0
 46
0.0
 47
0.0
 48
0.0
 49
0.0
140
0.0
141
0.0
142
1.0
143
1.0
 70
   688
 72
     0
 73
     0
 74
     5
  7

 75
    16
147
1.0
148
0.0
149
0.0
100
AcDbLayout
  1
Layout2
 70
     1
 71
     2
 10
0.0
 20
0.0
 11
0.0
 21
0.0
 12
0.0
 22
0.0
 32
0.0
 14
0.0
 24
0.0
 34
0.0
 15
0.0
 25
0.0
 35
0.0
146
0.0
 13
0.0
 23
0.0
 33
0.0
 16
1.0
 26
0.0
 36
0.0
 17
0.0
 27
1.0
 37
0.0
 76
     0
330
23
  0
LAYOUT
  5
22
102
{ACAD_XDICTIONARY
360
567
102
}
102
{ACAD_REACTORS
330
1A
102
}
330
1A
100
AcDbPlotSettings
  1

  2

  4

  6

 40
0.0
 41
0.0
 42
0.0
 43
0.0
 44
0.0
 45
0.0
 46
0.0
 47
0.0
 48
0.0
 49
0.0
140
0.0
141
0.0
142
1.0
143
1.0
 70
  1712
 72
     0
 73
     0
 74
     0
  7

 75
     0
147
1.0
148
0.0
149
0.0
100
AcDbLayout
  1
Model
 70
     1
 71
     0
 10
0.0
 20
0.0
 11
0.0
 21
0.0
 12
0.0
 22
0.0
 32
0.0
 14
8814.5605127691
 24
2803.510690411287
 34
0.0
 15
9214.5605127691
 25
3080.510690411288
 35
0.0
146
0.0
 13
0.0
 23
0.0
 33
0.0
 16
1.0
 26
0.0
 36
0.0
 17
0.0
 27
1.0
 37
0.0
 76
     0
330
1F
331
29
  0
MATERIAL
  5
444
102
{ACAD_XDICTIONARY
360
445
102
}
102
{ACAD_REACTORS
330
43B
102
}
330
43B
100
AcDbMaterial
  1
ByBlock
 72
     0
 43
0.0208333333333333
 43
0.0
 43
0.0
 43
0.0
 43
0.0
 43
0.0208333333333333
 43
0.0
 43
0.0
 43
0.0
 43
0.0
 43
1.0
 43
0.0
 43
0.0
 43
0.0
 43
0.0
 43
1.0
 77
     0
 47
0.0208333333333333
 47
0.0
 47
0.0
 47
0.0
 47
0.0
 47
0.0208333333333333
 47
0.0
 47
0.0
 47
0.0
 47
0.0
 47
1.0
 47
0.0
 47
0.0
 47
0.0
 47
0.0
 47
1.0
171
     0
 49
0.0208333333333333
 49
0.0
 49
0.0
 49
0.0
 49
0.0
 49
0.0208333333333333
 49
0.0
 49
0.0
 49
0.0
 49
0.0
 49
1.0
 49
0.0
 49
0.0
 49
0.0
 49
0.0
 49
1.0
175
     0
142
0.0208333333333333
142
0.0
142
0.0
142
0.0
142
0.0
142
0.0208333333333333
142
0.0
142
0.0
142
0.0
142
0.0
142
1.0
142
0.0
142
0.0
142
0.0
142
0.0
142
1.0
179
     0
144
0.0208333333333333
144
0.0
144
0.0
144
0.0
144
0.0
144
0.0208333333333333
144
0.0
144
0.0
144
0.0
144
0.0
144
1.0
144
0.0
144
0.0
144
0.0
144
0.0
144
1.0
147
0.0208333333333333
147
0.0
147
0.0
147
0.0
147
0.0
147
0.0208333333333333
147
0.0
147
0.0
147
0.0
147
0.0
147
1.0
147
0.0
147
0.0
147
0.0
147
0.0
147
1.0
  0
MATERIAL
  5
43C
102
{ACAD_XDICTIONARY
360
43D
102
}
102
{ACAD_REACTORS
330
43B
102
}
330
43B
100
AcDbMaterial
  1
ByLayer
 72
     0
 43
0.0208333333333333
 43
0.0
 43
0.0
 43
0.0
 43
0.0
 43
0.0208333333333333
 43
0.0
 43
0.0
 43
0.0
 43
0.0
 43
1.0
 43
0.0
 43
0.0
 43
0.0
 43
0.0
 43
1.0
 77
     0
 47
0.0208333333333333
 47
0.0
 47
0.0
 47
0.0
 47
0.0
 47
0.0208333333333333
 47
0.0
 47
0.0
 47
0.0
 47
0.0
 47
1.0
 47
0.0
 47
0.0
 47
0.0
 47
0.0
 47
1.0
171
     0
 49
0.0208333333333333
 49
0.0
 49
0.0
 49
0.0
 49
0.0
 49
0.0208333333333333
 49
0.0
 49
0.0
 49
0.0
 49
0.0
 49
1.0
 49
0.0
 49
0.0
 49
0.0
 49
0.0
 49
1.0
175
     0
142
0.0208333333333333
142
0.0
142
0.0
142
0.0
142
0.0
142
0.0208333333333333
142
0.0
142
0.0
142
0.0
142
0.0
142
1.0
142
0.0
142
0.0
142
0.0
142
0.0
142
1.0
179
     0
144
0.0208333333333333
144
0.0
144
0.0
144
0.0
144
0.0
144
0.0208333333333333
144
0.0
144
0.0
144
0.0
144
0.0
144
1.0
144
0.0
144
0.0
144
0.0
144
0.0
144
1.0
147
0.0208333333333333
147
0.0
147
0.0
147
0.0
147
0.0
147
0.0208333333333333
147
0.0
147
0.0
147
0.0
147
0.0
147
1.0
147
0.0
147
0.0
147
0.0
147
0.0
147
1.0
  0
MATERIAL
  5
44C
102
{ACAD_XDICTIONARY
360
44D
102
}
102
{ACAD_REACTORS
330
43B
102
}
330
43B
100
AcDbMaterial
  1
Global
 72
     0
 43
0.0208333333333333
 43
0.0
 43
0.0
 43
0.0
 43
0.0
 43
0.0208333333333333
 43
0.0
 43
0.0
 43
0.0
 43
0.0
 43
1.0
 43
0.0
 43
0.0
 43
0.0
 43
0.0
 43
1.0
 77
     0
 47
0.0208333333333333
 47
0.0
 47
0.0
 47
0.0
 47
0.0
 47
0.0208333333333333
 47
0.0
 47
0.0
 47
0.0
 47
0.0
 47
1.0
 47
0.0
 47
0.0
 47
0.0
 47
0.0
 47
1.0
171
     0
 49
0.0208333333333333
 49
0.0
 49
0.0
 49
0.0
 49
0.0
 49
0.0208333333333333
 49
0.0
 49
0.0
 49
0.0
 49
0.0
 49
1.0
 49
0.0
 49
0.0
 49
0.0
 49
0.0
 49
1.0
175
     0
142
0.0208333333333333
142
0.0
142
0.0
142
0.0
142
0.0
142
0.0208333333333333
142
0.0
142
0.0
142
0.0
142
0.0
142
1.0
142
0.0
142
0.0
142
0.0
142
0.0
142
1.0
179
     0
144
0.0208333333333333
144
0.0
144
0.0
144
0.0
144
0.0
144
0.0208333333333333
144
0.0
144
0.0
144
0.0
144
0.0
144
1.0
144
0.0
144
0.0
144
0.0
144
0.0
144
1.0
147
0.0208333333333333
147
0.0
147
0.0
147
0.0
147
0.0
147
0.0208333333333333
147
0.0
147
0.0
147
0.0
147
0.0
147
1.0
147
0.0
147
0.0
147
0.0
147
0.0
147
1.0
  0
MLEADERSTYLE
  5
483
102
{ACAD_REACTORS
330
482
102
}
330
482
100
AcDbMLeaderStyle
170
     2
171
     1
172
     0
 90
        2
 40
0.0
 41
0.0
173
     1
 91
-1056964608
340
14
 92
       -2
290
     1
 42
2.0
291
     1
 43
0.36
  3
Standard
 44
4.0
300

342
11
174
     1
178
     6
175
     1
176
     0
 93
-1056964608
 45
4.0
292
     0
297
     0
 46
4.0
 94
-1056964608
 47
1.0
 49
1.0
140
1.0
293
     1
141
0.0
294
     1
177
     0
142
1.0
295
     0
296
     0
143
0.125
1001
ACAD_MLEADERVER
1070
     2
  0
MLINESTYLE
  5
18
102
{ACAD_REACTORS
330
17
102
}
330
17
100
AcDbMlineStyle
  2
STANDARD
 70
     0
  3

 62
   256
 51
90.0
 52
90.0
 71
     2
 49
0.5
 62
   256
  6
BYLAYER
 49
-0.5
 62
   256
  6
BYLAYER
  0
ACDBPLACEHOLDER
  5
F
102
{ACAD_REACTORS
330
E
102
}
330
E
  0
SCALE
  5
471
102
{ACAD_REACTORS
330
470
102
}
330
470
100
AcDbScale
 70
     0
300
1:1
140
1.0
141
1.0
290
     1
  0
SCALE
  5
472
102
{ACAD_REACTORS
330
470
102
}
330
470
100
AcDbScale
 70
     0
300
1:2
140
1.0
141
2.0
290
     0
  0
SCALE
  5
473
102
{ACAD_REACTORS
330
470
102
}
330
470
100
AcDbScale
 70
     0
300
1:4
140
1.0
141
4.0
290
     0
  0
SCALE
  5
474
102
{ACAD_REACTORS
330
470
102
}
330
470
100
AcDbScale
 70
     0
300
1:5
140
1.0
141
5.0
290
     0
  0
SCALE
  5
475
102
{ACAD_REACTORS
330
470
102
}
330
470
100
AcDbScale
 70
     0
300
1:8
140
1.0
141
8.0
290
     0
  0
SCALE
  5
476
102
{ACAD_REACTORS
330
470
102
}
330
470
100
AcDbScale
 70
     0
300
1:10
140
1.0
141
10.0
290
     0
  0
SCALE
  5
477
102
{ACAD_REACTORS
330
470
102
}
330
470
100
AcDbScale
 70
     0
300
1:16
140
1.0
141
16.0
290
     0
  0
SCALE
  5
478
102
{ACAD_REACTORS
330
470
102
}
330
470
100
AcDbScale
 70
     0
300
1:20
140
1.0
141
20.0
290
     0
  0
SCALE
  5
479
102
{ACAD_REACTORS
330
470
102
}
330
470
100
AcDbScale
 70
     0
300
1:30
140
1.0
141
30.0
290
     0
  0
SCALE
  5
47A
102
{ACAD_REACTORS
330
470
102
}
330
470
100
AcDbScale
 70
     0
300
1:40
140
1.0
141
40.0
290
     0
  0
SCALE
  5
47B
102
{ACAD_REACTORS
330
470
102
}
330
470
100
AcDbScale
 70
     0
300
1:50
140
1.0
141
50.0
290
     0
  0
SCALE
  5
47C
102
{ACAD_REACTORS
330
470
102
}
330
470
100
AcDbScale
 70
     0
300
1:100
140
1.0
141
100.0
290
     0
  0
SCALE
  5
47D
102
{ACAD_REACTORS
330
470
102
}
330
470
100
AcDbScale
 70
     0
300
2:1
140
2.0
141
1.0
290
     0
  0
SCALE
  5
47E
102
{ACAD_REACTORS
330
470
102
}
330
470
100
AcDbScale
 70
     0
300
4:1
140
4.0
141
1.0
290
     0
  0
SCALE
  5
47F
102
{ACAD_REACTORS
330
470
102
}
330
470
100
AcDbScale
 70
     0
300
8:1
140
8.0
141
1.0
290
     0
  0
SCALE
  5
480
102
{ACAD_REACTORS
330
470
102
}
330
470
100
AcDbScale
 70
     0
300
10:1
140
10.0
141
1.0
290
     0
  0
SCALE
  5
481
102
{ACAD_REACTORS
330
470
102
}
330
470
100
AcDbScale
 70
     0
300
100:1
140
100.0
141
1.0
290
     0
  0
TABLESTYLE
  5
46F
102
{ACAD_XDICTIONARY
360
561
102
}
102
{ACAD_REACTORS
330
46E
102
}
330
46E
100
AcDbTableStyle
  3
Standard
 70
     0
 71
     0
 40
1.5
 41
1.5
280
     0
281
     0
  7
Standard
140
4.5
170
     2
 62
     0
 63
     7
283
     0
274
    -2
284
     1
 64
     0
275
    -2
285
     1
 65
     0
276
    -2
286
     1
 66
     0
277
    -2
287
     1
 67
     0
278
    -2
288
     1
 68
     0
279
    -2
289
     1
 69
     0
  7
Standard
140
6.0
170
     5
 62
     0
 63
     7
283
     0
274
    -2
284
     1
 64
     0
275
    -2
285
     1
 65
     0
276
    -2
286
     1
 66
     0
277
    -2
287
     1
 67
     0
278
    -2
288
     1
 68
     0
279
    -2
289
     1
 69
     0
  7
Standard
140
4.5
170
     5
 62
     0
 63
     7
283
     0
274
    -2
284
     1
 64
     0
275
    -2
285
     1
 65
     0
276
    -2
286
     1
 66
     0
277
    -2
287
     1
 67
     0
278
    -2
288
     1
 68
     0
279
    -2
289
     1
 69
     0
  0
VISUALSTYLE
  5
45A
102
{ACAD_XDICTIONARY
360
578
102
}
102
{ACAD_REACTORS
330
454
102
}
330
454
100
AcDbVisualStyle
  2
2dWireframe
 70
     4
 71
     0
 72
     2
 73
     0
 90
        0
 40
-0.6
 41
-30.0
 62
     5
 63
     7
 74
     1
 91
        4
 64
     7
 65
   257
 75
     1
175
     1
 42
1.0
 92
        0
 66
   257
 43
1.0
 76
     1
 77
     6
 78
     2
 67
     7
 79
     5
170
     0
171
     0
290
     0
174
     0
 93
        1
 44
0.0
173
     0
291
     0
 45
0.0
1001
ACAD
1000
AcDbSavedByObjectVersion
1070
     0
  0
VISUALSTYLE
  5
459
102
{ACAD_XDICTIONARY
360
576
102
}
102
{ACAD_REACTORS
330
454
102
}
330
454
100
AcDbVisualStyle
  2
Basic
 70
     7
 71
     1
 72
     0
 73
     1
 90
        0
 40
-0.6
 41
-30.0
 62
     5
 63
     7
 74
     0
 91
        4
 64
     7
 65
   257
 75
     1
175
     1
 42
1.0
 92
        8
 66
     7
 43
1.0
 76
     1
 77
     6
 78
     2
 67
     7
 79
     5
170
     0
171
     0
290
     0
174
     0
 93
        1
 44
0.0
173
     0
291
     1
 45
0.0
1001
ACAD
1000
AcDbSavedByObjectVersion
1070
     0
  0
VISUALSTYLE
  5
460
102
{ACAD_XDICTIONARY
360
584
102
}
102
{ACAD_REACTORS
330
454
102
}
330
454
100
AcDbVisualStyle
  2
Brighten
 70
    12
 71
     2
 72
     2
 73
     0
 90
        0
 40
-0.6
 41
-30.0
 62
     5
 63
     7
 74
     1
 91
        4
 64
     7
 65
   257
 75
     1
175
     1
 42
1.0
 92
        8
 66
     7
 43
1.0
 76
     1
 77
     6
 78
     2
 67
     7
 79
     5
170
     0
171
     0
290
     0
174
     0
 93
        1
 44
50.0
173
     0
291
     1
 45
0.0
1001
ACAD
1000
AcDbSavedByObjectVersion
1070
     0
  0
VISUALSTYLE
  5
464
102
{ACAD_XDICTIONARY
360
58C
102
}
102
{ACAD_REACTORS
330
454
102
}
330
454
100
AcDbVisualStyle
  2
ColorChange
 70
    16
 71
     2
 72
     2
 73
     3
 90
        0
 40
-0.6
 41
-30.0
 62
     5
 63
     8
 74
     1
 91
        4
 64
     7
 65
   257
 75
     1
175
     1
 42
1.0
 92
        8
 66
     8
 43
1.0
 76
     1
 77
     6
 78
     2
 67
     7
 79
     5
170
     0
171
     0
290
     0
174
     0
 93
        1
 44
0.0
173
     0
291
     1
 45
0.0
1001
ACAD
1000
AcDbSavedByObjectVersion
1070
     0
  0
VISUALSTYLE
  5
45D
102
{ACAD_XDICTIONARY
360
57E
102
}
102
{ACAD_REACTORS
330
454
102
}
330
454
100
AcDbVisualStyle
  2
Conceptual
 70
     9
 71
     3
 72
     2
 73
     0
 90
        0
 40
-0.6
 41
-30.0
 62
     5
 63
     7
 74
     2
 91
        2
 64
     7
 65
   257
 75
     1
175
     1
 42
179.0
 92
        8
 66
     7
 43
1.0
 76
     1
 77
     6
 78
     2
 67
     7
 79
     3
170
     0
171
     0
290
     0
174
     0
 93
        1
 44
0.0
173
     0
291
     0
 45
0.0
1001
ACAD
1000
AcDbSavedByObjectVersion
1070
     0
  0
VISUALSTYLE
  5
45F
102
{ACAD_XDICTIONARY
360
582
102
}
102
{ACAD_REACTORS
330
454
102
}
330
454
100
AcDbVisualStyle
  2
Dim
 70
    11
 71
     2
 72
     2
 73
     0
 90
        0
 40
-0.6
 41
-30.0
 62
     5
 63
     7
 74
     1
 91
        4
 64
     7
 65
   257
 75
     1
175
     1
 42
1.0
 92
        8
 66
     7
 43
1.0
 76
     1
 77
     6
 78
     2
 67
     7
 79
     5
170
     0
171
     0
290
     0
174
     0
 93
        1
 44
-50.0
173
     0
291
     1
 45
0.0
1001
ACAD
1000
AcDbSavedByObjectVersion
1070
     0
  0
VISUALSTYLE
  5
46C
102
{ACAD_XDICTIONARY
360
59C
102
}
102
{ACAD_REACTORS
330
454
102
}
330
454
100
AcDbVisualStyle
  2
EdgeColorOff
 70
    22
 71
     2
 72
     2
 73
     0
 90
        0
 40
-0.6
 41
-30.0
 62
     5
 63
     7
 74
     1
 91
        4
 64
     7
 65
   257
 75
     1
175
     1
 42
1.0
 92
        8
 66
     7
 43
1.0
 76
     1
 77
     6
 78
     2
 67
     7
 79
     5
170
     0
171
     0
290
     0
174
     0
 93
        1
 44
0.0
173
     0
291
     1
 45
0.0
1001
ACAD
1000
AcDbSavedByObjectVersion
1070
     0
  0
VISUALSTYLE
  5
463
102
{ACAD_XDICTIONARY
360
58A
102
}
102
{ACAD_REACTORS
330
454
102
}
330
454
100
AcDbVisualStyle
  2
Facepattern
 70
    15
 71
     2
 72
     2
 73
     0
 90
        0
 40
-0.6
 41
-30.0
 62
     5
 63
     7
 74
     1
 91
        4
 64
     7
 65
   257
 75
     1
175
     1
 42
1.0
 92
        8
 66
     7
 43
1.0
 76
     1
 77
     6
 78
     2
 67
     7
 79
     5
170
     0
171
     0
290
     0
174
     0
 93
        1
 44
0.0
173
     0
291
     1
 45
0.0
1001
ACAD
1000
AcDbSavedByObjectVersion
1070
     0
  0
VISUALSTYLE
  5
455
102
{ACAD_XDICTIONARY
360
56E
102
}
102
{ACAD_REACTORS
330
454
102
}
330
454
100
AcDbVisualStyle
  2
Flat
 70
     0
 71
     2
 72
     1
 73
     1
 90
        2
 40
-0.6
 41
30.0
 62
     5
 63
     7
 74
     0
 91
        0
 64
     7
 65
   257
 75
     1
175
     1
 42
1.0
 92
        8
 66
     7
 43
1.0
 76
     1
 77
     6
 78
     2
 67
     7
 79
     5
170
     0
171
     0
290
     0
174
     0
 93
       13
 44
0.0
173
     0
291
     1
 45
0.0
1001
ACAD
1000
AcDbSavedByObjectVersion
1070
     0
  0
VISUALSTYLE
  5
456
102
{ACAD_XDICTIONARY
360
570
102
}
102
{ACAD_REACTORS
330
454
102
}
330
454
100
AcDbVisualStyle
  2
FlatWithEdges
 70
     1
 71
     2
 72
     1
 73
     1
 90
        2
 40
-0.6
 41
30.0
 62
     5
 63
     7
 74
     1
 91
        0
 64
     7
 65
   257
 75
     1
175
     1
 42
1.0
 92
        0
 66
   257
 43
1.0
 76
     1
 77
     6
 78
     2
 67
     7
 79
     5
170
     0
171
     0
290
     0
174
     0
 93
       13
 44
0.0
173
     0
291
     1
 45
0.0
1001
ACAD
1000
AcDbSavedByObjectVersion
1070
     0
  0
VISUALSTYLE
  5
457
102
{ACAD_XDICTIONARY
360
572
102
}
102
{ACAD_REACTORS
330
454
102
}
330
454
100
AcDbVisualStyle
  2
Gouraud
 70
     2
 71
     2
 72
     2
 73
     1
 90
        2
 40
-0.6
 41
30.0
 62
     5
 63
     7
 74
     0
 91
        0
 64
     7
 65
   257
 75
     1
175
     1
 42
1.0
 92
        0
 66
     7
 43
1.0
 76
     1
 77
     6
 78
     2
 67
     7
 79
     5
170
     0
171
     0
290
     0
174
     0
 93
       13
 44
0.0
173
     0
291
     1
 45
0.0
1001
ACAD
1000
AcDbSavedByObjectVersion
1070
     0
  0
VISUALSTYLE
  5
458
102
{ACAD_XDICTIONARY
360
574
102
}
102
{ACAD_REACTORS
330
454
102
}
330
454
100
AcDbVisualStyle
  2
GouraudWithEdges
 70
     3
 71
     2
 72
     2
 73
     1
 90
        2
 40
-0.6
 41
30.0
 62
     5
 63
     7
 74
     1
 91
        0
 64
     7
 65
   257
 75
     1
175
     1
 42
1.0
 92
        0
 66
   257
 43
1.0
 76
     1
 77
     6
 78
     2
 67
     7
 79
     5
170
     0
171
     0
290
     0
174
     0
 93
       13
 44
0.0
173
     0
291
     1
 45
0.0
1001
ACAD
1000
AcDbSavedByObjectVersion
1070
     0
  0
VISUALSTYLE
  5
45C
102
{ACAD_XDICTIONARY
360
57C
102
}
102
{ACAD_REACTORS
330
454
102
}
330
454
100
AcDbVisualStyle
  2
Hidden
 70
     6
 71
     1
 72
     2
 73
     2
 90
        0
 40
-0.6
 41
-30.0
 62
     5
 63
     7
 74
     2
 91
        2
 64
     7
 65
   257
 75
     2
175
     1
 42
40.0
 92
        0
 66
   257
 43
1.0
 76
     1
 77
     6
 78
     2
 67
     7
 79
     3
170
     0
171
     0
290
     0
174
     0
 93
        1
 44
0.0
173
     0
291
     0
 45
0.0
1001
ACAD
1000
AcDbSavedByObjectVersion
1070
     0
  0
VISUALSTYLE
  5
46A
102
{ACAD_XDICTIONARY
360
598
102
}
102
{ACAD_REACTORS
330
454
102
}
330
454
100
AcDbVisualStyle
  2
JitterOff
 70
    20
 71
     2
 72
     2
 73
     0
 90
        0
 40
-0.6
 41
-30.0
 62
     5
 63
     7
 74
     1
 91
        4
 64
     7
 65
   257
 75
     1
175
     1
 42
1.0
 92
       10
 66
     7
 43
1.0
 76
     1
 77
     6
 78
     2
 67
     7
 79
     5
170
     0
171
     0
290
     0
174
     0
 93
        1
 44
0.0
173
     0
291
     1
 45
0.0
1001
ACAD
1000
AcDbSavedByObjectVersion
1070
     0
  0
VISUALSTYLE
  5
462
102
{ACAD_XDICTIONARY
360
588
102
}
102
{ACAD_REACTORS
330
454
102
}
330
454
100
AcDbVisualStyle
  2
Linepattern
 70
    14
 71
     2
 72
     2
 73
     0
 90
        0
 40
-0.6
 41
-30.0
 62
     5
 63
     7
 74
     1
 91
        4
 64
     7
 65
   257
 75
     7
175
     7
 42
1.0
 92
        8
 66
     7
 43
1.0
 76
     1
 77
     6
 78
     2
 67
     7
 79
     5
170
     0
171
     0
290
     0
174
     0
 93
        1
 44
0.0
173
     0
291
     1
 45
0.0
1001
ACAD
1000
AcDbSavedByObjectVersion
1070
     0
  0
VISUALSTYLE
  5
46B
102
{ACAD_XDICTIONARY
360
59A
102
}
102
{ACAD_REACTORS
330
454
102
}
330
454
100
AcDbVisualStyle
  2
OverhangOff
 70
    21
 71
     2
 72
     2
 73
     0
 90
        0
 40
-0.6
 41
-30.0
 62
     5
 63
     7
 74
     1
 91
        4
 64
     7
 65
   257
 75
     1
175
     1
 42
1.0
 92
        9
 66
     7
 43
1.0
 76
     1
 77
     6
 78
     2
 67
     7
 79
     5
170
     0
171
     0
290
     0
174
     0
 93
        1
 44
0.0
173
     0
291
     1
 45
0.0
1001
ACAD
1000
AcDbSavedByObjectVersion
1070
     0
  0
VISUALSTYLE
  5
45E
102
{ACAD_XDICTIONARY
360
580
102
}
102
{ACAD_REACTORS
330
454
102
}
330
454
100
AcDbVisualStyle
  2
Realistic
 70
     8
 71
     2
 72
     3
 73
     0
 90
        2
 40
-0.6
 41
30.0
 62
     5
 63
     7
 74
     0
 91
        0
 64
     7
 65
   257
 75
     1
175
     1
 42
1.0
 92
        8
 66
   257
 43
1.0
 76
     1
 77
     6
 78
     2
 67
     7
 79
     3
170
     0
171
     0
290
     0
174
     0
 93
       13
 44
0.0
173
     0
291
     0
 45
0.0
1001
ACAD
1000
AcDbSavedByObjectVersion
1070
     0
  0
VISUALSTYLE
  5
469
102
{ACAD_XDICTIONARY
360
596
102
}
102
{ACAD_REACTORS
330
454
102
}
330
454
100
AcDbVisualStyle
  2
Shaded
 70
    27
 71
     2
 72
     2
 73
     1
 90
        2
 40
-0.6
 41
30.0
 62
     5
 63
     7
 74
     0
 91
        4
 64
     7
 65
   257
 75
     1
175
     1
 42
1.0
 92
        8
 66
   257
 43
1.0
 76
     1
 77
     6
 78
     2
 67
     8
 79
     3
170
     0
171
     0
290
     0
174
     0
 93
        5
 44
0.0
173
     0
291
     0
 45
0.0
1001
ACAD
1000
AcDbSavedByObjectVersion
1070
     0
  0
VISUALSTYLE
  5
468
102
{ACAD_XDICTIONARY
360
594
102
}
102
{ACAD_REACTORS
330
454
102
}
330
454
100
AcDbVisualStyle
  2
Shaded with edges
 70
    26
 71
     2
 72
     2
 73
     1
 90
        2
 40
-0.6
 41
30.0
 62
     5
 63
     7
 74
     1
 91
       10
 64
     7
 65
   257
 75
     2
175
     1
 42
1.0
 92
        8
 66
   257
 43
1.0
 76
     1
 77
     6
 78
     2
 67
     7
 79
     3
170
     0
171
     0
290
     0
174
     0
 93
        5
 44
0.0
173
     0
291
     0
 45
0.0
1001
ACAD
1000
AcDbSavedByObjectVersion
1070
     0
  0
VISUALSTYLE
  5
465
102
{ACAD_XDICTIONARY
360
58E
102
}
102
{ACAD_REACTORS
330
454
102
}
330
454
100
AcDbVisualStyle
  2
Shades of Gray
 70
    23
 71
     2
 72
     2
 73
     3
 90
        0
 40
-0.6
 41
-30.0
 62
     5
 63
     7
 74
     2
 91
        2
 64
     7
 65
     7
 75
     1
175
     1
 42
40.0
 92
        8
 66
     7
 43
1.0
 76
     1
 77
     6
 78
     2
 67
     7
 79
     3
170
     0
171
     0
290
     0
174
     0
 93
        1
 44
0.0
173
     0
291
     0
 45
0.0
1001
ACAD
1000
AcDbSavedByObjectVersion
1070
     0
  0
VISUALSTYLE
  5
466
102
{ACAD_XDICTIONARY
360
590
102
}
102
{ACAD_REACTORS
330
454
102
}
330
454
100
AcDbVisualStyle
  2
Sketchy
 70
    24
 71
     1
 72
     2
 73
     2
 90
        0
 40
-0.6
 41
-30.0
 62
     5
 63
     7
 74
     2
 91
        2
 64
     7
 65
     7
 75
     1
175
     1
 42
40.0
 92
       11
 66
     7
 43
1.0
 76
     1
 77
     6
 78
     2
 67
     7
 79
     6
170
     0
171
     0
290
     0
174
     0
 93
        1
 44
0.0
173
     0
291
     0
 45
0.0
1001
ACAD
1000
AcDbSavedByObjectVersion
1070
     0
  0
VISUALSTYLE
  5
461
102
{ACAD_XDICTIONARY
360
586
102
}
102
{ACAD_REACTORS
330
454
102
}
330
454
100
AcDbVisualStyle
  2
Thicken
 70
    13
 71
     2
 72
     2
 73
     0
 90
        0
 40
-0.6
 41
-30.0
 62
     5
 63
     7
 74
     1
 91
        4
 64
     7
 65
   257
 75
     1
175
     1
 42
1.0
 92
       12
 66
     7
 43
1.0
 76
     1
 77
     6
 78
     2
 67
     7
 79
     5
170
     0
171
     0
290
     0
174
     0
 93
        1
 44
0.0
173
     0
291
     1
 45
0.0
1001
ACAD
1000
AcDbSavedByObjectVersion
1070
     0
  0
VISUALSTYLE
  5
45B
102
{ACAD_XDICTIONARY
360
57A
102
}
102
{ACAD_REACTORS
330
454
102
}
330
454
100
AcDbVisualStyle
  2
Wireframe
 70
     5
 71
     0
 72
     2
 73
     0
 90
        0
 40
-0.6
 41
-30.0
 62
     5
 63
     7
 74
     1
 91
        4
 64
     7
 65
   257
 75
     1
175
     1
 42
1.0
 92
        0
 66
   257
 43
1.0
 76
     1
 77
     6
 78
     2
 67
     7
 79
     3
170
     0
171
     0
290
     0
174
     0
 93
        1
 44
0.0
173
     0
291
     0
 45
0.0
1001
ACAD
1000
AcDbSavedByObjectVersion
1070
     0
  0
VISUALSTYLE
  5
467
102
{ACAD_XDICTIONARY
360
592
102
}
102
{ACAD_REACTORS
330
454
102
}
330
454
100
AcDbVisualStyle
  2
X-Ray
 70
    25
 71
     2
 72
     2
 73
     1
 90
        1
 40
0.5
 41
-30.0
 62
     5
 63
     7
 74
     1
 91
        0
 64
     7
 65
   257
 75
     1
175
     1
 42
1.0
 92
        8
 66
     7
 43
1.0
 76
     1
 77
     6
 78
     2
 67
     7
 79
     3
170
     0
171
     0
290
     0
174
     0
 93
       13
 44
0.0
173
     0
291
     0
 45
0.0
1001
ACAD
1000
AcDbSavedByObjectVersion
1070
     0
  0
DICTIONARYVAR
  5
55B
102
{ACAD_REACTORS
330
558
102
}
330
558
100
DictionaryVariables
280
     0
  1
1:1
  0
DICTIONARYVAR
  5
55A
102
{ACAD_REACTORS
330
558
102
}
330
558
100
DictionaryVariables
280
     0
  1
STANDARD
  0
DICTIONARYVAR
  5
559
102
{ACAD_REACTORS
330
558
102
}
330
558
100
DictionaryVariables
280
     0
  1
STANDARD
  0
DICTIONARYVAR
  5
55E
102
{ACAD_REACTORS
330
558
102
}
330
558
100
DictionaryVariables
280
     0
  1
1
  0
DICTIONARYVAR
  5
55D
102
{ACAD_REACTORS
330
558
102
}
330
558
100
DictionaryVariables
280
     0
  1
0
  0
DICTIONARYVAR
  5
55C
102
{ACAD_REACTORS
330
558
102
}
330
558
100
DictionaryVariables
280
     0
  1
127
  0
DICTIONARYVAR
  5
55F
102
{ACAD_REACTORS
330
558
102
}
330
558
100
DictionaryVariables
280
     0
  1
2
  0
XRECORD
  5
557
102
{ACAD_REACTORS
330
555
102
}
330
555
100
AcDbXrecord
280
     1
330
4B0
330
4B3
330
70
330
3C
330
40
330
44
330
45
330
49
330
4A
330
51
330
55
330
59
330
5D
330
64
330
68
  0
DICTIONARY
  5
565
330
1E
100
AcDbDictionary
280
     1
281
     1
  3
ACAD_XREC_ROUNDTRIP
360
566
  0
DICTIONARY
  5
569
330
26
100
AcDbDictionary
280
     1
281
     1
  3
ACAD_XREC_ROUNDTRIP
360
56A
  0
DICTIONARY
  5
567
330
22
100
AcDbDictionary
280
     1
281
     1
  3
ACAD_XREC_ROUNDTRIP
360
568
  0
DICTIONARY
  5
445
330
444
100
AcDbDictionary
280
     1
281
     1
  3
ACAD_XREC_ROUNDTRIP
360
56C
  3
BUMPTILE
360
447
  3
DIFFUSETILE
360
446
  3
OPACITYTILE
360
44A
  3
REFLECTIONTILE
360
449
  3
REFRACTIONTILE
360
44B
  3
SPECULARTILE
360
448
  0
DICTIONARY
  5
43D
330
43C
100
AcDbDictionary
280
     1
281
     1
  3
ACAD_XREC_ROUNDTRIP
360
56B
  3
BUMPTILE
360
43F
  3
DIFFUSETILE
360
43E
  3
OPACITYTILE
360
442
  3
REFLECTIONTILE
360
441
  3
REFRACTIONTILE
360
443
  3
SPECULARTILE
360
440
  0
DICTIONARY
  5
44D
330
44C
100
AcDbDictionary
280
     1
281
     1
  3
ACAD_XREC_ROUNDTRIP
360
56D
  3
BUMPTILE
360
44F
  3
DIFFUSETILE
360
44E
  3
OPACITYTILE
360
452
  3
REFLECTIONTILE
360
451
  3
REFRACTIONTILE
360
453
  3
SPECULARTILE
360
450
  0
DICTIONARY
  5
561
330
46F
100
AcDbDictionary
280
     1
281
     1
  3
ACAD_ROUNDTRIP_2008_TABLESTYLE_CELLSTYLEMAP
360
562
  3
ACAD_XREC_ROUNDTRIP
360
59E
  0
DICTIONARY
  5
578
330
45A
100
AcDbDictionary
280
     1
281
     1
  3
ACAD_XREC_ROUNDTRIP
360
579
  0
DICTIONARY
  5
576
330
459
100
AcDbDictionary
280
     1
281
     1
  3
ACAD_XREC_ROUNDTRIP
360
577
  0
DICTIONARY
  5
584
330
460
100
AcDbDictionary
280
     1
281
     1
  3
ACAD_XREC_ROUNDTRIP
360
585
  0
DICTIONARY
  5
58C
330
464
100
AcDbDictionary
280
     1
281
     1
  3
ACAD_XREC_ROUNDTRIP
360
58D
  0
DICTIONARY
  5
57E
330
45D
100
AcDbDictionary
280
     1
281
     1
  3
ACAD_XREC_ROUNDTRIP
360
57F
  0
DICTIONARY
  5
582
330
45F
100
AcDbDictionary
280
     1
281
     1
  3
ACAD_XREC_ROUNDTRIP
360
583
  0
DICTIONARY
  5
59C
330
46C
100
AcDbDictionary
280
     1
281
     1
  3
ACAD_XREC_ROUNDTRIP
360
59D
  0
DICTIONARY
  5
58A
330
463
100
AcDbDictionary
280
     1
281
     1
  3
ACAD_XREC_ROUNDTRIP
360
58B
  0
DICTIONARY
  5
56E
330
455
100
AcDbDictionary
280
     1
281
     1
  3
ACAD_XREC_ROUNDTRIP
360
56F
  0
DICTIONARY
  5
570
330
456
100
AcDbDictionary
280
     1
281
     1
  3
ACAD_XREC_ROUNDTRIP
360
571
  0
DICTIONARY
  5
572
330
457
100
AcDbDictionary
280
     1
281
     1
  3
ACAD_XREC_ROUNDTRIP
360
573
  0
DICTIONARY
  5
574
330
458
100
AcDbDictionary
280
     1
281
     1
  3
ACAD_XREC_ROUNDTRIP
360
575
  0
DICTIONARY
  5
57C
330
45C
100
AcDbDictionary
280
     1
281
     1
  3
ACAD_XREC_ROUNDTRIP
360
57D
  0
DICTIONARY
  5
598
330
46A
100
AcDbDictionary
280
     1
281
     1
  3
ACAD_XREC_ROUNDTRIP
360
599
  0
DICTIONARY
  5
588
330
462
100
AcDbDictionary
280
     1
281
     1
  3
ACAD_XREC_ROUNDTRIP
360
589
  0
DICTIONARY
  5
59A
330
46B
100
AcDbDictionary
280
     1
281
     1
  3
ACAD_XREC_ROUNDTRIP
360
59B
  0
DICTIONARY
  5
580
330
45E
100
AcDbDictionary
280
     1
281
     1
  3
ACAD_XREC_ROUNDTRIP
360
581
  0
DICTIONARY
  5
596
330
469
100
AcDbDictionary
280
     1
281
     1
  3
ACAD_XREC_ROUNDTRIP
360
597
  0
DICTIONARY
  5
594
330
468
100
AcDbDictionary
280
     1
281
     1
  3
ACAD_XREC_ROUNDTRIP
360
595
  0
DICTIONARY
  5
58E
330
465
100
AcDbDictionary
280
     1
281
     1
  3
ACAD_XREC_ROUNDTRIP
360
58F
  0
DICTIONARY
  5
590
330
466
100
AcDbDictionary
280
     1
281
     1
  3
ACAD_XREC_ROUNDTRIP
360
591
  0
DICTIONARY
  5
586
330
461
100
AcDbDictionary
280
     1
281
     1
  3
ACAD_XREC_ROUNDTRIP
360
587
  0
DICTIONARY
  5
57A
330
45B
100
AcDbDictionary
280
     1
281
     1
  3
ACAD_XREC_ROUNDTRIP
360
57B
  0
DICTIONARY
  5
592
330
467
100
AcDbDictionary
280
     1
281
     1
  3
ACAD_XREC_ROUNDTRIP
360
593
  0
XRECORD
  5
566
102
{ACAD_REACTORS
330
565
102
}
330
565
100
AcDbXrecord
280
     1
102
SHADEPLOT
 70
     0
102
SHADEPLOTRESLEVEL
 70
     2
102
SHADEPLOTCUSTOMDPI
 70
   300
  0
XRECORD
  5
56A
102
{ACAD_REACTORS
330
569
102
}
330
569
100
AcDbXrecord
280
     1
102
SHADEPLOT
 70
     0
102
SHADEPLOTRESLEVEL
 70
     2
102
SHADEPLOTCUSTOMDPI
 70
   300
  0
XRECORD
  5
568
102
{ACAD_REACTORS
330
567
102
}
330
567
100
AcDbXrecord
280
     1
102
SHADEPLOT
 70
     0
102
SHADEPLOTRESLEVEL
 70
     2
102
SHADEPLOTCUSTOMDPI
 70
   300
  0
XRECORD
  5
56C
102
{ACAD_REACTORS
330
445
102
}
330
445
100
AcDbXrecord
280
     1
102
MATERIAL
148
0.0
149
0.0
149
0.0
 93
        0
 94
      127
282
     0
 72
     0
 77
     0
171
     0
175
     0
179
     0
273
     0
  0
XRECORD
  5
447
102
{ACAD_REACTORS
330
445
102
}
330
445
100
AcDbXrecord
280
     1
270
     1
271
     1
  0
XRECORD
  5
446
102
{ACAD_REACTORS
330
445
102
}
330
445
100
AcDbXrecord
280
     1
270
     1
271
     1
  0
XRECORD
  5
44A
102
{ACAD_REACTORS
330
445
102
}
330
445
100
AcDbXrecord
280
     1
270
     1
271
     1
  0
XRECORD
  5
449
102
{ACAD_REACTORS
330
445
102
}
330
445
100
AcDbXrecord
280
     1
270
     1
271
     1
  0
XRECORD
  5
44B
102
{ACAD_REACTORS
330
445
102
}
330
445
100
AcDbXrecord
280
     1
270
     1
271
     1
  0
XRECORD
  5
448
102
{ACAD_REACTORS
330
445
102
}
330
445
100
AcDbXrecord
280
     1
270
     1
271
     1
  0
XRECORD
  5
56B
102
{ACAD_REACTORS
330
43D
102
}
330
43D
100
AcDbXrecord
280
     1
102
MATERIAL
148
0.0
149
0.0
149
0.0
 93
        0
 94
      127
282
     0
 72
     0
 77
     0
171
     0
175
     0
179
     0
273
     0
  0
XRECORD
  5
43F
102
{ACAD_REACTORS
330
43D
102
}
330
43D
100
AcDbXrecord
280
     1
270
     1
271
     1
  0
XRECORD
  5
43E
102
{ACAD_REACTORS
330
43D
102
}
330
43D
100
AcDbXrecord
280
     1
270
     1
271
     1
  0
XRECORD
  5
442
102
{ACAD_REACTORS
330
43D
102
}
330
43D
100
AcDbXrecord
280
     1
270
     1
271
     1
  0
XRECORD
  5
441
102
{ACAD_REACTORS
330
43D
102
}
330
43D
100
AcDbXrecord
280
     1
270
     1
271
     1
  0
XRECORD
  5
443
102
{ACAD_REACTORS
330
43D
102
}
330
43D
100
AcDbXrecord
280
     1
270
     1
271
     1
  0
XRECORD
  5
440
102
{ACAD_REACTORS
330
43D
102
}
330
43D
100
AcDbXrecord
280
     1
270
     1
271
     1
  0
XRECORD
  5
56D
102
{ACAD_REACTORS
330
44D
102
}
330
44D
100
AcDbXrecord
280
     1
102
MATERIAL
148
0.0
149
0.0
149
0.0
 93
        0
 94
      127
282
     0
 72
     0
 77
     0
171
     0
175
     0
179
     0
273
     0
  0
XRECORD
  5
44F
102
{ACAD_REACTORS
330
44D
102
}
330
44D
100
AcDbXrecord
280
     1
270
     1
271
     1
  0
XRECORD
  5
44E
102
{ACAD_REACTORS
330
44D
102
}
330
44D
100
AcDbXrecord
280
     1
270
     1
271
     1
  0
XRECORD
  5
452
102
{ACAD_REACTORS
330
44D
102
}
330
44D
100
AcDbXrecord
280
     1
270
     1
271
     1
  0
XRECORD
  5
451
102
{ACAD_REACTORS
330
44D
102
}
330
44D
100
AcDbXrecord
280
     1
270
     1
271
     1
  0
XRECORD
  5
453
102
{ACAD_REACTORS
330
44D
102
}
330
44D
100
AcDbXrecord
280
     1
270
     1
271
     1
  0
XRECORD
  5
450
102
{ACAD_REACTORS
330
44D
102
}
330
44D
100
AcDbXrecord
280
     1
270
     1
271
     1
  0
CELLSTYLEMAP
  5
562
102
{ACAD_REACTORS
330
561
102
}
330
561
100
AcDbCellStyleMap
 90
        3
300
CELLSTYLE
  1
TABLEFORMAT_BEGIN
 90
        5
170
     1
 91
        0
 92
    32768
 62
   257
 93
        1
300
CONTENTFORMAT
  1
CONTENTFORMAT_BEGIN
 90
        0
 91
        0
 92
      512
 93
        0
300

 40
0.0
140
1.0
 94
        5
 62
     0
340
11
144
6.0
309
CONTENTFORMAT_END
171
     1
301
MARGIN
  1
CELLMARGIN_BEGIN
 40
1.5
 40
1.5
 40
1.5
 40
1.5
 40
4.5
 40
4.5
309
CELLMARGIN_END
 94
        6
 95
        1
302
GRIDFORMAT
  1
GRIDFORMAT_BEGIN
 90
        0
 91
        1
 62
     0
 92
       -2
340
0
 93
        0
 40
1.125
309
GRIDFORMAT_END
 95
        2
302
GRIDFORMAT
  1
GRIDFORMAT_BEGIN
 90
        0
 91
        1
 62
     0
 92
       -2
340
0
 93
        0
 40
1.125
309
GRIDFORMAT_END
 95
        4
302
GRIDFORMAT
  1
GRIDFORMAT_BEGIN
 90
        0
 91
        1
 62
     0
 92
       -2
340
0
 93
        0
 40
1.125
309
GRIDFORMAT_END
 95
        8
302
GRIDFORMAT
  1
GRIDFORMAT_BEGIN
 90
        0
 91
        1
 62
     0
 92
       -2
340
0
 93
        0
 40
1.125
309
GRIDFORMAT_END
 95
       16
302
GRIDFORMAT
  1
GRIDFORMAT_BEGIN
 90
        0
 91
        1
 62
     0
 92
       -2
340
0
 93
        0
 40
1.125
309
GRIDFORMAT_END
 95
       32
302
GRIDFORMAT
  1
GRIDFORMAT_BEGIN
 90
        0
 91
        1
 62
     0
 92
       -2
340
0
 93
        0
 40
1.125
309
GRIDFORMAT_END
309
TABLEFORMAT_END
  1
CELLSTYLE_BEGIN
 90
        1
 91
        1
300
_TITLE
309
CELLSTYLE_END
300
CELLSTYLE
  1
TABLEFORMAT_BEGIN
 90
        5
170
     1
 91
        0
 92
        0
 62
   257
 93
        1
300
CONTENTFORMAT
  1
CONTENTFORMAT_BEGIN
 90
        0
 91
        0
 92
      512
 93
        0
300

 40
0.0
140
1.0
 94
        5
 62
     0
340
11
144
4.5
309
CONTENTFORMAT_END
171
     1
301
MARGIN
  1
CELLMARGIN_BEGIN
 40
1.5
 40
1.5
 40
1.5
 40
1.5
 40
4.5
 40
4.5
309
CELLMARGIN_END
 94
        6
 95
        1
302
GRIDFORMAT
  1
GRIDFORMAT_BEGIN
 90
        0
 91
        1
 62
     0
 92
       -2
340
0
 93
        0
 40
1.125
309
GRIDFORMAT_END
 95
        2
302
GRIDFORMAT
  1
GRIDFORMAT_BEGIN
 90
        0
 91
        1
 62
     0
 92
       -2
340
0
 93
        0
 40
1.125
309
GRIDFORMAT_END
 95
        4
302
GRIDFORMAT
  1
GRIDFORMAT_BEGIN
 90
        0
 91
        1
 62
     0
 92
       -2
340
0
 93
        0
 40
1.125
309
GRIDFORMAT_END
 95
        8
302
GRIDFORMAT
  1
GRIDFORMAT_BEGIN
 90
        0
 91
        1
 62
     0
 92
       -2
340
0
 93
        0
 40
1.125
309
GRIDFORMAT_END
 95
       16
302
GRIDFORMAT
  1
GRIDFORMAT_BEGIN
 90
        0
 91
        1
 62
     0
 92
       -2
340
0
 93
        0
 40
1.125
309
GRIDFORMAT_END
 95
       32
302
GRIDFORMAT
  1
GRIDFORMAT_BEGIN
 90
        0
 91
        1
 62
     0
 92
       -2
340
0
 93
        0
 40
1.125
309
GRIDFORMAT_END
309
TABLEFORMAT_END
  1
CELLSTYLE_BEGIN
 90
        2
 91
        1
300
_HEADER
309
CELLSTYLE_END
300
CELLSTYLE
  1
TABLEFORMAT_BEGIN
 90
        5
170
     1
 91
        0
 92
        0
 62
   257
 93
        1
300
CONTENTFORMAT
  1
CONTENTFORMAT_BEGIN
 90
        0
 91
        0
 92
      512
 93
        0
300

 40
0.0
140
1.0
 94
        2
 62
     0
340
11
144
4.5
309
CONTENTFORMAT_END
171
     1
301
MARGIN
  1
CELLMARGIN_BEGIN
 40
1.5
 40
1.5
 40
1.5
 40
1.5
 40
4.5
 40
4.5
309
CELLMARGIN_END
 94
        6
 95
        1
302
GRIDFORMAT
  1
GRIDFORMAT_BEGIN
 90
        0
 91
        1
 62
     0
 92
       -2
340
0
 93
        0
 40
1.125
309
GRIDFORMAT_END
 95
        2
302
GRIDFORMAT
  1
GRIDFORMAT_BEGIN
 90
        0
 91
        1
 62
     0
 92
       -2
340
0
 93
        0
 40
1.125
309
GRIDFORMAT_END
 95
        4
302
GRIDFORMAT
  1
GRIDFORMAT_BEGIN
 90
        0
 91
        1
 62
     0
 92
       -2
340
0
 93
        0
 40
1.125
309
GRIDFORMAT_END
 95
        8
302
GRIDFORMAT
  1
GRIDFORMAT_BEGIN
 90
        0
 91
        1
 62
     0
 92
       -2
340
0
 93
        0
 40
1.125
309
GRIDFORMAT_END
 95
       16
302
GRIDFORMAT
  1
GRIDFORMAT_BEGIN
 90
        0
 91
        1
 62
     0
 92
       -2
340
0
 93
        0
 40
1.125
309
GRIDFORMAT_END
 95
       32
302
GRIDFORMAT
  1
GRIDFORMAT_BEGIN
 90
        0
 91
        1
 62
     0
 92
       -2
340
0
 93
        0
 40
1.125
309
GRIDFORMAT_END
309
TABLEFORMAT_END
  1
CELLSTYLE_BEGIN
 90
        3
 91
        2
300
_DATA
309
CELLSTYLE_END
  0
XRECORD
  5
59E
102
{ACAD_REACTORS
330
561
102
}
330
561
100
AcDbXrecord
280
     1
102
ACAD_ROUNDTRIP_PRE2007_TABLESTYLE
 90
      512
 91
        0
  1

 92
      512
 93
        0
  2

 94
      512
 95
        0
  3

  0
XRECORD
  5
579
102
{ACAD_REACTORS
330
578
102
}
330
578
100
AcDbXrecord
280
     1
102
RTVSPropertyOp0
 70
     1
102
RTVSPropertyOp1
 70
     1
102
RTVSPropertyOp2
 70
     1
102
RTVSPropertyOp3
 70
     1
102
RTVSPropertyOp4
 70
     1
102
RTVSPropertyOp5
 70
     1
102
RTVSPropertyOp6
 70
     1
102
RTVSPropertyOp7
 70
     1
102
RTVSPropertyOp8
 70
     1
102
RTVSPropertyOp9
 70
     1
102
RTVSPropertyOp10
 70
     1
102
RTVSPropertyOp11
 70
     1
102
RTVSPropertyOp12
 70
     1
102
RTVSPropertyOp13
 70
     1
102
RTVSPropertyOp14
 70
     1
102
RTVSPropertyOp15
 70
     1
102
RTVSPropertyOp16
 70
     1
102
RTVSPropertyOp17
 70
     1
102
RTVSPropertyOp18
 70
     1
102
RTVSPropertyOp19
 70
     1
102
RTVSPropertyOp20
 70
     1
102
RTVSPropertyOp21
 70
     1
102
RTVSPropertyOp22
 70
     1
102
RTVSPropertyOp23
 70
     1
102
RTVSPropertyOp24
 70
     1
102
RTVSPropertyOp25
 70
     1
102
RTVSPropertyOp26
 70
     1
102
RTVSPropertyOp27
 70
     1
102
RTVSPropertyOp28
 70
     1
102
RTVSPropertyOp29
 70
     1
102
RTVSPropertyOp30
 70
     1
102
RTVSPropertyOp31
 70
     1
102
RTVSPropertyOp32
 70
     1
  0
XRECORD
  5
577
102
{ACAD_REACTORS
330
576
102
}
330
576
100
AcDbXrecord
280
     1
102
RTVSPropertyOp0
 70
     1
102
RTVSPropertyOp1
 70
     1
102
RTVSPropertyOp2
 70
     1
102
RTVSPropertyOp3
 70
     1
102
RTVSPropertyOp4
 70
     1
102
RTVSPropertyOp5
 70
     1
102
RTVSPropertyOp6
 70
     1
102
RTVSPropertyOp7
 70
     1
102
RTVSPropertyOp8
 70
     1
102
RTVSPropertyOp9
 70
     1
102
RTVSPropertyOp10
 70
     1
102
RTVSPropertyOp11
 70
     1
102
RTVSPropertyOp12
 70
     1
102
RTVSPropertyOp13
 70
     1
102
RTVSPropertyOp14
 70
     1
102
RTVSPropertyOp15
 70
     1
102
RTVSPropertyOp16
 70
     1
102
RTVSPropertyOp17
 70
     1
102
RTVSPropertyOp18
 70
     1
102
RTVSPropertyOp19
 70
     1
102
RTVSPropertyOp20
 70
     1
102
RTVSPropertyOp21
 70
     1
102
RTVSPropertyOp22
 70
     1
102
RTVSPropertyOp23
 70
     1
102
RTVSPropertyOp24
 70
     1
102
RTVSPropertyOp25
 70
     1
102
RTVSPropertyOp26
 70
     1
102
RTVSPropertyOp27
 70
     1
102
RTVSPropertyOp28
 70
     1
102
RTVSPropertyOp29
 70
     1
102
RTVSPropertyOp30
 70
     1
102
RTVSPropertyOp31
 70
     1
102
RTVSPropertyOp32
 70
     1
  0
XRECORD
  5
585
102
{ACAD_REACTORS
330
584
102
}
330
584
100
AcDbXrecord
280
     1
102
RTVSPropertyOp0
 70
     1
102
RTVSPropertyOp1
 70
     1
102
RTVSPropertyOp2
 70
     1
102
RTVSPropertyOp3
 70
     1
102
RTVSPropertyOp4
 70
     1
102
RTVSPropertyOp5
 70
     1
102
RTVSPropertyOp6
 70
     1
102
RTVSPropertyOp7
 70
     1
102
RTVSPropertyOp8
 70
     1
102
RTVSPropertyOp9
 70
     1
102
RTVSPropertyOp10
 70
     1
102
RTVSPropertyOp11
 70
     1
102
RTVSPropertyOp12
 70
     1
102
RTVSPropertyOp13
 70
     1
102
RTVSPropertyOp14
 70
     1
102
RTVSPropertyOp15
 70
     1
102
RTVSPropertyOp16
 70
     1
102
RTVSPropertyOp17
 70
     1
102
RTVSPropertyOp18
 70
     1
102
RTVSPropertyOp19
 70
     1
102
RTVSPropertyOp20
 70
     1
102
RTVSPropertyOp21
 70
     1
102
RTVSPropertyOp22
 70
     1
102
RTVSPropertyOp23
 70
     1
102
RTVSPropertyOp24
 70
     1
102
RTVSPropertyOp25
 70
     1
102
RTVSPropertyOp26
 70
     1
102
RTVSPropertyOp27
 70
     1
102
RTVSPropertyOp28
 70
     1
102
RTVSPropertyOp29
 70
     1
102
RTVSPropertyOp30
 70
     1
102
RTVSPropertyOp31
 70
     1
102
RTVSPropertyOp32
 70
     1
  0
XRECORD
  5
58D
102
{ACAD_REACTORS
330
58C
102
}
330
58C
100
AcDbXrecord
280
     1
102
RTVSPropertyOp0
 70
     1
102
RTVSPropertyOp1
 70
     1
102
RTVSPropertyOp2
 70
     1
102
RTVSPropertyOp3
 70
     1
102
RTVSPropertyOp4
 70
     1
102
RTVSPropertyOp5
 70
     1
102
RTVSPropertyOp6
 70
     1
102
RTVSPropertyOp7
 70
     1
102
RTVSPropertyOp8
 70
     1
102
RTVSPropertyOp9
 70
     1
102
RTVSPropertyOp10
 70
     1
102
RTVSPropertyOp11
 70
     1
102
RTVSPropertyOp12
 70
     1
102
RTVSPropertyOp13
 70
     1
102
RTVSPropertyOp14
 70
     1
102
RTVSPropertyOp15
 70
     1
102
RTVSPropertyOp16
 70
     1
102
RTVSPropertyOp17
 70
     1
102
RTVSPropertyOp18
 70
     1
102
RTVSPropertyOp19
 70
     1
102
RTVSPropertyOp20
 70
     1
102
RTVSPropertyOp21
 70
     1
102
RTVSPropertyOp22
 70
     1
102
RTVSPropertyOp23
 70
     1
102
RTVSPropertyOp24
 70
     1
102
RTVSPropertyOp25
 70
     1
102
RTVSPropertyOp26
 70
     1
102
RTVSPropertyOp27
 70
     1
102
RTVSPropertyOp28
 70
     1
102
RTVSPropertyOp29
 70
     1
102
RTVSPropertyOp30
 70
     1
102
RTVSPropertyOp31
 70
     1
102
RTVSPropertyOp32
 70
     1
  0
XRECORD
  5
57F
102
{ACAD_REACTORS
330
57E
102
}
330
57E
100
AcDbXrecord
280
     1
102
RTVSPropertyOp0
 70
     1
102
RTVSPropertyOp1
 70
     1
102
RTVSPropertyOp2
 70
     1
102
RTVSPropertyOp3
 70
     1
102
RTVSPropertyOp4
 70
     1
102
RTVSPropertyOp5
 70
     1
102
RTVSPropertyOp6
 70
     1
102
RTVSPropertyOp7
 70
     1
102
RTVSPropertyOp8
 70
     1
102
RTVSPropertyOp9
 70
     1
102
RTVSPropertyOp10
 70
     1
102
RTVSPropertyOp11
 70
     1
102
RTVSPropertyOp12
 70
     1
102
RTVSPropertyOp13
 70
     1
102
RTVSPropertyOp14
 70
     1
102
RTVSPropertyOp15
 70
     1
102
RTVSPropertyOp16
 70
     1
102
RTVSPropertyOp17
 70
     1
102
RTVSPropertyOp18
 70
     1
102
RTVSPropertyOp19
 70
     1
102
RTVSPropertyOp20
 70
     1
102
RTVSPropertyOp21
 70
     1
102
RTVSPropertyOp22
 70
     1
102
RTVSPropertyOp23
 70
     1
102
RTVSPropertyOp24
 70
     1
102
RTVSPropertyOp25
 70
     1
102
RTVSPropertyOp26
 70
     1
102
RTVSPropertyOp27
 70
     1
102
RTVSPropertyOp28
 70
     1
102
RTVSPropertyOp29
 70
     1
102
RTVSPropertyOp30
 70
     1
102
RTVSPropertyOp31
 70
     1
102
RTVSPropertyOp32
 70
     1
  0
XRECORD
  5
583
102
{ACAD_REACTORS
330
582
102
}
330
582
100
AcDbXrecord
280
     1
102
RTVSPropertyOp0
 70
     1
102
RTVSPropertyOp1
 70
     1
102
RTVSPropertyOp2
 70
     1
102
RTVSPropertyOp3
 70
     1
102
RTVSPropertyOp4
 70
     1
102
RTVSPropertyOp5
 70
     1
102
RTVSPropertyOp6
 70
     1
102
RTVSPropertyOp7
 70
     1
102
RTVSPropertyOp8
 70
     1
102
RTVSPropertyOp9
 70
     1
102
RTVSPropertyOp10
 70
     1
102
RTVSPropertyOp11
 70
     1
102
RTVSPropertyOp12
 70
     1
102
RTVSPropertyOp13
 70
     1
102
RTVSPropertyOp14
 70
     1
102
RTVSPropertyOp15
 70
     1
102
RTVSPropertyOp16
 70
     1
102
RTVSPropertyOp17
 70
     1
102
RTVSPropertyOp18
 70
     1
102
RTVSPropertyOp19
 70
     1
102
RTVSPropertyOp20
 70
     1
102
RTVSPropertyOp21
 70
     1
102
RTVSPropertyOp22
 70
     1
102
RTVSPropertyOp23
 70
     1
102
RTVSPropertyOp24
 70
     1
102
RTVSPropertyOp25
 70
     1
102
RTVSPropertyOp26
 70
     1
102
RTVSPropertyOp27
 70
     1
102
RTVSPropertyOp28
 70
     1
102
RTVSPropertyOp29
 70
     1
102
RTVSPropertyOp30
 70
     1
102
RTVSPropertyOp31
 70
     1
102
RTVSPropertyOp32
 70
     1
  0
XRECORD
  5
59D
102
{ACAD_REACTORS
330
59C
102
}
330
59C
100
AcDbXrecord
280
     1
102
RTVSPropertyOp0
 70
     0
102
RTVSPropertyOp1
 70
     0
102
RTVSPropertyOp2
 70
     0
102
RTVSPropertyOp3
 70
     0
102
RTVSPropertyOp4
 70
     0
102
RTVSPropertyOp5
 70
     0
102
RTVSPropertyOp6
 70
     0
102
RTVSPropertyOp7
 70
     0
102
RTVSPropertyOp8
 70
     0
102
RTVSPropertyOp9
 70
     0
102
RTVSPropertyOp10
 70
     0
102
RTVSPropertyOp11
 70
     0
102
RTVSPropertyOp12
 70
     0
102
RTVSPropertyOp13
 70
     0
102
RTVSPropertyOp14
 70
     2
102
RTVSPropertyOp15
 70
     0
102
RTVSPropertyOp16
 70
     0
102
RTVSPropertyOp17
 70
     0
102
RTVSPropertyOp18
 70
     0
102
RTVSPropertyOp19
 70
     0
102
RTVSPropertyOp20
 70
     0
102
RTVSPropertyOp21
 70
     0
102
RTVSPropertyOp22
 70
     0
102
RTVSPropertyOp23
 70
     0
102
RTVSPropertyOp24
 70
     0
102
RTVSPropertyOp25
 70
     0
102
RTVSPropertyOp26
 70
     0
102
RTVSPropertyOp27
 70
     0
102
RTVSPropertyOp28
 70
     0
102
RTVSPropertyOp29
 70
     0
102
RTVSPropertyOp30
 70
     0
102
RTVSPropertyOp31
 70
     0
102
RTVSPropertyOp32
 70
     0
  0
XRECORD
  5
58B
102
{ACAD_REACTORS
330
58A
102
}
330
58A
100
AcDbXrecord
280
     1
102
RTVSPropertyOp0
 70
     1
102
RTVSPropertyOp1
 70
     1
102
RTVSPropertyOp2
 70
     1
102
RTVSPropertyOp3
 70
     1
102
RTVSPropertyOp4
 70
     1
102
RTVSPropertyOp5
 70
     1
102
RTVSPropertyOp6
 70
     1
102
RTVSPropertyOp7
 70
     1
102
RTVSPropertyOp8
 70
     1
102
RTVSPropertyOp9
 70
     1
102
RTVSPropertyOp10
 70
     1
102
RTVSPropertyOp11
 70
     1
102
RTVSPropertyOp12
 70
     1
102
RTVSPropertyOp13
 70
     1
102
RTVSPropertyOp14
 70
     1
102
RTVSPropertyOp15
 70
     1
102
RTVSPropertyOp16
 70
     1
102
RTVSPropertyOp17
 70
     1
102
RTVSPropertyOp18
 70
     1
102
RTVSPropertyOp19
 70
     1
102
RTVSPropertyOp20
 70
     1
102
RTVSPropertyOp21
 70
     1
102
RTVSPropertyOp22
 70
     1
102
RTVSPropertyOp23
 70
     1
102
RTVSPropertyOp24
 70
     1
102
RTVSPropertyOp25
 70
     1
102
RTVSPropertyOp26
 70
     1
102
RTVSPropertyOp27
 70
     1
102
RTVSPropertyOp28
 70
     1
102
RTVSPropertyOp29
 70
     1
102
RTVSPropertyOp30
 70
     1
102
RTVSPropertyOp31
 70
     1
102
RTVSPropertyOp32
 70
     1
  0
XRECORD
  5
56F
102
{ACAD_REACTORS
330
56E
102
}
330
56E
100
AcDbXrecord
280
     1
102
RTVSPropertyOp0
 70
     1
102
RTVSPropertyOp1
 70
     1
102
RTVSPropertyOp2
 70
     1
102
RTVSPropertyOp3
 70
     1
102
RTVSPropertyOp4
 70
     1
102
RTVSPropertyOp5
 70
     1
102
RTVSPropertyOp6
 70
     1
102
RTVSPropertyOp7
 70
     1
102
RTVSPropertyOp8
 70
     1
102
RTVSPropertyOp9
 70
     1
102
RTVSPropertyOp10
 70
     1
102
RTVSPropertyOp11
 70
     1
102
RTVSPropertyOp12
 70
     1
102
RTVSPropertyOp13
 70
     1
102
RTVSPropertyOp14
 70
     1
102
RTVSPropertyOp15
 70
     1
102
RTVSPropertyOp16
 70
     1
102
RTVSPropertyOp17
 70
     1
102
RTVSPropertyOp18
 70
     1
102
RTVSPropertyOp19
 70
     1
102
RTVSPropertyOp20
 70
     1
102
RTVSPropertyOp21
 70
     1
102
RTVSPropertyOp22
 70
     1
102
RTVSPropertyOp23
 70
     1
102
RTVSPropertyOp24
 70
     1
102
RTVSPropertyOp25
 70
     1
102
RTVSPropertyOp26
 70
     1
102
RTVSPropertyOp27
 70
     1
102
RTVSPropertyOp28
 70
     1
102
RTVSPropertyOp29
 70
     1
102
RTVSPropertyOp30
 70
     1
102
RTVSPropertyOp31
 70
     1
102
RTVSPropertyOp32
 70
     1
  0
XRECORD
  5
571
102
{ACAD_REACTORS
330
570
102
}
330
570
100
AcDbXrecord
280
     1
102
RTVSPropertyOp0
 70
     1
102
RTVSPropertyOp1
 70
     1
102
RTVSPropertyOp2
 70
     1
102
RTVSPropertyOp3
 70
     1
102
RTVSPropertyOp4
 70
     1
102
RTVSPropertyOp5
 70
     1
102
RTVSPropertyOp6
 70
     1
102
RTVSPropertyOp7
 70
     1
102
RTVSPropertyOp8
 70
     1
102
RTVSPropertyOp9
 70
     1
102
RTVSPropertyOp10
 70
     1
102
RTVSPropertyOp11
 70
     1
102
RTVSPropertyOp12
 70
     1
102
RTVSPropertyOp13
 70
     1
102
RTVSPropertyOp14
 70
     1
102
RTVSPropertyOp15
 70
     1
102
RTVSPropertyOp16
 70
     1
102
RTVSPropertyOp17
 70
     1
102
RTVSPropertyOp18
 70
     1
102
RTVSPropertyOp19
 70
     1
102
RTVSPropertyOp20
 70
     1
102
RTVSPropertyOp21
 70
     1
102
RTVSPropertyOp22
 70
     1
102
RTVSPropertyOp23
 70
     1
102
RTVSPropertyOp24
 70
     1
102
RTVSPropertyOp25
 70
     1
102
RTVSPropertyOp26
 70
     1
102
RTVSPropertyOp27
 70
     1
102
RTVSPropertyOp28
 70
     1
102
RTVSPropertyOp29
 70
     1
102
RTVSPropertyOp30
 70
     1
102
RTVSPropertyOp31
 70
     1
102
RTVSPropertyOp32
 70
     1
  0
XRECORD
  5
573
102
{ACAD_REACTORS
330
572
102
}
330
572
100
AcDbXrecord
280
     1
102
RTVSPropertyOp0
 70
     1
102
RTVSPropertyOp1
 70
     1
102
RTVSPropertyOp2
 70
     1
102
RTVSPropertyOp3
 70
     1
102
RTVSPropertyOp4
 70
     1
102
RTVSPropertyOp5
 70
     1
102
RTVSPropertyOp6
 70
     1
102
RTVSPropertyOp7
 70
     1
102
RTVSPropertyOp8
 70
     1
102
RTVSPropertyOp9
 70
     1
102
RTVSPropertyOp10
 70
     1
102
RTVSPropertyOp11
 70
     1
102
RTVSPropertyOp12
 70
     1
102
RTVSPropertyOp13
 70
     1
102
RTVSPropertyOp14
 70
     1
102
RTVSPropertyOp15
 70
     1
102
RTVSPropertyOp16
 70
     1
102
RTVSPropertyOp17
 70
     1
102
RTVSPropertyOp18
 70
     1
102
RTVSPropertyOp19
 70
     1
102
RTVSPropertyOp20
 70
     1
102
RTVSPropertyOp21
 70
     1
102
RTVSPropertyOp22
 70
     1
102
RTVSPropertyOp23
 70
     1
102
RTVSPropertyOp24
 70
     1
102
RTVSPropertyOp25
 70
     1
102
RTVSPropertyOp26
 70
     1
102
RTVSPropertyOp27
 70
     1
102
RTVSPropertyOp28
 70
     1
102
RTVSPropertyOp29
 70
     1
102
RTVSPropertyOp30
 70
     1
102
RTVSPropertyOp31
 70
     1
102
RTVSPropertyOp32
 70
     1
  0
XRECORD
  5
575
102
{ACAD_REACTORS
330
574
102
}
330
574
100
AcDbXrecord
280
     1
102
RTVSPropertyOp0
 70
     1
102
RTVSPropertyOp1
 70
     1
102
RTVSPropertyOp2
 70
     1
102
RTVSPropertyOp3
 70
     1
102
RTVSPropertyOp4
 70
     1
102
RTVSPropertyOp5
 70
     1
102
RTVSPropertyOp6
 70
     1
102
RTVSPropertyOp7
 70
     1
102
RTVSPropertyOp8
 70
     1
102
RTVSPropertyOp9
 70
     1
102
RTVSPropertyOp10
 70
     1
102
RTVSPropertyOp11
 70
     1
102
RTVSPropertyOp12
 70
     1
102
RTVSPropertyOp13
 70
     1
102
RTVSPropertyOp14
 70
     1
102
RTVSPropertyOp15
 70
     1
102
RTVSPropertyOp16
 70
     1
102
RTVSPropertyOp17
 70
     1
102
RTVSPropertyOp18
 70
     1
102
RTVSPropertyOp19
 70
     1
102
RTVSPropertyOp20
 70
     1
102
RTVSPropertyOp21
 70
     1
102
RTVSPropertyOp22
 70
     1
102
RTVSPropertyOp23
 70
     1
102
RTVSPropertyOp24
 70
     1
102
RTVSPropertyOp25
 70
     1
102
RTVSPropertyOp26
 70
     1
102
RTVSPropertyOp27
 70
     1
102
RTVSPropertyOp28
 70
     1
102
RTVSPropertyOp29
 70
     1
102
RTVSPropertyOp30
 70
     1
102
RTVSPropertyOp31
 70
     1
102
RTVSPropertyOp32
 70
     1
  0
XRECORD
  5
57D
102
{ACAD_REACTORS
330
57C
102
}
330
57C
100
AcDbXrecord
280
     1
102
RTVSPropertyOp0
 70
     1
102
RTVSPropertyOp1
 70
     1
102
RTVSPropertyOp2
 70
     1
102
RTVSPropertyOp3
 70
     1
102
RTVSPropertyOp4
 70
     1
102
RTVSPropertyOp5
 70
     1
102
RTVSPropertyOp6
 70
     1
102
RTVSPropertyOp7
 70
     1
102
RTVSPropertyOp8
 70
     1
102
RTVSPropertyOp9
 70
     1
102
RTVSPropertyOp10
 70
     1
102
RTVSPropertyOp11
 70
     1
102
RTVSPropertyOp12
 70
     1
102
RTVSPropertyOp13
 70
     1
102
RTVSPropertyOp14
 70
     1
102
RTVSPropertyOp15
 70
     1
102
RTVSPropertyOp16
 70
     1
102
RTVSPropertyOp17
 70
     1
102
RTVSPropertyOp18
 70
     1
102
RTVSPropertyOp19
 70
     1
102
RTVSPropertyOp20
 70
     1
102
RTVSPropertyOp21
 70
     1
102
RTVSPropertyOp22
 70
     1
102
RTVSPropertyOp23
 70
     1
102
RTVSPropertyOp24
 70
     1
102
RTVSPropertyOp25
 70
     1
102
RTVSPropertyOp26
 70
     1
102
RTVSPropertyOp27
 70
     1
102
RTVSPropertyOp28
 70
     1
102
RTVSPropertyOp29
 70
     1
102
RTVSPropertyOp30
 70
     1
102
RTVSPropertyOp31
 70
     1
102
RTVSPropertyOp32
 70
     1
  0
XRECORD
  5
599
102
{ACAD_REACTORS
330
598
102
}
330
598
100
AcDbXrecord
280
     1
102
RTVSPropertyOp0
 70
     0
102
RTVSPropertyOp1
 70
     0
102
RTVSPropertyOp2
 70
     0
102
RTVSPropertyOp3
 70
     0
102
RTVSPropertyOp4
 70
     0
102
RTVSPropertyOp5
 70
     0
102
RTVSPropertyOp6
 70
     0
102
RTVSPropertyOp7
 70
     0
102
RTVSPropertyOp8
 70
     0
102
RTVSPropertyOp9
 70
     0
102
RTVSPropertyOp10
 70
     0
102
RTVSPropertyOp11
 70
     0
102
RTVSPropertyOp12
 70
     0
102
RTVSPropertyOp13
 70
     0
102
RTVSPropertyOp14
 70
     2
102
RTVSPropertyOp15
 70
     0
102
RTVSPropertyOp16
 70
     0
102
RTVSPropertyOp17
 70
     0
102
RTVSPropertyOp18
 70
     0
102
RTVSPropertyOp19
 70
     0
102
RTVSPropertyOp20
 70
     0
102
RTVSPropertyOp21
 70
     0
102
RTVSPropertyOp22
 70
     0
102
RTVSPropertyOp23
 70
     0
102
RTVSPropertyOp24
 70
     0
102
RTVSPropertyOp25
 70
     0
102
RTVSPropertyOp26
 70
     0
102
RTVSPropertyOp27
 70
     0
102
RTVSPropertyOp28
 70
     0
102
RTVSPropertyOp29
 70
     0
102
RTVSPropertyOp30
 70
     0
102
RTVSPropertyOp31
 70
     0
102
RTVSPropertyOp32
 70
     0
  0
XRECORD
  5
589
102
{ACAD_REACTORS
330
588
102
}
330
588
100
AcDbXrecord
280
     1
102
RTVSPropertyOp0
 70
     1
102
RTVSPropertyOp1
 70
     1
102
RTVSPropertyOp2
 70
     1
102
RTVSPropertyOp3
 70
     1
102
RTVSPropertyOp4
 70
     1
102
RTVSPropertyOp5
 70
     1
102
RTVSPropertyOp6
 70
     1
102
RTVSPropertyOp7
 70
     1
102
RTVSPropertyOp8
 70
     1
102
RTVSPropertyOp9
 70
     1
102
RTVSPropertyOp10
 70
     1
102
RTVSPropertyOp11
 70
     1
102
RTVSPropertyOp12
 70
     1
102
RTVSPropertyOp13
 70
     1
102
RTVSPropertyOp14
 70
     1
102
RTVSPropertyOp15
 70
     1
102
RTVSPropertyOp16
 70
     1
102
RTVSPropertyOp17
 70
     1
102
RTVSPropertyOp18
 70
     1
102
RTVSPropertyOp19
 70
     1
102
RTVSPropertyOp20
 70
     1
102
RTVSPropertyOp21
 70
     1
102
RTVSPropertyOp22
 70
     1
102
RTVSPropertyOp23
 70
     1
102
RTVSPropertyOp24
 70
     1
102
RTVSPropertyOp25
 70
     1
102
RTVSPropertyOp26
 70
     1
102
RTVSPropertyOp27
 70
     1
102
RTVSPropertyOp28
 70
     1
102
RTVSPropertyOp29
 70
     1
102
RTVSPropertyOp30
 70
     1
102
RTVSPropertyOp31
 70
     1
102
RTVSPropertyOp32
 70
     1
  0
XRECORD
  5
59B
102
{ACAD_REACTORS
330
59A
102
}
330
59A
100
AcDbXrecord
280
     1
102
RTVSPropertyOp0
 70
     0
102
RTVSPropertyOp1
 70
     0
102
RTVSPropertyOp2
 70
     0
102
RTVSPropertyOp3
 70
     0
102
RTVSPropertyOp4
 70
     0
102
RTVSPropertyOp5
 70
     0
102
RTVSPropertyOp6
 70
     0
102
RTVSPropertyOp7
 70
     0
102
RTVSPropertyOp8
 70
     0
102
RTVSPropertyOp9
 70
     0
102
RTVSPropertyOp10
 70
     0
102
RTVSPropertyOp11
 70
     0
102
RTVSPropertyOp12
 70
     0
102
RTVSPropertyOp13
 70
     0
102
RTVSPropertyOp14
 70
     2
102
RTVSPropertyOp15
 70
     0
102
RTVSPropertyOp16
 70
     0
102
RTVSPropertyOp17
 70
     0
102
RTVSPropertyOp18
 70
     0
102
RTVSPropertyOp19
 70
     0
102
RTVSPropertyOp20
 70
     0
102
RTVSPropertyOp21
 70
     0
102
RTVSPropertyOp22
 70
     0
102
RTVSPropertyOp23
 70
     0
102
RTVSPropertyOp24
 70
     0
102
RTVSPropertyOp25
 70
     0
102
RTVSPropertyOp26
 70
     0
102
RTVSPropertyOp27
 70
     0
102
RTVSPropertyOp28
 70
     0
102
RTVSPropertyOp29
 70
     0
102
RTVSPropertyOp30
 70
     0
102
RTVSPropertyOp31
 70
     0
102
RTVSPropertyOp32
 70
     0
  0
XRECORD
  5
581
102
{ACAD_REACTORS
330
580
102
}
330
580
100
AcDbXrecord
280
     1
102
RTVSPropertyOp0
 70
     1
102
RTVSPropertyOp1
 70
     1
102
RTVSPropertyOp2
 70
     1
102
RTVSPropertyOp3
 70
     1
102
RTVSPropertyOp4
 70
     1
102
RTVSPropertyOp5
 70
     1
102
RTVSPropertyOp6
 70
     1
102
RTVSPropertyOp7
 70
     1
102
RTVSPropertyOp8
 70
     1
102
RTVSPropertyOp9
 70
     1
102
RTVSPropertyOp10
 70
     1
102
RTVSPropertyOp11
 70
     1
102
RTVSPropertyOp12
 70
     1
102
RTVSPropertyOp13
 70
     1
102
RTVSPropertyOp14
 70
     1
102
RTVSPropertyOp15
 70
     1
102
RTVSPropertyOp16
 70
     1
102
RTVSPropertyOp17
 70
     1
102
RTVSPropertyOp18
 70
     1
102
RTVSPropertyOp19
 70
     1
102
RTVSPropertyOp20
 70
     1
102
RTVSPropertyOp21
 70
     1
102
RTVSPropertyOp22
 70
     1
102
RTVSPropertyOp23
 70
     1
102
RTVSPropertyOp24
 70
     1
102
RTVSPropertyOp25
 70
     1
102
RTVSPropertyOp26
 70
     1
102
RTVSPropertyOp27
 70
     1
102
RTVSPropertyOp28
 70
     1
102
RTVSPropertyOp29
 70
     1
102
RTVSPropertyOp30
 70
     1
102
RTVSPropertyOp31
 70
     1
102
RTVSPropertyOp32
 70
     1
  0
XRECORD
  5
597
102
{ACAD_REACTORS
330
596
102
}
330
596
100
AcDbXrecord
280
     1
102
RTVSPropertyOp0
 70
     1
102
RTVSPropertyOp1
 70
     1
102
RTVSPropertyOp2
 70
     1
102
RTVSPropertyOp3
 70
     1
102
RTVSPropertyOp4
 70
     1
102
RTVSPropertyOp5
 70
     1
102
RTVSPropertyOp6
 70
     1
102
RTVSPropertyOp7
 70
     1
102
RTVSPropertyOp8
 70
     1
102
RTVSPropertyOp9
 70
     1
102
RTVSPropertyOp10
 70
     1
102
RTVSPropertyOp11
 70
     1
102
RTVSPropertyOp12
 70
     1
102
RTVSPropertyOp13
 70
     1
102
RTVSPropertyOp14
 70
     1
102
RTVSPropertyOp15
 70
     1
102
RTVSPropertyOp16
 70
     1
102
RTVSPropertyOp17
 70
     1
102
RTVSPropertyOp18
 70
     1
102
RTVSPropertyOp19
 70
     1
102
RTVSPropertyOp20
 70
     1
102
RTVSPropertyOp21
 70
     1
102
RTVSPropertyOp22
 70
     1
102
RTVSPropertyOp23
 70
     1
102
RTVSPropertyOp24
 70
     1
102
RTVSPropertyOp25
 70
     1
102
RTVSPropertyOp26
 70
     1
102
RTVSPropertyOp27
 70
     1
102
RTVSPropertyOp28
 70
     1
102
RTVSPropertyOp29
 70
     1
102
RTVSPropertyOp30
 70
     1
102
RTVSPropertyOp31
 70
     1
102
RTVSPropertyOp32
 70
     1
  0
XRECORD
  5
595
102
{ACAD_REACTORS
330
594
102
}
330
594
100
AcDbXrecord
280
     1
102
RTVSPropertyOp0
 70
     1
102
RTVSPropertyOp1
 70
     1
102
RTVSPropertyOp2
 70
     1
102
RTVSPropertyOp3
 70
     1
102
RTVSPropertyOp4
 70
     1
102
RTVSPropertyOp5
 70
     1
102
RTVSPropertyOp6
 70
     1
102
RTVSPropertyOp7
 70
     1
102
RTVSPropertyOp8
 70
     1
102
RTVSPropertyOp9
 70
     1
102
RTVSPropertyOp10
 70
     1
102
RTVSPropertyOp11
 70
     1
102
RTVSPropertyOp12
 70
     1
102
RTVSPropertyOp13
 70
     1
102
RTVSPropertyOp14
 70
     1
102
RTVSPropertyOp15
 70
     1
102
RTVSPropertyOp16
 70
     1
102
RTVSPropertyOp17
 70
     1
102
RTVSPropertyOp18
 70
     1
102
RTVSPropertyOp19
 70
     1
102
RTVSPropertyOp20
 70
     1
102
RTVSPropertyOp21
 70
     1
102
RTVSPropertyOp22
 70
     1
102
RTVSPropertyOp23
 70
     1
102
RTVSPropertyOp24
 70
     1
102
RTVSPropertyOp25
 70
     1
102
RTVSPropertyOp26
 70
     1
102
RTVSPropertyOp27
 70
     1
102
RTVSPropertyOp28
 70
     1
102
RTVSPropertyOp29
 70
     1
102
RTVSPropertyOp30
 70
     1
102
RTVSPropertyOp31
 70
     1
102
RTVSPropertyOp32
 70
     1
  0
XRECORD
  5
58F
102
{ACAD_REACTORS
330
58E
102
}
330
58E
100
AcDbXrecord
280
     1
102
RTVSPropertyOp0
 70
     1
102
RTVSPropertyOp1
 70
     1
102
RTVSPropertyOp2
 70
     1
102
RTVSPropertyOp3
 70
     1
102
RTVSPropertyOp4
 70
     1
102
RTVSPropertyOp5
 70
     1
102
RTVSPropertyOp6
 70
     1
102
RTVSPropertyOp7
 70
     1
102
RTVSPropertyOp8
 70
     1
102
RTVSPropertyOp9
 70
     1
102
RTVSPropertyOp10
 70
     1
102
RTVSPropertyOp11
 70
     1
102
RTVSPropertyOp12
 70
     1
102
RTVSPropertyOp13
 70
     1
102
RTVSPropertyOp14
 70
     1
102
RTVSPropertyOp15
 70
     1
102
RTVSPropertyOp16
 70
     1
102
RTVSPropertyOp17
 70
     1
102
RTVSPropertyOp18
 70
     1
102
RTVSPropertyOp19
 70
     1
102
RTVSPropertyOp20
 70
     1
102
RTVSPropertyOp21
 70
     1
102
RTVSPropertyOp22
 70
     1
102
RTVSPropertyOp23
 70
     1
102
RTVSPropertyOp24
 70
     1
102
RTVSPropertyOp25
 70
     1
102
RTVSPropertyOp26
 70
     1
102
RTVSPropertyOp27
 70
     1
102
RTVSPropertyOp28
 70
     1
102
RTVSPropertyOp29
 70
     1
102
RTVSPropertyOp30
 70
     1
102
RTVSPropertyOp31
 70
     1
102
RTVSPropertyOp32
 70
     1
  0
XRECORD
  5
591
102
{ACAD_REACTORS
330
590
102
}
330
590
100
AcDbXrecord
280
     1
102
RTVSPropertyOp0
 70
     1
102
RTVSPropertyOp1
 70
     1
102
RTVSPropertyOp2
 70
     1
102
RTVSPropertyOp3
 70
     1
102
RTVSPropertyOp4
 70
     1
102
RTVSPropertyOp5
 70
     1
102
RTVSPropertyOp6
 70
     1
102
RTVSPropertyOp7
 70
     1
102
RTVSPropertyOp8
 70
     1
102
RTVSPropertyOp9
 70
     1
102
RTVSPropertyOp10
 70
     1
102
RTVSPropertyOp11
 70
     1
102
RTVSPropertyOp12
 70
     1
102
RTVSPropertyOp13
 70
     1
102
RTVSPropertyOp14
 70
     1
102
RTVSPropertyOp15
 70
     1
102
RTVSPropertyOp16
 70
     1
102
RTVSPropertyOp17
 70
     1
102
RTVSPropertyOp18
 70
     1
102
RTVSPropertyOp19
 70
     1
102
RTVSPropertyOp20
 70
     1
102
RTVSPropertyOp21
 70
     1
102
RTVSPropertyOp22
 70
     1
102
RTVSPropertyOp23
 70
     1
102
RTVSPropertyOp24
 70
     1
102
RTVSPropertyOp25
 70
     1
102
RTVSPropertyOp26
 70
     1
102
RTVSPropertyOp27
 70
     1
102
RTVSPropertyOp28
 70
     1
102
RTVSPropertyOp29
 70
     1
102
RTVSPropertyOp30
 70
     1
102
RTVSPropertyOp31
 70
     1
102
RTVSPropertyOp32
 70
     1
  0
XRECORD
  5
587
102
{ACAD_REACTORS
330
586
102
}
330
586
100
AcDbXrecord
280
     1
102
RTVSPropertyOp0
 70
     1
102
RTVSPropertyOp1
 70
     1
102
RTVSPropertyOp2
 70
     1
102
RTVSPropertyOp3
 70
     1
102
RTVSPropertyOp4
 70
     1
102
RTVSPropertyOp5
 70
     1
102
RTVSPropertyOp6
 70
     1
102
RTVSPropertyOp7
 70
     1
102
RTVSPropertyOp8
 70
     1
102
RTVSPropertyOp9
 70
     1
102
RTVSPropertyOp10
 70
     1
102
RTVSPropertyOp11
 70
     1
102
RTVSPropertyOp12
 70
     1
102
RTVSPropertyOp13
 70
     1
102
RTVSPropertyOp14
 70
     1
102
RTVSPropertyOp15
 70
     1
102
RTVSPropertyOp16
 70
     1
102
RTVSPropertyOp17
 70
     1
102
RTVSPropertyOp18
 70
     1
102
RTVSPropertyOp19
 70
     1
102
RTVSPropertyOp20
 70
     1
102
RTVSPropertyOp21
 70
     1
102
RTVSPropertyOp22
 70
     1
102
RTVSPropertyOp23
 70
     1
102
RTVSPropertyOp24
 70
     1
102
RTVSPropertyOp25
 70
     1
102
RTVSPropertyOp26
 70
     1
102
RTVSPropertyOp27
 70
     1
102
RTVSPropertyOp28
 70
     1
102
RTVSPropertyOp29
 70
     1
102
RTVSPropertyOp30
 70
     1
102
RTVSPropertyOp31
 70
     1
102
RTVSPropertyOp32
 70
     1
  0
XRECORD
  5
57B
102
{ACAD_REACTORS
330
57A
102
}
330
57A
100
AcDbXrecord
280
     1
102
RTVSPropertyOp0
 70
     1
102
RTVSPropertyOp1
 70
     1
102
RTVSPropertyOp2
 70
     1
102
RTVSPropertyOp3
 70
     1
102
RTVSPropertyOp4
 70
     1
102
RTVSPropertyOp5
 70
     1
102
RTVSPropertyOp6
 70
     1
102
RTVSPropertyOp7
 70
     1
102
RTVSPropertyOp8
 70
     1
102
RTVSPropertyOp9
 70
     1
102
RTVSPropertyOp10
 70
     1
102
RTVSPropertyOp11
 70
     1
102
RTVSPropertyOp12
 70
     1
102
RTVSPropertyOp13
 70
     1
102
RTVSPropertyOp14
 70
     1
102
RTVSPropertyOp15
 70
     1
102
RTVSPropertyOp16
 70
     1
102
RTVSPropertyOp17
 70
     1
102
RTVSPropertyOp18
 70
     1
102
RTVSPropertyOp19
 70
     1
102
RTVSPropertyOp20
 70
     1
102
RTVSPropertyOp21
 70
     1
102
RTVSPropertyOp22
 70
     1
102
RTVSPropertyOp23
 70
     1
102
RTVSPropertyOp24
 70
     1
102
RTVSPropertyOp25
 70
     1
102
RTVSPropertyOp26
 70
     1
102
RTVSPropertyOp27
 70
     1
102
RTVSPropertyOp28
 70
     1
102
RTVSPropertyOp29
 70
     1
102
RTVSPropertyOp30
 70
     1
102
RTVSPropertyOp31
 70
     1
102
RTVSPropertyOp32
 70
     1
  0
XRECORD
  5
593
102
{ACAD_REACTORS
330
592
102
}
330
592
100
AcDbXrecord
280
     1
102
RTVSPropertyOp0
 70
     1
102
RTVSPropertyOp1
 70
     1
102
RTVSPropertyOp2
 70
     1
102
RTVSPropertyOp3
 70
     1
102
RTVSPropertyOp4
 70
     1
102
RTVSPropertyOp5
 70
     1
102
RTVSPropertyOp6
 70
     1
102
RTVSPropertyOp7
 70
     1
102
RTVSPropertyOp8
 70
     1
102
RTVSPropertyOp9
 70
     1
102
RTVSPropertyOp10
 70
     1
102
RTVSPropertyOp11
 70
     1
102
RTVSPropertyOp12
 70
     1
102
RTVSPropertyOp13
 70
     1
102
RTVSPropertyOp14
 70
     1
102
RTVSPropertyOp15
 70
     1
102
RTVSPropertyOp16
 70
     1
102
RTVSPropertyOp17
 70
     1
102
RTVSPropertyOp18
 70
     1
102
RTVSPropertyOp19
 70
     1
102
RTVSPropertyOp20
 70
     1
102
RTVSPropertyOp21
 70
     1
102
RTVSPropertyOp22
 70
     1
102
RTVSPropertyOp23
 70
     1
102
RTVSPropertyOp24
 70
     1
102
RTVSPropertyOp25
 70
     1
102
RTVSPropertyOp26
 70
     1
102
RTVSPropertyOp27
 70
     1
102
RTVSPropertyOp28
 70
     1
102
RTVSPropertyOp29
 70
     1
102
RTVSPropertyOp30
 70
     1
102
RTVSPropertyOp31
 70
     1
102
RTVSPropertyOp32
 70
     1
  0
ENDSEC
  0
EOF
