  0
SECTION
  2
HEADER
  9
$ACADVER
  1
AC1015
  9
$ACADMAINTVER
 70
    20
  9
$DWGCODEPAGE
  3
ANSI_932
  9
$INSBASE
 10
0.0
 20
0.0
 30
0.0
  9
$EXTMIN
 10
1423.78537900556
 20
1189.1
 30
0.0
  9
$EXTMAX
 10
1764.6
 20
1398.6
 30
0.0
  9
$LIMMIN
 10
0.0
 20
0.0
  9
$LIMMAX
 10
12.0
 20
9.0
  9
$ORTHOMODE
 70
     0
  9
$REGENMODE
 70
     1
  9
$FILLMODE
 70
     1
  9
$QTEXTMODE
 70
     0
  9
$MIRRTEXT
 70
     1
  9
$LTSCALE
 40
1.0
  9
$ATTMODE
 70
     1
  9
$TEXTSIZE
 40
0.2
  9
$TRACEWID
 40
0.05
  9
$TEXTSTYLE
  7
Standard
  9
$CLAYER
  8
0
  9
$CELTYPE
  6
ByLayer
  9
$CECOLOR
 62
   256
  9
$CELTSCALE
 40
1.0
  9
$DISPSILH
 70
     0
  9
$DIMSCALE
 40
1.0
  9
$DIMASZ
 40
0.18
  9
$DIMEXO
 40
0.0625
  9
$DIMDLI
 40
0.38
  9
$DIMRND
 40
0.0
  9
$DIMDLE
 40
0.0
  9
$DIMEXE
 40
0.18
  9
$DIMTP
 40
0.0
  9
$DIMTM
 40
0.0
  9
$DIMTXT
 40
0.18
  9
$DIMCEN
 40
0.09
  9
$DIMTSZ
 40
0.0
  9
$DIMTOL
 70
     0
  9
$DIMLIM
 70
     0
  9
$DIMTIH
 70
     1
  9
$DIMTOH
 70
     1
  9
$DIMSE1
 70
     0
  9
$DIMSE2
 70
     0
  9
$DIMTAD
 70
     0
  9
$DIMZIN
 70
     0
  9
$DIMBLK
  1

  9
$DIMASO
 70
     1
  9
$DIMSHO
 70
     1
  9
$DIMPOST
  1

  9
$DIMAPOST
  1

  9
$DIMALT
 70
     0
  9
$DIMALTD
 70
     2
  9
$DIMALTF
 40
25.4
  9
$DIMLFAC
 40
1.0
  9
$DIMTOFL
 70
     0
  9
$DIMTVP
 40
0.0
  9
$DIMTIX
 70
     0
  9
$DIMSOXD
 70
     0
  9
$DIMSAH
 70
     0
  9
$DIMBLK1
  1

  9
$DIMBLK2
  1

  9
$DIMSTYLE
  2
Standard
  9
$DIMCLRD
 70
     0
  9
$DIMCLRE
 70
     0
  9
$DIMCLRT
 70
     0
  9
$DIMTFAC
 40
1.0
  9
$DIMGAP
 40
0.09
  9
$DIMJUST
 70
     0
  9
$DIMSD1
 70
     0
  9
$DIMSD2
 70
     0
  9
$DIMTOLJ
 70
     1
  9
$DIMTZIN
 70
     0
  9
$DIMALTZ
 70
     0
  9
$DIMALTTZ
 70
     0
  9
$DIMUPT
 70
     0
  9
$DIMDEC
 70
     4
  9
$DIMTDEC
 70
     4
  9
$DIMALTU
 70
     2
  9
$DIMALTTD
 70
     2
  9
$DIMTXSTY
  7
Standard
  9
$DIMAUNIT
 70
     0
  9
$DIMADEC
 70
     0
  9
$DIMALTRND
 40
0.0
  9
$DIMAZIN
 70
     0
  9
$DIMDSEP
 70
    46
  9
$DIMATFIT
 70
     3
  9
$DIMFRAC
 70
     0
  9
$DIMLDRBLK
  1

  9
$DIMLUNIT
 70
     2
  9
$DIMLWD
 70
    -2
  9
$DIMLWE
 70
    -2
  9
$DIMTMOVE
 70
     0
  9
$LUNITS
 70
     2
  9
$LUPREC
 70
     4
  9
$SKETCHINC
 40
0.1
  9
$FILLETRAD
 40
0.5
  9
$AUNITS
 70
     0
  9
$AUPREC
 70
     0
  9
$MENU
  1
.
  9
$ELEVATION
 40
0.0
  9
$PELEVATION
 40
0.0
  9
$THICKNESS
 40
0.0
  9
$LIMCHECK
 70
     0
  9
$CHAMFERA
 40
0.5
  9
$CHAMFERB
 40
0.5
  9
$CHAMFERC
 40
1.0
  9
$CHAMFERD
 40
0.0
  9
$SKPOLY
 70
     0
  9
$TDCREATE
 40
2453518.654666158
  9
$TDUCREATE
 40
2453518.279666158
  9
$TDUPDATE
 40
2457592.576060174
  9
$TDUUPDATE
 40
2457592.201060174
  9
$TDINDWG
 40
0.0015272801
  9
$TDUSRTIMER
 40
0.0015272801
  9
$USRTIMER
 70
     1
  9
$ANGBASE
 50
0.0
  9
$ANGDIR
 70
     0
  9
$PDMODE
 70
     0
  9
$PDSIZE
 40
0.0
  9
$PLINEWID
 40
0.0
  9
$SPLFRAME
 70
     0
  9
$SPLINETYPE
 70
     6
  9
$SPLINESEGS
 70
     8
  9
$HANDSEED
  5
35A
  9
$SURFTAB1
 70
     6
  9
$SURFTAB2
 70
     6
  9
$SURFTYPE
 70
     6
  9
$SURFU
 70
     6
  9
$SURFV
 70
     6
  9
$UCSBASE
  2

  9
$UCSNAME
  2

  9
$UCSORG
 10
0.0
 20
0.0
 30
0.0
  9
$UCSXDIR
 10
1.0
 20
0.0
 30
0.0
  9
$UCSYDIR
 10
0.0
 20
1.0
 30
0.0
  9
$UCSORTHOREF
  2

  9
$UCSORTHOVIEW
 70
     0
  9
$UCSORGTOP
 10
0.0
 20
0.0
 30
0.0
  9
$UCSORGBOTTOM
 10
0.0
 20
0.0
 30
0.0
  9
$UCSORGLEFT
 10
0.0
 20
0.0
 30
0.0
  9
$UCSORGRIGHT
 10
0.0
 20
0.0
 30
0.0
  9
$UCSORGFRONT
 10
0.0
 20
0.0
 30
0.0
  9
$UCSORGBACK
 10
0.0
 20
0.0
 30
0.0
  9
$PUCSBASE
  2

  9
$PUCSNAME
  2

  9
$PUCSORG
 10
0.0
 20
0.0
 30
0.0
  9
$PUCSXDIR
 10
1.0
 20
0.0
 30
0.0
  9
$PUCSYDIR
 10
0.0
 20
1.0
 30
0.0
  9
$PUCSORTHOREF
  2

  9
$PUCSORTHOVIEW
 70
     0
  9
$PUCSORGTOP
 10
0.0
 20
0.0
 30
0.0
  9
$PUCSORGBOTTOM
 10
0.0
 20
0.0
 30
0.0
  9
$PUCSORGLEFT
 10
0.0
 20
0.0
 30
0.0
  9
$PUCSORGRIGHT
 10
0.0
 20
0.0
 30
0.0
  9
$PUCSORGFRONT
 10
0.0
 20
0.0
 30
0.0
  9
$PUCSORGBACK
 10
0.0
 20
0.0
 30
0.0
  9
$USERI1
 70
     0
  9
$USERI2
 70
     0
  9
$USERI3
 70
     0
  9
$USERI4
 70
     0
  9
$USERI5
 70
     0
  9
$USERR1
 40
13.0
  9
$USERR2
 40
0.0
  9
$USERR3
 40
0.0
  9
$USERR4
 40
0.0
  9
$USERR5
 40
0.0
  9
$WORLDVIEW
 70
     1
  9
$SHADEDGE
 70
     3
  9
$SHADEDIF
 70
    70
  9
$TILEMODE
 70
     1
  9
$MAXACTVP
 70
    64
  9
$PINSBASE
 10
0.0
 20
0.0
 30
0.0
  9
$PLIMCHECK
 70
     0
  9
$PEXTMIN
 10
1.000000000000000E+20
 20
1.000000000000000E+20
 30
1.000000000000000E+20
  9
$PEXTMAX
 10
-1.000000000000000E+20
 20
-1.000000000000000E+20
 30
-1.000000000000000E+20
  9
$PLIMMIN
 10
0.0
 20
0.0
  9
$PLIMMAX
 10
12.0
 20
9.0
  9
$UNITMODE
 70
     0
  9
$VISRETAIN
 70
     1
  9
$PLINEGEN
 70
     0
  9
$PSLTSCALE
 70
     1
  9
$TREEDEPTH
 70
  3020
  9
$CMLSTYLE
  2
Standard
  9
$CMLJUST
 70
     0
  9
$CMLSCALE
 40
1.0
  9
$PROXYGRAPHICS
 70
     1
  9
$MEASUREMENT
 70
     1
  9
$CELWEIGHT
370
    -1
  9
$ENDCAPS
280
     0
  9
$JOINSTYLE
280
     0
  9
$LWDISPLAY
290
     0
  9
$INSUNITS
 70
     1
  9
$HYPERLINKBASE
  1

  9
$STYLESHEET
  1

  9
$XEDIT
290
     1
  9
$CEPSNTYPE
380
     0
  9
$PSTYLEMODE
290
     0
  9
$FINGERPRINTGUID
  2
{FAEB1C30-E019-11D5-929B-00C0DF256EC4}
  9
$VERSIONGUID
  2
{F61CAAAD-3841-4996-A953-81DB4435BB29}
  9
$EXTNAMES
290
     1
  9
$PSVPSCALE
 40
0.0
  9
$OLESTARTUP
290
     0
  0
ENDSEC
  0
SECTION
  2
CLASSES
  0
CLASS
  1
ACDBDICTIONARYWDFLT
  2
AcDbDictionaryWithDefault
  3
ObjectDBX Classes
 90
        0
280
     0
281
     0
  0
CLASS
  1
TABLESTYLE
  2
AcDbTableStyle
  3
ObjectDBX Classes
 90
     4095
280
     0
281
     0
  0
CLASS
  1
DICTIONARYVAR
  2
AcDbDictionaryVar
  3
ObjectDBX Classes
 90
        0
280
     0
281
     0
  0
CLASS
  1

  2
exOdDbCircle
  3

 90
    32768
280
     0
281
     1
  0
CLASS
  1

  2
exOdDbPolyline
  3

 90
    32768
280
     0
281
     1
  0
CLASS
  1
ACDBPLACEHOLDER
  2
AcDbPlaceHolder
  3
ObjectDBX Classes
 90
        0
280
     0
281
     0
  0
CLASS
  1
LAYOUT
  2
AcDbLayout
  3
ObjectDBX Classes
 90
        0
280
     0
281
     0
  0
CLASS
  1
MATERIAL
  2
AcDbMaterial
  3
ObjectDBX Classes
 90
     1153
280
     0
281
     0
  0
CLASS
  1
VISUALSTYLE
  2
AcDbVisualStyle
  3
ObjectDBX Classes
 90
     4095
280
     0
281
     0
  0
CLASS
  1
SCALE
  2
AcDbScale
  3
ObjectDBX Classes
 90
     1153
280
     0
281
     0
  0
CLASS
  1
MLEADERSTYLE
  2
AcDbMLeaderStyle
  3
ACDB_MLEADERSTYLE_CLASS
 90
     4095
280
     0
281
     0
  0
CLASS
  1
SORTENTSTABLE
  2
AcDbSortentsTable
  3
ObjectDBX Classes
 90
        0
280
     0
281
     0
  0
CLASS
  1
CELLSTYLEMAP
  2
AcDbCellStyleMap
  3
ObjectDBX Classes
 90
     1152
280
     0
281
     0
  0
ENDSEC
  0
SECTION
  2
TABLES
  0
TABLE
  2
VPORT
  5
8
330
0
100
AcDbSymbolTable
 70
     1
  0
VPORT
  5
29
330
8
100
AcDbSymbolTableRecord
100
AcDbViewportTableRecord
  2
*Active
 70
     0
 10
0.0
 20
0.0
 11
1.0
 21
1.0
 12
1691.178707493365
 22
1267.864570828735
 13
0.0
 23
0.0
 14
0.5
 24
0.5
 15
0.5
 25
0.5
 16
0.0
 26
0.0
 36
1.0
 17
0.0
 27
0.0
 37
0.0
 40
723.9827666251962
 41
2.026347305389221
 42
50.0
 43
0.0
 44
0.0
 50
0.0
 51
0.0
 71
     0
 72
   100
 73
     1
 74
     3
 75
     0
 76
     0
 77
     0
 78
     0
281
     0
 65
     1
110
0.0
120
0.0
130
0.0
111
1.0
121
0.0
131
0.0
112
0.0
122
1.0
132
0.0
 79
     0
146
0.0
1001
ACAD_NAV_VCDISPLAY
1070
     3
  0
ENDTAB
  0
TABLE
  2
LTYPE
  5
5
330
0
100
AcDbSymbolTable
 70
     8
  0
LTYPE
  5
14
330
5
100
AcDbSymbolTableRecord
100
AcDbLinetypeTableRecord
  2
ByBlock
 70
     0
  3

 72
    65
 73
     0
 40
0.0
  0
LTYPE
  5
15
330
5
100
AcDbSymbolTableRecord
100
AcDbLinetypeTableRecord
  2
ByLayer
 70
     0
  3

 72
    65
 73
     0
 40
0.0
  0
LTYPE
  5
16
330
5
100
AcDbSymbolTableRecord
100
AcDbLinetypeTableRecord
  2
Continuous
 70
     0
  3
Solid line
 72
    65
 73
     0
 40
0.0
  0
LTYPE
  5
2E
330
5
100
AcDbSymbolTableRecord
100
AcDbLinetypeTableRecord
  2
DASHED
 70
     0
  3
Dashed
 72
    65
 73
     2
 40
15.0
 49
7.0
 74
     0
 49
-8.0
 74
     0
  0
LTYPE
  5
2F
330
5
100
AcDbSymbolTableRecord
100
AcDbLinetypeTableRecord
  2
DOTTED
 70
     0
  3
Dotted
 72
    65
 73
     2
 40
1.0
 49
0.0
 74
     0
 49
-1.0
 74
     0
  0
LTYPE
  5
30
330
5
100
AcDbSymbolTableRecord
100
AcDbLinetypeTableRecord
  2
DOT_CENTER
 70
     0
  3
Dot_Center
 72
    65
 73
     4
 40
14.0
 49
12.0
 74
     0
 49
-1.0
 74
     0
 49
0.0
 74
     0
 49
-1.0
 74
     0
  0
LTYPE
  5
31
330
5
100
AcDbSymbolTableRecord
100
AcDbLinetypeTableRecord
  2
LONG_DASHED
 70
     0
  3
Long_Dashed
 72
    65
 73
     2
 40
15.0
 49
10.0
 74
     0
 49
-5.0
 74
     0
  0
LTYPE
  5
32
330
5
100
AcDbSymbolTableRecord
100
AcDbLinetypeTableRecord
  2
DASH_CENTER
 70
     0
  3
Dash_Center
 72
    65
 73
     4
 40
14.0
 49
11.0
 74
     0
 49
-1.0
 74
     0
 49
1.0
 74
     0
 49
-1.0
 74
     0
  0
LTYPE
  5
33
330
5
100
AcDbSymbolTableRecord
100
AcDbLinetypeTableRecord
  2
PHANTOM
 70
     0
  3
Phantom
 72
    65
 73
     6
 40
13.0
 49
10.0
 74
     0
 49
-1.0
 74
     0
 49
0.0
 74
     0
 49
-1.0
 74
     0
 49
0.0
 74
     0
 49
-1.0
 74
     0
  0
LTYPE
  5
34
330
5
100
AcDbSymbolTableRecord
100
AcDbLinetypeTableRecord
  2
CENTER_DASH_DASH
 70
     0
  3
Center_Dash_Dash
 72
    65
 73
     6
 40
14.0
 49
9.0
 74
     0
 49
-1.0
 74
     0
 49
1.0
 74
     0
 49
-1.0
 74
     0
 49
1.0
 74
     0
 49
-1.0
 74
     0
  0
ENDTAB
  0
TABLE
  2
LAYER
  5
2
330
0
100
AcDbSymbolTable
 70
     2
  0
LAYER
  5
10
102
{ACAD_XDICTIONARY
360
30C
102
}
330
2
100
AcDbSymbolTableRecord
100
AcDbLayerTableRecord
  2
0
 70
     0
 62
     7
  6
Continuous
370
    -3
390
F
  0
LAYER
  5
35
102
{ACAD_XDICTIONARY
360
30E
102
}
330
2
100
AcDbSymbolTableRecord
100
AcDbLayerTableRecord
  2
1
 70
     0
 62
     7
  6
Continuous
370
    -3
390
F
  0
ENDTAB
  0
TABLE
  2
STYLE
  5
3
330
0
100
AcDbSymbolTable
 70
     1
  0
STYLE
  5
11
330
3
100
AcDbSymbolTableRecord
100
AcDbTextStyleTableRecord
  2
Standard
 70
     0
 40
0.0
 41
1.0
 50
0.0
 71
     0
 42
0.2
  3
txt
  4

  0
ENDTAB
  0
TABLE
  2
VIEW
  5
6
330
0
100
AcDbSymbolTable
 70
     0
  0
ENDTAB
  0
TABLE
  2
UCS
  5
7
330
0
100
AcDbSymbolTable
 70
     0
  0
ENDTAB
  0
TABLE
  2
APPID
  5
9
330
0
100
AcDbSymbolTable
 70
     4
  0
APPID
  5
12
330
9
100
AcDbSymbolTableRecord
100
AcDbRegAppTableRecord
  2
ACAD
 70
     0
  0
APPID
  5
312
330
9
100
AcDbSymbolTableRecord
100
AcDbRegAppTableRecord
  2
DCO15
 70
     0
  0
APPID
  5
31A
330
9
100
AcDbSymbolTableRecord
100
AcDbRegAppTableRecord
  2
ACAD_NAV_VCDISPLAY
 70
     0
  0
APPID
  5
359
330
9
100
AcDbSymbolTableRecord
100
AcDbRegAppTableRecord
  2
ACAD_MLEADERVER
 70
     0
  0
ENDTAB
  0
TABLE
  2
DIMSTYLE
  5
A
330
0
100
AcDbSymbolTable
 70
     1
100
AcDbDimStyleTable
 71
     0
  0
DIMSTYLE
105
27
330
A
100
AcDbSymbolTableRecord
100
AcDbDimStyleTableRecord
  2
Standard
 70
     0
340
11
  0
ENDTAB
  0
TABLE
  2
BLOCK_RECORD
  5
1
330
0
100
AcDbSymbolTable
 70
     8
  0
BLOCK_RECORD
  5
1F
102
{ACAD_XDICTIONARY
360
247
102
}
330
1
100
AcDbSymbolTableRecord
100
AcDbBlockTableRecord
  2
*Model_Space
340
22
  0
BLOCK_RECORD
  5
1B
330
1
100
AcDbSymbolTableRecord
100
AcDbBlockTableRecord
  2
*Paper_Space
340
1E
  0
BLOCK_RECORD
  5
23
330
1
100
AcDbSymbolTableRecord
100
AcDbBlockTableRecord
  2
*Paper_Space0
340
26
  0
BLOCK_RECORD
  5
36
330
1
100
AcDbSymbolTableRecord
100
AcDbBlockTableRecord
  2
_6
340
0
102
{BLKREFS
331
249
331
43
102
}
  0
BLOCK_RECORD
  5
39
330
1
100
AcDbSymbolTableRecord
100
AcDbBlockTableRecord
  2
_1
340
0
102
{BLKREFS
331
44
102
}
  0
BLOCK_RECORD
  5
3C
330
1
100
AcDbSymbolTableRecord
100
AcDbBlockTableRecord
  2
_2
340
0
102
{BLKREFS
331
24B
331
45
102
}
  0
BLOCK_RECORD
  5
3F
330
1
100
AcDbSymbolTableRecord
100
AcDbBlockTableRecord
  2
_4
340
0
102
{BLKREFS
331
24C
331
46
102
}
  0
BLOCK_RECORD
  5
42
330
1
100
AcDbSymbolTableRecord
100
AcDbBlockTableRecord
  2
Top__1
340
0
  0
BLOCK_RECORD
  5
49
330
1
100
AcDbSymbolTableRecord
100
AcDbBlockTableRecord
  2
_7
340
0
  0
BLOCK_RECORD
  5
4C
330
1
100
AcDbSymbolTableRecord
100
AcDbBlockTableRecord
  2
_3
340
0
  0
ENDTAB
  0
ENDSEC
  0
SECTION
  2
BLOCKS
  0
BLOCK
  5
20
330
1F
100
AcDbEntity
  8
0
100
AcDbBlockBegin
  2
*Model_Space
 70
     0
 10
0.0
 20
0.0
 30
0.0
  3
*Model_Space
  1

  0
ENDBLK
  5
21
330
1F
100
AcDbEntity
  8
0
100
AcDbBlockEnd
  0
BLOCK
  5
1C
330
1B
100
AcDbEntity
 67
     1
  8
0
100
AcDbBlockBegin
  2
*Paper_Space
 70
     0
 10
0.0
 20
0.0
 30
0.0
  3
*Paper_Space
  1

  0
ENDBLK
  5
1D
330
1B
100
AcDbEntity
 67
     1
  8
0
100
AcDbBlockEnd
  0
BLOCK
  5
24
330
23
100
AcDbEntity
 67
     1
  8
0
100
AcDbBlockBegin
  2
*Paper_Space0
 70
     0
 10
0.0
 20
0.0
 30
0.0
  3
*Paper_Space0
  1

  0
ENDBLK
  5
25
330
23
100
AcDbEntity
 67
     1
  8
0
100
AcDbBlockEnd
  0
BLOCK
  5
37
330
36
100
AcDbEntity
  8
0
100
AcDbBlockBegin
  2
_6
 70
     0
 10
1055.768500142072
 20
1525.676474593383
 30
0.0
  3
_6
  1

  0
LINE
  5
52
330
36
100
AcDbEntity
  8
1
  6
DOT_CENTER
 62
     2
100
AcDbLine
 10
1464.143275262976
 20
1259.015574056587
 30
0.0
 11
1464.143275262976
 21
1336.515574056587
 31
0.0
  0
LINE
  5
53
330
36
100
AcDbEntity
  8
1
  6
DOT_CENTER
 62
     2
100
AcDbLine
 10
1587.893275262976
 20
1259.015574056587
 30
0.0
 11
1587.893275262976
 21
1336.515574056587
 31
0.0
  0
ENDBLK
  5
38
330
36
100
AcDbEntity
  8
0
100
AcDbBlockEnd
  0
BLOCK
  5
3A
330
39
100
AcDbEntity
  8
0
100
AcDbBlockBegin
  2
_1
 70
     0
 10
923.3038712276018
 20
1621.515574056587
 30
0.0
  3
_1
  1

  0
LINE
  5
54
330
39
100
AcDbEntity
  8
1
  6
DOT_CENTER
 62
     2
100
AcDbLine
 10
1586.24023392265
 20
1325.515574056587
 30
0.0
 11
1589.546316603302
 21
1325.515574056587
 31
0.0
  0
LINE
  5
55
330
39
100
AcDbEntity
  8
1
  6
Continuous
 62
     7
100
AcDbLine
 10
1591.173730805683
 20
1315.515574056587
 30
0.0
 11
1584.612819720269
 21
1315.515574056587
 31
0.0
  0
LINE
  5
56
330
39
100
AcDbEntity
  8
1
  6
Continuous
 62
     7
100
AcDbLine
 10
1566.893275262977
 20
1328.015574056587
 30
0.0
 11
1568.269371838589
 21
1328.015574056587
 31
0.0
  0
LINE
  5
57
330
39
100
AcDbEntity
  8
1
  6
Continuous
 62
     7
100
AcDbLine
 10
1565.893275262977
 20
1319.015574056587
 30
0.0
 11
1565.893275262977
 21
1327.015574056587
 31
0.0
  0
LINE
  5
58
330
39
100
AcDbEntity
  8
1
  6
Continuous
 62
     7
100
AcDbLine
 10
1607.893275262977
 20
1315.515574056587
 30
0.0
 11
1609.693275262977
 21
1317.315574056587
 31
0.0
  0
LINE
  5
59
330
39
100
AcDbEntity
  8
1
  6
Continuous
 62
     7
100
AcDbLine
 10
1609.693275262977
 20
1317.315574056587
 30
0.0
 11
1626.893275262977
 21
1317.315574056587
 31
0.0
  0
LINE
  5
5A
330
39
100
AcDbEntity
  8
1
  6
Continuous
 62
     7
100
AcDbLine
 10
1591.893275262976
 20
1312.515574056587
 30
0.0
 11
1583.893275262976
 21
1312.515574056587
 31
0.0
  0
LINE
  5
5B
330
39
100
AcDbEntity
  8
1
  6
Continuous
 62
     7
100
AcDbLine
 10
1613.193275262977
 20
1322.715574056587
 30
0.0
 11
1626.893275262977
 21
1322.715574056587
 31
0.0
  0
LINE
  5
5C
330
39
100
AcDbEntity
  8
1
  6
Continuous
 62
     7
100
AcDbLine
 10
1627.893275262977
 20
1321.715574056587
 30
0.0
 11
1627.893275262977
 21
1318.315574056587
 31
0.0
  0
LINE
  5
5D
330
39
100
AcDbEntity
  8
1
  6
Continuous
 62
     7
100
AcDbLine
 10
1607.893275262977
 20
1328.015574056587
 30
0.0
 11
1613.193275262977
 21
1322.715574056587
 31
0.0
  0
LINE
  5
5E
330
39
100
AcDbEntity
  8
1
  6
Continuous
 62
     7
100
AcDbLine
 10
1606.050129512469
 20
1315.515574056587
 30
0.0
 11
1607.893275262977
 21
1315.515574056587
 31
0.0
  0
LINE
  5
5F
330
39
100
AcDbEntity
  8
1
  6
Continuous
 62
     7
100
AcDbLine
 10
1607.517178687364
 20
1328.015574056587
 30
0.0
 11
1607.893275262977
 21
1328.015574056587
 31
0.0
  0
LINE
  5
60
330
39
100
AcDbEntity
  8
1
  6
Continuous
 62
     7
100
AcDbLine
 10
1582.517178687364
 20
1328.015574056587
 30
0.0
 11
1593.269371838589
 21
1328.015574056587
 31
0.0
  0
LINE
  5
61
330
39
100
AcDbEntity
  8
1
  6
Continuous
 62
     7
100
AcDbLine
 10
1566.893275262977
 20
1318.015574056587
 30
0.0
 11
1567.601550893905
 21
1318.015574056587
 31
0.0
  0
LINE
  5
62
330
39
100
AcDbEntity
  8
1
  6
Continuous
 62
     7
100
AcDbLine
 10
1469.143275262976
 20
1318.515574056587
 30
0.0
 11
1469.243275262976
 21
1318.515574056587
 31
0.0
  0
LINE
  5
63
330
39
100
AcDbEntity
  8
1
  6
Continuous
 62
     7
100
AcDbLine
 10
1469.243275262976
 20
1326.515574056587
 30
0.0
 11
1469.143275262976
 21
1326.515574056587
 31
0.0
  0
LINE
  5
64
330
39
100
AcDbEntity
  8
1
  6
Continuous
 62
     7
100
AcDbLine
 10
1469.243275262976
 20
1326.515574056587
 30
0.0
 11
1469.243275262976
 21
1318.515574056587
 31
0.0
  0
LINE
  5
65
330
39
100
AcDbEntity
  8
1
  6
Continuous
 62
     7
100
AcDbLine
 10
1459.043275262976
 20
1318.515574056587
 30
0.0
 11
1459.143275262976
 21
1318.515574056587
 31
0.0
  0
LINE
  5
66
330
39
100
AcDbEntity
  8
1
  6
Continuous
 62
     7
100
AcDbLine
 10
1459.043275262976
 20
1318.515574056587
 30
0.0
 11
1459.043275262976
 21
1326.515574056587
 31
0.0
  0
LINE
  5
67
330
39
100
AcDbEntity
  8
1
  6
Continuous
 62
     7
100
AcDbLine
 10
1468.643275262976
 20
1316.515574056587
 30
0.0
 11
1468.643275262976
 21
1327.015574056587
 31
0.0
  0
LINE
  5
68
330
39
100
AcDbEntity
  8
1
  6
Continuous
 62
     7
100
AcDbLine
 10
1459.643275262976
 20
1316.515574056587
 30
0.0
 11
1459.643275262976
 21
1327.015574056587
 31
0.0
  0
LINE
  5
69
330
39
100
AcDbEntity
  8
1
  6
Continuous
 62
     7
100
AcDbLine
 10
1460.643275262976
 20
1312.515574056587
 30
0.0
 11
1467.643275262976
 21
1312.515574056587
 31
0.0
  0
LINE
  5
6A
330
39
100
AcDbEntity
  8
1
  6
Continuous
 62
     7
100
AcDbLine
 10
1460.643275262976
 20
1315.515574056587
 30
0.0
 11
1467.643275262976
 21
1315.515574056587
 31
0.0
  0
LINE
  5
6B
330
39
100
AcDbEntity
  8
1
  6
Continuous
 62
     7
100
AcDbLine
 10
1460.643275262976
 20
1318.015574056587
 30
0.0
 11
1467.643275262976
 21
1318.015574056587
 31
0.0
  0
LINE
  5
6C
330
39
100
AcDbEntity
  8
1
  6
Continuous
 62
     7
100
AcDbLine
 10
1469.743275262976
 20
1328.015574056587
 30
0.0
 11
1458.543275262976
 21
1328.015574056587
 31
0.0
  0
LINE
  5
6D
330
39
100
AcDbEntity
  8
1
  6
Continuous
 62
     7
100
AcDbLine
 10
1627.893275262977
 20
1381.5
 30
0.0
 11
1627.893275262977
 21
1388.5
 31
0.0
  0
LINE
  5
6E
330
39
100
AcDbEntity
  8
1
  6
Continuous
 62
     7
100
AcDbLine
 10
1565.893275262977
 20
1388.5
 30
0.0
 11
1565.893275262977
 21
1381.5
 31
0.0
  0
LINE
  5
6F
330
39
100
AcDbEntity
  8
1
  6
DOT_CENTER
 62
     2
100
AcDbLine
 10
1561.28698348009
 20
1385.0
 30
0.0
 11
1590.893275262976
 21
1385.0
 31
0.0
  0
LINE
  5
70
330
39
100
AcDbEntity
  8
1
  6
Continuous
 62
     7
100
AcDbLine
 10
1571.393275262976
 20
1390.1
 30
0.0
 11
1579.393275262976
 21
1390.1
 31
0.0
  0
LINE
  5
71
330
39
100
AcDbEntity
  8
1
  6
Continuous
 62
     7
100
AcDbLine
 10
1579.393275262976
 20
1390.1
 30
0.0
 11
1579.393275262976
 21
1389.95682563098
 31
0.0
  0
LINE
  5
72
330
39
100
AcDbEntity
  8
1
  6
Continuous
 62
     7
100
AcDbLine
 10
1626.893275262977
 20
1389.5
 30
0.0
 11
1613.193275262977
 21
1389.5
 31
0.0
  0
LINE
  5
73
330
39
100
AcDbEntity
  8
1
  6
Continuous
 62
     7
100
AcDbLine
 10
1571.393275262976
 20
1379.9
 30
0.0
 11
1579.393275262976
 21
1379.9
 31
0.0
  0
LINE
  5
74
330
39
100
AcDbEntity
  8
1
  6
Continuous
 62
     7
100
AcDbLine
 10
1579.393275262976
 20
1379.9
 30
0.0
 11
1579.393275262976
 21
1380.0
 31
0.0
  0
LINE
  5
75
330
39
100
AcDbEntity
  8
1
  6
Continuous
 62
     7
100
AcDbLine
 10
1571.393275262976
 20
1389.96546875137
 30
0.0
 11
1571.393275262976
 21
1390.1
 31
0.0
  0
LINE
  5
76
330
39
100
AcDbEntity
  8
1
  6
Continuous
 62
     7
100
AcDbLine
 10
1571.393275262976
 20
1380.0626501311
 30
0.0
 11
1571.393275262976
 21
1379.9
 31
0.0
  0
LINE
  5
77
330
39
100
AcDbEntity
  8
1
  6
DOT_CENTER
 62
     2
100
AcDbLine
 10
1575.393275262976
 20
1398.6
 30
0.0
 11
1575.393275262976
 21
1371.4
 31
0.0
  0
LINE
  5
78
330
39
100
AcDbEntity
  8
1
  6
Continuous
 62
     7
100
AcDbLine
 10
1607.893275262977
 20
1389.5
 30
0.0
 11
1607.893275262977
 21
1380.5
 31
0.0
  0
LINE
  5
79
330
39
100
AcDbEntity
  8
1
  6
Continuous
 62
     7
100
AcDbLine
 10
1607.893275262977
 20
1380.5
 30
0.0
 11
1613.193275262977
 21
1380.5
 31
0.0
  0
LINE
  5
7A
330
39
100
AcDbEntity
  8
1
  6
Continuous
 62
     7
100
AcDbLine
 10
1596.393275262976
 20
1390.1
 30
0.0
 11
1604.393275262976
 21
1390.1
 31
0.0
  0
LINE
  5
7B
330
39
100
AcDbEntity
  8
1
  6
Continuous
 62
     7
100
AcDbLine
 10
1604.393275262976
 20
1390.1
 30
0.0
 11
1604.393275262976
 21
1389.95682563098
 31
0.0
  0
LINE
  5
7C
330
39
100
AcDbEntity
  8
1
  6
Continuous
 62
     7
100
AcDbLine
 10
1596.393275262976
 20
1389.96546875137
 30
0.0
 11
1596.393275262976
 21
1390.1
 31
0.0
  0
LINE
  5
7D
330
39
100
AcDbEntity
  8
1
  6
Continuous
 62
     7
100
AcDbLine
 10
1596.393275262976
 20
1379.9
 30
0.0
 11
1604.393275262976
 21
1379.9
 31
0.0
  0
LINE
  5
7E
330
39
100
AcDbEntity
  8
1
  6
Continuous
 62
     7
100
AcDbLine
 10
1604.393275262976
 20
1379.9
 30
0.0
 11
1604.393275262976
 21
1380.0
 31
0.0
  0
LINE
  5
7F
330
39
100
AcDbEntity
  8
1
  6
Continuous
 62
     7
100
AcDbLine
 10
1596.393275262976
 20
1380.0626501311
 30
0.0
 11
1596.393275262976
 21
1379.9
 31
0.0
  0
LINE
  5
80
330
39
100
AcDbEntity
  8
1
  6
DOT_CENTER
 62
     2
100
AcDbLine
 10
1600.393275262976
 20
1398.6
 30
0.0
 11
1600.393275262976
 21
1371.4
 31
0.0
  0
LINE
  5
81
330
39
100
AcDbEntity
  8
1
  6
Continuous
 62
     7
100
AcDbLine
 10
1607.893275262977
 20
1389.5
 30
0.0
 11
1593.355845313035
 21
1389.5
 31
0.0
  0
LINE
  5
82
330
39
100
AcDbEntity
  8
1
  6
Continuous
 62
     7
100
AcDbLine
 10
1566.893275262977
 20
1380.5
 30
0.0
 11
1582.430705212918
 21
1380.5
 31
0.0
  0
LINE
  5
83
330
39
100
AcDbEntity
  8
1
  6
Continuous
 62
     7
100
AcDbLine
 10
1584.430705212918
 20
1391.31978757856
 30
0.0
 11
1584.430705212918
 21
1392.0
 31
0.0
  0
LINE
  5
84
330
39
100
AcDbEntity
  8
1
  6
DOT_CENTER
 62
     2
100
AcDbLine
 10
1587.893275262976
 20
1396.6
 30
0.0
 11
1587.893275262976
 21
1373.4
 31
0.0
  0
LINE
  5
85
330
39
100
AcDbEntity
  8
1
  6
Continuous
 62
     7
100
AcDbLine
 10
1585.37471730566
 20
1393.0
 30
0.0
 11
1591.173730805684
 21
1393.0
 31
0.0
  0
LINE
  5
86
330
39
100
AcDbEntity
  8
1
  6
Continuous
 62
     7
100
AcDbLine
 10
1584.612819720269
 20
1393.0
 30
0.0
 11
1585.37471730566
 21
1393.0
 31
0.0
  0
LINE
  5
87
330
39
100
AcDbEntity
  8
1
  6
Continuous
 62
     7
100
AcDbLine
 10
1591.355845313035
 20
1392.09106619314
 30
0.0
 11
1591.355845313035
 21
1391.313537629019
 31
0.0
  0
LINE
  5
88
330
39
100
AcDbEntity
  8
1
  6
Continuous
 62
     7
100
AcDbLine
 10
1591.173730805684
 20
1377.0
 30
0.0
 11
1585.37471730566
 21
1377.0
 31
0.0
  0
LINE
  5
89
330
39
100
AcDbEntity
  8
1
  6
Continuous
 62
     7
100
AcDbLine
 10
1591.355845313035
 20
1378.68646237098
 30
0.0
 11
1591.355845313035
 21
1377.90893380686
 31
0.0
  0
LINE
  5
8A
330
39
100
AcDbEntity
  8
1
  6
Continuous
 62
     7
100
AcDbLine
 10
1585.37471730566
 20
1377.0
 30
0.0
 11
1584.612819720269
 21
1377.0
 31
0.0
  0
LINE
  5
8B
330
39
100
AcDbEntity
  8
1
  6
Continuous
 62
     7
100
AcDbLine
 10
1584.430705212918
 20
1378.0
 30
0.0
 11
1584.430705212918
 21
1378.68021242144
 31
0.0
  0
LINE
  5
8C
330
39
100
AcDbEntity
  8
1
  6
Continuous
 62
     7
100
AcDbLine
 10
1582.430705212918
 20
1389.5
 30
0.0
 11
1566.893275262977
 21
1389.5
 31
0.0
  0
LINE
  5
8D
330
39
100
AcDbEntity
  8
1
  6
Continuous
 62
     7
100
AcDbLine
 10
1593.355845313035
 20
1380.5
 30
0.0
 11
1607.893275262977
 21
1380.5
 31
0.0
  0
LINE
  5
8E
330
39
100
AcDbEntity
  8
1
  6
DOT_CENTER
 62
     2
100
AcDbLine
 10
1592.893275262976
 20
1385.0
 30
0.0
 11
1623.243275262977
 21
1385.0
 31
0.0
  0
LINE
  5
8F
330
39
100
AcDbEntity
  8
1
  6
DOT_CENTER
 62
     2
100
AcDbLine
 10
1623.243275262977
 20
1385.0
 30
0.0
 11
1632.28698348009
 21
1385.0
 31
0.0
  0
LINE
  5
90
330
39
100
AcDbEntity
  8
1
  6
DOT_CENTER
 62
     2
100
AcDbLine
 10
1621.893275262977
 20
1387.35
 30
0.0
 11
1621.893275262977
 21
1382.65
 31
0.0
  0
LINE
  5
91
330
39
100
AcDbEntity
  8
1
  6
DOT_CENTER
 62
     2
100
AcDbLine
 10
1590.893275262976
 20
1385.0
 30
0.0
 11
1592.393275262976
 21
1385.0
 31
0.0
  0
LINE
  5
92
330
39
100
AcDbEntity
  8
1
  6
DOT_CENTER
 62
     2
100
AcDbLine
 10
1592.393275262976
 20
1385.0
 30
0.0
 11
1592.893275262976
 21
1385.0
 31
0.0
  0
LINE
  5
93
330
39
100
AcDbEntity
  8
1
  6
Continuous
 62
     7
100
AcDbLine
 10
1613.193275262977
 20
1389.5
 30
0.0
 11
1613.193275262977
 21
1380.5
 31
0.0
  0
LINE
  5
94
330
39
100
AcDbEntity
  8
1
  6
Continuous
 62
     7
100
AcDbLine
 10
1613.193275262977
 20
1389.5
 30
0.0
 11
1607.893275262977
 21
1389.5
 31
0.0
  0
LINE
  5
95
330
39
100
AcDbEntity
  8
1
  6
Continuous
 62
     7
100
AcDbLine
 10
1613.193275262977
 20
1380.5
 30
0.0
 11
1626.893275262977
 21
1380.5
 31
0.0
  0
ARC
  5
96
330
39
100
AcDbEntity
  8
1
  6
Continuous
 62
     7
100
AcDbCircle
 10
1584.612819720269
 20
1316.515574056587
 30
0.0
 40
1.000000000000246
100
AcDbArc
 50
146.9442688491891
 51
-90.0
  0
ARC
  5
97
330
39
100
AcDbEntity
  8
1
  6
Continuous
 62
     7
100
AcDbCircle
 10
1575.393275262976
 20
1322.515574056587
 30
0.0
 40
9.999999999999905
100
AcDbArc
 50
-33.05573115085775
 51
24.14773991702253
  0
ARC
  5
98
330
39
100
AcDbEntity
  8
1
  6
Continuous
 62
     7
100
AcDbCircle
 10
1585.430705212918
 20
1327.015574056587
 30
0.0
 40
1.0
100
AcDbArc
 50
90.0
 51
-155.8522600829706
  0
ARC
  5
99
330
39
100
AcDbEntity
  8
1
  6
Continuous
 62
     7
100
AcDbCircle
 10
1591.173730805683
 20
1316.515574056587
 30
0.0
 40
1.0
100
AcDbArc
 50
-90.0
 51
33.0557311507754
  0
ARC
  5
9A
330
39
100
AcDbEntity
  8
1
  6
Continuous
 62
     7
100
AcDbCircle
 10
1600.393275262977
 20
1322.515574056587
 30
0.0
 40
9.999999999999698
100
AcDbArc
 50
155.8522600829775
 51
-146.9442688491423
  0
ARC
  5
9B
330
39
100
AcDbEntity
  8
1
  6
Continuous
 62
     7
100
AcDbCircle
 10
1590.355845313035
 20
1327.015574056587
 30
0.0
 40
1.000000000000132
100
AcDbArc
 50
-24.14773991702409
 51
90.00000000005211
  0
ARC
  5
9C
330
39
100
AcDbEntity
  8
1
  6
Continuous
 62
     7
100
AcDbCircle
 10
1583.893275262976
 20
1313.515574056587
 30
0.0
 40
1.0
100
AcDbArc
 50
180.0
 51
-90.0
  0
ARC
  5
9D
330
39
100
AcDbEntity
  8
1
  6
Continuous
 62
     7
100
AcDbCircle
 10
1591.893275262976
 20
1313.515574056587
 30
0.0
 40
1.0
100
AcDbArc
 50
-90.0
 51
0.0
  0
ARC
  5
9E
330
39
100
AcDbEntity
  8
1
  6
Continuous
 62
     7
100
AcDbCircle
 10
1594.893275262976
 20
1313.515574056587
 30
0.0
 40
1.999999999999693
100
AcDbArc
 50
94.29798325534568
 51
180.0
  0
ARC
  5
9F
330
39
100
AcDbEntity
  8
1
  6
Continuous
 62
     7
100
AcDbCircle
 10
1580.893275262977
 20
1313.515574056587
 30
0.0
 40
1.999999999998863
100
AcDbArc
 50
0.0
 51
85.70201674466082
  0
ARC
  5
A0
330
39
100
AcDbEntity
  8
1
  6
Continuous
 62
     7
100
AcDbCircle
 10
1469.143275262976
 20
1327.015574056587
 30
0.0
 40
0.5
100
AcDbArc
 50
180.0
 51
-90.0
  0
ARC
  5
A1
330
39
100
AcDbEntity
  8
1
  6
Continuous
 62
     7
100
AcDbCircle
 10
1469.143275262976
 20
1318.015574056587
 30
0.0
 40
0.5
100
AcDbArc
 50
90.0
 51
180.0
  0
ARC
  5
A2
330
39
100
AcDbEntity
  8
1
  6
Continuous
 62
     7
100
AcDbCircle
 10
1459.143275262976
 20
1318.015574056587
 30
0.0
 40
0.5
100
AcDbArc
 50
0.0
 51
90.0
  0
ARC
  5
A3
330
39
100
AcDbEntity
  8
1
  6
Continuous
 62
     7
100
AcDbCircle
 10
1459.143275262976
 20
1318.015574056587
 30
0.0
 40
0.5
100
AcDbArc
 50
0.0
 51
90.0
  0
ARC
  5
A4
330
39
100
AcDbEntity
  8
1
  6
Continuous
 62
     7
100
AcDbCircle
 10
1459.143275262976
 20
1327.015574056587
 30
0.0
 40
0.5
100
AcDbArc
 50
-90.0
 51
0.0
  0
ARC
  5
A5
330
39
100
AcDbEntity
  8
1
  6
Continuous
 62
     7
100
AcDbCircle
 10
1570.893275262976
 20
1390.0
 30
0.0
 40
0.5
100
AcDbArc
 50
-90.0
 51
0.0
  0
ARC
  5
A6
330
39
100
AcDbEntity
  8
1
  6
Continuous
 62
     7
100
AcDbCircle
 10
1579.893275262976
 20
1390.0
 30
0.0
 40
0.5
100
AcDbArc
 50
180.0
 51
-90.0
  0
ARC
  5
A7
330
39
100
AcDbEntity
  8
1
  6
Continuous
 62
     7
100
AcDbCircle
 10
1579.893275262976
 20
1380.0
 30
0.0
 40
0.5
100
AcDbArc
 50
90.0
 51
180.0
  0
ARC
  5
A8
330
39
100
AcDbEntity
  8
1
  6
Continuous
 62
     7
100
AcDbCircle
 10
1570.893275262976
 20
1380.0
 30
0.0
 40
0.5
100
AcDbArc
 50
0.0
 51
90.0
  0
ARC
  5
A9
330
39
100
AcDbEntity
  8
1
  6
Continuous
 62
     7
100
AcDbCircle
 10
1595.893275262976
 20
1390.0
 30
0.0
 40
0.5
100
AcDbArc
 50
-90.0
 51
0.0
  0
ARC
  5
AA
330
39
100
AcDbEntity
  8
1
  6
Continuous
 62
     7
100
AcDbCircle
 10
1604.893275262976
 20
1390.0
 30
0.0
 40
0.5
100
AcDbArc
 50
180.0
 51
-90.0
  0
ARC
  5
AB
330
39
100
AcDbEntity
  8
1
  6
Continuous
 62
     7
100
AcDbCircle
 10
1604.893275262976
 20
1380.0
 30
0.0
 40
0.5
100
AcDbArc
 50
90.0
 51
180.0
  0
ARC
  5
AC
330
39
100
AcDbEntity
  8
1
  6
Continuous
 62
     7
100
AcDbCircle
 10
1595.893275262976
 20
1380.0
 30
0.0
 40
0.5
100
AcDbArc
 50
0.0
 51
90.0
  0
ARC
  5
AD
330
39
100
AcDbEntity
  8
1
  6
Continuous
 62
     7
100
AcDbCircle
 10
1582.430705212918
 20
1391.5
 30
0.0
 40
2.0
100
AcDbArc
 50
-90.0
 51
0.0
  0
ARC
  5
AE
330
39
100
AcDbEntity
  8
1
  6
Continuous
 62
     7
100
AcDbCircle
 10
1585.430705212918
 20
1392.0
 30
0.0
 40
1.0
100
AcDbArc
 50
90.0
 51
180.0
  0
ARC
  5
AF
330
39
100
AcDbEntity
  8
1
  6
Continuous
 62
     7
100
AcDbCircle
 10
1590.355845313035
 20
1392.0
 30
0.0
 40
1.0
100
AcDbArc
 50
0.0
 51
90.0
  0
ARC
  5
B0
330
39
100
AcDbEntity
  8
1
  6
Continuous
 62
     7
100
AcDbCircle
 10
1591.173730805684
 20
1392.0
 30
0.0
 40
0.9999999999999651
100
AcDbArc
 50
74.93282703817562
 51
90.0
  0
ARC
  5
B1
330
39
100
AcDbEntity
  8
1
  6
Continuous
 62
     7
100
AcDbCircle
 10
1593.355845313035
 20
1391.5
 30
0.0
 40
2.0
100
AcDbArc
 50
180.0
 51
-90.0
  0
ARC
  5
B2
330
39
100
AcDbEntity
  8
1
  6
Continuous
 62
     7
100
AcDbCircle
 10
1594.173730805683
 20
1391.5
 30
0.0
 40
1.999999999999473
100
AcDbArc
 50
-153.974114858504
 51
-90.0
  0
ARC
  5
B3
330
39
100
AcDbEntity
  8
1
  6
Continuous
 62
     7
100
AcDbCircle
 10
1584.612819720269
 20
1392.0
 30
0.0
 40
1.0
100
AcDbArc
 50
90.0
 51
105.0671729618873
  0
ARC
  5
B4
330
39
100
AcDbEntity
  8
1
  6
Continuous
 62
     7
100
AcDbCircle
 10
1581.612819720269
 20
1391.5
 30
0.0
 40
2.0
100
AcDbArc
 50
-90.0
 51
-26.02588514143493
  0
ARC
  5
B5
330
39
100
AcDbEntity
  8
1
  6
Continuous
 62
     7
100
AcDbCircle
 10
1594.173730805683
 20
1378.5
 30
0.0
 40
2.0
100
AcDbArc
 50
90.0
 51
153.974114858504
  0
ARC
  5
B6
330
39
100
AcDbEntity
  8
1
  6
Continuous
 62
     7
100
AcDbCircle
 10
1591.173730805684
 20
1378.0
 30
0.0
 40
1.0
100
AcDbArc
 50
-90.0
 51
-74.93282703817562
  0
ARC
  5
B7
330
39
100
AcDbEntity
  8
1
  6
Continuous
 62
     7
100
AcDbCircle
 10
1590.355845313035
 20
1378.0
 30
0.0
 40
1.0
100
AcDbArc
 50
-90.0
 51
0.0
  0
ARC
  5
B8
330
39
100
AcDbEntity
  8
1
  6
Continuous
 62
     7
100
AcDbCircle
 10
1593.355845313035
 20
1378.5
 30
0.0
 40
2.0
100
AcDbArc
 50
90.0
 51
180.0
  0
ARC
  5
B9
330
39
100
AcDbEntity
  8
1
  6
Continuous
 62
     7
100
AcDbCircle
 10
1584.612819720269
 20
1378.0
 30
0.0
 40
1.00000000000026
100
AcDbArc
 50
-105.0671729618873
 51
-90.0
  0
ARC
  5
BA
330
39
100
AcDbEntity
  8
1
  6
Continuous
 62
     7
100
AcDbCircle
 10
1585.430705212918
 20
1378.0
 30
0.0
 40
1.0
100
AcDbArc
 50
180.0
 51
-90.0
  0
ARC
  5
BB
330
39
100
AcDbEntity
  8
1
  6
Continuous
 62
     7
100
AcDbCircle
 10
1582.430705212918
 20
1378.5
 30
0.0
 40
2.0
100
AcDbArc
 50
0.0
 51
90.0
  0
ARC
  5
BC
330
39
100
AcDbEntity
  8
1
  6
Continuous
 62
     7
100
AcDbCircle
 10
1581.612819720269
 20
1378.5
 30
0.0
 40
1.999999999999696
100
AcDbArc
 50
26.02588514143493
 51
90.0
  0
CIRCLE
  5
BD
330
39
100
AcDbEntity
  8
1
  6
Continuous
 62
     7
100
AcDbCircle
 10
1587.893275262976
 20
1325.515574056587
 30
0.0
 40
1.174999999999045
  0
CIRCLE
  5
BE
330
39
100
AcDbEntity
  8
1
  6
Continuous
 62
     7
100
AcDbCircle
 10
1587.893275262976
 20
1385.0
 30
0.0
 40
5.0
  0
CIRCLE
  5
BF
330
39
100
AcDbEntity
  8
1
  6
Continuous
 62
     7
100
AcDbCircle
 10
1621.893275262977
 20
1385.0
 30
0.0
 40
1.349999999999909
  0
CIRCLE
  5
C0
330
39
100
AcDbEntity
  8
1
  6
Continuous
 62
     7
100
AcDbCircle
 10
1587.893275262976
 20
1385.0
 30
0.0
 40
3.0
  0
CIRCLE
  5
C1
330
39
100
AcDbEntity
  8
1
  6
Continuous
 62
     7
100
AcDbCircle
 10
1587.893275262976
 20
1385.0
 30
0.0
 40
4.5
  0
ARC
  5
C2
330
39
100
AcDbEntity
  8
1
  6
Continuous
 62
     7
100
AcDbCircle
 10
1566.893275262977
 20
1319.015574056587
 30
0.0
 40
1.0
100
AcDbArc
 50
180.0
 51
-90.0
  0
ARC
  5
C3
330
39
100
AcDbEntity
  8
1
  6
Continuous
 62
     7
100
AcDbCircle
 10
1566.893275262977
 20
1327.015574056587
 30
0.0
 40
1.0
100
AcDbArc
 50
90.0
 51
180.0
  0
ARC
  5
C4
330
39
100
AcDbEntity
  8
1
  6
Continuous
 62
     7
100
AcDbCircle
 10
1626.893275262977
 20
1321.715574056587
 30
0.0
 40
1.0
100
AcDbArc
 50
0.0
 51
90.0
  0
ARC
  5
C5
330
39
100
AcDbEntity
  8
1
  6
Continuous
 62
     7
100
AcDbCircle
 10
1626.893275262977
 20
1318.315574056587
 30
0.0
 40
1.0
100
AcDbArc
 50
-90.0
 51
0.0
  0
ARC
  5
C6
330
39
100
AcDbEntity
  8
1
  6
Continuous
 62
     7
100
AcDbCircle
 10
1470.643275262976
 20
1313.515574056587
 30
0.0
 40
1.999999999999845
100
AcDbArc
 50
116.7436839504009
 51
180.0
  0
ARC
  5
C7
330
39
100
AcDbEntity
  8
1
  6
Continuous
 62
     7
100
AcDbCircle
 10
1467.643275262976
 20
1313.515574056587
 30
0.0
 40
1.0
100
AcDbArc
 50
-90.0
 51
0.0
  0
ARC
  5
C8
330
39
100
AcDbEntity
  8
1
  6
Continuous
 62
     7
100
AcDbCircle
 10
1460.643275262976
 20
1313.515574056587
 30
0.0
 40
1.0
100
AcDbArc
 50
180.0
 51
-90.0
  0
ARC
  5
C9
330
39
100
AcDbEntity
  8
1
  6
Continuous
 62
     7
100
AcDbCircle
 10
1460.643275262976
 20
1316.515574056587
 30
0.0
 40
1.0
100
AcDbArc
 50
180.0
 51
-90.0
  0
ARC
  5
CA
330
39
100
AcDbEntity
  8
1
  6
Continuous
 62
     7
100
AcDbCircle
 10
1467.643275262976
 20
1316.515574056587
 30
0.0
 40
1.0
100
AcDbArc
 50
-90.0
 51
0.0
  0
ARC
  5
CB
330
39
100
AcDbEntity
  8
1
  6
Continuous
 62
     7
100
AcDbCircle
 10
1467.643275262976
 20
1327.015574056587
 30
0.0
 40
1.0
100
AcDbArc
 50
0.0
 51
90.0
  0
ARC
  5
CC
330
39
100
AcDbEntity
  8
1
  6
Continuous
 62
     7
100
AcDbCircle
 10
1467.643275262976
 20
1319.015574056587
 30
0.0
 40
1.0
100
AcDbArc
 50
-90.0
 51
0.0
  0
ARC
  5
CD
330
39
100
AcDbEntity
  8
1
  6
Continuous
 62
     7
100
AcDbCircle
 10
1460.643275262976
 20
1319.015574056587
 30
0.0
 40
1.0
100
AcDbArc
 50
180.0
 51
-90.0
  0
ARC
  5
CE
330
39
100
AcDbEntity
  8
1
  6
Continuous
 62
     7
100
AcDbCircle
 10
1457.643275262976
 20
1313.515574056587
 30
0.0
 40
2.0
100
AcDbArc
 50
0.0
 51
63.25631604959331
  0
ARC
  5
CF
330
39
100
AcDbEntity
  8
1
  6
Continuous
 62
     7
100
AcDbCircle
 10
1460.643275262976
 20
1327.015574056587
 30
0.0
 40
1.0
100
AcDbArc
 50
90.0
 51
180.0
  0
ARC
  5
D0
330
39
100
AcDbEntity
  8
1
  6
Continuous
 62
     7
100
AcDbCircle
 10
1566.893275262977
 20
1388.5
 30
0.0
 40
1.0
100
AcDbArc
 50
90.0
 51
180.0
  0
ARC
  5
D1
330
39
100
AcDbEntity
  8
1
  6
Continuous
 62
     7
100
AcDbCircle
 10
1566.893275262977
 20
1381.5
 30
0.0
 40
1.0
100
AcDbArc
 50
180.0
 51
-90.0
  0
ARC
  5
D2
330
39
100
AcDbEntity
  8
1
  6
Continuous
 62
     7
100
AcDbCircle
 10
1626.893275262977
 20
1388.5
 30
0.0
 40
1.0
100
AcDbArc
 50
0.0
 51
90.0
  0
ARC
  5
D3
330
39
100
AcDbEntity
  8
1
  6
Continuous
 62
     7
100
AcDbCircle
 10
1626.893275262977
 20
1381.5
 30
0.0
 40
1.0
100
AcDbArc
 50
-90.0
 51
0.0
  0
ENDBLK
  5
3B
330
39
100
AcDbEntity
  8
0
100
AcDbBlockEnd
  0
BLOCK
  5
3D
330
3C
100
AcDbEntity
  8
0
100
AcDbBlockBegin
  2
_2
 70
     0
 10
948.8038712276019
 20
1580.007631515933
 30
0.0
  3
_2
  1

  0
LINE
  5
D4
330
3C
100
AcDbEntity
  8
1
  6
Continuous
 62
     7
100
AcDbLine
 10
1452.543275262976
 20
1330.515574056587
 30
0.0
 11
1452.543275262976
 21
1314.515574056587
 31
0.0
  0
LINE
  5
D5
330
3C
100
AcDbEntity
  8
1
  6
Continuous
 62
     7
100
AcDbLine
 10
1458.543275262976
 20
1314.515574056587
 30
0.0
 11
1458.543275262976
 21
1330.515574056587
 31
0.0
  0
LINE
  5
D6
330
3C
100
AcDbEntity
  8
1
  6
Continuous
 62
     7
100
AcDbLine
 10
1459.043275262976
 20
1326.765574056587
 30
0.0
 11
1459.043275262976
 21
1318.265574056587
 31
0.0
  0
LINE
  5
D7
330
3C
100
AcDbEntity
  8
1
  6
Continuous
 62
     7
100
AcDbLine
 10
1459.043275262976
 20
1318.265574056587
 30
0.0
 11
1458.543275262976
 21
1318.265574056587
 31
0.0
  0
LINE
  5
D8
330
3C
100
AcDbEntity
  8
1
  6
DOT_CENTER
 62
     2
100
AcDbLine
 10
1478.743275262976
 20
1322.515574056587
 30
0.0
 11
1449.543275262976
 21
1322.515574056587
 31
0.0
  0
LINE
  5
D9
330
3C
100
AcDbEntity
  8
1
  6
Continuous
 62
     7
100
AcDbLine
 10
1475.743275262976
 20
1314.515574056587
 30
0.0
 11
1475.743275262976
 21
1330.515574056587
 31
0.0
  0
LINE
  5
DA
330
3C
100
AcDbEntity
  8
1
  6
Continuous
 62
     7
100
AcDbLine
 10
1469.743275262976
 20
1330.515574056587
 30
0.0
 11
1469.743275262976
 21
1314.515574056587
 31
0.0
  0
LINE
  5
DB
330
3C
100
AcDbEntity
  8
1
  6
Continuous
 62
     7
100
AcDbLine
 10
1469.243275262976
 20
1318.265574056587
 30
0.0
 11
1469.243275262976
 21
1326.765574056587
 31
0.0
  0
LINE
  5
DC
330
3C
100
AcDbEntity
  8
1
  6
Continuous
 62
     7
100
AcDbLine
 10
1469.243275262976
 20
1326.765574056587
 30
0.0
 11
1469.743275262976
 21
1326.765574056587
 31
0.0
  0
LINE
  5
DD
330
3C
100
AcDbEntity
  8
1
  6
DOT_CENTER
 62
     2
100
AcDbLine
 10
1612.393275262976
 20
1322.515574056587
 30
0.0
 11
1588.393275262976
 21
1322.515574056587
 31
0.0
  0
LINE
  5
DE
330
3C
100
AcDbEntity
  8
1
  6
DOT_CENTER
 62
     2
100
AcDbLine
 10
1600.393275262976
 20
1334.515574056587
 30
0.0
 11
1600.393275262976
 21
1310.515574056587
 31
0.0
  0
LINE
  5
DF
330
3C
100
AcDbEntity
  8
1
  6
DOT_CENTER
 62
     2
100
AcDbLine
 10
1587.393275262976
 20
1322.515574056587
 30
0.0
 11
1563.393275262976
 21
1322.515574056587
 31
0.0
  0
LINE
  5
E0
330
3C
100
AcDbEntity
  8
1
  6
DOT_CENTER
 62
     2
100
AcDbLine
 10
1575.393275262976
 20
1310.515574056587
 30
0.0
 11
1575.393275262976
 21
1334.515574056587
 31
0.0
  0
LINE
  5
E1
330
3C
100
AcDbEntity
  8
1
  6
DOT_CENTER
 62
     2
100
AcDbLine
 10
1587.393275262976
 20
1322.515574056587
 30
0.0
 11
1563.393275262976
 21
1322.515574056587
 31
0.0
  0
LINE
  5
E2
330
3C
100
AcDbEntity
  8
1
  6
DOT_CENTER
 62
     2
100
AcDbLine
 10
1575.393275262976
 20
1310.515574056587
 30
0.0
 11
1575.393275262976
 21
1334.515574056587
 31
0.0
  0
LINE
  5
E3
330
3C
100
AcDbEntity
  8
1
  6
DOT_CENTER
 62
     2
100
AcDbLine
 10
1612.393275262976
 20
1322.515574056587
 30
0.0
 11
1588.393275262976
 21
1322.515574056587
 31
0.0
  0
LINE
  5
E4
330
3C
100
AcDbEntity
  8
1
  6
DOT_CENTER
 62
     2
100
AcDbLine
 10
1600.393275262976
 20
1334.515574056587
 30
0.0
 11
1600.393275262976
 21
1310.515574056587
 31
0.0
  0
LINE
  5
E5
330
3C
100
AcDbEntity
  8
1
  6
Continuous
 62
     7
100
AcDbLine
 10
1469.743275262976
 20
1318.265574056587
 30
0.0
 11
1469.243275262976
 21
1318.265574056587
 31
0.0
  0
LINE
  5
E6
330
3C
100
AcDbEntity
  8
1
  6
Continuous
 62
     7
100
AcDbLine
 10
1458.543275262976
 20
1326.765574056587
 30
0.0
 11
1459.043275262976
 21
1326.765574056587
 31
0.0
  0
ARC
  5
E7
330
3C
100
AcDbEntity
  8
1
  6
Continuous
 62
     7
100
AcDbCircle
 10
1472.743275262976
 20
1318.515574056587
 30
0.0
 40
5.0
100
AcDbArc
 50
-126.869897645844
 51
-90.0
  0
ARC
  5
E8
330
3C
100
AcDbEntity
  8
1
  6
Continuous
 62
     7
100
AcDbCircle
 10
1455.543275262976
 20
1318.515574056587
 30
0.0
 40
5.0
100
AcDbArc
 50
-90.0
 51
-53.13010235415598
  0
ARC
  5
E9
330
3C
100
AcDbEntity
  8
1
  6
Continuous
 62
     7
100
AcDbCircle
 10
1472.743275262976
 20
1326.515574056587
 30
0.0
 40
5.0
100
AcDbArc
 50
53.13010235415598
 51
126.869897645844
  0
ARC
  5
EA
330
3C
100
AcDbEntity
  8
1
  6
Continuous
 62
     7
100
AcDbCircle
 10
1472.743275262976
 20
1318.515574056587
 30
0.0
 40
5.0
100
AcDbArc
 50
-90.0
 51
-53.13010235415598
  0
LWPOLYLINE
  5
EB
330
3C
100
AcDbEntity
  8
1
  6
Continuous
 62
     7
100
AcDbPolyline
 90
        2
 70
     1
 43
0.0
 10
1600.393275262976
 20
1331.515574056587
 42
1.0
 10
1600.393275262976
 20
1313.515574056587
 42
1.0
  0
LWPOLYLINE
  5
EC
330
3C
100
AcDbEntity
  8
1
  6
Continuous
 62
     7
100
AcDbPolyline
 90
        2
 70
     1
 43
0.0
 10
1600.393275262976
 20
1326.765574056587
 42
1.0
 10
1600.393275262976
 20
1318.265574056587
 42
1.0
  0
LWPOLYLINE
  5
ED
330
3C
100
AcDbEntity
  8
1
  6
Continuous
 62
     7
100
AcDbPolyline
 90
        2
 70
     1
 43
0.0
 10
1600.393275262976
 20
1326.015574056587
 42
1.0
 10
1600.393275262976
 20
1319.015574056587
 42
1.0
  0
LWPOLYLINE
  5
EE
330
3C
100
AcDbEntity
  8
1
  6
Continuous
 62
     7
100
AcDbPolyline
 90
        2
 70
     1
 43
0.0
 10
1575.393275262976
 20
1331.515574056587
 42
1.0
 10
1575.393275262976
 20
1313.515574056587
 42
1.0
  0
LWPOLYLINE
  5
EF
330
3C
100
AcDbEntity
  8
1
  6
Continuous
 62
     7
100
AcDbPolyline
 90
        2
 70
     1
 43
0.0
 10
1575.393275262976
 20
1326.765574056587
 42
1.0
 10
1575.393275262976
 20
1318.265574056587
 42
1.0
  0
LWPOLYLINE
  5
F0
330
3C
100
AcDbEntity
  8
1
  6
Continuous
 62
     7
100
AcDbPolyline
 90
        2
 70
     1
 43
0.0
 10
1575.393275262976
 20
1326.015574056587
 42
1.0
 10
1575.393275262976
 20
1319.015574056587
 42
1.0
  0
LWPOLYLINE
  5
F1
330
3C
100
AcDbEntity
  8
1
  6
Continuous
 62
     7
100
AcDbPolyline
 90
        2
 70
     1
 43
0.0
 10
1575.393275262976
 20
1331.515574056587
 42
1.0
 10
1575.393275262976
 20
1313.515574056587
 42
1.0
  0
LWPOLYLINE
  5
F2
330
3C
100
AcDbEntity
  8
1
  6
Continuous
 62
     7
100
AcDbPolyline
 90
        2
 70
     1
 43
0.0
 10
1575.393275262976
 20
1326.765574056587
 42
1.0
 10
1575.393275262976
 20
1318.265574056587
 42
1.0
  0
LWPOLYLINE
  5
F3
330
3C
100
AcDbEntity
  8
1
  6
Continuous
 62
     7
100
AcDbPolyline
 90
        2
 70
     1
 43
0.0
 10
1575.393275262976
 20
1326.015574056587
 42
1.0
 10
1575.393275262976
 20
1319.015574056587
 42
1.0
  0
LWPOLYLINE
  5
F4
330
3C
100
AcDbEntity
  8
1
  6
Continuous
 62
     7
100
AcDbPolyline
 90
        2
 70
     1
 43
0.0
 10
1600.393275262976
 20
1331.515574056587
 42
1.0
 10
1600.393275262976
 20
1313.515574056587
 42
1.0
  0
LWPOLYLINE
  5
F5
330
3C
100
AcDbEntity
  8
1
  6
Continuous
 62
     7
100
AcDbPolyline
 90
        2
 70
     1
 43
0.0
 10
1600.393275262976
 20
1326.765574056587
 42
1.0
 10
1600.393275262976
 20
1318.265574056587
 42
1.0
  0
LWPOLYLINE
  5
F6
330
3C
100
AcDbEntity
  8
1
  6
Continuous
 62
     7
100
AcDbPolyline
 90
        2
 70
     1
 43
0.0
 10
1600.393275262976
 20
1326.015574056587
 42
1.0
 10
1600.393275262976
 20
1319.015574056587
 42
1.0
  0
ARC
  5
F7
330
3C
100
AcDbEntity
  8
1
  6
Continuous
 62
     7
100
AcDbCircle
 10
1455.543275262976
 20
1318.515574056587
 30
0.0
 40
5.0
100
AcDbArc
 50
-126.869897645844
 51
-90.0
  0
ARC
  5
F8
330
3C
100
AcDbEntity
  8
1
  6
Continuous
 62
     7
100
AcDbCircle
 10
1455.543275262976
 20
1326.515574056587
 30
0.0
 40
5.0
100
AcDbArc
 50
53.13010235415598
 51
90.0
  0
ARC
  5
F9
330
3C
100
AcDbEntity
  8
1
  6
Continuous
 62
     7
100
AcDbCircle
 10
1455.543275262976
 20
1326.515574056587
 30
0.0
 40
5.0
100
AcDbArc
 50
90.0
 51
126.869897645844
  0
ENDBLK
  5
3E
330
3C
100
AcDbEntity
  8
0
100
AcDbBlockEnd
  0
BLOCK
  5
40
330
3F
100
AcDbEntity
  8
0
100
AcDbBlockBegin
  2
_4
 70
     0
 10
940.4038712276019
 20
1659.317097820034
 30
0.0
  3
_4
  1

  0
LINE
  5
FA
330
3F
100
AcDbEntity
  8
1
  6
Continuous
 62
     7
100
AcDbLine
 10
1584.893275262977
 20
1311.415574056587
 30
0.0
 11
1584.893275262977
 21
1312.515574056587
 31
0.0
  0
LINE
  5
FB
330
3F
100
AcDbEntity
  8
1
  6
Continuous
 62
     7
100
AcDbLine
 10
1461.143275262976
 20
1311.415574056587
 30
0.0
 11
1461.143275262976
 21
1312.515574056587
 31
0.0
  0
LINE
  5
FC
330
3F
100
AcDbEntity
  8
1
  6
Continuous
 62
     7
100
AcDbLine
 10
1467.143275262976
 20
1312.515574056587
 30
0.0
 11
1467.143275262976
 21
1311.415574056587
 31
0.0
  0
LINE
  5
FD
330
3F
100
AcDbEntity
  8
1
  6
Continuous
 62
     7
100
AcDbLine
 10
1590.893275262976
 20
1312.515574056587
 30
0.0
 11
1590.893275262976
 21
1311.415574056587
 31
0.0
  0
ENDBLK
  5
41
330
3F
100
AcDbEntity
  8
0
100
AcDbBlockEnd
  0
BLOCK
  5
47
330
42
100
AcDbEntity
  8
0
100
AcDbBlockBegin
  2
Top__1
 70
     0
 10
-502.427729587066
 20
2.51991132965213
 30
0.0
  3
Top__1
  1

  0
INSERT
  5
43
330
42
100
AcDbEntity
  8
1
100
AcDbBlockReference
  2
_6
 10
1055.768500142072
 20
1525.676474593383
 30
0.0
  0
INSERT
  5
44
330
42
100
AcDbEntity
  8
1
100
AcDbBlockReference
  2
_1
 10
923.3038712276018
 20
1621.515574056587
 30
0.0
  0
INSERT
  5
45
330
42
100
AcDbEntity
  8
1
100
AcDbBlockReference
  2
_2
 10
948.8038712276019
 20
1580.007631515933
 30
0.0
  0
INSERT
  5
46
330
42
100
AcDbEntity
  8
1
100
AcDbBlockReference
  2
_4
 10
940.4038712276019
 20
1659.317097820034
 30
0.0
  0
ENDBLK
  5
48
330
42
100
AcDbEntity
  8
0
100
AcDbBlockEnd
  0
BLOCK
  5
4A
330
49
100
AcDbEntity
  8
0
100
AcDbBlockBegin
  2
_7
 70
     0
 10
1423.78537900556
 20
1184.2
 30
0.0
  3
_7
  1

  0
LINE
  5
FE
330
49
100
AcDbEntity
  8
1
  6
Continuous
 62
     7
100
AcDbLine
 10
1470.043275262976
 20
1278.265574056587
 30
0.0
 11
1477.18287639065
 21
1278.265574056587
 31
0.0
  0
LINE
  5
FF
330
49
100
AcDbEntity
  8
1
  6
Continuous
 62
     7
100
AcDbLine
 10
1470.043275262976
 20
1281.765574056587
 30
0.0
 11
1477.18287639065
 21
1281.765574056587
 31
0.0
  0
LINE
  5
100
330
49
100
AcDbEntity
  8
1
  6
Continuous
 62
     7
100
AcDbLine
 10
1456.18287639065
 20
1280.965574056587
 30
0.0
 11
1456.18287639065
 21
1281.915574056587
 31
0.0
  0
LINE
  5
101
330
49
100
AcDbEntity
  8
1
  6
Continuous
 62
     7
100
AcDbLine
 10
1454.18287639065
 20
1280.965574056587
 30
0.0
 11
1454.18287639065
 21
1279.065574056587
 31
0.0
  0
LINE
  5
102
330
49
100
AcDbEntity
  8
1
  6
Continuous
 62
     7
100
AcDbLine
 10
1456.18287639065
 20
1280.965574056587
 30
0.0
 11
1454.18287639065
 21
1280.965574056587
 31
0.0
  0
LINE
  5
103
330
49
100
AcDbEntity
  8
1
  6
Continuous
 62
     7
100
AcDbLine
 10
1477.18287639065
 20
1279.065574056587
 30
0.0
 11
1477.18287639065
 21
1278.265574056587
 31
0.0
  0
LINE
  5
104
330
49
100
AcDbEntity
  8
1
  6
Continuous
 62
     7
100
AcDbLine
 10
1479.18287639065
 20
1279.065574056587
 30
0.0
 11
1479.18287639065
 21
1280.965574056587
 31
0.0
  0
LINE
  5
105
330
49
100
AcDbEntity
  8
1
  6
Continuous
 62
     7
100
AcDbLine
 10
1479.18287639065
 20
1279.065574056587
 30
0.0
 11
1477.18287639065
 21
1279.065574056587
 31
0.0
  0
LINE
  5
106
330
49
100
AcDbEntity
  8
1
  6
Continuous
 62
     7
100
AcDbLine
 10
1477.18287639065
 20
1280.965574056587
 30
0.0
 11
1477.18287639065
 21
1279.065574056587
 31
0.0
  0
LINE
  5
107
330
49
100
AcDbEntity
  8
1
  6
Continuous
 62
     7
100
AcDbLine
 10
1479.18287639065
 20
1280.965574056587
 30
0.0
 11
1479.18287639065
 21
1281.915574056587
 31
0.0
  0
LINE
  5
108
330
49
100
AcDbEntity
  8
1
  6
Continuous
 62
     7
100
AcDbLine
 10
1477.18287639065
 20
1280.965574056587
 30
0.0
 11
1479.18287639065
 21
1280.965574056587
 31
0.0
  0
LINE
  5
109
330
49
100
AcDbEntity
  8
1
  6
Continuous
 62
     7
100
AcDbLine
 10
1456.18287639065
 20
1279.065574056587
 30
0.0
 11
1456.18287639065
 21
1280.965574056587
 31
0.0
  0
LINE
  5
10A
330
49
100
AcDbEntity
  8
1
  6
Continuous
 62
     7
100
AcDbLine
 10
1454.18287639065
 20
1279.065574056587
 30
0.0
 11
1454.18287639065
 21
1278.115574056587
 31
0.0
  0
LINE
  5
10B
330
49
100
AcDbEntity
  8
1
  6
Continuous
 62
     7
100
AcDbLine
 10
1456.18287639065
 20
1279.065574056587
 30
0.0
 11
1454.18287639065
 21
1279.065574056587
 31
0.0
  0
LINE
  5
10C
330
49
100
AcDbEntity
  8
1
  6
Continuous
 62
     7
100
AcDbLine
 10
1454.18287639065
 20
1280.015574056587
 30
0.0
 11
1456.18287639065
 21
1280.015574056587
 31
0.0
  0
LINE
  5
10D
330
49
100
AcDbEntity
  8
1
  6
DOT_CENTER
 62
     2
100
AcDbLine
 10
1456.18287639065
 20
1280.015574056587
 30
0.0
 11
1477.18287639065
 21
1280.015574056587
 31
0.0
  0
LINE
  5
10E
330
49
100
AcDbEntity
  8
1
  6
DOT_CENTER
 62
     2
100
AcDbLine
 10
1479.18287639065
 20
1280.015574056587
 30
0.0
 11
1480.78537900556
 21
1280.015574056587
 31
0.0
  0
LINE
  5
10F
330
49
100
AcDbEntity
  8
1
  6
Continuous
 62
     7
100
AcDbLine
 10
1477.18287639065
 20
1280.015574056587
 30
0.0
 11
1479.18287639065
 21
1280.015574056587
 31
0.0
  0
LINE
  5
110
330
49
100
AcDbEntity
  8
1
  6
DOT_CENTER
 62
     2
100
AcDbLine
 10
1452.78537900556
 20
1280.015574056587
 30
0.0
 11
1454.18287639065
 21
1280.015574056587
 31
0.0
  0
LINE
  5
111
330
49
100
AcDbEntity
  8
1
  6
Continuous
 62
     7
100
AcDbLine
 10
1477.18287639065
 20
1278.265574056587
 30
0.0
 11
1477.18287639065
 21
1278.115574056587
 31
0.0
  0
LINE
  5
112
330
49
100
AcDbEntity
  8
1
  6
Continuous
 62
     7
100
AcDbLine
 10
1456.18287639065
 20
1278.265574056587
 30
0.0
 11
1456.18287639065
 21
1279.065574056587
 31
0.0
  0
LINE
  5
113
330
49
100
AcDbEntity
  8
1
  6
Continuous
 62
     7
100
AcDbLine
 10
1456.18287639065
 20
1278.265574056587
 30
0.0
 11
1458.243275262976
 21
1278.265574056587
 31
0.0
  0
LINE
  5
114
330
49
100
AcDbEntity
  8
1
  6
Continuous
 62
     7
100
AcDbLine
 10
1477.18287639065
 20
1281.765574056587
 30
0.0
 11
1477.18287639065
 21
1280.965574056587
 31
0.0
  0
LINE
  5
115
330
49
100
AcDbEntity
  8
1
  6
Continuous
 62
     7
100
AcDbLine
 10
1456.18287639065
 20
1281.765574056587
 30
0.0
 11
1458.243275262976
 21
1281.765574056587
 31
0.0
  0
LINE
  5
116
330
49
100
AcDbEntity
  8
1
  6
Continuous
 62
     7
100
AcDbLine
 10
1477.18287639065
 20
1281.915574056587
 30
0.0
 11
1477.18287639065
 21
1281.765574056587
 31
0.0
  0
LINE
  5
117
330
49
100
AcDbEntity
  8
1
  6
Continuous
 62
     7
100
AcDbLine
 10
1479.18287639065
 20
1281.915574056587
 30
0.0
 11
1477.18287639065
 21
1281.915574056587
 31
0.0
  0
LINE
  5
118
330
49
100
AcDbEntity
  8
1
  6
Continuous
 62
     7
100
AcDbLine
 10
1479.18287639065
 20
1278.115574056587
 30
0.0
 11
1479.18287639065
 21
1279.065574056587
 31
0.0
  0
LINE
  5
119
330
49
100
AcDbEntity
  8
1
  6
Continuous
 62
     7
100
AcDbLine
 10
1477.18287639065
 20
1278.115574056587
 30
0.0
 11
1479.18287639065
 21
1278.115574056587
 31
0.0
  0
LINE
  5
11A
330
49
100
AcDbEntity
  8
1
  6
Continuous
 62
     7
100
AcDbLine
 10
1454.18287639065
 20
1281.915574056587
 30
0.0
 11
1454.18287639065
 21
1280.965574056587
 31
0.0
  0
LINE
  5
11B
330
49
100
AcDbEntity
  8
1
  6
Continuous
 62
     7
100
AcDbLine
 10
1456.18287639065
 20
1281.915574056587
 30
0.0
 11
1454.18287639065
 21
1281.915574056587
 31
0.0
  0
LINE
  5
11C
330
49
100
AcDbEntity
  8
1
  6
Continuous
 62
     7
100
AcDbLine
 10
1456.18287639065
 20
1278.115574056587
 30
0.0
 11
1456.18287639065
 21
1278.265574056587
 31
0.0
  0
LINE
  5
11D
330
49
100
AcDbEntity
  8
1
  6
Continuous
 62
     7
100
AcDbLine
 10
1454.18287639065
 20
1278.115574056587
 30
0.0
 11
1456.18287639065
 21
1278.115574056587
 31
0.0
  0
LINE
  5
11E
330
49
100
AcDbEntity
  8
1
  6
Continuous
 62
     7
100
AcDbLine
 10
1427.18287639065
 20
1191.95
 30
0.0
 11
1427.18287639065
 21
1192.9
 31
0.0
  0
LINE
  5
11F
330
49
100
AcDbEntity
  8
1
  6
Continuous
 62
     7
100
AcDbLine
 10
1425.18287639065
 20
1191.95
 30
0.0
 11
1425.18287639065
 21
1190.05
 31
0.0
  0
LINE
  5
120
330
49
100
AcDbEntity
  8
1
  6
Continuous
 62
     7
100
AcDbLine
 10
1427.18287639065
 20
1191.95
 30
0.0
 11
1425.18287639065
 21
1191.95
 31
0.0
  0
LINE
  5
121
330
49
100
AcDbEntity
  8
1
  6
Continuous
 62
     7
100
AcDbLine
 10
1448.18287639065
 20
1190.05
 30
0.0
 11
1448.18287639065
 21
1189.25
 31
0.0
  0
LINE
  5
122
330
49
100
AcDbEntity
  8
1
  6
Continuous
 62
     7
100
AcDbLine
 10
1450.18287639065
 20
1190.05
 30
0.0
 11
1450.18287639065
 21
1191.95
 31
0.0
  0
LINE
  5
123
330
49
100
AcDbEntity
  8
1
  6
Continuous
 62
     7
100
AcDbLine
 10
1450.18287639065
 20
1190.05
 30
0.0
 11
1448.18287639065
 21
1190.05
 31
0.0
  0
LINE
  5
124
330
49
100
AcDbEntity
  8
1
  6
Continuous
 62
     7
100
AcDbLine
 10
1448.18287639065
 20
1191.95
 30
0.0
 11
1448.18287639065
 21
1190.05
 31
0.0
  0
LINE
  5
125
330
49
100
AcDbEntity
  8
1
  6
Continuous
 62
     7
100
AcDbLine
 10
1450.18287639065
 20
1191.95
 30
0.0
 11
1450.18287639065
 21
1192.9
 31
0.0
  0
LINE
  5
126
330
49
100
AcDbEntity
  8
1
  6
Continuous
 62
     7
100
AcDbLine
 10
1448.18287639065
 20
1191.95
 30
0.0
 11
1450.18287639065
 21
1191.95
 31
0.0
  0
LINE
  5
127
330
49
100
AcDbEntity
  8
1
  6
Continuous
 62
     7
100
AcDbLine
 10
1427.18287639065
 20
1190.05
 30
0.0
 11
1427.18287639065
 21
1191.95
 31
0.0
  0
LINE
  5
128
330
49
100
AcDbEntity
  8
1
  6
Continuous
 62
     7
100
AcDbLine
 10
1425.18287639065
 20
1190.05
 30
0.0
 11
1425.18287639065
 21
1189.1
 31
0.0
  0
LINE
  5
129
330
49
100
AcDbEntity
  8
1
  6
Continuous
 62
     7
100
AcDbLine
 10
1427.18287639065
 20
1190.05
 30
0.0
 11
1425.18287639065
 21
1190.05
 31
0.0
  0
LINE
  5
12A
330
49
100
AcDbEntity
  8
1
  6
Continuous
 62
     7
100
AcDbLine
 10
1425.18287639065
 20
1191.0
 30
0.0
 11
1427.18287639065
 21
1191.0
 31
0.0
  0
LINE
  5
12B
330
49
100
AcDbEntity
  8
1
  6
DOT_CENTER
 62
     2
100
AcDbLine
 10
1427.18287639065
 20
1191.0
 30
0.0
 11
1448.18287639065
 21
1191.0
 31
0.0
  0
LINE
  5
12C
330
49
100
AcDbEntity
  8
1
  6
DOT_CENTER
 62
     2
100
AcDbLine
 10
1450.18287639065
 20
1191.0
 30
0.0
 11
1451.78537900556
 21
1191.0
 31
0.0
  0
LINE
  5
12D
330
49
100
AcDbEntity
  8
1
  6
Continuous
 62
     7
100
AcDbLine
 10
1448.18287639065
 20
1191.0
 30
0.0
 11
1450.18287639065
 21
1191.0
 31
0.0
  0
LINE
  5
12E
330
49
100
AcDbEntity
  8
1
  6
DOT_CENTER
 62
     2
100
AcDbLine
 10
1423.78537900556
 20
1191.0
 30
0.0
 11
1425.18287639065
 21
1191.0
 31
0.0
  0
LINE
  5
12F
330
49
100
AcDbEntity
  8
1
  6
Continuous
 62
     7
100
AcDbLine
 10
1448.18287639065
 20
1189.25
 30
0.0
 11
1448.18287639065
 21
1189.1
 31
0.0
  0
LINE
  5
130
330
49
100
AcDbEntity
  8
1
  6
Continuous
 62
     7
100
AcDbLine
 10
1427.18287639065
 20
1189.25
 30
0.0
 11
1427.18287639065
 21
1190.05
 31
0.0
  0
LINE
  5
131
330
49
100
AcDbEntity
  8
1
  6
Continuous
 62
     7
100
AcDbLine
 10
1427.18287639065
 20
1189.25
 30
0.0
 11
1448.18287639065
 21
1189.25
 31
0.0
  0
LINE
  5
132
330
49
100
AcDbEntity
  8
1
  6
Continuous
 62
     7
100
AcDbLine
 10
1448.18287639065
 20
1192.75
 30
0.0
 11
1448.18287639065
 21
1191.95
 31
0.0
  0
LINE
  5
133
330
49
100
AcDbEntity
  8
1
  6
Continuous
 62
     7
100
AcDbLine
 10
1427.18287639065
 20
1192.75
 30
0.0
 11
1448.18287639065
 21
1192.75
 31
0.0
  0
LINE
  5
134
330
49
100
AcDbEntity
  8
1
  6
Continuous
 62
     7
100
AcDbLine
 10
1448.18287639065
 20
1192.9
 30
0.0
 11
1448.18287639065
 21
1192.75
 31
0.0
  0
LINE
  5
135
330
49
100
AcDbEntity
  8
1
  6
Continuous
 62
     7
100
AcDbLine
 10
1450.18287639065
 20
1192.9
 30
0.0
 11
1448.18287639065
 21
1192.9
 31
0.0
  0
LINE
  5
136
330
49
100
AcDbEntity
  8
1
  6
Continuous
 62
     7
100
AcDbLine
 10
1450.18287639065
 20
1189.1
 30
0.0
 11
1450.18287639065
 21
1190.05
 31
0.0
  0
LINE
  5
137
330
49
100
AcDbEntity
  8
1
  6
Continuous
 62
     7
100
AcDbLine
 10
1448.18287639065
 20
1189.1
 30
0.0
 11
1450.18287639065
 21
1189.1
 31
0.0
  0
LINE
  5
138
330
49
100
AcDbEntity
  8
1
  6
Continuous
 62
     7
100
AcDbLine
 10
1425.18287639065
 20
1192.9
 30
0.0
 11
1425.18287639065
 21
1191.95
 31
0.0
  0
LINE
  5
139
330
49
100
AcDbEntity
  8
1
  6
Continuous
 62
     7
100
AcDbLine
 10
1427.18287639065
 20
1192.9
 30
0.0
 11
1425.18287639065
 21
1192.9
 31
0.0
  0
LINE
  5
13A
330
49
100
AcDbEntity
  8
1
  6
Continuous
 62
     7
100
AcDbLine
 10
1427.18287639065
 20
1189.1
 30
0.0
 11
1427.18287639065
 21
1189.25
 31
0.0
  0
LINE
  5
13B
330
49
100
AcDbEntity
  8
1
  6
Continuous
 62
     7
100
AcDbLine
 10
1425.18287639065
 20
1189.1
 30
0.0
 11
1427.18287639065
 21
1189.1
 31
0.0
  0
CIRCLE
  5
13C
330
49
100
AcDbEntity
  8
1
  6
Continuous
 62
     7
100
AcDbCircle
 10
1587.893275262976
 20
1280.015574056587
 30
0.0
 40
1.90000000000009
  0
ENDBLK
  5
4B
330
49
100
AcDbEntity
  8
0
100
AcDbBlockEnd
  0
BLOCK
  5
4D
330
4C
100
AcDbEntity
  8
0
100
AcDbBlockBegin
  2
_3
 70
     0
 10
1566.393275262976
 20
1373.4
 30
0.0
  3
_3
  1

  0
LINE
  5
13D
330
4C
100
AcDbEntity
  8
1
  6
Continuous
 62
     7
100
AcDbLine
 10
1567.393275262976
 20
1390.6
 30
0.0
 11
1571.143275262976
 21
1390.6
 31
0.0
  0
LINE
  5
13E
330
4C
100
AcDbEntity
  8
1
  6
Continuous
 62
     7
100
AcDbLine
 10
1583.393275262976
 20
1396.6
 30
0.0
 11
1567.393275262976
 21
1396.6
 31
0.0
  0
LINE
  5
13F
330
4C
100
AcDbEntity
  8
1
  6
Continuous
 62
     7
100
AcDbLine
 10
1571.143275262976
 20
1390.6
 30
0.0
 11
1571.143275262976
 21
1390.1
 31
0.0
  0
LINE
  5
140
330
4C
100
AcDbEntity
  8
1
  6
Continuous
 62
     7
100
AcDbLine
 10
1571.143275262976
 20
1390.6
 30
0.0
 11
1579.643275262976
 21
1390.6
 31
0.0
  0
LINE
  5
141
330
4C
100
AcDbEntity
  8
1
  6
Continuous
 62
     7
100
AcDbLine
 10
1571.143275262976
 20
1390.1
 30
0.0
 11
1571.393275262976
 21
1390.1
 31
0.0
  0
LINE
  5
142
330
4C
100
AcDbEntity
  8
1
  6
Continuous
 62
     7
100
AcDbLine
 10
1579.643275262976
 20
1390.1
 30
0.0
 11
1579.643275262976
 21
1390.6
 31
0.0
  0
LINE
  5
143
330
4C
100
AcDbEntity
  8
1
  6
Continuous
 62
     7
100
AcDbLine
 10
1579.643275262976
 20
1390.6
 30
0.0
 11
1583.393275262976
 21
1390.6
 31
0.0
  0
LINE
  5
144
330
4C
100
AcDbEntity
  8
1
  6
Continuous
 62
     7
100
AcDbLine
 10
1579.393275262976
 20
1390.1
 30
0.0
 11
1579.643275262976
 21
1390.1
 31
0.0
  0
LINE
  5
145
330
4C
100
AcDbEntity
  8
1
  6
Continuous
 62
     7
100
AcDbLine
 10
1604.643275262976
 20
1390.6
 30
0.0
 11
1608.393275262976
 21
1390.6
 31
0.0
  0
LINE
  5
146
330
4C
100
AcDbEntity
  8
1
  6
Continuous
 62
     7
100
AcDbLine
 10
1608.393275262976
 20
1396.6
 30
0.0
 11
1592.393275262976
 21
1396.6
 31
0.0
  0
LINE
  5
147
330
4C
100
AcDbEntity
  8
1
  6
Continuous
 62
     7
100
AcDbLine
 10
1604.643275262976
 20
1390.1
 30
0.0
 11
1604.643275262976
 21
1390.6
 31
0.0
  0
LINE
  5
148
330
4C
100
AcDbEntity
  8
1
  6
Continuous
 62
     7
100
AcDbLine
 10
1596.143275262976
 20
1390.6
 30
0.0
 11
1604.643275262976
 21
1390.6
 31
0.0
  0
LINE
  5
149
330
4C
100
AcDbEntity
  8
1
  6
Continuous
 62
     7
100
AcDbLine
 10
1604.393275262976
 20
1390.1
 30
0.0
 11
1604.643275262976
 21
1390.1
 31
0.0
  0
LINE
  5
14A
330
4C
100
AcDbEntity
  8
1
  6
Continuous
 62
     7
100
AcDbLine
 10
1596.143275262976
 20
1390.6
 30
0.0
 11
1596.143275262976
 21
1390.1
 31
0.0
  0
LINE
  5
14B
330
4C
100
AcDbEntity
  8
1
  6
Continuous
 62
     7
100
AcDbLine
 10
1592.393275262976
 20
1390.6
 30
0.0
 11
1596.143275262976
 21
1390.6
 31
0.0
  0
LINE
  5
14C
330
4C
100
AcDbEntity
  8
1
  6
Continuous
 62
     7
100
AcDbLine
 10
1596.143275262976
 20
1390.1
 30
0.0
 11
1596.393275262976
 21
1390.1
 31
0.0
  0
LINE
  5
14D
330
4C
100
AcDbEntity
  8
1
  6
Continuous
 62
     7
100
AcDbLine
 10
1571.143275262976
 20
1379.4
 30
0.0
 11
1567.393275262976
 21
1379.4
 31
0.0
  0
LINE
  5
14E
330
4C
100
AcDbEntity
  8
1
  6
Continuous
 62
     7
100
AcDbLine
 10
1567.393275262976
 20
1373.4
 30
0.0
 11
1583.393275262976
 21
1373.4
 31
0.0
  0
LINE
  5
14F
330
4C
100
AcDbEntity
  8
1
  6
Continuous
 62
     7
100
AcDbLine
 10
1571.143275262976
 20
1379.9
 30
0.0
 11
1571.143275262976
 21
1379.4
 31
0.0
  0
LINE
  5
150
330
4C
100
AcDbEntity
  8
1
  6
Continuous
 62
     7
100
AcDbLine
 10
1579.643275262976
 20
1379.4
 30
0.0
 11
1571.143275262976
 21
1379.4
 31
0.0
  0
LINE
  5
151
330
4C
100
AcDbEntity
  8
1
  6
Continuous
 62
     7
100
AcDbLine
 10
1571.393275262976
 20
1379.9
 30
0.0
 11
1571.143275262976
 21
1379.9
 31
0.0
  0
LINE
  5
152
330
4C
100
AcDbEntity
  8
1
  6
Continuous
 62
     7
100
AcDbLine
 10
1579.643275262976
 20
1379.4
 30
0.0
 11
1579.643275262976
 21
1379.9
 31
0.0
  0
LINE
  5
153
330
4C
100
AcDbEntity
  8
1
  6
Continuous
 62
     7
100
AcDbLine
 10
1583.393275262976
 20
1379.4
 30
0.0
 11
1579.643275262976
 21
1379.4
 31
0.0
  0
LINE
  5
154
330
4C
100
AcDbEntity
  8
1
  6
Continuous
 62
     7
100
AcDbLine
 10
1579.643275262976
 20
1379.9
 30
0.0
 11
1579.393275262976
 21
1379.9
 31
0.0
  0
LINE
  5
155
330
4C
100
AcDbEntity
  8
1
  6
Continuous
 62
     7
100
AcDbLine
 10
1608.393275262976
 20
1379.4
 30
0.0
 11
1604.643275262976
 21
1379.4
 31
0.0
  0
LINE
  5
156
330
4C
100
AcDbEntity
  8
1
  6
Continuous
 62
     7
100
AcDbLine
 10
1592.393275262976
 20
1373.4
 30
0.0
 11
1608.393275262976
 21
1373.4
 31
0.0
  0
LINE
  5
157
330
4C
100
AcDbEntity
  8
1
  6
Continuous
 62
     7
100
AcDbLine
 10
1604.643275262976
 20
1379.4
 30
0.0
 11
1604.643275262976
 21
1379.9
 31
0.0
  0
LINE
  5
158
330
4C
100
AcDbEntity
  8
1
  6
Continuous
 62
     7
100
AcDbLine
 10
1604.643275262976
 20
1379.4
 30
0.0
 11
1596.143275262976
 21
1379.4
 31
0.0
  0
LINE
  5
159
330
4C
100
AcDbEntity
  8
1
  6
Continuous
 62
     7
100
AcDbLine
 10
1604.643275262976
 20
1379.9
 30
0.0
 11
1604.393275262976
 21
1379.9
 31
0.0
  0
LINE
  5
15A
330
4C
100
AcDbEntity
  8
1
  6
Continuous
 62
     7
100
AcDbLine
 10
1596.143275262976
 20
1379.9
 30
0.0
 11
1596.143275262976
 21
1379.4
 31
0.0
  0
LINE
  5
15B
330
4C
100
AcDbEntity
  8
1
  6
Continuous
 62
     7
100
AcDbLine
 10
1596.143275262976
 20
1379.4
 30
0.0
 11
1592.393275262976
 21
1379.4
 31
0.0
  0
LINE
  5
15C
330
4C
100
AcDbEntity
  8
1
  6
Continuous
 62
     7
100
AcDbLine
 10
1596.393275262976
 20
1379.9
 30
0.0
 11
1596.143275262976
 21
1379.9
 31
0.0
  0
ARC
  5
15D
330
4C
100
AcDbEntity
  8
1
  6
Continuous
 62
     7
100
AcDbCircle
 10
1571.393275262976
 20
1393.6
 30
0.0
 40
5.0
100
AcDbArc
 50
143.130102354156
 51
180.0
  0
ARC
  5
15E
330
4C
100
AcDbEntity
  8
1
  6
Continuous
 62
     7
100
AcDbCircle
 10
1571.393275262976
 20
1393.6
 30
0.0
 40
5.0
100
AcDbArc
 50
180.0
 51
-143.130102354156
  0
ARC
  5
15F
330
4C
100
AcDbEntity
  8
1
  6
Continuous
 62
     7
100
AcDbCircle
 10
1579.393275262976
 20
1393.6
 30
0.0
 40
5.0
100
AcDbArc
 50
0.0
 51
36.86989764584403
  0
ARC
  5
160
330
4C
100
AcDbEntity
  8
1
  6
Continuous
 62
     7
100
AcDbCircle
 10
1579.393275262976
 20
1393.6
 30
0.0
 40
5.0
100
AcDbArc
 50
-36.86989764584403
 51
0.0
  0
ARC
  5
161
330
4C
100
AcDbEntity
  8
1
  6
Continuous
 62
     7
100
AcDbCircle
 10
1604.393275262976
 20
1393.6
 30
0.0
 40
5.0
100
AcDbArc
 50
0.0
 51
36.86989764584403
  0
ARC
  5
162
330
4C
100
AcDbEntity
  8
1
  6
Continuous
 62
     7
100
AcDbCircle
 10
1604.393275262976
 20
1393.6
 30
0.0
 40
5.0
100
AcDbArc
 50
-36.86989764584403
 51
0.0
  0
ARC
  5
163
330
4C
100
AcDbEntity
  8
1
  6
Continuous
 62
     7
100
AcDbCircle
 10
1596.393275262976
 20
1393.6
 30
0.0
 40
5.0
100
AcDbArc
 50
143.130102354156
 51
180.0
  0
ARC
  5
164
330
4C
100
AcDbEntity
  8
1
  6
Continuous
 62
     7
100
AcDbCircle
 10
1596.393275262976
 20
1393.6
 30
0.0
 40
5.0
100
AcDbArc
 50
180.0
 51
-143.130102354156
  0
ARC
  5
165
330
4C
100
AcDbEntity
  8
1
  6
Continuous
 62
     7
100
AcDbCircle
 10
1571.393275262976
 20
1376.4
 30
0.0
 40
5.0
100
AcDbArc
 50
180.0
 51
-143.130102354156
  0
ARC
  5
166
330
4C
100
AcDbEntity
  8
1
  6
Continuous
 62
     7
100
AcDbCircle
 10
1571.393275262976
 20
1376.4
 30
0.0
 40
5.0
100
AcDbArc
 50
143.130102354156
 51
180.0
  0
ARC
  5
167
330
4C
100
AcDbEntity
  8
1
  6
Continuous
 62
     7
100
AcDbCircle
 10
1579.393275262976
 20
1376.4
 30
0.0
 40
5.0
100
AcDbArc
 50
-36.86989764584403
 51
0.0
  0
ARC
  5
168
330
4C
100
AcDbEntity
  8
1
  6
Continuous
 62
     7
100
AcDbCircle
 10
1579.393275262976
 20
1376.4
 30
0.0
 40
5.0
100
AcDbArc
 50
0.0
 51
36.86989764584403
  0
ARC
  5
169
330
4C
100
AcDbEntity
  8
1
  6
Continuous
 62
     7
100
AcDbCircle
 10
1604.393275262976
 20
1376.4
 30
0.0
 40
5.0
100
AcDbArc
 50
-36.86989764584403
 51
0.0
  0
ARC
  5
16A
330
4C
100
AcDbEntity
  8
1
  6
Continuous
 62
     7
100
AcDbCircle
 10
1604.393275262976
 20
1376.4
 30
0.0
 40
5.0
100
AcDbArc
 50
0.0
 51
36.86989764584403
  0
ARC
  5
16B
330
4C
100
AcDbEntity
  8
1
  6
Continuous
 62
     7
100
AcDbCircle
 10
1596.393275262976
 20
1376.4
 30
0.0
 40
5.0
100
AcDbArc
 50
180.0
 51
-143.130102354156
  0
ARC
  5
16C
330
4C
100
AcDbEntity
  8
1
  6
Continuous
 62
     7
100
AcDbCircle
 10
1596.393275262976
 20
1376.4
 30
0.0
 40
5.0
100
AcDbArc
 50
143.130102354156
 51
180.0
  0
ENDBLK
  5
4E
330
4C
100
AcDbEntity
  8
0
100
AcDbBlockEnd
  0
ENDSEC
  0
SECTION
  2
ENTITIES
  0
LINE
  5
181
330
1F
100
AcDbEntity
  8
1
  6
Continuous
 62
     7
100
AcDbLine
 10
1581.993275262976
 20
1305.015574056587
 30
0.0
 11
1581.993275262976
 21
1270.515574056587
 31
0.0
  0
LINE
  5
182
330
1F
100
AcDbEntity
  8
1
  6
Continuous
 62
     7
100
AcDbLine
 10
1581.993275262976
 20
1305.015574056587
 30
0.0
 11
1593.793275262976
 21
1305.015574056587
 31
0.0
  0
LINE
  5
183
330
1F
100
AcDbEntity
  8
1
  6
Continuous
 62
     7
100
AcDbLine
 10
1458.243275262976
 20
1305.015574056587
 30
0.0
 11
1458.243275262976
 21
1270.515574056587
 31
0.0
  0
LINE
  5
184
330
1F
100
AcDbEntity
  8
1
  6
Continuous
 62
     7
100
AcDbLine
 10
1458.243275262976
 20
1305.015574056587
 30
0.0
 11
1470.043275262976
 21
1305.015574056587
 31
0.0
  0
LINE
  5
185
330
1F
100
AcDbEntity
  8
1
  6
Continuous
 62
     7
100
AcDbLine
 10
1587.893275262976
 20
1311.415574056587
 30
0.0
 11
1587.893275262976
 21
1307.615574056587
 31
0.0
  0
LINE
  5
186
330
1F
100
AcDbEntity
  8
1
  6
Continuous
 62
     7
100
AcDbLine
 10
1583.893275262976
 20
1311.415574056587
 30
0.0
 11
1583.893275262976
 21
1307.615574056587
 31
0.0
  0
LINE
  5
187
330
1F
100
AcDbEntity
  8
1
  6
Continuous
 62
     7
100
AcDbLine
 10
1591.893275262976
 20
1311.415574056587
 30
0.0
 11
1583.893275262976
 21
1311.415574056587
 31
0.0
  0
LINE
  5
188
330
1F
100
AcDbEntity
  8
1
  6
Continuous
 62
     7
100
AcDbLine
 10
1591.893275262976
 20
1307.615574056587
 30
0.0
 11
1591.893275262976
 21
1311.415574056587
 31
0.0
  0
LINE
  5
189
330
1F
100
AcDbEntity
  8
1
  6
Continuous
 62
     7
100
AcDbLine
 10
1567.893275262976
 20
1307.615574056587
 30
0.0
 11
1567.893275262976
 21
1305.015574056587
 31
0.0
  0
LINE
  5
18A
330
1F
100
AcDbEntity
  8
1
  6
Continuous
 62
     7
100
AcDbLine
 10
1607.893275262976
 20
1307.615574056587
 30
0.0
 11
1567.893275262976
 21
1307.615574056587
 31
0.0
  0
LINE
  5
18B
330
1F
100
AcDbEntity
  8
1
  6
Continuous
 62
     7
100
AcDbLine
 10
1607.893275262976
 20
1305.015574056587
 30
0.0
 11
1607.893275262976
 21
1307.615574056587
 31
0.0
  0
LINE
  5
18C
330
1F
100
AcDbEntity
  8
1
  6
Continuous
 62
     7
100
AcDbLine
 10
1567.893275262976
 20
1305.015574056587
 30
0.0
 11
1607.893275262976
 21
1305.015574056587
 31
0.0
  0
LINE
  5
18D
330
1F
100
AcDbEntity
  8
1
  6
Continuous
 62
     7
100
AcDbLine
 10
1585.493275262976
 20
1278.265574056587
 30
0.0
 11
1587.153342833628
 21
1278.265574056587
 31
0.0
  0
LINE
  5
18E
330
1F
100
AcDbEntity
  8
1
  6
Continuous
 62
     7
100
AcDbLine
 10
1584.743275262976
 20
1281.765574056587
 30
0.0
 11
1587.153342833628
 21
1281.765574056587
 31
0.0
  0
LINE
  5
18F
330
1F
100
AcDbEntity
  8
1
  6
Continuous
 62
     7
100
AcDbLine
 10
1582.993275262976
 20
1280.015574056587
 30
0.0
 11
1582.993275262976
 21
1272.015574056587
 31
0.0
  0
LINE
  5
190
330
1F
100
AcDbEntity
  8
1
  6
Continuous
 62
     7
100
AcDbLine
 10
1584.993275262976
 20
1277.765574056587
 30
0.0
 11
1584.993275262976
 21
1272.015574056587
 31
0.0
  0
LINE
  5
191
330
1F
100
AcDbEntity
  8
1
  6
Continuous
 62
     7
100
AcDbLine
 10
1586.993275262976
 20
1270.015574056587
 30
0.0
 11
1593.293275262976
 21
1270.015574056587
 31
0.0
  0
LINE
  5
192
330
1F
100
AcDbEntity
  8
1
  6
Continuous
 62
     7
100
AcDbLine
 10
1584.993275262976
 20
1272.015574056587
 30
0.0
 11
1586.993275262976
 21
1270.015574056587
 31
0.0
  0
LINE
  5
193
330
1F
100
AcDbEntity
  8
1
  6
Continuous
 62
     7
100
AcDbLine
 10
1582.993275262976
 20
1272.015574056587
 30
0.0
 11
1582.493275262976
 21
1270.015574056587
 31
0.0
  0
LINE
  5
194
330
1F
100
AcDbEntity
  8
1
  6
Continuous
 62
     7
100
AcDbLine
 10
1470.043275262976
 20
1270.515574056587
 30
0.0
 11
1470.043275262976
 21
1305.015574056587
 31
0.0
  0
LINE
  5
195
330
1F
100
AcDbEntity
  8
1
  6
Continuous
 62
     7
100
AcDbLine
 10
1458.743275262976
 20
1270.015574056587
 30
0.0
 11
1469.543275262976
 21
1270.015574056587
 31
0.0
  0
LINE
  5
196
330
1F
100
AcDbEntity
  8
1
  6
Continuous
 62
     7
100
AcDbLine
 10
1593.793275262976
 20
1270.515574056587
 30
0.0
 11
1593.793275262976
 21
1305.015574056587
 31
0.0
  0
LINE
  5
197
330
1F
100
AcDbEntity
  8
1
  6
Continuous
 62
     7
100
AcDbLine
 10
1582.493275262976
 20
1270.015574056587
 30
0.0
 11
1586.993275262976
 21
1270.015574056587
 31
0.0
  0
LINE
  5
198
330
1F
100
AcDbEntity
  8
1
  6
Continuous
 62
     7
100
AcDbLine
 10
1461.833874186217
 20
1311.415574056587
 30
0.0
 11
1459.524473109459
 21
1311.415574056587
 31
0.0
  0
LINE
  5
199
330
1F
100
AcDbEntity
  8
1
  6
Continuous
 62
     7
100
AcDbLine
 10
1461.833874186217
 20
1311.415574056587
 30
0.0
 11
1461.833874186217
 21
1307.615574056587
 31
0.0
  0
LINE
  5
19A
330
1F
100
AcDbEntity
  8
1
  6
Continuous
 62
     7
100
AcDbLine
 10
1466.452676339734
 20
1311.415574056587
 30
0.0
 11
1461.833874186217
 21
1311.415574056587
 31
0.0
  0
LINE
  5
19B
330
1F
100
AcDbEntity
  8
1
  6
Continuous
 62
     7
100
AcDbLine
 10
1466.452676339734
 20
1311.415574056587
 30
0.0
 11
1466.452676339734
 21
1307.615574056587
 31
0.0
  0
LINE
  5
19C
330
1F
100
AcDbEntity
  8
1
  6
Continuous
 62
     7
100
AcDbLine
 10
1468.630899306364
 20
1311.415574056587
 30
0.0
 11
1466.452676339734
 21
1311.415574056587
 31
0.0
  0
LINE
  5
19D
330
1F
100
AcDbEntity
  8
1
  6
Continuous
 62
     7
100
AcDbLine
 10
1468.630899306364
 20
1307.615574056587
 30
0.0
 11
1468.630899306364
 21
1311.415574056587
 31
0.0
  0
LINE
  5
19E
330
1F
100
AcDbEntity
  8
1
  6
Continuous
 62
     7
100
AcDbLine
 10
1459.524473109459
 20
1311.415574056587
 30
0.0
 11
1459.524473109459
 21
1307.615574056587
 31
0.0
  0
LINE
  5
19F
330
1F
100
AcDbEntity
  8
1
  6
Continuous
 62
     7
100
AcDbLine
 10
1477.143275262976
 20
1307.615574056587
 30
0.0
 11
1451.143275262976
 21
1307.615574056587
 31
0.0
  0
LINE
  5
1A0
330
1F
100
AcDbEntity
  8
1
  6
Continuous
 62
     7
100
AcDbLine
 10
1477.143275262976
 20
1305.015574056587
 30
0.0
 11
1477.143275262976
 21
1307.615574056587
 31
0.0
  0
LINE
  5
1A1
330
1F
100
AcDbEntity
  8
1
  6
Continuous
 62
     7
100
AcDbLine
 10
1451.143275262976
 20
1305.015574056587
 30
0.0
 11
1477.143275262976
 21
1305.015574056587
 31
0.0
  0
LINE
  5
1A2
330
1F
100
AcDbEntity
  8
1
  6
Continuous
 62
     7
100
AcDbLine
 10
1451.143275262976
 20
1307.615574056587
 30
0.0
 11
1451.143275262976
 21
1305.015574056587
 31
0.0
  0
LINE
  5
1A3
330
1F
100
AcDbEntity
  8
1
  6
DOT_CENTER
 62
     2
100
AcDbLine
 10
1580.993275262976
 20
1280.015574056587
 30
0.0
 11
1594.793275262976
 21
1280.015574056587
 31
0.0
  0
LINE
  5
1A4
330
1F
100
AcDbEntity
  8
1
  6
Continuous
 62
     7
100
AcDbLine
 10
1459.143275262976
 20
1326.515574056587
 30
0.0
 11
1459.043275262976
 21
1326.515574056587
 31
0.0
  0
ARC
  5
1C1
330
1F
100
AcDbEntity
  8
1
  6
Continuous
 62
     7
100
AcDbCircle
 10
1585.493275262976
 20
1277.765574056587
 30
0.0
 40
0.5
100
AcDbArc
 50
90.0
 51
180.0
  0
ARC
  5
1C2
330
1F
100
AcDbEntity
  8
1
  6
Continuous
 62
     7
100
AcDbCircle
 10
1584.743275262976
 20
1280.015574056587
 30
0.0
 40
1.75
100
AcDbArc
 50
90.0
 51
180.0
  0
ARC
  5
1C3
330
1F
100
AcDbEntity
  8
1
  6
Continuous
 62
     7
100
AcDbCircle
 10
1469.543275262976
 20
1270.515574056587
 30
0.0
 40
0.5
100
AcDbArc
 50
-90.0
 51
0.0
  0
ARC
  5
1C4
330
1F
100
AcDbEntity
  8
1
  6
Continuous
 62
     7
100
AcDbCircle
 10
1458.743275262976
 20
1270.515574056587
 30
0.0
 40
0.5
100
AcDbArc
 50
180.0
 51
-90.0
  0
ARC
  5
1C5
330
1F
100
AcDbEntity
  8
1
  6
Continuous
 62
     7
100
AcDbCircle
 10
1593.293275262976
 20
1270.515574056587
 30
0.0
 40
0.5
100
AcDbArc
 50
-90.0
 51
0.0
  0
ARC
  5
1C6
330
1F
100
AcDbEntity
  8
1
  6
Continuous
 62
     7
100
AcDbCircle
 10
1582.493275262976
 20
1270.515574056587
 30
0.0
 40
0.5
100
AcDbArc
 50
180.0
 51
-90.0
  0
INSERT
  5
249
330
1F
100
AcDbEntity
  8
1
100
AcDbBlockReference
  2
_6
 10
1055.768500142072
 20
1525.676474593383
 30
0.0
  0
INSERT
  5
24B
330
1F
100
AcDbEntity
  8
1
100
AcDbBlockReference
  2
_2
 10
948.8038712276019
 20
1580.007631515933
 30
0.0
  0
INSERT
  5
24C
330
1F
100
AcDbEntity
  8
1
100
AcDbBlockReference
  2
_4
 10
940.4038712276019
 20
1659.317097820034
 30
0.0
  0
CIRCLE
  5
28B
330
1F
100
AcDbEntity
  8
1
  6
Continuous
 62
     7
100
AcDbCircle
 10
1587.893275262976
 20
1280.015574056587
 30
0.0
 40
1.90000000000009
  0
LINE
  5
28C
330
1F
100
AcDbEntity
  8
1
  6
DOT_CENTER
 62
     2
100
AcDbLine
 10
1586.24023392265
 20
1325.515574056587
 30
0.0
 11
1589.546316603302
 21
1325.515574056587
 31
0.0
  0
LINE
  5
28D
330
1F
100
AcDbEntity
  8
1
  6
Continuous
 62
     7
100
AcDbLine
 10
1591.173730805683
 20
1315.515574056587
 30
0.0
 11
1584.612819720269
 21
1315.515574056587
 31
0.0
  0
LINE
  5
28E
330
1F
100
AcDbEntity
  8
1
  6
Continuous
 62
     7
100
AcDbLine
 10
1566.893275262977
 20
1328.015574056587
 30
0.0
 11
1568.269371838589
 21
1328.015574056587
 31
0.0
  0
LINE
  5
28F
330
1F
100
AcDbEntity
  8
1
  6
Continuous
 62
     7
100
AcDbLine
 10
1565.893275262977
 20
1319.015574056587
 30
0.0
 11
1565.893275262977
 21
1327.015574056587
 31
0.0
  0
LINE
  5
290
330
1F
100
AcDbEntity
  8
1
  6
Continuous
 62
     7
100
AcDbLine
 10
1607.893275262977
 20
1315.515574056587
 30
0.0
 11
1609.693275262977
 21
1317.315574056587
 31
0.0
  0
LINE
  5
291
330
1F
100
AcDbEntity
  8
1
  6
Continuous
 62
     7
100
AcDbLine
 10
1609.693275262977
 20
1317.315574056587
 30
0.0
 11
1626.893275262977
 21
1317.315574056587
 31
0.0
  0
LINE
  5
292
330
1F
100
AcDbEntity
  8
1
  6
Continuous
 62
     7
100
AcDbLine
 10
1591.893275262976
 20
1312.515574056587
 30
0.0
 11
1583.893275262976
 21
1312.515574056587
 31
0.0
  0
LINE
  5
293
330
1F
100
AcDbEntity
  8
1
  6
Continuous
 62
     7
100
AcDbLine
 10
1613.193275262977
 20
1322.715574056587
 30
0.0
 11
1626.893275262977
 21
1322.715574056587
 31
0.0
  0
LINE
  5
294
330
1F
100
AcDbEntity
  8
1
  6
Continuous
 62
     7
100
AcDbLine
 10
1627.893275262977
 20
1321.715574056587
 30
0.0
 11
1627.893275262977
 21
1318.315574056587
 31
0.0
  0
LINE
  5
295
330
1F
100
AcDbEntity
  8
1
  6
Continuous
 62
     7
100
AcDbLine
 10
1607.893275262977
 20
1328.015574056587
 30
0.0
 11
1613.193275262977
 21
1322.715574056587
 31
0.0
  0
LINE
  5
296
330
1F
100
AcDbEntity
  8
1
  6
Continuous
 62
     7
100
AcDbLine
 10
1606.050129512469
 20
1315.515574056587
 30
0.0
 11
1607.893275262977
 21
1315.515574056587
 31
0.0
  0
LINE
  5
297
330
1F
100
AcDbEntity
  8
1
  6
Continuous
 62
     7
100
AcDbLine
 10
1607.517178687364
 20
1328.015574056587
 30
0.0
 11
1607.893275262977
 21
1328.015574056587
 31
0.0
  0
LINE
  5
298
330
1F
100
AcDbEntity
  8
1
  6
Continuous
 62
     7
100
AcDbLine
 10
1582.517178687364
 20
1328.015574056587
 30
0.0
 11
1593.269371838589
 21
1328.015574056587
 31
0.0
  0
LINE
  5
299
330
1F
100
AcDbEntity
  8
1
  6
Continuous
 62
     7
100
AcDbLine
 10
1566.893275262977
 20
1318.015574056587
 30
0.0
 11
1567.601550893905
 21
1318.015574056587
 31
0.0
  0
LINE
  5
29A
330
1F
100
AcDbEntity
  8
1
  6
Continuous
 62
     7
100
AcDbLine
 10
1469.143275262976
 20
1318.515574056587
 30
0.0
 11
1469.243275262976
 21
1318.515574056587
 31
0.0
  0
LINE
  5
29B
330
1F
100
AcDbEntity
  8
1
  6
Continuous
 62
     7
100
AcDbLine
 10
1469.243275262976
 20
1326.515574056587
 30
0.0
 11
1469.143275262976
 21
1326.515574056587
 31
0.0
  0
LINE
  5
29C
330
1F
100
AcDbEntity
  8
1
  6
Continuous
 62
     7
100
AcDbLine
 10
1469.243275262976
 20
1326.515574056587
 30
0.0
 11
1469.243275262976
 21
1318.515574056587
 31
0.0
  0
LINE
  5
29D
330
1F
100
AcDbEntity
  8
1
  6
Continuous
 62
     7
100
AcDbLine
 10
1459.043275262976
 20
1318.515574056587
 30
0.0
 11
1459.143275262976
 21
1318.515574056587
 31
0.0
  0
LINE
  5
29E
330
1F
100
AcDbEntity
  8
1
  6
Continuous
 62
     7
100
AcDbLine
 10
1459.043275262976
 20
1318.515574056587
 30
0.0
 11
1459.043275262976
 21
1326.515574056587
 31
0.0
  0
LINE
  5
29F
330
1F
100
AcDbEntity
  8
1
  6
Continuous
 62
     7
100
AcDbLine
 10
1468.643275262976
 20
1316.515574056587
 30
0.0
 11
1468.643275262976
 21
1327.015574056587
 31
0.0
  0
LINE
  5
2A0
330
1F
100
AcDbEntity
  8
1
  6
Continuous
 62
     7
100
AcDbLine
 10
1459.643275262976
 20
1316.515574056587
 30
0.0
 11
1459.643275262976
 21
1327.015574056587
 31
0.0
  0
LINE
  5
2A1
330
1F
100
AcDbEntity
  8
1
  6
Continuous
 62
     7
100
AcDbLine
 10
1460.643275262976
 20
1312.515574056587
 30
0.0
 11
1467.643275262976
 21
1312.515574056587
 31
0.0
  0
LINE
  5
2A2
330
1F
100
AcDbEntity
  8
1
  6
Continuous
 62
     7
100
AcDbLine
 10
1460.643275262976
 20
1315.515574056587
 30
0.0
 11
1467.643275262976
 21
1315.515574056587
 31
0.0
  0
LINE
  5
2A3
330
1F
100
AcDbEntity
  8
1
  6
Continuous
 62
     7
100
AcDbLine
 10
1460.643275262976
 20
1318.015574056587
 30
0.0
 11
1467.643275262976
 21
1318.015574056587
 31
0.0
  0
LINE
  5
2A4
330
1F
100
AcDbEntity
  8
1
  6
Continuous
 62
     7
100
AcDbLine
 10
1469.743275262976
 20
1328.015574056587
 30
0.0
 11
1458.543275262976
 21
1328.015574056587
 31
0.0
  0
ARC
  5
2CE
330
1F
100
AcDbEntity
  8
1
  6
Continuous
 62
     7
100
AcDbCircle
 10
1584.612819720269
 20
1316.515574056587
 30
0.0
 40
1.000000000000246
100
AcDbArc
 50
146.9442688491891
 51
270.0
  0
ARC
  5
2CF
330
1F
100
AcDbEntity
  8
1
  6
Continuous
 62
     7
100
AcDbCircle
 10
1575.393275262976
 20
1322.515574056587
 30
0.0
 40
9.999999999999905
100
AcDbArc
 50
326.9442688491423
 51
24.14773991702253
  0
ARC
  5
2D0
330
1F
100
AcDbEntity
  8
1
  6
Continuous
 62
     7
100
AcDbCircle
 10
1585.430705212918
 20
1327.015574056587
 30
0.0
 40
1.0
100
AcDbArc
 50
90.0
 51
204.1477399170294
  0
ARC
  5
2D1
330
1F
100
AcDbEntity
  8
1
  6
Continuous
 62
     7
100
AcDbCircle
 10
1591.173730805683
 20
1316.515574056587
 30
0.0
 40
1.0
100
AcDbArc
 50
270.0
 51
33.0557311507754
  0
ARC
  5
2D2
330
1F
100
AcDbEntity
  8
1
  6
Continuous
 62
     7
100
AcDbCircle
 10
1600.393275262977
 20
1322.515574056587
 30
0.0
 40
9.999999999999698
100
AcDbArc
 50
155.8522600829775
 51
213.0557311508577
  0
ARC
  5
2D3
330
1F
100
AcDbEntity
  8
1
  6
Continuous
 62
     7
100
AcDbCircle
 10
1590.355845313035
 20
1327.015574056587
 30
0.0
 40
1.000000000000132
100
AcDbArc
 50
335.8522600829759
 51
90.0000000000521
  0
ARC
  5
2D4
330
1F
100
AcDbEntity
  8
1
  6
Continuous
 62
     7
100
AcDbCircle
 10
1583.893275262976
 20
1313.515574056587
 30
0.0
 40
1.0
100
AcDbArc
 50
180.0
 51
270.0
  0
ARC
  5
2D5
330
1F
100
AcDbEntity
  8
1
  6
Continuous
 62
     7
100
AcDbCircle
 10
1591.893275262976
 20
1313.515574056587
 30
0.0
 40
1.0
100
AcDbArc
 50
270.0
 51
0.0
  0
ARC
  5
2D6
330
1F
100
AcDbEntity
  8
1
  6
Continuous
 62
     7
100
AcDbCircle
 10
1594.893275262976
 20
1313.515574056587
 30
0.0
 40
1.999999999999693
100
AcDbArc
 50
94.29798325534568
 51
180.0
  0
ARC
  5
2D7
330
1F
100
AcDbEntity
  8
1
  6
Continuous
 62
     7
100
AcDbCircle
 10
1580.893275262977
 20
1313.515574056587
 30
0.0
 40
1.999999999998863
100
AcDbArc
 50
0.0
 51
85.70201674466082
  0
ARC
  5
2D8
330
1F
100
AcDbEntity
  8
1
  6
Continuous
 62
     7
100
AcDbCircle
 10
1469.143275262976
 20
1327.015574056587
 30
0.0
 40
0.5
100
AcDbArc
 50
180.0
 51
270.0
  0
ARC
  5
2D9
330
1F
100
AcDbEntity
  8
1
  6
Continuous
 62
     7
100
AcDbCircle
 10
1469.143275262976
 20
1318.015574056587
 30
0.0
 40
0.5
100
AcDbArc
 50
90.0
 51
180.0
  0
ARC
  5
2DA
330
1F
100
AcDbEntity
  8
1
  6
Continuous
 62
     7
100
AcDbCircle
 10
1459.143275262976
 20
1318.015574056587
 30
0.0
 40
0.5
100
AcDbArc
 50
0.0
 51
90.0
  0
ARC
  5
2DB
330
1F
100
AcDbEntity
  8
1
  6
Continuous
 62
     7
100
AcDbCircle
 10
1459.143275262976
 20
1318.015574056587
 30
0.0
 40
0.5
100
AcDbArc
 50
0.0
 51
90.0
  0
ARC
  5
2DC
330
1F
100
AcDbEntity
  8
1
  6
Continuous
 62
     7
100
AcDbCircle
 10
1459.143275262976
 20
1327.015574056587
 30
0.0
 40
0.5
100
AcDbArc
 50
270.0
 51
0.0
  0
CIRCLE
  5
2F5
330
1F
100
AcDbEntity
  8
1
  6
Continuous
 62
     7
100
AcDbCircle
 10
1587.893275262976
 20
1325.515574056587
 30
0.0
 40
1.174999999999045
  0
ARC
  5
2FA
330
1F
100
AcDbEntity
  8
1
  6
Continuous
 62
     7
100
AcDbCircle
 10
1566.893275262977
 20
1319.015574056587
 30
0.0
 40
1.0
100
AcDbArc
 50
180.0
 51
270.0
  0
ARC
  5
2FB
330
1F
100
AcDbEntity
  8
1
  6
Continuous
 62
     7
100
AcDbCircle
 10
1566.893275262977
 20
1327.015574056587
 30
0.0
 40
1.0
100
AcDbArc
 50
90.0
 51
180.0
  0
ARC
  5
2FC
330
1F
100
AcDbEntity
  8
1
  6
Continuous
 62
     7
100
AcDbCircle
 10
1626.893275262977
 20
1321.715574056587
 30
0.0
 40
1.0
100
AcDbArc
 50
0.0
 51
90.0
  0
ARC
  5
2FD
330
1F
100
AcDbEntity
  8
1
  6
Continuous
 62
     7
100
AcDbCircle
 10
1626.893275262977
 20
1318.315574056587
 30
0.0
 40
1.0
100
AcDbArc
 50
270.0
 51
0.0
  0
ARC
  5
2FE
330
1F
100
AcDbEntity
  8
1
  6
Continuous
 62
     7
100
AcDbCircle
 10
1470.643275262976
 20
1313.515574056587
 30
0.0
 40
1.999999999999845
100
AcDbArc
 50
116.7436839504009
 51
180.0
  0
ARC
  5
2FF
330
1F
100
AcDbEntity
  8
1
  6
Continuous
 62
     7
100
AcDbCircle
 10
1467.643275262976
 20
1313.515574056587
 30
0.0
 40
1.0
100
AcDbArc
 50
270.0
 51
0.0
  0
ARC
  5
300
330
1F
100
AcDbEntity
  8
1
  6
Continuous
 62
     7
100
AcDbCircle
 10
1460.643275262976
 20
1313.515574056587
 30
0.0
 40
1.0
100
AcDbArc
 50
180.0
 51
270.0
  0
ARC
  5
301
330
1F
100
AcDbEntity
  8
1
  6
Continuous
 62
     7
100
AcDbCircle
 10
1460.643275262976
 20
1316.515574056587
 30
0.0
 40
1.0
100
AcDbArc
 50
180.0
 51
270.0
  0
ARC
  5
302
330
1F
100
AcDbEntity
  8
1
  6
Continuous
 62
     7
100
AcDbCircle
 10
1467.643275262976
 20
1316.515574056587
 30
0.0
 40
1.0
100
AcDbArc
 50
270.0
 51
0.0
  0
ARC
  5
303
330
1F
100
AcDbEntity
  8
1
  6
Continuous
 62
     7
100
AcDbCircle
 10
1467.643275262976
 20
1327.015574056587
 30
0.0
 40
1.0
100
AcDbArc
 50
0.0
 51
90.0
  0
ARC
  5
304
330
1F
100
AcDbEntity
  8
1
  6
Continuous
 62
     7
100
AcDbCircle
 10
1467.643275262976
 20
1319.015574056587
 30
0.0
 40
1.0
100
AcDbArc
 50
270.0
 51
0.0
  0
ARC
  5
305
330
1F
100
AcDbEntity
  8
1
  6
Continuous
 62
     7
100
AcDbCircle
 10
1460.643275262976
 20
1319.015574056587
 30
0.0
 40
1.0
100
AcDbArc
 50
180.0
 51
270.0
  0
ARC
  5
306
330
1F
100
AcDbEntity
  8
1
  6
Continuous
 62
     7
100
AcDbCircle
 10
1457.643275262976
 20
1313.515574056587
 30
0.0
 40
2.0
100
AcDbArc
 50
0.0
 51
63.25631604959331
  0
ARC
  5
307
330
1F
100
AcDbEntity
  8
1
  6
Continuous
 62
     7
100
AcDbCircle
 10
1460.643275262976
 20
1327.015574056587
 30
0.0
 40
1.0
100
AcDbArc
 50
90.0
 51
180.0
  0
ENDSEC
  0
SECTION
  2
OBJECTS
  0
DICTIONARY
  5
C
330
0
100
AcDbDictionary
281
     1
  3
ACAD_CIP_PREVIOUS_PRODUCT_INFO
350
216
  3
ACAD_COLOR
350
1FF
  3
ACAD_GROUP
350
D
  3
ACAD_LAYOUT
350
1A
  3
ACAD_MATERIAL
350
1CD
  3
ACAD_MLEADERSTYLE
350
212
  3
ACAD_MLINESTYLE
350
17
  3
ACAD_PLOTSETTINGS
350
19
  3
ACAD_PLOTSTYLENAME
350
E
  3
ACAD_SCALELIST
350
200
  3
ACAD_TABLESTYLE
350
2A
  3
ACAD_VISUALSTYLE
350
1E6
  3
ACDB_RECOMPOSE_DATA
350
31D
  3
AcDbVariableDictionary
350
2C
  3
ASE_INDEX_DICTIONARY
350
311
  3
DWGPROPS
350
31E
  0
DICTIONARY
  5
30C
330
10
100
AcDbDictionary
280
     1
281
     1
  3
ADSK_XREC_LAYER_RECONCILED
360
30D
  0
DICTIONARY
  5
30E
330
35
100
AcDbDictionary
280
     1
281
     1
  3
ADSK_XREC_LAYER_RECONCILED
360
30F
  0
DICTIONARY
  5
247
330
1F
100
AcDbDictionary
280
     1
281
     1
  3
ACAD_SORTENTS
360
248
  0
XRECORD
  5
216
102
{ACAD_REACTORS
330
C
102
}
330
C
100
AcDbXrecord
280
     1
300
ACD
300
2012
300
ACD_F_S
  0
DICTIONARY
  5
1FF
102
{ACAD_REACTORS
330
C
102
}
330
C
100
AcDbDictionary
281
     1
  0
DICTIONARY
  5
D
102
{ACAD_REACTORS
330
C
102
}
330
C
100
AcDbDictionary
281
     1
  0
DICTIONARY
  5
1A
102
{ACAD_REACTORS
330
C
102
}
330
C
100
AcDbDictionary
281
     1
  3
Layout1
350
1E
  3
Layout2
350
26
  3
Model
350
22
  0
DICTIONARY
  5
1CD
102
{ACAD_REACTORS
330
C
102
}
330
C
100
AcDbDictionary
281
     1
  3
ByBlock
350
1D6
  3
ByLayer
350
1CE
  3
Global
350
1DE
  0
DICTIONARY
  5
212
102
{ACAD_REACTORS
330
C
102
}
330
C
100
AcDbDictionary
281
     1
  3
Standard
350
213
  0
DICTIONARY
  5
17
102
{ACAD_REACTORS
330
C
102
}
330
C
100
AcDbDictionary
281
     1
  3
Standard
350
18
  0
DICTIONARY
  5
19
102
{ACAD_REACTORS
330
C
102
}
330
C
100
AcDbDictionary
281
     1
  0
ACDBDICTIONARYWDFLT
  5
E
102
{ACAD_REACTORS
330
C
102
}
330
C
100
AcDbDictionary
281
     1
  3
Normal
350
F
100
AcDbDictionaryWithDefault
340
F
  0
DICTIONARY
  5
200
102
{ACAD_REACTORS
330
C
102
}
330
C
100
AcDbDictionary
281
     1
  3
A0
350
201
  3
A1
350
202
  3
A2
350
203
  3
A3
350
204
  3
A4
350
205
  3
A5
350
206
  3
A6
350
207
  3
A7
350
208
  3
A8
350
209
  3
A9
350
20A
  3
B0
350
20B
  3
B1
350
20C
  3
B2
350
20D
  3
B3
350
20E
  3
B4
350
20F
  3
B5
350
210
  3
B6
350
211
  0
DICTIONARY
  5
2A
102
{ACAD_REACTORS
330
C
102
}
330
C
100
AcDbDictionary
281
     1
  3
Standard
350
2B
  0
DICTIONARY
  5
1E6
102
{ACAD_REACTORS
330
C
102
}
330
C
100
AcDbDictionary
281
     1
  3
2dWireframe
350
1EC
  3
Basic
350
1EB
  3
Brighten
350
1F2
  3
ColorChange
350
1F6
  3
Conceptual
350
1EF
  3
Dim
350
1F1
  3
EdgeColorOff
350
1FE
  3
Facepattern
350
1F5
  3
Flat
350
1E7
  3
FlatWithEdges
350
1E8
  3
Gouraud
350
1E9
  3
GouraudWithEdges
350
1EA
  3
Hidden
350
1EE
  3
JitterOff
350
1FC
  3
Linepattern
350
1F4
  3
OverhangOff
350
1FD
  3
Realistic
350
1F0
  3
Shaded
350
1FB
  3
Shaded with edges
350
1FA
  3
Shades of Gray
350
1F7
  3
Sketchy
350
1F8
  3
Thicken
350
1F3
  3
Wireframe
350
1ED
  3
X-Ray
350
1F9
  0
XRECORD
  5
31D
102
{ACAD_REACTORS
330
C
102
}
330
C
100
AcDbXrecord
280
     1
 90
        1
330
2B
  0
DICTIONARY
  5
2C
102
{ACAD_REACTORS
330
C
102
}
330
C
100
AcDbDictionary
281
     1
  3
CANNOSCALE
350
315
  3
CMLEADERSTYLE
350
314
  3
CTABLESTYLE
350
2D
  3
DIMASSOC
350
318
  3
INDEXCTL
350
317
  3
SORTENTS
350
316
  3
XCLIPFRAME
350
319
  0
DICTIONARY
  5
311
102
{ACAD_REACTORS
330
C
102
}
330
C
100
AcDbDictionary
281
     1
  3
ASEBlockHierarchyIndexRecord
350
313
1001
DCO15
1040
1882601067.599
  0
XRECORD
  5
31E
102
{ACAD_REACTORS
330
C
102
}
330
C
100
AcDbXrecord
280
     1
  1
DWGPROPS COOKIE
  2

  3

  4

  6

  7

  8
0035sekine
  9

300
=
301
=
302
=
303
=
304
=
305
=
306
=
307
=
308
=
309
=
 40
0.0015269097222222
 41
2453518.654666158
 42
2457592.576060174
  1

 90
        0
  0
XRECORD
  5
30D
102
{ACAD_REACTORS
330
30C
102
}
330
30C
100
AcDbXrecord
280
     1
290
     1
  0
XRECORD
  5
30F
102
{ACAD_REACTORS
330
30E
102
}
330
30E
100
AcDbXrecord
280
     1
290
     1
  0
SORTENTSTABLE
  5
248
102
{ACAD_REACTORS
330
247
102
}
330
247
100
AcDbSortentsTable
330
1F
331
2D0
  5
1B3
331
194
  5
2D5
331
303
  5
232
331
183
  5
2C4
331
249
  5
50
331
294
  5
177
331
192
  5
2D3
331
2A3
  5
186
331
301
  5
230
331
181
  5
2C2
331
1A3
  5
2E4
331
1C5
  5
306
331
292
  5
175
331
190
  5
2D1
331
2A1
  5
184
331
2FF
  5
22E
331
1A1
  5
2E2
331
1C3
  5
304
331
290
  5
173
331
18E
  5
2CF
331
2FD
  5
22C
331
2DB
  5
1BE
331
29F
  5
182
331
19F
  5
2E0
331
1C1
  5
302
331
28E
  5
171
331
18C
  5
2CD
331
2FB
  5
22A
331
2D9
  5
1BC
331
29D
  5
180
331
19D
  5
2DE
331
28C
  5
16E
331
18A
  5
2CB
331
2D7
  5
1BA
331
29B
  5
17E
331
19B
  5
2DC
331
2CE
  5
1B1
331
188
  5
2C9
331
299
  5
17C
331
2D5
  5
1B8
331
199
  5
2DA
331
2F5
  5
224
331
2D3
  5
1B6
331
24C
  5
23C
331
197
  5
2D8
331
306
  5
235
331
186
  5
2C7
331
297
  5
17A
331
2D1
  5
1B4
331
195
  5
2D6
331
304
  5
233
331
184
  5
2C5
331
295
  5
178
331
193
  5
2D4
331
2A4
  5
187
331
302
  5
231
331
182
  5
2C3
331
1A4
  5
2E5
331
1C6
  5
307
331
293
  5
176
331
191
  5
2D2
331
2A2
  5
185
331
300
  5
22F
331
1A2
  5
2E3
331
1C4
  5
305
331
291
  5
174
331
18F
  5
2D0
331
2A0
  5
183
331
2FE
  5
22D
331
2DC
  5
1BF
331
1A0
  5
2E1
331
1C2
  5
303
331
28F
  5
172
331
18D
  5
2CE
331
2FC
  5
22B
331
2DA
  5
1BD
331
29E
  5
181
331
19E
  5
2DF
331
28D
  5
16F
331
18B
  5
2CC
331
2FA
  5
229
331
2D8
  5
1BB
331
29C
  5
17F
331
19C
  5
2DD
331
2CF
  5
1B2
331
28B
  5
27D
331
189
  5
2CA
331
2D6
  5
1B9
331
29A
  5
17D
331
19A
  5
2DB
331
298
  5
17B
331
2D4
  5
1B7
331
198
  5
2D9
331
307
  5
236
331
187
  5
2C8
331
2D2
  5
1B5
331
24B
  5
23B
331
196
  5
2D7
331
305
  5
234
331
185
  5
2C6
331
296
  5
179
  0
LAYOUT
  5
1E
102
{ACAD_XDICTIONARY
360
31F
102
}
102
{ACAD_REACTORS
330
1A
102
}
330
1A
100
AcDbPlotSettings
  1

  2

  4

  6

 40
0.0
 41
0.0
 42
0.0
 43
0.0
 44
0.0
 45
0.0
 46
0.0
 47
0.0
 48
0.0
 49
0.0
140
0.0
141
0.0
142
1.0
143
1.0
 70
   688
 72
     0
 73
     0
 74
     5
  7

 75
    16
147
1.0
148
0.0
149
0.0
100
AcDbLayout
  1
Layout1
 70
     1
 71
     1
 10
0.0
 20
0.0
 11
12.0
 21
9.0
 12
0.0
 22
0.0
 32
0.0
 14
1.000000000000000E+20
 24
1.000000000000000E+20
 34
1.000000000000000E+20
 15
-1.000000000000000E+20
 25
-1.000000000000000E+20
 35
-1.000000000000000E+20
146
0.0
 13
0.0
 23
0.0
 33
0.0
 16
1.0
 26
0.0
 36
0.0
 17
0.0
 27
1.0
 37
0.0
 76
     0
330
1B
  0
LAYOUT
  5
26
102
{ACAD_XDICTIONARY
360
323
102
}
102
{ACAD_REACTORS
330
1A
102
}
330
1A
100
AcDbPlotSettings
  1

  2

  4

  6

 40
0.0
 41
0.0
 42
0.0
 43
0.0
 44
0.0
 45
0.0
 46
0.0
 47
0.0
 48
0.0
 49
0.0
140
0.0
141
0.0
142
1.0
143
1.0
 70
   688
 72
     0
 73
     0
 74
     5
  7

 75
    16
147
1.0
148
0.0
149
0.0
100
AcDbLayout
  1
Layout2
 70
     1
 71
     2
 10
0.0
 20
0.0
 11
0.0
 21
0.0
 12
0.0
 22
0.0
 32
0.0
 14
0.0
 24
0.0
 34
0.0
 15
0.0
 25
0.0
 35
0.0
146
0.0
 13
0.0
 23
0.0
 33
0.0
 16
1.0
 26
0.0
 36
0.0
 17
0.0
 27
1.0
 37
0.0
 76
     0
330
23
  0
LAYOUT
  5
22
102
{ACAD_XDICTIONARY
360
321
102
}
102
{ACAD_REACTORS
330
1A
102
}
330
1A
100
AcDbPlotSettings
  1

  2

  4

  6

 40
0.0
 41
0.0
 42
0.0
 43
0.0
 44
0.0
 45
0.0
 46
0.0
 47
0.0
 48
0.0
 49
0.0
140
0.0
141
0.0
142
1.0
143
1.0
 70
  1712
 72
     0
 73
     0
 74
     0
  7

 75
     0
147
1.0
148
0.0
149
0.0
100
AcDbLayout
  1
Model
 70
     1
 71
     0
 10
0.0
 20
0.0
 11
0.0
 21
0.0
 12
0.0
 22
0.0
 32
0.0
 14
1423.78537900556
 24
1189.1
 34
0.0
 15
1764.6
 25
1398.6
 35
0.0
146
0.0
 13
0.0
 23
0.0
 33
0.0
 16
1.0
 26
0.0
 36
0.0
 17
0.0
 27
1.0
 37
0.0
 76
     0
330
1F
331
29
  0
MATERIAL
  5
1D6
102
{ACAD_XDICTIONARY
360
1D7
102
}
102
{ACAD_REACTORS
330
1CD
102
}
330
1CD
100
AcDbMaterial
  1
ByBlock
 72
     0
 43
0.0208333333333333
 43
0.0
 43
0.0
 43
0.0
 43
0.0
 43
0.0208333333333333
 43
0.0
 43
0.0
 43
0.0
 43
0.0
 43
1.0
 43
0.0
 43
0.0
 43
0.0
 43
0.0
 43
1.0
 77
     0
 47
0.0208333333333333
 47
0.0
 47
0.0
 47
0.0
 47
0.0
 47
0.0208333333333333
 47
0.0
 47
0.0
 47
0.0
 47
0.0
 47
1.0
 47
0.0
 47
0.0
 47
0.0
 47
0.0
 47
1.0
171
     0
 49
0.0208333333333333
 49
0.0
 49
0.0
 49
0.0
 49
0.0
 49
0.0208333333333333
 49
0.0
 49
0.0
 49
0.0
 49
0.0
 49
1.0
 49
0.0
 49
0.0
 49
0.0
 49
0.0
 49
1.0
175
     0
142
0.0208333333333333
142
0.0
142
0.0
142
0.0
142
0.0
142
0.0208333333333333
142
0.0
142
0.0
142
0.0
142
0.0
142
1.0
142
0.0
142
0.0
142
0.0
142
0.0
142
1.0
179
     0
144
0.0208333333333333
144
0.0
144
0.0
144
0.0
144
0.0
144
0.0208333333333333
144
0.0
144
0.0
144
0.0
144
0.0
144
1.0
144
0.0
144
0.0
144
0.0
144
0.0
144
1.0
147
0.0208333333333333
147
0.0
147
0.0
147
0.0
147
0.0
147
0.0208333333333333
147
0.0
147
0.0
147
0.0
147
0.0
147
1.0
147
0.0
147
0.0
147
0.0
147
0.0
147
1.0
  0
MATERIAL
  5
1CE
102
{ACAD_XDICTIONARY
360
1CF
102
}
102
{ACAD_REACTORS
330
1CD
102
}
330
1CD
100
AcDbMaterial
  1
ByLayer
 72
     0
 43
0.0208333333333333
 43
0.0
 43
0.0
 43
0.0
 43
0.0
 43
0.0208333333333333
 43
0.0
 43
0.0
 43
0.0
 43
0.0
 43
1.0
 43
0.0
 43
0.0
 43
0.0
 43
0.0
 43
1.0
 77
     0
 47
0.0208333333333333
 47
0.0
 47
0.0
 47
0.0
 47
0.0
 47
0.0208333333333333
 47
0.0
 47
0.0
 47
0.0
 47
0.0
 47
1.0
 47
0.0
 47
0.0
 47
0.0
 47
0.0
 47
1.0
171
     0
 49
0.0208333333333333
 49
0.0
 49
0.0
 49
0.0
 49
0.0
 49
0.0208333333333333
 49
0.0
 49
0.0
 49
0.0
 49
0.0
 49
1.0
 49
0.0
 49
0.0
 49
0.0
 49
0.0
 49
1.0
175
     0
142
0.0208333333333333
142
0.0
142
0.0
142
0.0
142
0.0
142
0.0208333333333333
142
0.0
142
0.0
142
0.0
142
0.0
142
1.0
142
0.0
142
0.0
142
0.0
142
0.0
142
1.0
179
     0
144
0.0208333333333333
144
0.0
144
0.0
144
0.0
144
0.0
144
0.0208333333333333
144
0.0
144
0.0
144
0.0
144
0.0
144
1.0
144
0.0
144
0.0
144
0.0
144
0.0
144
1.0
147
0.0208333333333333
147
0.0
147
0.0
147
0.0
147
0.0
147
0.0208333333333333
147
0.0
147
0.0
147
0.0
147
0.0
147
1.0
147
0.0
147
0.0
147
0.0
147
0.0
147
1.0
  0
MATERIAL
  5
1DE
102
{ACAD_XDICTIONARY
360
1DF
102
}
102
{ACAD_REACTORS
330
1CD
102
}
330
1CD
100
AcDbMaterial
  1
Global
 72
     0
 43
0.0208333333333333
 43
0.0
 43
0.0
 43
0.0
 43
0.0
 43
0.0208333333333333
 43
0.0
 43
0.0
 43
0.0
 43
0.0
 43
1.0
 43
0.0
 43
0.0
 43
0.0
 43
0.0
 43
1.0
 77
     0
 47
0.0208333333333333
 47
0.0
 47
0.0
 47
0.0
 47
0.0
 47
0.0208333333333333
 47
0.0
 47
0.0
 47
0.0
 47
0.0
 47
1.0
 47
0.0
 47
0.0
 47
0.0
 47
0.0
 47
1.0
171
     0
 49
0.0208333333333333
 49
0.0
 49
0.0
 49
0.0
 49
0.0
 49
0.0208333333333333
 49
0.0
 49
0.0
 49
0.0
 49
0.0
 49
1.0
 49
0.0
 49
0.0
 49
0.0
 49
0.0
 49
1.0
175
     0
142
0.0208333333333333
142
0.0
142
0.0
142
0.0
142
0.0
142
0.0208333333333333
142
0.0
142
0.0
142
0.0
142
0.0
142
1.0
142
0.0
142
0.0
142
0.0
142
0.0
142
1.0
179
     0
144
0.0208333333333333
144
0.0
144
0.0
144
0.0
144
0.0
144
0.0208333333333333
144
0.0
144
0.0
144
0.0
144
0.0
144
1.0
144
0.0
144
0.0
144
0.0
144
0.0
144
1.0
147
0.0208333333333333
147
0.0
147
0.0
147
0.0
147
0.0
147
0.0208333333333333
147
0.0
147
0.0
147
0.0
147
0.0
147
1.0
147
0.0
147
0.0
147
0.0
147
0.0
147
1.0
  0
MLEADERSTYLE
  5
213
102
{ACAD_REACTORS
330
212
102
}
330
212
100
AcDbMLeaderStyle
170
     2
171
     1
172
     0
 90
        2
 40
0.0
 41
0.0
173
     1
 91
-1056964608
340
14
 92
       -2
290
     1
 42
2.0
291
     1
 43
0.36
  3
Standard
 44
4.0
300

342
11
174
     1
178
     6
175
     1
176
     0
 93
-1056964608
 45
4.0
292
     0
297
     0
 46
4.0
 94
-1056964608
 47
1.0
 49
1.0
140
1.0
293
     1
141
0.0
294
     1
177
     0
142
1.0
295
     0
296
     0
143
0.125
1001
ACAD_MLEADERVER
1070
     2
  0
MLINESTYLE
  5
18
102
{ACAD_REACTORS
330
17
102
}
330
17
100
AcDbMlineStyle
  2
STANDARD
 70
     0
  3

 62
   256
 51
90.0
 52
90.0
 71
     2
 49
0.5
 62
   256
  6
BYLAYER
 49
-0.5
 62
   256
  6
BYLAYER
  0
ACDBPLACEHOLDER
  5
F
102
{ACAD_REACTORS
330
E
102
}
330
E
  0
SCALE
  5
201
102
{ACAD_REACTORS
330
200
102
}
330
200
100
AcDbScale
 70
     0
300
1:1
140
1.0
141
1.0
290
     1
  0
SCALE
  5
202
102
{ACAD_REACTORS
330
200
102
}
330
200
100
AcDbScale
 70
     0
300
1:2
140
1.0
141
2.0
290
     0
  0
SCALE
  5
203
102
{ACAD_REACTORS
330
200
102
}
330
200
100
AcDbScale
 70
     0
300
1:4
140
1.0
141
4.0
290
     0
  0
SCALE
  5
204
102
{ACAD_REACTORS
330
200
102
}
330
200
100
AcDbScale
 70
     0
300
1:5
140
1.0
141
5.0
290
     0
  0
SCALE
  5
205
102
{ACAD_REACTORS
330
200
102
}
330
200
100
AcDbScale
 70
     0
300
1:8
140
1.0
141
8.0
290
     0
  0
SCALE
  5
206
102
{ACAD_REACTORS
330
200
102
}
330
200
100
AcDbScale
 70
     0
300
1:10
140
1.0
141
10.0
290
     0
  0
SCALE
  5
207
102
{ACAD_REACTORS
330
200
102
}
330
200
100
AcDbScale
 70
     0
300
1:16
140
1.0
141
16.0
290
     0
  0
SCALE
  5
208
102
{ACAD_REACTORS
330
200
102
}
330
200
100
AcDbScale
 70
     0
300
1:20
140
1.0
141
20.0
290
     0
  0
SCALE
  5
209
102
{ACAD_REACTORS
330
200
102
}
330
200
100
AcDbScale
 70
     0
300
1:30
140
1.0
141
30.0
290
     0
  0
SCALE
  5
20A
102
{ACAD_REACTORS
330
200
102
}
330
200
100
AcDbScale
 70
     0
300
1:40
140
1.0
141
40.0
290
     0
  0
SCALE
  5
20B
102
{ACAD_REACTORS
330
200
102
}
330
200
100
AcDbScale
 70
     0
300
1:50
140
1.0
141
50.0
290
     0
  0
SCALE
  5
20C
102
{ACAD_REACTORS
330
200
102
}
330
200
100
AcDbScale
 70
     0
300
1:100
140
1.0
141
100.0
290
     0
  0
SCALE
  5
20D
102
{ACAD_REACTORS
330
200
102
}
330
200
100
AcDbScale
 70
     0
300
2:1
140
2.0
141
1.0
290
     0
  0
SCALE
  5
20E
102
{ACAD_REACTORS
330
200
102
}
330
200
100
AcDbScale
 70
     0
300
4:1
140
4.0
141
1.0
290
     0
  0
SCALE
  5
20F
102
{ACAD_REACTORS
330
200
102
}
330
200
100
AcDbScale
 70
     0
300
8:1
140
8.0
141
1.0
290
     0
  0
SCALE
  5
210
102
{ACAD_REACTORS
330
200
102
}
330
200
100
AcDbScale
 70
     0
300
10:1
140
10.0
141
1.0
290
     0
  0
SCALE
  5
211
102
{ACAD_REACTORS
330
200
102
}
330
200
100
AcDbScale
 70
     0
300
100:1
140
100.0
141
1.0
290
     0
  0
TABLESTYLE
  5
2B
102
{ACAD_XDICTIONARY
360
31B
102
}
102
{ACAD_REACTORS
330
2A
102
}
330
2A
100
AcDbTableStyle
  3
Standard
 70
     0
 71
     0
 40
0.06
 41
0.06
280
     0
281
     0
  7
Standard
140
0.18
170
     2
 62
     0
 63
     7
283
     0
274
    -2
284
     1
 64
     0
275
    -2
285
     1
 65
     0
276
    -2
286
     1
 66
     0
277
    -2
287
     1
 67
     0
278
    -2
288
     1
 68
     0
279
    -2
289
     1
 69
     0
  7
Standard
140
0.25
170
     5
 62
     0
 63
     7
283
     0
274
    -2
284
     1
 64
     0
275
    -2
285
     1
 65
     0
276
    -2
286
     1
 66
     0
277
    -2
287
     1
 67
     0
278
    -2
288
     1
 68
     0
279
    -2
289
     1
 69
     0
  7
Standard
140
0.18
170
     5
 62
     0
 63
     7
283
     0
274
    -2
284
     1
 64
     0
275
    -2
285
     1
 65
     0
276
    -2
286
     1
 66
     0
277
    -2
287
     1
 67
     0
278
    -2
288
     1
 68
     0
279
    -2
289
     1
 69
     0
  0
VISUALSTYLE
  5
1EC
102
{ACAD_XDICTIONARY
360
333
102
}
102
{ACAD_REACTORS
330
1E6
102
}
330
1E6
100
AcDbVisualStyle
  2
2dWireframe
 70
     4
 71
     0
 72
     2
 73
     0
 90
        0
 40
-0.6
 41
-30.0
 62
     5
 63
     7
 74
     1
 91
        4
 64
     7
 65
   257
 75
     1
175
     1
 42
1.0
 92
        0
 66
   257
 43
1.0
 76
     1
 77
     6
 78
     2
 67
     7
 79
     5
170
     0
171
     0
290
     0
174
     0
 93
        1
 44
0.0
173
     0
291
     0
 45
0.0
1001
ACAD
1000
AcDbSavedByObjectVersion
1070
     0
  0
VISUALSTYLE
  5
1EB
102
{ACAD_XDICTIONARY
360
331
102
}
102
{ACAD_REACTORS
330
1E6
102
}
330
1E6
100
AcDbVisualStyle
  2
Basic
 70
     7
 71
     1
 72
     0
 73
     1
 90
        0
 40
-0.6
 41
-30.0
 62
     5
 63
     7
 74
     0
 91
        4
 64
     7
 65
   257
 75
     1
175
     1
 42
1.0
 92
        8
 66
     7
 43
1.0
 76
     1
 77
     6
 78
     2
 67
     7
 79
     5
170
     0
171
     0
290
     0
174
     0
 93
        1
 44
0.0
173
     0
291
     1
 45
0.0
1001
ACAD
1000
AcDbSavedByObjectVersion
1070
     0
  0
VISUALSTYLE
  5
1F2
102
{ACAD_XDICTIONARY
360
33F
102
}
102
{ACAD_REACTORS
330
1E6
102
}
330
1E6
100
AcDbVisualStyle
  2
Brighten
 70
    12
 71
     2
 72
     2
 73
     0
 90
        0
 40
-0.6
 41
-30.0
 62
     5
 63
     7
 74
     1
 91
        4
 64
     7
 65
   257
 75
     1
175
     1
 42
1.0
 92
        8
 66
     7
 43
1.0
 76
     1
 77
     6
 78
     2
 67
     7
 79
     5
170
     0
171
     0
290
     0
174
     0
 93
        1
 44
50.0
173
     0
291
     1
 45
0.0
1001
ACAD
1000
AcDbSavedByObjectVersion
1070
     0
  0
VISUALSTYLE
  5
1F6
102
{ACAD_XDICTIONARY
360
347
102
}
102
{ACAD_REACTORS
330
1E6
102
}
330
1E6
100
AcDbVisualStyle
  2
ColorChange
 70
    16
 71
     2
 72
     2
 73
     3
 90
        0
 40
-0.6
 41
-30.0
 62
     5
 63
     8
 74
     1
 91
        4
 64
     7
 65
   257
 75
     1
175
     1
 42
1.0
 92
        8
 66
     8
 43
1.0
 76
     1
 77
     6
 78
     2
 67
     7
 79
     5
170
     0
171
     0
290
     0
174
     0
 93
        1
 44
0.0
173
     0
291
     1
 45
0.0
1001
ACAD
1000
AcDbSavedByObjectVersion
1070
     0
  0
VISUALSTYLE
  5
1EF
102
{ACAD_XDICTIONARY
360
339
102
}
102
{ACAD_REACTORS
330
1E6
102
}
330
1E6
100
AcDbVisualStyle
  2
Conceptual
 70
     9
 71
     3
 72
     2
 73
     0
 90
        0
 40
-0.6
 41
-30.0
 62
     5
 63
     7
 74
     2
 91
        2
 64
     7
 65
   257
 75
     1
175
     1
 42
179.0
 92
        8
 66
     7
 43
1.0
 76
     1
 77
     6
 78
     2
 67
     7
 79
     3
170
     0
171
     0
290
     0
174
     0
 93
        1
 44
0.0
173
     0
291
     0
 45
0.0
1001
ACAD
1000
AcDbSavedByObjectVersion
1070
     0
  0
VISUALSTYLE
  5
1F1
102
{ACAD_XDICTIONARY
360
33D
102
}
102
{ACAD_REACTORS
330
1E6
102
}
330
1E6
100
AcDbVisualStyle
  2
Dim
 70
    11
 71
     2
 72
     2
 73
     0
 90
        0
 40
-0.6
 41
-30.0
 62
     5
 63
     7
 74
     1
 91
        4
 64
     7
 65
   257
 75
     1
175
     1
 42
1.0
 92
        8
 66
     7
 43
1.0
 76
     1
 77
     6
 78
     2
 67
     7
 79
     5
170
     0
171
     0
290
     0
174
     0
 93
        1
 44
-50.0
173
     0
291
     1
 45
0.0
1001
ACAD
1000
AcDbSavedByObjectVersion
1070
     0
  0
VISUALSTYLE
  5
1FE
102
{ACAD_XDICTIONARY
360
357
102
}
102
{ACAD_REACTORS
330
1E6
102
}
330
1E6
100
AcDbVisualStyle
  2
EdgeColorOff
 70
    22
 71
     2
 72
     2
 73
     0
 90
        0
 40
-0.6
 41
-30.0
 62
     5
 63
     7
 74
     1
 91
        4
 64
     7
 65
   257
 75
     1
175
     1
 42
1.0
 92
        8
 66
     7
 43
1.0
 76
     1
 77
     6
 78
     2
 67
     7
 79
     5
170
     0
171
     0
290
     0
174
     0
 93
        1
 44
0.0
173
     0
291
     1
 45
0.0
1001
ACAD
1000
AcDbSavedByObjectVersion
1070
     0
  0
VISUALSTYLE
  5
1F5
102
{ACAD_XDICTIONARY
360
345
102
}
102
{ACAD_REACTORS
330
1E6
102
}
330
1E6
100
AcDbVisualStyle
  2
Facepattern
 70
    15
 71
     2
 72
     2
 73
     0
 90
        0
 40
-0.6
 41
-30.0
 62
     5
 63
     7
 74
     1
 91
        4
 64
     7
 65
   257
 75
     1
175
     1
 42
1.0
 92
        8
 66
     7
 43
1.0
 76
     1
 77
     6
 78
     2
 67
     7
 79
     5
170
     0
171
     0
290
     0
174
     0
 93
        1
 44
0.0
173
     0
291
     1
 45
0.0
1001
ACAD
1000
AcDbSavedByObjectVersion
1070
     0
  0
VISUALSTYLE
  5
1E7
102
{ACAD_XDICTIONARY
360
329
102
}
102
{ACAD_REACTORS
330
1E6
102
}
330
1E6
100
AcDbVisualStyle
  2
Flat
 70
     0
 71
     2
 72
     1
 73
     1
 90
        2
 40
-0.6
 41
30.0
 62
     5
 63
     7
 74
     0
 91
        0
 64
     7
 65
   257
 75
     1
175
     1
 42
1.0
 92
        8
 66
     7
 43
1.0
 76
     1
 77
     6
 78
     2
 67
     7
 79
     5
170
     0
171
     0
290
     0
174
     0
 93
       13
 44
0.0
173
     0
291
     1
 45
0.0
1001
ACAD
1000
AcDbSavedByObjectVersion
1070
     0
  0
VISUALSTYLE
  5
1E8
102
{ACAD_XDICTIONARY
360
32B
102
}
102
{ACAD_REACTORS
330
1E6
102
}
330
1E6
100
AcDbVisualStyle
  2
FlatWithEdges
 70
     1
 71
     2
 72
     1
 73
     1
 90
        2
 40
-0.6
 41
30.0
 62
     5
 63
     7
 74
     1
 91
        0
 64
     7
 65
   257
 75
     1
175
     1
 42
1.0
 92
        0
 66
   257
 43
1.0
 76
     1
 77
     6
 78
     2
 67
     7
 79
     5
170
     0
171
     0
290
     0
174
     0
 93
       13
 44
0.0
173
     0
291
     1
 45
0.0
1001
ACAD
1000
AcDbSavedByObjectVersion
1070
     0
  0
VISUALSTYLE
  5
1E9
102
{ACAD_XDICTIONARY
360
32D
102
}
102
{ACAD_REACTORS
330
1E6
102
}
330
1E6
100
AcDbVisualStyle
  2
Gouraud
 70
     2
 71
     2
 72
     2
 73
     1
 90
        2
 40
-0.6
 41
30.0
 62
     5
 63
     7
 74
     0
 91
        0
 64
     7
 65
   257
 75
     1
175
     1
 42
1.0
 92
        0
 66
     7
 43
1.0
 76
     1
 77
     6
 78
     2
 67
     7
 79
     5
170
     0
171
     0
290
     0
174
     0
 93
       13
 44
0.0
173
     0
291
     1
 45
0.0
1001
ACAD
1000
AcDbSavedByObjectVersion
1070
     0
  0
VISUALSTYLE
  5
1EA
102
{ACAD_XDICTIONARY
360
32F
102
}
102
{ACAD_REACTORS
330
1E6
102
}
330
1E6
100
AcDbVisualStyle
  2
GouraudWithEdges
 70
     3
 71
     2
 72
     2
 73
     1
 90
        2
 40
-0.6
 41
30.0
 62
     5
 63
     7
 74
     1
 91
        0
 64
     7
 65
   257
 75
     1
175
     1
 42
1.0
 92
        0
 66
   257
 43
1.0
 76
     1
 77
     6
 78
     2
 67
     7
 79
     5
170
     0
171
     0
290
     0
174
     0
 93
       13
 44
0.0
173
     0
291
     1
 45
0.0
1001
ACAD
1000
AcDbSavedByObjectVersion
1070
     0
  0
VISUALSTYLE
  5
1EE
102
{ACAD_XDICTIONARY
360
337
102
}
102
{ACAD_REACTORS
330
1E6
102
}
330
1E6
100
AcDbVisualStyle
  2
Hidden
 70
     6
 71
     1
 72
     2
 73
     2
 90
        0
 40
-0.6
 41
-30.0
 62
     5
 63
     7
 74
     2
 91
        2
 64
     7
 65
   257
 75
     2
175
     1
 42
40.0
 92
        0
 66
   257
 43
1.0
 76
     1
 77
     6
 78
     2
 67
     7
 79
     3
170
     0
171
     0
290
     0
174
     0
 93
        1
 44
0.0
173
     0
291
     0
 45
0.0
1001
ACAD
1000
AcDbSavedByObjectVersion
1070
     0
  0
VISUALSTYLE
  5
1FC
102
{ACAD_XDICTIONARY
360
353
102
}
102
{ACAD_REACTORS
330
1E6
102
}
330
1E6
100
AcDbVisualStyle
  2
JitterOff
 70
    20
 71
     2
 72
     2
 73
     0
 90
        0
 40
-0.6
 41
-30.0
 62
     5
 63
     7
 74
     1
 91
        4
 64
     7
 65
   257
 75
     1
175
     1
 42
1.0
 92
       10
 66
     7
 43
1.0
 76
     1
 77
     6
 78
     2
 67
     7
 79
     5
170
     0
171
     0
290
     0
174
     0
 93
        1
 44
0.0
173
     0
291
     1
 45
0.0
1001
ACAD
1000
AcDbSavedByObjectVersion
1070
     0
  0
VISUALSTYLE
  5
1F4
102
{ACAD_XDICTIONARY
360
343
102
}
102
{ACAD_REACTORS
330
1E6
102
}
330
1E6
100
AcDbVisualStyle
  2
Linepattern
 70
    14
 71
     2
 72
     2
 73
     0
 90
        0
 40
-0.6
 41
-30.0
 62
     5
 63
     7
 74
     1
 91
        4
 64
     7
 65
   257
 75
     7
175
     7
 42
1.0
 92
        8
 66
     7
 43
1.0
 76
     1
 77
     6
 78
     2
 67
     7
 79
     5
170
     0
171
     0
290
     0
174
     0
 93
        1
 44
0.0
173
     0
291
     1
 45
0.0
1001
ACAD
1000
AcDbSavedByObjectVersion
1070
     0
  0
VISUALSTYLE
  5
1FD
102
{ACAD_XDICTIONARY
360
355
102
}
102
{ACAD_REACTORS
330
1E6
102
}
330
1E6
100
AcDbVisualStyle
  2
OverhangOff
 70
    21
 71
     2
 72
     2
 73
     0
 90
        0
 40
-0.6
 41
-30.0
 62
     5
 63
     7
 74
     1
 91
        4
 64
     7
 65
   257
 75
     1
175
     1
 42
1.0
 92
        9
 66
     7
 43
1.0
 76
     1
 77
     6
 78
     2
 67
     7
 79
     5
170
     0
171
     0
290
     0
174
     0
 93
        1
 44
0.0
173
     0
291
     1
 45
0.0
1001
ACAD
1000
AcDbSavedByObjectVersion
1070
     0
  0
VISUALSTYLE
  5
1F0
102
{ACAD_XDICTIONARY
360
33B
102
}
102
{ACAD_REACTORS
330
1E6
102
}
330
1E6
100
AcDbVisualStyle
  2
Realistic
 70
     8
 71
     2
 72
     3
 73
     0
 90
        2
 40
-0.6
 41
30.0
 62
     5
 63
     7
 74
     0
 91
        0
 64
     7
 65
   257
 75
     1
175
     1
 42
1.0
 92
        8
 66
   257
 43
1.0
 76
     1
 77
     6
 78
     2
 67
     7
 79
     3
170
     0
171
     0
290
     0
174
     0
 93
       13
 44
0.0
173
     0
291
     0
 45
0.0
1001
ACAD
1000
AcDbSavedByObjectVersion
1070
     0
  0
VISUALSTYLE
  5
1FB
102
{ACAD_XDICTIONARY
360
351
102
}
102
{ACAD_REACTORS
330
1E6
102
}
330
1E6
100
AcDbVisualStyle
  2
Shaded
 70
    27
 71
     2
 72
     2
 73
     1
 90
        2
 40
-0.6
 41
30.0
 62
     5
 63
     7
 74
     0
 91
        4
 64
     7
 65
   257
 75
     1
175
     1
 42
1.0
 92
        8
 66
   257
 43
1.0
 76
     1
 77
     6
 78
     2
 67
     8
 79
     3
170
     0
171
     0
290
     0
174
     0
 93
        5
 44
0.0
173
     0
291
     0
 45
0.0
1001
ACAD
1000
AcDbSavedByObjectVersion
1070
     0
  0
VISUALSTYLE
  5
1FA
102
{ACAD_XDICTIONARY
360
34F
102
}
102
{ACAD_REACTORS
330
1E6
102
}
330
1E6
100
AcDbVisualStyle
  2
Shaded with edges
 70
    26
 71
     2
 72
     2
 73
     1
 90
        2
 40
-0.6
 41
30.0
 62
     5
 63
     7
 74
     1
 91
       10
 64
     7
 65
   257
 75
     2
175
     1
 42
1.0
 92
        8
 66
   257
 43
1.0
 76
     1
 77
     6
 78
     2
 67
     7
 79
     3
170
     0
171
     0
290
     0
174
     0
 93
        5
 44
0.0
173
     0
291
     0
 45
0.0
1001
ACAD
1000
AcDbSavedByObjectVersion
1070
     0
  0
VISUALSTYLE
  5
1F7
102
{ACAD_XDICTIONARY
360
349
102
}
102
{ACAD_REACTORS
330
1E6
102
}
330
1E6
100
AcDbVisualStyle
  2
Shades of Gray
 70
    23
 71
     2
 72
     2
 73
     3
 90
        0
 40
-0.6
 41
-30.0
 62
     5
 63
     7
 74
     2
 91
        2
 64
     7
 65
     7
 75
     1
175
     1
 42
40.0
 92
        8
 66
     7
 43
1.0
 76
     1
 77
     6
 78
     2
 67
     7
 79
     3
170
     0
171
     0
290
     0
174
     0
 93
        1
 44
0.0
173
     0
291
     0
 45
0.0
1001
ACAD
1000
AcDbSavedByObjectVersion
1070
     0
  0
VISUALSTYLE
  5
1F8
102
{ACAD_XDICTIONARY
360
34B
102
}
102
{ACAD_REACTORS
330
1E6
102
}
330
1E6
100
AcDbVisualStyle
  2
Sketchy
 70
    24
 71
     1
 72
     2
 73
     2
 90
        0
 40
-0.6
 41
-30.0
 62
     5
 63
     7
 74
     2
 91
        2
 64
     7
 65
     7
 75
     1
175
     1
 42
40.0
 92
       11
 66
     7
 43
1.0
 76
     1
 77
     6
 78
     2
 67
     7
 79
     6
170
     0
171
     0
290
     0
174
     0
 93
        1
 44
0.0
173
     0
291
     0
 45
0.0
1001
ACAD
1000
AcDbSavedByObjectVersion
1070
     0
  0
VISUALSTYLE
  5
1F3
102
{ACAD_XDICTIONARY
360
341
102
}
102
{ACAD_REACTORS
330
1E6
102
}
330
1E6
100
AcDbVisualStyle
  2
Thicken
 70
    13
 71
     2
 72
     2
 73
     0
 90
        0
 40
-0.6
 41
-30.0
 62
     5
 63
     7
 74
     1
 91
        4
 64
     7
 65
   257
 75
     1
175
     1
 42
1.0
 92
       12
 66
     7
 43
1.0
 76
     1
 77
     6
 78
     2
 67
     7
 79
     5
170
     0
171
     0
290
     0
174
     0
 93
        1
 44
0.0
173
     0
291
     1
 45
0.0
1001
ACAD
1000
AcDbSavedByObjectVersion
1070
     0
  0
VISUALSTYLE
  5
1ED
102
{ACAD_XDICTIONARY
360
335
102
}
102
{ACAD_REACTORS
330
1E6
102
}
330
1E6
100
AcDbVisualStyle
  2
Wireframe
 70
     5
 71
     0
 72
     2
 73
     0
 90
        0
 40
-0.6
 41
-30.0
 62
     5
 63
     7
 74
     1
 91
        4
 64
     7
 65
   257
 75
     1
175
     1
 42
1.0
 92
        0
 66
   257
 43
1.0
 76
     1
 77
     6
 78
     2
 67
     7
 79
     3
170
     0
171
     0
290
     0
174
     0
 93
        1
 44
0.0
173
     0
291
     0
 45
0.0
1001
ACAD
1000
AcDbSavedByObjectVersion
1070
     0
  0
VISUALSTYLE
  5
1F9
102
{ACAD_XDICTIONARY
360
34D
102
}
102
{ACAD_REACTORS
330
1E6
102
}
330
1E6
100
AcDbVisualStyle
  2
X-Ray
 70
    25
 71
     2
 72
     2
 73
     1
 90
        1
 40
0.5
 41
-30.0
 62
     5
 63
     7
 74
     1
 91
        0
 64
     7
 65
   257
 75
     1
175
     1
 42
1.0
 92
        8
 66
     7
 43
1.0
 76
     1
 77
     6
 78
     2
 67
     7
 79
     3
170
     0
171
     0
290
     0
174
     0
 93
       13
 44
0.0
173
     0
291
     0
 45
0.0
1001
ACAD
1000
AcDbSavedByObjectVersion
1070
     0
  0
DICTIONARYVAR
  5
315
102
{ACAD_REACTORS
330
2C
102
}
330
2C
100
DictionaryVariables
280
     0
  1
1:1
  0
DICTIONARYVAR
  5
314
102
{ACAD_REACTORS
330
2C
102
}
330
2C
100
DictionaryVariables
280
     0
  1
STANDARD
  0
DICTIONARYVAR
  5
2D
102
{ACAD_REACTORS
330
2C
102
}
330
2C
100
DictionaryVariables
280
     0
  1
STANDARD
  0
DICTIONARYVAR
  5
318
102
{ACAD_REACTORS
330
2C
102
}
330
2C
100
DictionaryVariables
280
     0
  1
1
  0
DICTIONARYVAR
  5
317
102
{ACAD_REACTORS
330
2C
102
}
330
2C
100
DictionaryVariables
280
     0
  1
0
  0
DICTIONARYVAR
  5
316
102
{ACAD_REACTORS
330
2C
102
}
330
2C
100
DictionaryVariables
280
     0
  1
127
  0
DICTIONARYVAR
  5
319
102
{ACAD_REACTORS
330
2C
102
}
330
2C
100
DictionaryVariables
280
     0
  1
2
  0
XRECORD
  5
313
102
{ACAD_REACTORS
330
311
102
}
330
311
100
AcDbXrecord
280
     1
330
249
330
24B
330
24C
330
43
330
44
330
45
330
46
  0
DICTIONARY
  5
31F
330
1E
100
AcDbDictionary
280
     1
281
     1
  3
ACAD_XREC_ROUNDTRIP
360
320
  0
DICTIONARY
  5
323
330
26
100
AcDbDictionary
280
     1
281
     1
  3
ACAD_XREC_ROUNDTRIP
360
324
  0
DICTIONARY
  5
321
330
22
100
AcDbDictionary
280
     1
281
     1
  3
ACAD_XREC_ROUNDTRIP
360
322
  0
DICTIONARY
  5
1D7
330
1D6
100
AcDbDictionary
280
     1
281
     1
  3
ACAD_XREC_ROUNDTRIP
360
327
  3
BUMPTILE
360
1D9
  3
DIFFUSETILE
360
1D8
  3
OPACITYTILE
360
1DC
  3
REFLECTIONTILE
360
1DB
  3
REFRACTIONTILE
360
1DD
  3
SPECULARTILE
360
1DA
  0
DICTIONARY
  5
1CF
330
1CE
100
AcDbDictionary
280
     1
281
     1
  3
ACAD_XREC_ROUNDTRIP
360
326
  3
BUMPTILE
360
1D1
  3
DIFFUSETILE
360
1D0
  3
OPACITYTILE
360
1D4
  3
REFLECTIONTILE
360
1D3
  3
REFRACTIONTILE
360
1D5
  3
SPECULARTILE
360
1D2
  0
DICTIONARY
  5
1DF
330
1DE
100
AcDbDictionary
280
     1
281
     1
  3
ACAD_XREC_ROUNDTRIP
360
328
  3
BUMPTILE
360
1E1
  3
DIFFUSETILE
360
1E0
  3
OPACITYTILE
360
1E4
  3
REFLECTIONTILE
360
1E3
  3
REFRACTIONTILE
360
1E5
  3
SPECULARTILE
360
1E2
  0
DICTIONARY
  5
31B
330
2B
100
AcDbDictionary
280
     1
281
     1
  3
ACAD_ROUNDTRIP_2008_TABLESTYLE_CELLSTYLEMAP
360
31C
  3
ACAD_XREC_ROUNDTRIP
360
325
  0
DICTIONARY
  5
333
330
1EC
100
AcDbDictionary
280
     1
281
     1
  3
ACAD_XREC_ROUNDTRIP
360
334
  0
DICTIONARY
  5
331
330
1EB
100
AcDbDictionary
280
     1
281
     1
  3
ACAD_XREC_ROUNDTRIP
360
332
  0
DICTIONARY
  5
33F
330
1F2
100
AcDbDictionary
280
     1
281
     1
  3
ACAD_XREC_ROUNDTRIP
360
340
  0
DICTIONARY
  5
347
330
1F6
100
AcDbDictionary
280
     1
281
     1
  3
ACAD_XREC_ROUNDTRIP
360
348
  0
DICTIONARY
  5
339
330
1EF
100
AcDbDictionary
280
     1
281
     1
  3
ACAD_XREC_ROUNDTRIP
360
33A
  0
DICTIONARY
  5
33D
330
1F1
100
AcDbDictionary
280
     1
281
     1
  3
ACAD_XREC_ROUNDTRIP
360
33E
  0
DICTIONARY
  5
357
330
1FE
100
AcDbDictionary
280
     1
281
     1
  3
ACAD_XREC_ROUNDTRIP
360
358
  0
DICTIONARY
  5
345
330
1F5
100
AcDbDictionary
280
     1
281
     1
  3
ACAD_XREC_ROUNDTRIP
360
346
  0
DICTIONARY
  5
329
330
1E7
100
AcDbDictionary
280
     1
281
     1
  3
ACAD_XREC_ROUNDTRIP
360
32A
  0
DICTIONARY
  5
32B
330
1E8
100
AcDbDictionary
280
     1
281
     1
  3
ACAD_XREC_ROUNDTRIP
360
32C
  0
DICTIONARY
  5
32D
330
1E9
100
AcDbDictionary
280
     1
281
     1
  3
ACAD_XREC_ROUNDTRIP
360
32E
  0
DICTIONARY
  5
32F
330
1EA
100
AcDbDictionary
280
     1
281
     1
  3
ACAD_XREC_ROUNDTRIP
360
330
  0
DICTIONARY
  5
337
330
1EE
100
AcDbDictionary
280
     1
281
     1
  3
ACAD_XREC_ROUNDTRIP
360
338
  0
DICTIONARY
  5
353
330
1FC
100
AcDbDictionary
280
     1
281
     1
  3
ACAD_XREC_ROUNDTRIP
360
354
  0
DICTIONARY
  5
343
330
1F4
100
AcDbDictionary
280
     1
281
     1
  3
ACAD_XREC_ROUNDTRIP
360
344
  0
DICTIONARY
  5
355
330
1FD
100
AcDbDictionary
280
     1
281
     1
  3
ACAD_XREC_ROUNDTRIP
360
356
  0
DICTIONARY
  5
33B
330
1F0
100
AcDbDictionary
280
     1
281
     1
  3
ACAD_XREC_ROUNDTRIP
360
33C
  0
DICTIONARY
  5
351
330
1FB
100
AcDbDictionary
280
     1
281
     1
  3
ACAD_XREC_ROUNDTRIP
360
352
  0
DICTIONARY
  5
34F
330
1FA
100
AcDbDictionary
280
     1
281
     1
  3
ACAD_XREC_ROUNDTRIP
360
350
  0
DICTIONARY
  5
349
330
1F7
100
AcDbDictionary
280
     1
281
     1
  3
ACAD_XREC_ROUNDTRIP
360
34A
  0
DICTIONARY
  5
34B
330
1F8
100
AcDbDictionary
280
     1
281
     1
  3
ACAD_XREC_ROUNDTRIP
360
34C
  0
DICTIONARY
  5
341
330
1F3
100
AcDbDictionary
280
     1
281
     1
  3
ACAD_XREC_ROUNDTRIP
360
342
  0
DICTIONARY
  5
335
330
1ED
100
AcDbDictionary
280
     1
281
     1
  3
ACAD_XREC_ROUNDTRIP
360
336
  0
DICTIONARY
  5
34D
330
1F9
100
AcDbDictionary
280
     1
281
     1
  3
ACAD_XREC_ROUNDTRIP
360
34E
  0
XRECORD
  5
320
102
{ACAD_REACTORS
330
31F
102
}
330
31F
100
AcDbXrecord
280
     1
102
SHADEPLOT
 70
     0
102
SHADEPLOTRESLEVEL
 70
     2
102
SHADEPLOTCUSTOMDPI
 70
   300
  0
XRECORD
  5
324
102
{ACAD_REACTORS
330
323
102
}
330
323
100
AcDbXrecord
280
     1
102
SHADEPLOT
 70
     0
102
SHADEPLOTRESLEVEL
 70
     2
102
SHADEPLOTCUSTOMDPI
 70
   300
  0
XRECORD
  5
322
102
{ACAD_REACTORS
330
321
102
}
330
321
100
AcDbXrecord
280
     1
102
SHADEPLOT
 70
     0
102
SHADEPLOTRESLEVEL
 70
     2
102
SHADEPLOTCUSTOMDPI
 70
   300
  0
XRECORD
  5
327
102
{ACAD_REACTORS
330
1D7
102
}
330
1D7
100
AcDbXrecord
280
     1
102
MATERIAL
148
0.0
149
0.0
149
0.0
 93
        0
 94
      127
282
     0
 72
     0
 77
     0
171
     0
175
     0
179
     0
273
     0
  0
XRECORD
  5
1D9
102
{ACAD_REACTORS
330
1D7
102
}
330
1D7
100
AcDbXrecord
280
     1
270
     1
271
     1
  0
XRECORD
  5
1D8
102
{ACAD_REACTORS
330
1D7
102
}
330
1D7
100
AcDbXrecord
280
     1
270
     1
271
     1
  0
XRECORD
  5
1DC
102
{ACAD_REACTORS
330
1D7
102
}
330
1D7
100
AcDbXrecord
280
     1
270
     1
271
     1
  0
XRECORD
  5
1DB
102
{ACAD_REACTORS
330
1D7
102
}
330
1D7
100
AcDbXrecord
280
     1
270
     1
271
     1
  0
XRECORD
  5
1DD
102
{ACAD_REACTORS
330
1D7
102
}
330
1D7
100
AcDbXrecord
280
     1
270
     1
271
     1
  0
XRECORD
  5
1DA
102
{ACAD_REACTORS
330
1D7
102
}
330
1D7
100
AcDbXrecord
280
     1
270
     1
271
     1
  0
XRECORD
  5
326
102
{ACAD_REACTORS
330
1CF
102
}
330
1CF
100
AcDbXrecord
280
     1
102
MATERIAL
148
0.0
149
0.0
149
0.0
 93
        0
 94
      127
282
     0
 72
     0
 77
     0
171
     0
175
     0
179
     0
273
     0
  0
XRECORD
  5
1D1
102
{ACAD_REACTORS
330
1CF
102
}
330
1CF
100
AcDbXrecord
280
     1
270
     1
271
     1
  0
XRECORD
  5
1D0
102
{ACAD_REACTORS
330
1CF
102
}
330
1CF
100
AcDbXrecord
280
     1
270
     1
271
     1
  0
XRECORD
  5
1D4
102
{ACAD_REACTORS
330
1CF
102
}
330
1CF
100
AcDbXrecord
280
     1
270
     1
271
     1
  0
XRECORD
  5
1D3
102
{ACAD_REACTORS
330
1CF
102
}
330
1CF
100
AcDbXrecord
280
     1
270
     1
271
     1
  0
XRECORD
  5
1D5
102
{ACAD_REACTORS
330
1CF
102
}
330
1CF
100
AcDbXrecord
280
     1
270
     1
271
     1
  0
XRECORD
  5
1D2
102
{ACAD_REACTORS
330
1CF
102
}
330
1CF
100
AcDbXrecord
280
     1
270
     1
271
     1
  0
XRECORD
  5
328
102
{ACAD_REACTORS
330
1DF
102
}
330
1DF
100
AcDbXrecord
280
     1
102
MATERIAL
148
0.0
149
0.0
149
0.0
 93
        0
 94
      127
282
     0
 72
     0
 77
     0
171
     0
175
     0
179
     0
273
     0
  0
XRECORD
  5
1E1
102
{ACAD_REACTORS
330
1DF
102
}
330
1DF
100
AcDbXrecord
280
     1
270
     1
271
     1
  0
XRECORD
  5
1E0
102
{ACAD_REACTORS
330
1DF
102
}
330
1DF
100
AcDbXrecord
280
     1
270
     1
271
     1
  0
XRECORD
  5
1E4
102
{ACAD_REACTORS
330
1DF
102
}
330
1DF
100
AcDbXrecord
280
     1
270
     1
271
     1
  0
XRECORD
  5
1E3
102
{ACAD_REACTORS
330
1DF
102
}
330
1DF
100
AcDbXrecord
280
     1
270
     1
271
     1
  0
XRECORD
  5
1E5
102
{ACAD_REACTORS
330
1DF
102
}
330
1DF
100
AcDbXrecord
280
     1
270
     1
271
     1
  0
XRECORD
  5
1E2
102
{ACAD_REACTORS
330
1DF
102
}
330
1DF
100
AcDbXrecord
280
     1
270
     1
271
     1
  0
CELLSTYLEMAP
  5
31C
102
{ACAD_REACTORS
330
31B
102
}
330
31B
100
AcDbCellStyleMap
 90
        3
300
CELLSTYLE
  1
TABLEFORMAT_BEGIN
 90
        5
170
     1
 91
        0
 92
    32768
 62
   257
 93
        1
300
CONTENTFORMAT
  1
CONTENTFORMAT_BEGIN
 90
        0
 91
        0
 92
        4
 93
        0
300

 40
0.0
140
1.0
 94
        5
 62
     0
340
11
144
0.25
309
CONTENTFORMAT_END
171
     0
 94
        6
 95
        1
302
GRIDFORMAT
  1
GRIDFORMAT_BEGIN
 90
        0
 91
        1
 62
     0
 92
       -2
340
0
 93
        0
 40
0.045
309
GRIDFORMAT_END
 95
        2
302
GRIDFORMAT
  1
GRIDFORMAT_BEGIN
 90
        0
 91
        1
 62
     0
 92
       -2
340
0
 93
        0
 40
0.045
309
GRIDFORMAT_END
 95
        4
302
GRIDFORMAT
  1
GRIDFORMAT_BEGIN
 90
        0
 91
        1
 62
     0
 92
       -2
340
0
 93
        0
 40
0.045
309
GRIDFORMAT_END
 95
        8
302
GRIDFORMAT
  1
GRIDFORMAT_BEGIN
 90
        0
 91
        1
 62
     0
 92
       -2
340
0
 93
        0
 40
0.045
309
GRIDFORMAT_END
 95
       16
302
GRIDFORMAT
  1
GRIDFORMAT_BEGIN
 90
        0
 91
        1
 62
     0
 92
       -2
340
0
 93
        0
 40
0.045
309
GRIDFORMAT_END
 95
       32
302
GRIDFORMAT
  1
GRIDFORMAT_BEGIN
 90
        0
 91
        1
 62
     0
 92
       -2
340
0
 93
        0
 40
0.045
309
GRIDFORMAT_END
309
TABLEFORMAT_END
  1
CELLSTYLE_BEGIN
 90
        1
 91
        1
300
_TITLE
309
CELLSTYLE_END
300
CELLSTYLE
  1
TABLEFORMAT_BEGIN
 90
        5
170
     1
 91
        0
 92
        0
 62
   257
 93
        1
300
CONTENTFORMAT
  1
CONTENTFORMAT_BEGIN
 90
        0
 91
        0
 92
        4
 93
        0
300

 40
0.0
140
1.0
 94
        5
 62
     0
340
11
144
0.18
309
CONTENTFORMAT_END
171
     0
 94
        6
 95
        1
302
GRIDFORMAT
  1
GRIDFORMAT_BEGIN
 90
        0
 91
        1
 62
     0
 92
       -2
340
0
 93
        0
 40
0.045
309
GRIDFORMAT_END
 95
        2
302
GRIDFORMAT
  1
GRIDFORMAT_BEGIN
 90
        0
 91
        1
 62
     0
 92
       -2
340
0
 93
        0
 40
0.045
309
GRIDFORMAT_END
 95
        4
302
GRIDFORMAT
  1
GRIDFORMAT_BEGIN
 90
        0
 91
        1
 62
     0
 92
       -2
340
0
 93
        0
 40
0.045
309
GRIDFORMAT_END
 95
        8
302
GRIDFORMAT
  1
GRIDFORMAT_BEGIN
 90
        0
 91
        1
 62
     0
 92
       -2
340
0
 93
        0
 40
0.045
309
GRIDFORMAT_END
 95
       16
302
GRIDFORMAT
  1
GRIDFORMAT_BEGIN
 90
        0
 91
        1
 62
     0
 92
       -2
340
0
 93
        0
 40
0.045
309
GRIDFORMAT_END
 95
       32
302
GRIDFORMAT
  1
GRIDFORMAT_BEGIN
 90
        0
 91
        1
 62
     0
 92
       -2
340
0
 93
        0
 40
0.045
309
GRIDFORMAT_END
309
TABLEFORMAT_END
  1
CELLSTYLE_BEGIN
 90
        2
 91
        1
300
_HEADER
309
CELLSTYLE_END
300
CELLSTYLE
  1
TABLEFORMAT_BEGIN
 90
        5
170
     1
 91
        0
 92
        0
 62
   257
 93
        1
300
CONTENTFORMAT
  1
CONTENTFORMAT_BEGIN
 90
        0
 91
        0
 92
        4
 93
        0
300

 40
0.0
140
1.0
 94
        2
 62
     0
340
11
144
0.18
309
CONTENTFORMAT_END
171
     0
 94
        6
 95
        1
302
GRIDFORMAT
  1
GRIDFORMAT_BEGIN
 90
        0
 91
        1
 62
     0
 92
       -2
340
0
 93
        0
 40
0.045
309
GRIDFORMAT_END
 95
        2
302
GRIDFORMAT
  1
GRIDFORMAT_BEGIN
 90
        0
 91
        1
 62
     0
 92
       -2
340
0
 93
        0
 40
0.045
309
GRIDFORMAT_END
 95
        4
302
GRIDFORMAT
  1
GRIDFORMAT_BEGIN
 90
        0
 91
        1
 62
     0
 92
       -2
340
0
 93
        0
 40
0.045
309
GRIDFORMAT_END
 95
        8
302
GRIDFORMAT
  1
GRIDFORMAT_BEGIN
 90
        0
 91
        1
 62
     0
 92
       -2
340
0
 93
        0
 40
0.045
309
GRIDFORMAT_END
 95
       16
302
GRIDFORMAT
  1
GRIDFORMAT_BEGIN
 90
        0
 91
        1
 62
     0
 92
       -2
340
0
 93
        0
 40
0.045
309
GRIDFORMAT_END
 95
       32
302
GRIDFORMAT
  1
GRIDFORMAT_BEGIN
 90
        0
 91
        1
 62
     0
 92
       -2
340
0
 93
        0
 40
0.045
309
GRIDFORMAT_END
309
TABLEFORMAT_END
  1
CELLSTYLE_BEGIN
 90
        3
 91
        2
300
_DATA
309
CELLSTYLE_END
  0
XRECORD
  5
325
102
{ACAD_REACTORS
330
31B
102
}
330
31B
100
AcDbXrecord
280
     1
102
ACAD_ROUNDTRIP_PRE2007_TABLESTYLE
 90
        4
 91
        0
  1

 92
        4
 93
        0
  2

 94
        4
 95
        0
  3

  0
XRECORD
  5
334
102
{ACAD_REACTORS
330
333
102
}
330
333
100
AcDbXrecord
280
     1
102
RTVSPropertyOp0
 70
     1
102
RTVSPropertyOp1
 70
     1
102
RTVSPropertyOp2
 70
     1
102
RTVSPropertyOp3
 70
     1
102
RTVSPropertyOp4
 70
     1
102
RTVSPropertyOp5
 70
     1
102
RTVSPropertyOp6
 70
     1
102
RTVSPropertyOp7
 70
     1
102
RTVSPropertyOp8
 70
     1
102
RTVSPropertyOp9
 70
     1
102
RTVSPropertyOp10
 70
     1
102
RTVSPropertyOp11
 70
     1
102
RTVSPropertyOp12
 70
     1
102
RTVSPropertyOp13
 70
     1
102
RTVSPropertyOp14
 70
     1
102
RTVSPropertyOp15
 70
     1
102
RTVSPropertyOp16
 70
     1
102
RTVSPropertyOp17
 70
     1
102
RTVSPropertyOp18
 70
     1
102
RTVSPropertyOp19
 70
     1
102
RTVSPropertyOp20
 70
     1
102
RTVSPropertyOp21
 70
     1
102
RTVSPropertyOp22
 70
     1
102
RTVSPropertyOp23
 70
     1
102
RTVSPropertyOp24
 70
     1
102
RTVSPropertyOp25
 70
     1
102
RTVSPropertyOp26
 70
     1
102
RTVSPropertyOp27
 70
     1
102
RTVSPropertyOp28
 70
     1
102
RTVSPropertyOp29
 70
     1
102
RTVSPropertyOp30
 70
     1
102
RTVSPropertyOp31
 70
     1
102
RTVSPropertyOp32
 70
     1
  0
XRECORD
  5
332
102
{ACAD_REACTORS
330
331
102
}
330
331
100
AcDbXrecord
280
     1
102
RTVSPropertyOp0
 70
     1
102
RTVSPropertyOp1
 70
     1
102
RTVSPropertyOp2
 70
     1
102
RTVSPropertyOp3
 70
     1
102
RTVSPropertyOp4
 70
     1
102
RTVSPropertyOp5
 70
     1
102
RTVSPropertyOp6
 70
     1
102
RTVSPropertyOp7
 70
     1
102
RTVSPropertyOp8
 70
     1
102
RTVSPropertyOp9
 70
     1
102
RTVSPropertyOp10
 70
     1
102
RTVSPropertyOp11
 70
     1
102
RTVSPropertyOp12
 70
     1
102
RTVSPropertyOp13
 70
     1
102
RTVSPropertyOp14
 70
     1
102
RTVSPropertyOp15
 70
     1
102
RTVSPropertyOp16
 70
     1
102
RTVSPropertyOp17
 70
     1
102
RTVSPropertyOp18
 70
     1
102
RTVSPropertyOp19
 70
     1
102
RTVSPropertyOp20
 70
     1
102
RTVSPropertyOp21
 70
     1
102
RTVSPropertyOp22
 70
     1
102
RTVSPropertyOp23
 70
     1
102
RTVSPropertyOp24
 70
     1
102
RTVSPropertyOp25
 70
     1
102
RTVSPropertyOp26
 70
     1
102
RTVSPropertyOp27
 70
     1
102
RTVSPropertyOp28
 70
     1
102
RTVSPropertyOp29
 70
     1
102
RTVSPropertyOp30
 70
     1
102
RTVSPropertyOp31
 70
     1
102
RTVSPropertyOp32
 70
     1
  0
XRECORD
  5
340
102
{ACAD_REACTORS
330
33F
102
}
330
33F
100
AcDbXrecord
280
     1
102
RTVSPropertyOp0
 70
     1
102
RTVSPropertyOp1
 70
     1
102
RTVSPropertyOp2
 70
     1
102
RTVSPropertyOp3
 70
     1
102
RTVSPropertyOp4
 70
     1
102
RTVSPropertyOp5
 70
     1
102
RTVSPropertyOp6
 70
     1
102
RTVSPropertyOp7
 70
     1
102
RTVSPropertyOp8
 70
     1
102
RTVSPropertyOp9
 70
     1
102
RTVSPropertyOp10
 70
     1
102
RTVSPropertyOp11
 70
     1
102
RTVSPropertyOp12
 70
     1
102
RTVSPropertyOp13
 70
     1
102
RTVSPropertyOp14
 70
     1
102
RTVSPropertyOp15
 70
     1
102
RTVSPropertyOp16
 70
     1
102
RTVSPropertyOp17
 70
     1
102
RTVSPropertyOp18
 70
     1
102
RTVSPropertyOp19
 70
     1
102
RTVSPropertyOp20
 70
     1
102
RTVSPropertyOp21
 70
     1
102
RTVSPropertyOp22
 70
     1
102
RTVSPropertyOp23
 70
     1
102
RTVSPropertyOp24
 70
     1
102
RTVSPropertyOp25
 70
     1
102
RTVSPropertyOp26
 70
     1
102
RTVSPropertyOp27
 70
     1
102
RTVSPropertyOp28
 70
     1
102
RTVSPropertyOp29
 70
     1
102
RTVSPropertyOp30
 70
     1
102
RTVSPropertyOp31
 70
     1
102
RTVSPropertyOp32
 70
     1
  0
XRECORD
  5
348
102
{ACAD_REACTORS
330
347
102
}
330
347
100
AcDbXrecord
280
     1
102
RTVSPropertyOp0
 70
     1
102
RTVSPropertyOp1
 70
     1
102
RTVSPropertyOp2
 70
     1
102
RTVSPropertyOp3
 70
     1
102
RTVSPropertyOp4
 70
     1
102
RTVSPropertyOp5
 70
     1
102
RTVSPropertyOp6
 70
     1
102
RTVSPropertyOp7
 70
     1
102
RTVSPropertyOp8
 70
     1
102
RTVSPropertyOp9
 70
     1
102
RTVSPropertyOp10
 70
     1
102
RTVSPropertyOp11
 70
     1
102
RTVSPropertyOp12
 70
     1
102
RTVSPropertyOp13
 70
     1
102
RTVSPropertyOp14
 70
     1
102
RTVSPropertyOp15
 70
     1
102
RTVSPropertyOp16
 70
     1
102
RTVSPropertyOp17
 70
     1
102
RTVSPropertyOp18
 70
     1
102
RTVSPropertyOp19
 70
     1
102
RTVSPropertyOp20
 70
     1
102
RTVSPropertyOp21
 70
     1
102
RTVSPropertyOp22
 70
     1
102
RTVSPropertyOp23
 70
     1
102
RTVSPropertyOp24
 70
     1
102
RTVSPropertyOp25
 70
     1
102
RTVSPropertyOp26
 70
     1
102
RTVSPropertyOp27
 70
     1
102
RTVSPropertyOp28
 70
     1
102
RTVSPropertyOp29
 70
     1
102
RTVSPropertyOp30
 70
     1
102
RTVSPropertyOp31
 70
     1
102
RTVSPropertyOp32
 70
     1
  0
XRECORD
  5
33A
102
{ACAD_REACTORS
330
339
102
}
330
339
100
AcDbXrecord
280
     1
102
RTVSPropertyOp0
 70
     1
102
RTVSPropertyOp1
 70
     1
102
RTVSPropertyOp2
 70
     1
102
RTVSPropertyOp3
 70
     1
102
RTVSPropertyOp4
 70
     1
102
RTVSPropertyOp5
 70
     1
102
RTVSPropertyOp6
 70
     1
102
RTVSPropertyOp7
 70
     1
102
RTVSPropertyOp8
 70
     1
102
RTVSPropertyOp9
 70
     1
102
RTVSPropertyOp10
 70
     1
102
RTVSPropertyOp11
 70
     1
102
RTVSPropertyOp12
 70
     1
102
RTVSPropertyOp13
 70
     1
102
RTVSPropertyOp14
 70
     1
102
RTVSPropertyOp15
 70
     1
102
RTVSPropertyOp16
 70
     1
102
RTVSPropertyOp17
 70
     1
102
RTVSPropertyOp18
 70
     1
102
RTVSPropertyOp19
 70
     1
102
RTVSPropertyOp20
 70
     1
102
RTVSPropertyOp21
 70
     1
102
RTVSPropertyOp22
 70
     1
102
RTVSPropertyOp23
 70
     1
102
RTVSPropertyOp24
 70
     1
102
RTVSPropertyOp25
 70
     1
102
RTVSPropertyOp26
 70
     1
102
RTVSPropertyOp27
 70
     1
102
RTVSPropertyOp28
 70
     1
102
RTVSPropertyOp29
 70
     1
102
RTVSPropertyOp30
 70
     1
102
RTVSPropertyOp31
 70
     1
102
RTVSPropertyOp32
 70
     1
  0
XRECORD
  5
33E
102
{ACAD_REACTORS
330
33D
102
}
330
33D
100
AcDbXrecord
280
     1
102
RTVSPropertyOp0
 70
     1
102
RTVSPropertyOp1
 70
     1
102
RTVSPropertyOp2
 70
     1
102
RTVSPropertyOp3
 70
     1
102
RTVSPropertyOp4
 70
     1
102
RTVSPropertyOp5
 70
     1
102
RTVSPropertyOp6
 70
     1
102
RTVSPropertyOp7
 70
     1
102
RTVSPropertyOp8
 70
     1
102
RTVSPropertyOp9
 70
     1
102
RTVSPropertyOp10
 70
     1
102
RTVSPropertyOp11
 70
     1
102
RTVSPropertyOp12
 70
     1
102
RTVSPropertyOp13
 70
     1
102
RTVSPropertyOp14
 70
     1
102
RTVSPropertyOp15
 70
     1
102
RTVSPropertyOp16
 70
     1
102
RTVSPropertyOp17
 70
     1
102
RTVSPropertyOp18
 70
     1
102
RTVSPropertyOp19
 70
     1
102
RTVSPropertyOp20
 70
     1
102
RTVSPropertyOp21
 70
     1
102
RTVSPropertyOp22
 70
     1
102
RTVSPropertyOp23
 70
     1
102
RTVSPropertyOp24
 70
     1
102
RTVSPropertyOp25
 70
     1
102
RTVSPropertyOp26
 70
     1
102
RTVSPropertyOp27
 70
     1
102
RTVSPropertyOp28
 70
     1
102
RTVSPropertyOp29
 70
     1
102
RTVSPropertyOp30
 70
     1
102
RTVSPropertyOp31
 70
     1
102
RTVSPropertyOp32
 70
     1
  0
XRECORD
  5
358
102
{ACAD_REACTORS
330
357
102
}
330
357
100
AcDbXrecord
280
     1
102
RTVSPropertyOp0
 70
     0
102
RTVSPropertyOp1
 70
     0
102
RTVSPropertyOp2
 70
     0
102
RTVSPropertyOp3
 70
     0
102
RTVSPropertyOp4
 70
     0
102
RTVSPropertyOp5
 70
     0
102
RTVSPropertyOp6
 70
     0
102
RTVSPropertyOp7
 70
     0
102
RTVSPropertyOp8
 70
     0
102
RTVSPropertyOp9
 70
     0
102
RTVSPropertyOp10
 70
     0
102
RTVSPropertyOp11
 70
     0
102
RTVSPropertyOp12
 70
     0
102
RTVSPropertyOp13
 70
     0
102
RTVSPropertyOp14
 70
     2
102
RTVSPropertyOp15
 70
     0
102
RTVSPropertyOp16
 70
     0
102
RTVSPropertyOp17
 70
     0
102
RTVSPropertyOp18
 70
     0
102
RTVSPropertyOp19
 70
     0
102
RTVSPropertyOp20
 70
     0
102
RTVSPropertyOp21
 70
     0
102
RTVSPropertyOp22
 70
     0
102
RTVSPropertyOp23
 70
     0
102
RTVSPropertyOp24
 70
     0
102
RTVSPropertyOp25
 70
     0
102
RTVSPropertyOp26
 70
     0
102
RTVSPropertyOp27
 70
     0
102
RTVSPropertyOp28
 70
     0
102
RTVSPropertyOp29
 70
     0
102
RTVSPropertyOp30
 70
     0
102
RTVSPropertyOp31
 70
     0
102
RTVSPropertyOp32
 70
     0
  0
XRECORD
  5
346
102
{ACAD_REACTORS
330
345
102
}
330
345
100
AcDbXrecord
280
     1
102
RTVSPropertyOp0
 70
     1
102
RTVSPropertyOp1
 70
     1
102
RTVSPropertyOp2
 70
     1
102
RTVSPropertyOp3
 70
     1
102
RTVSPropertyOp4
 70
     1
102
RTVSPropertyOp5
 70
     1
102
RTVSPropertyOp6
 70
     1
102
RTVSPropertyOp7
 70
     1
102
RTVSPropertyOp8
 70
     1
102
RTVSPropertyOp9
 70
     1
102
RTVSPropertyOp10
 70
     1
102
RTVSPropertyOp11
 70
     1
102
RTVSPropertyOp12
 70
     1
102
RTVSPropertyOp13
 70
     1
102
RTVSPropertyOp14
 70
     1
102
RTVSPropertyOp15
 70
     1
102
RTVSPropertyOp16
 70
     1
102
RTVSPropertyOp17
 70
     1
102
RTVSPropertyOp18
 70
     1
102
RTVSPropertyOp19
 70
     1
102
RTVSPropertyOp20
 70
     1
102
RTVSPropertyOp21
 70
     1
102
RTVSPropertyOp22
 70
     1
102
RTVSPropertyOp23
 70
     1
102
RTVSPropertyOp24
 70
     1
102
RTVSPropertyOp25
 70
     1
102
RTVSPropertyOp26
 70
     1
102
RTVSPropertyOp27
 70
     1
102
RTVSPropertyOp28
 70
     1
102
RTVSPropertyOp29
 70
     1
102
RTVSPropertyOp30
 70
     1
102
RTVSPropertyOp31
 70
     1
102
RTVSPropertyOp32
 70
     1
  0
XRECORD
  5
32A
102
{ACAD_REACTORS
330
329
102
}
330
329
100
AcDbXrecord
280
     1
102
RTVSPropertyOp0
 70
     1
102
RTVSPropertyOp1
 70
     1
102
RTVSPropertyOp2
 70
     1
102
RTVSPropertyOp3
 70
     1
102
RTVSPropertyOp4
 70
     1
102
RTVSPropertyOp5
 70
     1
102
RTVSPropertyOp6
 70
     1
102
RTVSPropertyOp7
 70
     1
102
RTVSPropertyOp8
 70
     1
102
RTVSPropertyOp9
 70
     1
102
RTVSPropertyOp10
 70
     1
102
RTVSPropertyOp11
 70
     1
102
RTVSPropertyOp12
 70
     1
102
RTVSPropertyOp13
 70
     1
102
RTVSPropertyOp14
 70
     1
102
RTVSPropertyOp15
 70
     1
102
RTVSPropertyOp16
 70
     1
102
RTVSPropertyOp17
 70
     1
102
RTVSPropertyOp18
 70
     1
102
RTVSPropertyOp19
 70
     1
102
RTVSPropertyOp20
 70
     1
102
RTVSPropertyOp21
 70
     1
102
RTVSPropertyOp22
 70
     1
102
RTVSPropertyOp23
 70
     1
102
RTVSPropertyOp24
 70
     1
102
RTVSPropertyOp25
 70
     1
102
RTVSPropertyOp26
 70
     1
102
RTVSPropertyOp27
 70
     1
102
RTVSPropertyOp28
 70
     1
102
RTVSPropertyOp29
 70
     1
102
RTVSPropertyOp30
 70
     1
102
RTVSPropertyOp31
 70
     1
102
RTVSPropertyOp32
 70
     1
  0
XRECORD
  5
32C
102
{ACAD_REACTORS
330
32B
102
}
330
32B
100
AcDbXrecord
280
     1
102
RTVSPropertyOp0
 70
     1
102
RTVSPropertyOp1
 70
     1
102
RTVSPropertyOp2
 70
     1
102
RTVSPropertyOp3
 70
     1
102
RTVSPropertyOp4
 70
     1
102
RTVSPropertyOp5
 70
     1
102
RTVSPropertyOp6
 70
     1
102
RTVSPropertyOp7
 70
     1
102
RTVSPropertyOp8
 70
     1
102
RTVSPropertyOp9
 70
     1
102
RTVSPropertyOp10
 70
     1
102
RTVSPropertyOp11
 70
     1
102
RTVSPropertyOp12
 70
     1
102
RTVSPropertyOp13
 70
     1
102
RTVSPropertyOp14
 70
     1
102
RTVSPropertyOp15
 70
     1
102
RTVSPropertyOp16
 70
     1
102
RTVSPropertyOp17
 70
     1
102
RTVSPropertyOp18
 70
     1
102
RTVSPropertyOp19
 70
     1
102
RTVSPropertyOp20
 70
     1
102
RTVSPropertyOp21
 70
     1
102
RTVSPropertyOp22
 70
     1
102
RTVSPropertyOp23
 70
     1
102
RTVSPropertyOp24
 70
     1
102
RTVSPropertyOp25
 70
     1
102
RTVSPropertyOp26
 70
     1
102
RTVSPropertyOp27
 70
     1
102
RTVSPropertyOp28
 70
     1
102
RTVSPropertyOp29
 70
     1
102
RTVSPropertyOp30
 70
     1
102
RTVSPropertyOp31
 70
     1
102
RTVSPropertyOp32
 70
     1
  0
XRECORD
  5
32E
102
{ACAD_REACTORS
330
32D
102
}
330
32D
100
AcDbXrecord
280
     1
102
RTVSPropertyOp0
 70
     1
102
RTVSPropertyOp1
 70
     1
102
RTVSPropertyOp2
 70
     1
102
RTVSPropertyOp3
 70
     1
102
RTVSPropertyOp4
 70
     1
102
RTVSPropertyOp5
 70
     1
102
RTVSPropertyOp6
 70
     1
102
RTVSPropertyOp7
 70
     1
102
RTVSPropertyOp8
 70
     1
102
RTVSPropertyOp9
 70
     1
102
RTVSPropertyOp10
 70
     1
102
RTVSPropertyOp11
 70
     1
102
RTVSPropertyOp12
 70
     1
102
RTVSPropertyOp13
 70
     1
102
RTVSPropertyOp14
 70
     1
102
RTVSPropertyOp15
 70
     1
102
RTVSPropertyOp16
 70
     1
102
RTVSPropertyOp17
 70
     1
102
RTVSPropertyOp18
 70
     1
102
RTVSPropertyOp19
 70
     1
102
RTVSPropertyOp20
 70
     1
102
RTVSPropertyOp21
 70
     1
102
RTVSPropertyOp22
 70
     1
102
RTVSPropertyOp23
 70
     1
102
RTVSPropertyOp24
 70
     1
102
RTVSPropertyOp25
 70
     1
102
RTVSPropertyOp26
 70
     1
102
RTVSPropertyOp27
 70
     1
102
RTVSPropertyOp28
 70
     1
102
RTVSPropertyOp29
 70
     1
102
RTVSPropertyOp30
 70
     1
102
RTVSPropertyOp31
 70
     1
102
RTVSPropertyOp32
 70
     1
  0
XRECORD
  5
330
102
{ACAD_REACTORS
330
32F
102
}
330
32F
100
AcDbXrecord
280
     1
102
RTVSPropertyOp0
 70
     1
102
RTVSPropertyOp1
 70
     1
102
RTVSPropertyOp2
 70
     1
102
RTVSPropertyOp3
 70
     1
102
RTVSPropertyOp4
 70
     1
102
RTVSPropertyOp5
 70
     1
102
RTVSPropertyOp6
 70
     1
102
RTVSPropertyOp7
 70
     1
102
RTVSPropertyOp8
 70
     1
102
RTVSPropertyOp9
 70
     1
102
RTVSPropertyOp10
 70
     1
102
RTVSPropertyOp11
 70
     1
102
RTVSPropertyOp12
 70
     1
102
RTVSPropertyOp13
 70
     1
102
RTVSPropertyOp14
 70
     1
102
RTVSPropertyOp15
 70
     1
102
RTVSPropertyOp16
 70
     1
102
RTVSPropertyOp17
 70
     1
102
RTVSPropertyOp18
 70
     1
102
RTVSPropertyOp19
 70
     1
102
RTVSPropertyOp20
 70
     1
102
RTVSPropertyOp21
 70
     1
102
RTVSPropertyOp22
 70
     1
102
RTVSPropertyOp23
 70
     1
102
RTVSPropertyOp24
 70
     1
102
RTVSPropertyOp25
 70
     1
102
RTVSPropertyOp26
 70
     1
102
RTVSPropertyOp27
 70
     1
102
RTVSPropertyOp28
 70
     1
102
RTVSPropertyOp29
 70
     1
102
RTVSPropertyOp30
 70
     1
102
RTVSPropertyOp31
 70
     1
102
RTVSPropertyOp32
 70
     1
  0
XRECORD
  5
338
102
{ACAD_REACTORS
330
337
102
}
330
337
100
AcDbXrecord
280
     1
102
RTVSPropertyOp0
 70
     1
102
RTVSPropertyOp1
 70
     1
102
RTVSPropertyOp2
 70
     1
102
RTVSPropertyOp3
 70
     1
102
RTVSPropertyOp4
 70
     1
102
RTVSPropertyOp5
 70
     1
102
RTVSPropertyOp6
 70
     1
102
RTVSPropertyOp7
 70
     1
102
RTVSPropertyOp8
 70
     1
102
RTVSPropertyOp9
 70
     1
102
RTVSPropertyOp10
 70
     1
102
RTVSPropertyOp11
 70
     1
102
RTVSPropertyOp12
 70
     1
102
RTVSPropertyOp13
 70
     1
102
RTVSPropertyOp14
 70
     1
102
RTVSPropertyOp15
 70
     1
102
RTVSPropertyOp16
 70
     1
102
RTVSPropertyOp17
 70
     1
102
RTVSPropertyOp18
 70
     1
102
RTVSPropertyOp19
 70
     1
102
RTVSPropertyOp20
 70
     1
102
RTVSPropertyOp21
 70
     1
102
RTVSPropertyOp22
 70
     1
102
RTVSPropertyOp23
 70
     1
102
RTVSPropertyOp24
 70
     1
102
RTVSPropertyOp25
 70
     1
102
RTVSPropertyOp26
 70
     1
102
RTVSPropertyOp27
 70
     1
102
RTVSPropertyOp28
 70
     1
102
RTVSPropertyOp29
 70
     1
102
RTVSPropertyOp30
 70
     1
102
RTVSPropertyOp31
 70
     1
102
RTVSPropertyOp32
 70
     1
  0
XRECORD
  5
354
102
{ACAD_REACTORS
330
353
102
}
330
353
100
AcDbXrecord
280
     1
102
RTVSPropertyOp0
 70
     0
102
RTVSPropertyOp1
 70
     0
102
RTVSPropertyOp2
 70
     0
102
RTVSPropertyOp3
 70
     0
102
RTVSPropertyOp4
 70
     0
102
RTVSPropertyOp5
 70
     0
102
RTVSPropertyOp6
 70
     0
102
RTVSPropertyOp7
 70
     0
102
RTVSPropertyOp8
 70
     0
102
RTVSPropertyOp9
 70
     0
102
RTVSPropertyOp10
 70
     0
102
RTVSPropertyOp11
 70
     0
102
RTVSPropertyOp12
 70
     0
102
RTVSPropertyOp13
 70
     0
102
RTVSPropertyOp14
 70
     2
102
RTVSPropertyOp15
 70
     0
102
RTVSPropertyOp16
 70
     0
102
RTVSPropertyOp17
 70
     0
102
RTVSPropertyOp18
 70
     0
102
RTVSPropertyOp19
 70
     0
102
RTVSPropertyOp20
 70
     0
102
RTVSPropertyOp21
 70
     0
102
RTVSPropertyOp22
 70
     0
102
RTVSPropertyOp23
 70
     0
102
RTVSPropertyOp24
 70
     0
102
RTVSPropertyOp25
 70
     0
102
RTVSPropertyOp26
 70
     0
102
RTVSPropertyOp27
 70
     0
102
RTVSPropertyOp28
 70
     0
102
RTVSPropertyOp29
 70
     0
102
RTVSPropertyOp30
 70
     0
102
RTVSPropertyOp31
 70
     0
102
RTVSPropertyOp32
 70
     0
  0
XRECORD
  5
344
102
{ACAD_REACTORS
330
343
102
}
330
343
100
AcDbXrecord
280
     1
102
RTVSPropertyOp0
 70
     1
102
RTVSPropertyOp1
 70
     1
102
RTVSPropertyOp2
 70
     1
102
RTVSPropertyOp3
 70
     1
102
RTVSPropertyOp4
 70
     1
102
RTVSPropertyOp5
 70
     1
102
RTVSPropertyOp6
 70
     1
102
RTVSPropertyOp7
 70
     1
102
RTVSPropertyOp8
 70
     1
102
RTVSPropertyOp9
 70
     1
102
RTVSPropertyOp10
 70
     1
102
RTVSPropertyOp11
 70
     1
102
RTVSPropertyOp12
 70
     1
102
RTVSPropertyOp13
 70
     1
102
RTVSPropertyOp14
 70
     1
102
RTVSPropertyOp15
 70
     1
102
RTVSPropertyOp16
 70
     1
102
RTVSPropertyOp17
 70
     1
102
RTVSPropertyOp18
 70
     1
102
RTVSPropertyOp19
 70
     1
102
RTVSPropertyOp20
 70
     1
102
RTVSPropertyOp21
 70
     1
102
RTVSPropertyOp22
 70
     1
102
RTVSPropertyOp23
 70
     1
102
RTVSPropertyOp24
 70
     1
102
RTVSPropertyOp25
 70
     1
102
RTVSPropertyOp26
 70
     1
102
RTVSPropertyOp27
 70
     1
102
RTVSPropertyOp28
 70
     1
102
RTVSPropertyOp29
 70
     1
102
RTVSPropertyOp30
 70
     1
102
RTVSPropertyOp31
 70
     1
102
RTVSPropertyOp32
 70
     1
  0
XRECORD
  5
356
102
{ACAD_REACTORS
330
355
102
}
330
355
100
AcDbXrecord
280
     1
102
RTVSPropertyOp0
 70
     0
102
RTVSPropertyOp1
 70
     0
102
RTVSPropertyOp2
 70
     0
102
RTVSPropertyOp3
 70
     0
102
RTVSPropertyOp4
 70
     0
102
RTVSPropertyOp5
 70
     0
102
RTVSPropertyOp6
 70
     0
102
RTVSPropertyOp7
 70
     0
102
RTVSPropertyOp8
 70
     0
102
RTVSPropertyOp9
 70
     0
102
RTVSPropertyOp10
 70
     0
102
RTVSPropertyOp11
 70
     0
102
RTVSPropertyOp12
 70
     0
102
RTVSPropertyOp13
 70
     0
102
RTVSPropertyOp14
 70
     2
102
RTVSPropertyOp15
 70
     0
102
RTVSPropertyOp16
 70
     0
102
RTVSPropertyOp17
 70
     0
102
RTVSPropertyOp18
 70
     0
102
RTVSPropertyOp19
 70
     0
102
RTVSPropertyOp20
 70
     0
102
RTVSPropertyOp21
 70
     0
102
RTVSPropertyOp22
 70
     0
102
RTVSPropertyOp23
 70
     0
102
RTVSPropertyOp24
 70
     0
102
RTVSPropertyOp25
 70
     0
102
RTVSPropertyOp26
 70
     0
102
RTVSPropertyOp27
 70
     0
102
RTVSPropertyOp28
 70
     0
102
RTVSPropertyOp29
 70
     0
102
RTVSPropertyOp30
 70
     0
102
RTVSPropertyOp31
 70
     0
102
RTVSPropertyOp32
 70
     0
  0
XRECORD
  5
33C
102
{ACAD_REACTORS
330
33B
102
}
330
33B
100
AcDbXrecord
280
     1
102
RTVSPropertyOp0
 70
     1
102
RTVSPropertyOp1
 70
     1
102
RTVSPropertyOp2
 70
     1
102
RTVSPropertyOp3
 70
     1
102
RTVSPropertyOp4
 70
     1
102
RTVSPropertyOp5
 70
     1
102
RTVSPropertyOp6
 70
     1
102
RTVSPropertyOp7
 70
     1
102
RTVSPropertyOp8
 70
     1
102
RTVSPropertyOp9
 70
     1
102
RTVSPropertyOp10
 70
     1
102
RTVSPropertyOp11
 70
     1
102
RTVSPropertyOp12
 70
     1
102
RTVSPropertyOp13
 70
     1
102
RTVSPropertyOp14
 70
     1
102
RTVSPropertyOp15
 70
     1
102
RTVSPropertyOp16
 70
     1
102
RTVSPropertyOp17
 70
     1
102
RTVSPropertyOp18
 70
     1
102
RTVSPropertyOp19
 70
     1
102
RTVSPropertyOp20
 70
     1
102
RTVSPropertyOp21
 70
     1
102
RTVSPropertyOp22
 70
     1
102
RTVSPropertyOp23
 70
     1
102
RTVSPropertyOp24
 70
     1
102
RTVSPropertyOp25
 70
     1
102
RTVSPropertyOp26
 70
     1
102
RTVSPropertyOp27
 70
     1
102
RTVSPropertyOp28
 70
     1
102
RTVSPropertyOp29
 70
     1
102
RTVSPropertyOp30
 70
     1
102
RTVSPropertyOp31
 70
     1
102
RTVSPropertyOp32
 70
     1
  0
XRECORD
  5
352
102
{ACAD_REACTORS
330
351
102
}
330
351
100
AcDbXrecord
280
     1
102
RTVSPropertyOp0
 70
     1
102
RTVSPropertyOp1
 70
     1
102
RTVSPropertyOp2
 70
     1
102
RTVSPropertyOp3
 70
     1
102
RTVSPropertyOp4
 70
     1
102
RTVSPropertyOp5
 70
     1
102
RTVSPropertyOp6
 70
     1
102
RTVSPropertyOp7
 70
     1
102
RTVSPropertyOp8
 70
     1
102
RTVSPropertyOp9
 70
     1
102
RTVSPropertyOp10
 70
     1
102
RTVSPropertyOp11
 70
     1
102
RTVSPropertyOp12
 70
     1
102
RTVSPropertyOp13
 70
     1
102
RTVSPropertyOp14
 70
     1
102
RTVSPropertyOp15
 70
     1
102
RTVSPropertyOp16
 70
     1
102
RTVSPropertyOp17
 70
     1
102
RTVSPropertyOp18
 70
     1
102
RTVSPropertyOp19
 70
     1
102
RTVSPropertyOp20
 70
     1
102
RTVSPropertyOp21
 70
     1
102
RTVSPropertyOp22
 70
     1
102
RTVSPropertyOp23
 70
     1
102
RTVSPropertyOp24
 70
     1
102
RTVSPropertyOp25
 70
     1
102
RTVSPropertyOp26
 70
     1
102
RTVSPropertyOp27
 70
     1
102
RTVSPropertyOp28
 70
     1
102
RTVSPropertyOp29
 70
     1
102
RTVSPropertyOp30
 70
     1
102
RTVSPropertyOp31
 70
     1
102
RTVSPropertyOp32
 70
     1
  0
XRECORD
  5
350
102
{ACAD_REACTORS
330
34F
102
}
330
34F
100
AcDbXrecord
280
     1
102
RTVSPropertyOp0
 70
     1
102
RTVSPropertyOp1
 70
     1
102
RTVSPropertyOp2
 70
     1
102
RTVSPropertyOp3
 70
     1
102
RTVSPropertyOp4
 70
     1
102
RTVSPropertyOp5
 70
     1
102
RTVSPropertyOp6
 70
     1
102
RTVSPropertyOp7
 70
     1
102
RTVSPropertyOp8
 70
     1
102
RTVSPropertyOp9
 70
     1
102
RTVSPropertyOp10
 70
     1
102
RTVSPropertyOp11
 70
     1
102
RTVSPropertyOp12
 70
     1
102
RTVSPropertyOp13
 70
     1
102
RTVSPropertyOp14
 70
     1
102
RTVSPropertyOp15
 70
     1
102
RTVSPropertyOp16
 70
     1
102
RTVSPropertyOp17
 70
     1
102
RTVSPropertyOp18
 70
     1
102
RTVSPropertyOp19
 70
     1
102
RTVSPropertyOp20
 70
     1
102
RTVSPropertyOp21
 70
     1
102
RTVSPropertyOp22
 70
     1
102
RTVSPropertyOp23
 70
     1
102
RTVSPropertyOp24
 70
     1
102
RTVSPropertyOp25
 70
     1
102
RTVSPropertyOp26
 70
     1
102
RTVSPropertyOp27
 70
     1
102
RTVSPropertyOp28
 70
     1
102
RTVSPropertyOp29
 70
     1
102
RTVSPropertyOp30
 70
     1
102
RTVSPropertyOp31
 70
     1
102
RTVSPropertyOp32
 70
     1
  0
XRECORD
  5
34A
102
{ACAD_REACTORS
330
349
102
}
330
349
100
AcDbXrecord
280
     1
102
RTVSPropertyOp0
 70
     1
102
RTVSPropertyOp1
 70
     1
102
RTVSPropertyOp2
 70
     1
102
RTVSPropertyOp3
 70
     1
102
RTVSPropertyOp4
 70
     1
102
RTVSPropertyOp5
 70
     1
102
RTVSPropertyOp6
 70
     1
102
RTVSPropertyOp7
 70
     1
102
RTVSPropertyOp8
 70
     1
102
RTVSPropertyOp9
 70
     1
102
RTVSPropertyOp10
 70
     1
102
RTVSPropertyOp11
 70
     1
102
RTVSPropertyOp12
 70
     1
102
RTVSPropertyOp13
 70
     1
102
RTVSPropertyOp14
 70
     1
102
RTVSPropertyOp15
 70
     1
102
RTVSPropertyOp16
 70
     1
102
RTVSPropertyOp17
 70
     1
102
RTVSPropertyOp18
 70
     1
102
RTVSPropertyOp19
 70
     1
102
RTVSPropertyOp20
 70
     1
102
RTVSPropertyOp21
 70
     1
102
RTVSPropertyOp22
 70
     1
102
RTVSPropertyOp23
 70
     1
102
RTVSPropertyOp24
 70
     1
102
RTVSPropertyOp25
 70
     1
102
RTVSPropertyOp26
 70
     1
102
RTVSPropertyOp27
 70
     1
102
RTVSPropertyOp28
 70
     1
102
RTVSPropertyOp29
 70
     1
102
RTVSPropertyOp30
 70
     1
102
RTVSPropertyOp31
 70
     1
102
RTVSPropertyOp32
 70
     1
  0
XRECORD
  5
34C
102
{ACAD_REACTORS
330
34B
102
}
330
34B
100
AcDbXrecord
280
     1
102
RTVSPropertyOp0
 70
     1
102
RTVSPropertyOp1
 70
     1
102
RTVSPropertyOp2
 70
     1
102
RTVSPropertyOp3
 70
     1
102
RTVSPropertyOp4
 70
     1
102
RTVSPropertyOp5
 70
     1
102
RTVSPropertyOp6
 70
     1
102
RTVSPropertyOp7
 70
     1
102
RTVSPropertyOp8
 70
     1
102
RTVSPropertyOp9
 70
     1
102
RTVSPropertyOp10
 70
     1
102
RTVSPropertyOp11
 70
     1
102
RTVSPropertyOp12
 70
     1
102
RTVSPropertyOp13
 70
     1
102
RTVSPropertyOp14
 70
     1
102
RTVSPropertyOp15
 70
     1
102
RTVSPropertyOp16
 70
     1
102
RTVSPropertyOp17
 70
     1
102
RTVSPropertyOp18
 70
     1
102
RTVSPropertyOp19
 70
     1
102
RTVSPropertyOp20
 70
     1
102
RTVSPropertyOp21
 70
     1
102
RTVSPropertyOp22
 70
     1
102
RTVSPropertyOp23
 70
     1
102
RTVSPropertyOp24
 70
     1
102
RTVSPropertyOp25
 70
     1
102
RTVSPropertyOp26
 70
     1
102
RTVSPropertyOp27
 70
     1
102
RTVSPropertyOp28
 70
     1
102
RTVSPropertyOp29
 70
     1
102
RTVSPropertyOp30
 70
     1
102
RTVSPropertyOp31
 70
     1
102
RTVSPropertyOp32
 70
     1
  0
XRECORD
  5
342
102
{ACAD_REACTORS
330
341
102
}
330
341
100
AcDbXrecord
280
     1
102
RTVSPropertyOp0
 70
     1
102
RTVSPropertyOp1
 70
     1
102
RTVSPropertyOp2
 70
     1
102
RTVSPropertyOp3
 70
     1
102
RTVSPropertyOp4
 70
     1
102
RTVSPropertyOp5
 70
     1
102
RTVSPropertyOp6
 70
     1
102
RTVSPropertyOp7
 70
     1
102
RTVSPropertyOp8
 70
     1
102
RTVSPropertyOp9
 70
     1
102
RTVSPropertyOp10
 70
     1
102
RTVSPropertyOp11
 70
     1
102
RTVSPropertyOp12
 70
     1
102
RTVSPropertyOp13
 70
     1
102
RTVSPropertyOp14
 70
     1
102
RTVSPropertyOp15
 70
     1
102
RTVSPropertyOp16
 70
     1
102
RTVSPropertyOp17
 70
     1
102
RTVSPropertyOp18
 70
     1
102
RTVSPropertyOp19
 70
     1
102
RTVSPropertyOp20
 70
     1
102
RTVSPropertyOp21
 70
     1
102
RTVSPropertyOp22
 70
     1
102
RTVSPropertyOp23
 70
     1
102
RTVSPropertyOp24
 70
     1
102
RTVSPropertyOp25
 70
     1
102
RTVSPropertyOp26
 70
     1
102
RTVSPropertyOp27
 70
     1
102
RTVSPropertyOp28
 70
     1
102
RTVSPropertyOp29
 70
     1
102
RTVSPropertyOp30
 70
     1
102
RTVSPropertyOp31
 70
     1
102
RTVSPropertyOp32
 70
     1
  0
XRECORD
  5
336
102
{ACAD_REACTORS
330
335
102
}
330
335
100
AcDbXrecord
280
     1
102
RTVSPropertyOp0
 70
     1
102
RTVSPropertyOp1
 70
     1
102
RTVSPropertyOp2
 70
     1
102
RTVSPropertyOp3
 70
     1
102
RTVSPropertyOp4
 70
     1
102
RTVSPropertyOp5
 70
     1
102
RTVSPropertyOp6
 70
     1
102
RTVSPropertyOp7
 70
     1
102
RTVSPropertyOp8
 70
     1
102
RTVSPropertyOp9
 70
     1
102
RTVSPropertyOp10
 70
     1
102
RTVSPropertyOp11
 70
     1
102
RTVSPropertyOp12
 70
     1
102
RTVSPropertyOp13
 70
     1
102
RTVSPropertyOp14
 70
     1
102
RTVSPropertyOp15
 70
     1
102
RTVSPropertyOp16
 70
     1
102
RTVSPropertyOp17
 70
     1
102
RTVSPropertyOp18
 70
     1
102
RTVSPropertyOp19
 70
     1
102
RTVSPropertyOp20
 70
     1
102
RTVSPropertyOp21
 70
     1
102
RTVSPropertyOp22
 70
     1
102
RTVSPropertyOp23
 70
     1
102
RTVSPropertyOp24
 70
     1
102
RTVSPropertyOp25
 70
     1
102
RTVSPropertyOp26
 70
     1
102
RTVSPropertyOp27
 70
     1
102
RTVSPropertyOp28
 70
     1
102
RTVSPropertyOp29
 70
     1
102
RTVSPropertyOp30
 70
     1
102
RTVSPropertyOp31
 70
     1
102
RTVSPropertyOp32
 70
     1
  0
XRECORD
  5
34E
102
{ACAD_REACTORS
330
34D
102
}
330
34D
100
AcDbXrecord
280
     1
102
RTVSPropertyOp0
 70
     1
102
RTVSPropertyOp1
 70
     1
102
RTVSPropertyOp2
 70
     1
102
RTVSPropertyOp3
 70
     1
102
RTVSPropertyOp4
 70
     1
102
RTVSPropertyOp5
 70
     1
102
RTVSPropertyOp6
 70
     1
102
RTVSPropertyOp7
 70
     1
102
RTVSPropertyOp8
 70
     1
102
RTVSPropertyOp9
 70
     1
102
RTVSPropertyOp10
 70
     1
102
RTVSPropertyOp11
 70
     1
102
RTVSPropertyOp12
 70
     1
102
RTVSPropertyOp13
 70
     1
102
RTVSPropertyOp14
 70
     1
102
RTVSPropertyOp15
 70
     1
102
RTVSPropertyOp16
 70
     1
102
RTVSPropertyOp17
 70
     1
102
RTVSPropertyOp18
 70
     1
102
RTVSPropertyOp19
 70
     1
102
RTVSPropertyOp20
 70
     1
102
RTVSPropertyOp21
 70
     1
102
RTVSPropertyOp22
 70
     1
102
RTVSPropertyOp23
 70
     1
102
RTVSPropertyOp24
 70
     1
102
RTVSPropertyOp25
 70
     1
102
RTVSPropertyOp26
 70
     1
102
RTVSPropertyOp27
 70
     1
102
RTVSPropertyOp28
 70
     1
102
RTVSPropertyOp29
 70
     1
102
RTVSPropertyOp30
 70
     1
102
RTVSPropertyOp31
 70
     1
102
RTVSPropertyOp32
 70
     1
  0
ENDSEC
  0
EOF
