  0
SECTION
  2
HEADER
  9
$ACADVER
  1
AC1015
  9
$ACADMAINTVER
 70
    20
  9
$DWGCODEPAGE
  3
ANSI_932
  9
$INSBASE
 10
0.0
 20
0.0
 30
0.0
  9
$EXTMIN
 10
-445.598756626196
 20
-172.0391472970688
 30
0.0
  9
$EXTMAX
 10
-258.0987566261956
 20
-37.03914729706881
 30
0.0
  9
$LIMMIN
 10
0.0
 20
0.0
  9
$LIMMAX
 10
12.0
 20
9.0
  9
$ORTHOMODE
 70
     0
  9
$REGENMODE
 70
     1
  9
$FILLMODE
 70
     1
  9
$QTEXTMODE
 70
     0
  9
$MIRRTEXT
 70
     1
  9
$LTSCALE
 40
1.0
  9
$ATTMODE
 70
     1
  9
$TEXTSIZE
 40
0.2
  9
$TRACEWID
 40
0.05
  9
$TEXTSTYLE
  7
Standard
  9
$CLAYER
  8
0
  9
$CELTYPE
  6
ByLayer
  9
$CECOLOR
 62
   256
  9
$CELTSCALE
 40
1.0
  9
$DISPSILH
 70
     0
  9
$DIMSCALE
 40
1.0
  9
$DIMASZ
 40
0.18
  9
$DIMEXO
 40
0.0625
  9
$DIMDLI
 40
0.38
  9
$DIMRND
 40
0.0
  9
$DIMDLE
 40
0.0
  9
$DIMEXE
 40
0.18
  9
$DIMTP
 40
0.0
  9
$DIMTM
 40
0.0
  9
$DIMTXT
 40
0.18
  9
$DIMCEN
 40
0.09
  9
$DIMTSZ
 40
0.0
  9
$DIMTOL
 70
     0
  9
$DIMLIM
 70
     0
  9
$DIMTIH
 70
     1
  9
$DIMTOH
 70
     1
  9
$DIMSE1
 70
     0
  9
$DIMSE2
 70
     0
  9
$DIMTAD
 70
     0
  9
$DIMZIN
 70
     0
  9
$DIMBLK
  1

  9
$DIMASO
 70
     1
  9
$DIMSHO
 70
     1
  9
$DIMPOST
  1

  9
$DIMAPOST
  1

  9
$DIMALT
 70
     0
  9
$DIMALTD
 70
     2
  9
$DIMALTF
 40
25.4
  9
$DIMLFAC
 40
1.0
  9
$DIMTOFL
 70
     0
  9
$DIMTVP
 40
0.0
  9
$DIMTIX
 70
     0
  9
$DIMSOXD
 70
     0
  9
$DIMSAH
 70
     0
  9
$DIMBLK1
  1

  9
$DIMBLK2
  1

  9
$DIMSTYLE
  2
Standard
  9
$DIMCLRD
 70
     0
  9
$DIMCLRE
 70
     0
  9
$DIMCLRT
 70
     0
  9
$DIMTFAC
 40
1.0
  9
$DIMGAP
 40
0.09
  9
$DIMJUST
 70
     0
  9
$DIMSD1
 70
     0
  9
$DIMSD2
 70
     0
  9
$DIMTOLJ
 70
     1
  9
$DIMTZIN
 70
     0
  9
$DIMALTZ
 70
     0
  9
$DIMALTTZ
 70
     0
  9
$DIMUPT
 70
     0
  9
$DIMDEC
 70
     4
  9
$DIMTDEC
 70
     4
  9
$DIMALTU
 70
     2
  9
$DIMALTTD
 70
     2
  9
$DIMTXSTY
  7
Standard
  9
$DIMAUNIT
 70
     0
  9
$DIMADEC
 70
     0
  9
$DIMALTRND
 40
0.0
  9
$DIMAZIN
 70
     0
  9
$DIMDSEP
 70
    46
  9
$DIMATFIT
 70
     3
  9
$DIMFRAC
 70
     0
  9
$DIMLDRBLK
  1

  9
$DIMLUNIT
 70
     2
  9
$DIMLWD
 70
    -2
  9
$DIMLWE
 70
    -2
  9
$DIMTMOVE
 70
     0
  9
$LUNITS
 70
     2
  9
$LUPREC
 70
     4
  9
$SKETCHINC
 40
0.1
  9
$FILLETRAD
 40
0.5
  9
$AUNITS
 70
     0
  9
$AUPREC
 70
     0
  9
$MENU
  1
.
  9
$ELEVATION
 40
0.0
  9
$PELEVATION
 40
0.0
  9
$THICKNESS
 40
0.0
  9
$LIMCHECK
 70
     0
  9
$CHAMFERA
 40
0.5
  9
$CHAMFERB
 40
0.5
  9
$CHAMFERC
 40
1.0
  9
$CHAMFERD
 40
0.0
  9
$SKPOLY
 70
     0
  9
$TDCREATE
 40
2454160.385366007
  9
$TDUCREATE
 40
2454160.010366007
  9
$TDUPDATE
 40
2457578.397615463
  9
$TDUUPDATE
 40
2457578.022615463
  9
$TDINDWG
 40
0.0011445949
  9
$TDUSRTIMER
 40
0.0011306713
  9
$USRTIMER
 70
     1
  9
$ANGBASE
 50
0.0
  9
$ANGDIR
 70
     0
  9
$PDMODE
 70
     0
  9
$PDSIZE
 40
0.0
  9
$PLINEWID
 40
0.0
  9
$SPLFRAME
 70
     0
  9
$SPLINETYPE
 70
     6
  9
$SPLINESEGS
 70
     8
  9
$HANDSEED
  5
417
  9
$SURFTAB1
 70
     6
  9
$SURFTAB2
 70
     6
  9
$SURFTYPE
 70
     6
  9
$SURFU
 70
     6
  9
$SURFV
 70
     6
  9
$UCSBASE
  2

  9
$UCSNAME
  2

  9
$UCSORG
 10
0.0
 20
0.0
 30
0.0
  9
$UCSXDIR
 10
1.0
 20
0.0
 30
0.0
  9
$UCSYDIR
 10
0.0
 20
1.0
 30
0.0
  9
$UCSORTHOREF
  2

  9
$UCSORTHOVIEW
 70
     0
  9
$UCSORGTOP
 10
0.0
 20
0.0
 30
0.0
  9
$UCSORGBOTTOM
 10
0.0
 20
0.0
 30
0.0
  9
$UCSORGLEFT
 10
0.0
 20
0.0
 30
0.0
  9
$UCSORGRIGHT
 10
0.0
 20
0.0
 30
0.0
  9
$UCSORGFRONT
 10
0.0
 20
0.0
 30
0.0
  9
$UCSORGBACK
 10
0.0
 20
0.0
 30
0.0
  9
$PUCSBASE
  2

  9
$PUCSNAME
  2

  9
$PUCSORG
 10
0.0
 20
0.0
 30
0.0
  9
$PUCSXDIR
 10
1.0
 20
0.0
 30
0.0
  9
$PUCSYDIR
 10
0.0
 20
1.0
 30
0.0
  9
$PUCSORTHOREF
  2

  9
$PUCSORTHOVIEW
 70
     0
  9
$PUCSORGTOP
 10
0.0
 20
0.0
 30
0.0
  9
$PUCSORGBOTTOM
 10
0.0
 20
0.0
 30
0.0
  9
$PUCSORGLEFT
 10
0.0
 20
0.0
 30
0.0
  9
$PUCSORGRIGHT
 10
0.0
 20
0.0
 30
0.0
  9
$PUCSORGFRONT
 10
0.0
 20
0.0
 30
0.0
  9
$PUCSORGBACK
 10
0.0
 20
0.0
 30
0.0
  9
$USERI1
 70
     0
  9
$USERI2
 70
     0
  9
$USERI3
 70
     0
  9
$USERI4
 70
     0
  9
$USERI5
 70
     0
  9
$USERR1
 40
14.0
  9
$USERR2
 40
0.0
  9
$USERR3
 40
0.0
  9
$USERR4
 40
0.0
  9
$USERR5
 40
0.0
  9
$WORLDVIEW
 70
     1
  9
$SHADEDGE
 70
     3
  9
$SHADEDIF
 70
    70
  9
$TILEMODE
 70
     1
  9
$MAXACTVP
 70
    64
  9
$PINSBASE
 10
0.0
 20
0.0
 30
0.0
  9
$PLIMCHECK
 70
     0
  9
$PEXTMIN
 10
1.000000000000000E+20
 20
1.000000000000000E+20
 30
1.000000000000000E+20
  9
$PEXTMAX
 10
-1.000000000000000E+20
 20
-1.000000000000000E+20
 30
-1.000000000000000E+20
  9
$PLIMMIN
 10
0.0
 20
0.0
  9
$PLIMMAX
 10
12.0
 20
9.0
  9
$UNITMODE
 70
     0
  9
$VISRETAIN
 70
     1
  9
$PLINEGEN
 70
     0
  9
$PSLTSCALE
 70
     1
  9
$TREEDEPTH
 70
  3020
  9
$CMLSTYLE
  2
Standard
  9
$CMLJUST
 70
     0
  9
$CMLSCALE
 40
1.0
  9
$PROXYGRAPHICS
 70
     1
  9
$MEASUREMENT
 70
     1
  9
$CELWEIGHT
370
    -1
  9
$ENDCAPS
280
     0
  9
$JOINSTYLE
280
     0
  9
$LWDISPLAY
290
     0
  9
$INSUNITS
 70
     1
  9
$HYPERLINKBASE
  1

  9
$STYLESHEET
  1

  9
$XEDIT
290
     1
  9
$CEPSNTYPE
380
     0
  9
$PSTYLEMODE
290
     1
  9
$FINGERPRINTGUID
  2
{9006D0D4-17B2-4306-80F4-049BE36C625B}
  9
$VERSIONGUID
  2
{A9F1A42C-D715-4DA9-BF82-A028652D6A4D}
  9
$EXTNAMES
290
     1
  9
$PSVPSCALE
 40
0.0
  9
$OLESTARTUP
290
     0
  0
ENDSEC
  0
SECTION
  2
CLASSES
  0
CLASS
  1
ACDBDICTIONARYWDFLT
  2
AcDbDictionaryWithDefault
  3
ObjectDBX Classes
 90
        0
280
     0
281
     0
  0
CLASS
  1

  2
exOdDbCircle
  3

 90
    32768
280
     0
281
     1
  0
CLASS
  1

  2
exOdDbPolyline
  3

 90
    32768
280
     0
281
     1
  0
CLASS
  1
ACDBPLACEHOLDER
  2
AcDbPlaceHolder
  3
ObjectDBX Classes
 90
        0
280
     0
281
     0
  0
CLASS
  1
LAYOUT
  2
AcDbLayout
  3
ObjectDBX Classes
 90
        0
280
     0
281
     0
  0
CLASS
  1
MATERIAL
  2
AcDbMaterial
  3
ObjectDBX Classes
 90
     1153
280
     0
281
     0
  0
CLASS
  1
VISUALSTYLE
  2
AcDbVisualStyle
  3
ObjectDBX Classes
 90
     4095
280
     0
281
     0
  0
CLASS
  1
TABLESTYLE
  2
AcDbTableStyle
  3
ObjectDBX Classes
 90
     4095
280
     0
281
     0
  0
CLASS
  1
SCALE
  2
AcDbScale
  3
ObjectDBX Classes
 90
     1153
280
     0
281
     0
  0
CLASS
  1
MLEADERSTYLE
  2
AcDbMLeaderStyle
  3
ACDB_MLEADERSTYLE_CLASS
 90
     4095
280
     0
281
     0
  0
CLASS
  1
SORTENTSTABLE
  2
AcDbSortentsTable
  3
ObjectDBX Classes
 90
        0
280
     0
281
     0
  0
CLASS
  1
DICTIONARYVAR
  2
AcDbDictionaryVar
  3
ObjectDBX Classes
 90
        0
280
     0
281
     0
  0
CLASS
  1
CELLSTYLEMAP
  2
AcDbCellStyleMap
  3
ObjectDBX Classes
 90
     1152
280
     0
281
     0
  0
ENDSEC
  0
SECTION
  2
TABLES
  0
TABLE
  2
VPORT
  5
8
330
0
100
AcDbSymbolTable
 70
     1
  0
VPORT
  5
29
330
8
100
AcDbSymbolTableRecord
100
AcDbViewportTableRecord
  2
*Active
 70
     0
 10
0.0
 20
0.0
 11
1.0
 21
1.0
 12
-362.5821473793914
 22
-63.53034446541589
 13
0.0
 23
0.0
 14
0.5
 24
0.5
 15
0.5
 25
0.5
 16
0.0
 26
0.0
 36
1.0
 17
0.0
 27
0.0
 37
0.0
 40
207.3332459983386
 41
2.01418439716312
 42
50.0
 43
0.0
 44
0.0
 50
0.0
 51
0.0
 71
     0
 72
   100
 73
     1
 74
     3
 75
     0
 76
     0
 77
     0
 78
     0
281
     0
 65
     1
110
0.0
120
0.0
130
0.0
111
1.0
121
0.0
131
0.0
112
0.0
122
1.0
132
0.0
 79
     0
146
0.0
1001
ACAD_NAV_VCDISPLAY
1070
     3
  0
ENDTAB
  0
TABLE
  2
LTYPE
  5
5
330
0
100
AcDbSymbolTable
 70
     8
  0
LTYPE
  5
14
330
5
100
AcDbSymbolTableRecord
100
AcDbLinetypeTableRecord
  2
ByBlock
 70
     0
  3

 72
    65
 73
     0
 40
0.0
  0
LTYPE
  5
15
330
5
100
AcDbSymbolTableRecord
100
AcDbLinetypeTableRecord
  2
ByLayer
 70
     0
  3

 72
    65
 73
     0
 40
0.0
  0
LTYPE
  5
16
330
5
100
AcDbSymbolTableRecord
100
AcDbLinetypeTableRecord
  2
Continuous
 70
     0
  3
Solid line
 72
    65
 73
     0
 40
0.0
  0
LTYPE
  5
2A
330
5
100
AcDbSymbolTableRecord
100
AcDbLinetypeTableRecord
  2
DASHED
 70
     0
  3
Dashed
 72
    65
 73
     2
 40
15.0
 49
7.0
 74
     0
 49
-8.0
 74
     0
  0
LTYPE
  5
2B
330
5
100
AcDbSymbolTableRecord
100
AcDbLinetypeTableRecord
  2
DOTTED
 70
     0
  3
Dotted
 72
    65
 73
     2
 40
1.0
 49
0.0
 74
     0
 49
-1.0
 74
     0
  0
LTYPE
  5
2C
330
5
100
AcDbSymbolTableRecord
100
AcDbLinetypeTableRecord
  2
DOT_CENTER
 70
     0
  3
Dot_Center
 72
    65
 73
     4
 40
14.0
 49
12.0
 74
     0
 49
-1.0
 74
     0
 49
0.0
 74
     0
 49
-1.0
 74
     0
  0
LTYPE
  5
2D
330
5
100
AcDbSymbolTableRecord
100
AcDbLinetypeTableRecord
  2
LONG_DASHED
 70
     0
  3
Long_Dashed
 72
    65
 73
     2
 40
15.0
 49
10.0
 74
     0
 49
-5.0
 74
     0
  0
LTYPE
  5
2E
330
5
100
AcDbSymbolTableRecord
100
AcDbLinetypeTableRecord
  2
DASH_CENTER
 70
     0
  3
Dash_Center
 72
    65
 73
     4
 40
14.0
 49
11.0
 74
     0
 49
-1.0
 74
     0
 49
1.0
 74
     0
 49
-1.0
 74
     0
  0
LTYPE
  5
2F
330
5
100
AcDbSymbolTableRecord
100
AcDbLinetypeTableRecord
  2
PHANTOM
 70
     0
  3
Phantom
 72
    65
 73
     6
 40
13.0
 49
10.0
 74
     0
 49
-1.0
 74
     0
 49
0.0
 74
     0
 49
-1.0
 74
     0
 49
0.0
 74
     0
 49
-1.0
 74
     0
  0
LTYPE
  5
30
330
5
100
AcDbSymbolTableRecord
100
AcDbLinetypeTableRecord
  2
CENTER_DASH_DASH
 70
     0
  3
Center_Dash_Dash
 72
    65
 73
     6
 40
14.0
 49
9.0
 74
     0
 49
-1.0
 74
     0
 49
1.0
 74
     0
 49
-1.0
 74
     0
 49
1.0
 74
     0
 49
-1.0
 74
     0
  0
ENDTAB
  0
TABLE
  2
LAYER
  5
2
330
0
100
AcDbSymbolTable
 70
     2
  0
LAYER
  5
10
102
{ACAD_XDICTIONARY
360
389
102
}
330
2
100
AcDbSymbolTableRecord
100
AcDbLayerTableRecord
  2
0
 70
     0
 62
     7
  6
Continuous
370
    -3
390
F
  0
LAYER
  5
31
102
{ACAD_XDICTIONARY
360
38B
102
}
330
2
100
AcDbSymbolTableRecord
100
AcDbLayerTableRecord
  2
1
 70
     0
 62
     7
  6
Continuous
370
    -3
390
F
  0
ENDTAB
  0
TABLE
  2
STYLE
  5
3
330
0
100
AcDbSymbolTable
 70
     6
  0
STYLE
  5
11
330
3
100
AcDbSymbolTableRecord
100
AcDbTextStyleTableRecord
  2
Standard
 70
     0
 40
0.0
 41
1.0
 50
0.0
 71
     0
 42
0.2
  3
txt
  4

  0
STYLE
  5
126
330
3
100
AcDbSymbolTableRecord
100
AcDbTextStyleTableRecord
  2
CONVERTER_1
 70
     0
 40
0.0
 41
0.63
 50
0.0
 71
     0
 42
0.2
  3
txt.shx
  4

  0
STYLE
  5
148
330
3
100
AcDbSymbolTableRecord
100
AcDbTextStyleTableRecord
  2
CONVERTER_2
 70
     0
 40
0.0
 41
0.9
 50
0.0
 71
     0
 42
0.2
  3
txt.shx
  4

  0
STYLE
  5
156
330
3
100
AcDbSymbolTableRecord
100
AcDbTextStyleTableRecord
  2
CONVERTER_3
 70
     0
 40
0.0
 41
0.5400000000000001
 50
0.0
 71
     0
 42
0.2
  3
txt.shx
  4

  0
STYLE
  5
15D
330
3
100
AcDbSymbolTableRecord
100
AcDbTextStyleTableRecord
  2
CONVERTER_4
 70
     0
 40
0.0
 41
0.76
 50
0.0
 71
     0
 42
0.2
  3
complex.shx
  4

  0
STYLE
  5
20D
330
3
100
AcDbSymbolTableRecord
100
AcDbTextStyleTableRecord
  2
CONVERTER_5
 70
     0
 40
0.0
 41
0.6650000000000001
 50
0.0
 71
     0
 42
0.2
  3
simplex.shx
  4

  0
ENDTAB
  0
TABLE
  2
VIEW
  5
6
330
0
100
AcDbSymbolTable
 70
     0
  0
ENDTAB
  0
TABLE
  2
UCS
  5
7
330
0
100
AcDbSymbolTable
 70
     0
  0
ENDTAB
  0
TABLE
  2
APPID
  5
9
330
0
100
AcDbSymbolTable
 70
     3
  0
APPID
  5
12
330
9
100
AcDbSymbolTableRecord
100
AcDbRegAppTableRecord
  2
ACAD
 70
     0
  0
APPID
  5
395
330
9
100
AcDbSymbolTableRecord
100
AcDbRegAppTableRecord
  2
ACAD_NAV_VCDISPLAY
 70
     0
  0
APPID
  5
416
330
9
100
AcDbSymbolTableRecord
100
AcDbRegAppTableRecord
  2
ACAD_MLEADERVER
 70
     0
  0
ENDTAB
  0
TABLE
  2
DIMSTYLE
  5
A
330
0
100
AcDbSymbolTable
 70
    13
100
AcDbDimStyleTable
 71
     0
  0
DIMSTYLE
105
27
330
A
100
AcDbSymbolTableRecord
100
AcDbDimStyleTableRecord
  2
Standard
 70
     0
340
11
  0
DIMSTYLE
105
217
330
A
100
AcDbSymbolTableRecord
100
AcDbDimStyleTableRecord
  2
ME10_DIM_0
 70
     0
 41
1.225
 42
0.5
 44
0.5
 73
     0
 74
     0
 77
     1
 78
     8
140
1.75
147
0.5
172
     1
173
     1
176
     2
177
     2
178
     3
271
     2
340
20D
343
211
344
211
  0
DIMSTYLE
105
224
330
A
100
AcDbSymbolTableRecord
100
AcDbDimStyleTableRecord
  2
ME10_DIM_1
 70
     0
 41
1.225
 42
0.5
 44
0.5
 73
     0
 74
     0
 77
     1
 78
     8
140
1.75
147
0.5
172
     1
173
     1
176
     2
177
     2
178
     3
271
     2
340
20D
343
211
344
211
  0
DIMSTYLE
105
231
330
A
100
AcDbSymbolTableRecord
100
AcDbDimStyleTableRecord
  2
ME10_DIM_2
 70
     0
 41
1.225
 42
0.5
 44
0.5
 73
     0
 74
     0
 77
     1
 78
     8
140
1.75
147
0.5
172
     1
173
     1
176
     2
177
     2
178
     3
271
     2
340
20D
343
211
344
211
  0
DIMSTYLE
105
23E
330
A
100
AcDbSymbolTableRecord
100
AcDbDimStyleTableRecord
  2
ME10_DIM_3
 70
     0
 41
1.225
 42
0.5
 44
0.5
 73
     0
 74
     0
 77
     1
 78
     8
140
1.75
147
0.5
172
     1
173
     1
176
     2
177
     2
178
     3
271
     2
340
20D
343
211
344
211
  0
DIMSTYLE
105
24B
330
A
100
AcDbSymbolTableRecord
100
AcDbDimStyleTableRecord
  2
ME10_DIM_4
 70
     0
 41
1.225
 42
0.5
 44
0.5
 73
     0
 74
     0
 77
     1
 78
     8
140
1.75
147
0.5
172
     1
173
     1
176
     2
177
     2
178
     3
271
     2
340
20D
343
211
344
211
  0
DIMSTYLE
105
258
330
A
100
AcDbSymbolTableRecord
100
AcDbDimStyleTableRecord
  2
ME10_DIM_5
 70
     0
 41
1.225
 42
0.5
 44
0.5
 73
     0
 74
     0
 77
     1
 78
     8
140
1.75
147
0.5
172
     1
173
     1
176
     2
177
     2
178
     3
271
     2
340
20D
343
211
344
211
  0
DIMSTYLE
105
265
330
A
100
AcDbSymbolTableRecord
100
AcDbDimStyleTableRecord
  2
ME10_DIM_6
 70
     0
 41
1.225
 42
0.5
 44
0.5
 73
     0
 74
     0
 77
     1
 78
     8
140
1.75
147
0.5
172
     1
173
     1
176
     2
177
     2
178
     3
271
     2
340
20D
343
211
344
211
  0
DIMSTYLE
105
272
330
A
100
AcDbSymbolTableRecord
100
AcDbDimStyleTableRecord
  2
ME10_DIM_7
 70
     0
 41
1.225
 42
0.5
 44
0.5
 73
     0
 74
     0
 77
     1
 78
     8
140
1.75
147
0.5
172
     1
173
     1
176
     2
177
     2
178
     3
271
     2
340
20D
343
211
344
211
  0
DIMSTYLE
105
27F
330
A
100
AcDbSymbolTableRecord
100
AcDbDimStyleTableRecord
  2
ME10_DIM_8
 70
     0
 41
1.225
 42
0.5
 44
0.5
 73
     0
 74
     0
 77
     1
 78
     8
140
1.75
147
0.5
172
     1
173
     1
176
     2
177
     2
178
     3
271
     2
340
20D
343
211
344
211
  0
DIMSTYLE
105
28C
330
A
100
AcDbSymbolTableRecord
100
AcDbDimStyleTableRecord
  2
ME10_DIM_9
 70
     0
 41
1.225
 42
0.5
 44
0.5
 73
     0
 74
     0
 77
     1
 78
     8
140
1.75
147
0.5
172
     1
173
     1
176
     2
177
     2
178
     3
271
     2
340
20D
343
211
344
211
  0
DIMSTYLE
105
299
330
A
100
AcDbSymbolTableRecord
100
AcDbDimStyleTableRecord
  2
ME10_DIM_10
 70
     0
 41
1.225
 42
0.5
 44
0.5
 73
     0
 74
     0
 77
     1
 78
     8
140
1.75
147
0.5
172
     1
173
     1
176
     2
177
     2
178
     3
271
     2
340
20D
343
211
344
211
  0
DIMSTYLE
105
2A6
330
A
100
AcDbSymbolTableRecord
100
AcDbDimStyleTableRecord
  2
ME10_DIM_11
 70
     0
 41
1.225
 42
0.5
 44
0.5
 73
     0
 74
     0
 77
     1
 78
     8
140
1.75
147
0.5
172
     1
173
     1
176
     2
177
     2
178
     3
271
     2
340
20D
343
211
344
211
  0
ENDTAB
  0
TABLE
  2
BLOCK_RECORD
  5
1
330
0
100
AcDbSymbolTable
 70
    20
  0
BLOCK_RECORD
  5
1F
102
{ACAD_XDICTIONARY
360
317
102
}
330
1
100
AcDbSymbolTableRecord
100
AcDbBlockTableRecord
  2
*Model_Space
340
22
  0
BLOCK_RECORD
  5
1B
330
1
100
AcDbSymbolTableRecord
100
AcDbBlockTableRecord
  2
*Paper_Space
340
1E
  0
BLOCK_RECORD
  5
23
330
1
100
AcDbSymbolTableRecord
100
AcDbBlockTableRecord
  2
*Paper_Space0
340
26
  0
BLOCK_RECORD
  5
32
330
1
100
AcDbSymbolTableRecord
100
AcDbBlockTableRecord
  2
______
340
0
102
{BLKREFS
331
36
102
}
  0
BLOCK_RECORD
  5
35
330
1
100
AcDbSymbolTableRecord
100
AcDbBlockTableRecord
  2
format_A3
340
0
102
{BLKREFS
331
3A
102
}
  0
BLOCK_RECORD
  5
39
330
1
100
AcDbSymbolTableRecord
100
AcDbBlockTableRecord
  2
_3
340
0
  0
BLOCK_RECORD
  5
3D
330
1
100
AcDbSymbolTableRecord
100
AcDbBlockTableRecord
  2
_2
340
0
  0
BLOCK_RECORD
  5
40
330
1
100
AcDbSymbolTableRecord
100
AcDbBlockTableRecord
  2
_______t__________M__________M5X12
340
0
102
{BLKREFS
331
44
331
321
102
}
  0
BLOCK_RECORD
  5
43
330
1
100
AcDbSymbolTableRecord
100
AcDbBlockTableRecord
  2
_1
340
0
  0
BLOCK_RECORD
  5
205
330
1
100
AcDbSymbolTableRecord
100
AcDbBlockTableRecord
  2
*D7
340
0
  0
BLOCK_RECORD
  5
211
330
1
100
AcDbSymbolTableRecord
100
AcDbBlockTableRecord
  2
_Open30
340
0
  0
BLOCK_RECORD
  5
219
330
1
100
AcDbSymbolTableRecord
100
AcDbBlockTableRecord
  2
*D9
340
0
  0
BLOCK_RECORD
  5
226
330
1
100
AcDbSymbolTableRecord
100
AcDbBlockTableRecord
  2
*D10
340
0
  0
BLOCK_RECORD
  5
233
330
1
100
AcDbSymbolTableRecord
100
AcDbBlockTableRecord
  2
*D11
340
0
  0
BLOCK_RECORD
  5
240
330
1
100
AcDbSymbolTableRecord
100
AcDbBlockTableRecord
  2
*D12
340
0
  0
BLOCK_RECORD
  5
24D
330
1
100
AcDbSymbolTableRecord
100
AcDbBlockTableRecord
  2
*D13
340
0
  0
BLOCK_RECORD
  5
25A
330
1
100
AcDbSymbolTableRecord
100
AcDbBlockTableRecord
  2
*D14
340
0
  0
BLOCK_RECORD
  5
267
330
1
100
AcDbSymbolTableRecord
100
AcDbBlockTableRecord
  2
*D15
340
0
  0
BLOCK_RECORD
  5
274
330
1
100
AcDbSymbolTableRecord
100
AcDbBlockTableRecord
  2
*D16
340
0
  0
BLOCK_RECORD
  5
281
330
1
100
AcDbSymbolTableRecord
100
AcDbBlockTableRecord
  2
*D17
340
0
  0
BLOCK_RECORD
  5
28E
330
1
100
AcDbSymbolTableRecord
100
AcDbBlockTableRecord
  2
*D18
340
0
  0
BLOCK_RECORD
  5
29B
330
1
100
AcDbSymbolTableRecord
100
AcDbBlockTableRecord
  2
*D19
340
0
  0
ENDTAB
  0
ENDSEC
  0
SECTION
  2
BLOCKS
  0
BLOCK
  5
20
330
1F
100
AcDbEntity
  8
0
100
AcDbBlockBegin
  2
*Model_Space
 70
     0
 10
0.0
 20
0.0
 30
0.0
  3
*Model_Space
  1

  0
ENDBLK
  5
21
330
1F
100
AcDbEntity
  8
0
100
AcDbBlockEnd
  0
BLOCK
  5
1C
330
1B
100
AcDbEntity
 67
     1
  8
0
100
AcDbBlockBegin
  2
*Paper_Space
 70
     0
 10
0.0
 20
0.0
 30
0.0
  3
*Paper_Space
  1

  0
ENDBLK
  5
1D
330
1B
100
AcDbEntity
 67
     1
  8
0
100
AcDbBlockEnd
  0
BLOCK
  5
24
330
23
100
AcDbEntity
 67
     1
  8
0
100
AcDbBlockBegin
  2
*Paper_Space0
 70
     0
 10
0.0
 20
0.0
 30
0.0
  3
*Paper_Space0
  1

  0
ENDBLK
  5
25
330
23
100
AcDbEntity
 67
     1
  8
0
100
AcDbBlockEnd
  0
BLOCK
  5
33
330
32
100
AcDbEntity
  8
0
100
AcDbBlockBegin
  2
______
 70
     0
 10
-36.17879291713749
 20
-296.9106918635446
 30
0.0
  3
______
  1

  0
LINE
  5
4A
330
32
100
AcDbEntity
  8
1
  6
Continuous
 62
     5
100
AcDbLine
 10
-113.5987566261955
 20
10.96085270293105
 30
0.0
 11
-83.5987566261955
 21
10.96085270293105
 31
0.0
  0
LINE
  5
4B
330
32
100
AcDbEntity
  8
1
  6
Continuous
 62
     5
100
AcDbLine
 10
-113.5987566261955
 20
3.96085270293116
 30
0.0
 11
-83.5987566261955
 21
3.96085270293116
 31
0.0
  0
LINE
  5
4C
330
32
100
AcDbEntity
  8
1
  6
Continuous
 62
     5
100
AcDbLine
 10
-113.5987566261955
 20
-3.03914729706872
 30
0.0
 11
-83.5987566261955
 21
-3.03914729706872
 31
0.0
  0
LINE
  5
4D
330
32
100
AcDbEntity
  8
1
  6
Continuous
 62
     5
100
AcDbLine
 10
-113.5987566261955
 20
10.96085270293105
 30
0.0
 11
-113.5987566261955
 21
3.96085270293116
 31
0.0
  0
LINE
  5
4E
330
32
100
AcDbEntity
  8
1
  6
Continuous
 62
     5
100
AcDbLine
 10
-113.5987566261955
 20
3.96085270293116
 30
0.0
 11
-113.5987566261955
 21
-3.03914729706872
 31
0.0
  0
LINE
  5
4F
330
32
100
AcDbEntity
  8
1
  6
Continuous
 62
     5
100
AcDbLine
 10
-113.5987566261955
 20
-3.03914729706872
 30
0.0
 11
-113.5987566261955
 21
-10.03914729706861
 31
0.0
  0
LINE
  5
50
330
32
100
AcDbEntity
  8
1
  6
Continuous
 62
     5
100
AcDbLine
 10
-153.5987566261955
 20
10.96085270293105
 30
0.0
 11
-113.5987566261955
 21
10.96085270293105
 31
0.0
  0
LINE
  5
51
330
32
100
AcDbEntity
  8
1
  6
Continuous
 62
     5
100
AcDbLine
 10
-153.5987566261955
 20
3.96085270293116
 30
0.0
 11
-113.5987566261955
 21
3.96085270293116
 31
0.0
  0
LINE
  5
52
330
32
100
AcDbEntity
  8
1
  6
Continuous
 62
     5
100
AcDbLine
 10
-153.5987566261955
 20
-3.03914729706872
 30
0.0
 11
-113.5987566261955
 21
-3.03914729706872
 31
0.0
  0
LINE
  5
53
330
32
100
AcDbEntity
  8
1
  6
Continuous
 62
     5
100
AcDbLine
 10
-153.5987566261955
 20
10.96085270293105
 30
0.0
 11
-153.5987566261955
 21
3.96085270293116
 31
0.0
  0
LINE
  5
54
330
32
100
AcDbEntity
  8
1
  6
Continuous
 62
     5
100
AcDbLine
 10
-153.5987566261955
 20
3.96085270293116
 30
0.0
 11
-153.5987566261955
 21
-3.03914729706872
 31
0.0
  0
LINE
  5
55
330
32
100
AcDbEntity
  8
1
  6
Continuous
 62
     5
100
AcDbLine
 10
-153.5987566261955
 20
-3.03914729706872
 30
0.0
 11
-153.5987566261955
 21
-10.03914729706861
 31
0.0
  0
LINE
  5
56
330
32
100
AcDbEntity
  8
1
  6
Continuous
 62
     5
100
AcDbLine
 10
-168.5987566261955
 20
10.96085270293105
 30
0.0
 11
-153.5987566261955
 21
10.96085270293105
 31
0.0
  0
LINE
  5
57
330
32
100
AcDbEntity
  8
1
  6
Continuous
 62
     5
100
AcDbLine
 10
-168.5987566261955
 20
3.96085270293116
 30
0.0
 11
-153.5987566261955
 21
3.96085270293116
 31
0.0
  0
LINE
  5
58
330
32
100
AcDbEntity
  8
1
  6
Continuous
 62
     5
100
AcDbLine
 10
-168.5987566261955
 20
-3.03914729706872
 30
0.0
 11
-153.5987566261955
 21
-3.03914729706872
 31
0.0
  0
LINE
  5
59
330
32
100
AcDbEntity
  8
1
  6
Continuous
 62
     5
100
AcDbLine
 10
-168.5987566261955
 20
10.96085270293105
 30
0.0
 11
-168.5987566261955
 21
3.96085270293116
 31
0.0
  0
LINE
  5
5A
330
32
100
AcDbEntity
  8
1
  6
Continuous
 62
     5
100
AcDbLine
 10
-168.5987566261955
 20
3.96085270293116
 30
0.0
 11
-168.5987566261955
 21
-3.03914729706872
 31
0.0
  0
LINE
  5
5B
330
32
100
AcDbEntity
  8
1
  6
Continuous
 62
     5
100
AcDbLine
 10
-168.5987566261955
 20
-3.03914729706872
 30
0.0
 11
-168.5987566261955
 21
-10.03914729706861
 31
0.0
  0
LINE
  5
5C
330
32
100
AcDbEntity
  8
1
  6
Continuous
 62
     5
100
AcDbLine
 10
-198.5987566261956
 20
10.96085270293105
 30
0.0
 11
-168.5987566261955
 21
10.96085270293105
 31
0.0
  0
LINE
  5
5D
330
32
100
AcDbEntity
  8
1
  6
Continuous
 62
     5
100
AcDbLine
 10
-198.5987566261956
 20
3.96085270293116
 30
0.0
 11
-168.5987566261955
 21
3.96085270293116
 31
0.0
  0
LINE
  5
5E
330
32
100
AcDbEntity
  8
1
  6
Continuous
 62
     5
100
AcDbLine
 10
-198.5987566261956
 20
-3.03914729706872
 30
0.0
 11
-168.5987566261955
 21
-3.03914729706872
 31
0.0
  0
LINE
  5
5F
330
32
100
AcDbEntity
  8
1
  6
Continuous
 62
     5
100
AcDbLine
 10
-198.5987566261956
 20
10.96085270293105
 30
0.0
 11
-198.5987566261956
 21
3.96085270293116
 31
0.0
  0
LINE
  5
60
330
32
100
AcDbEntity
  8
1
  6
Continuous
 62
     5
100
AcDbLine
 10
-198.5987566261956
 20
3.96085270293116
 30
0.0
 11
-198.5987566261956
 21
-3.03914729706872
 31
0.0
  0
LINE
  5
61
330
32
100
AcDbEntity
  8
1
  6
Continuous
 62
     5
100
AcDbLine
 10
-198.5987566261956
 20
-3.03914729706872
 30
0.0
 11
-198.5987566261956
 21
-10.03914729706861
 31
0.0
  0
LINE
  5
62
330
32
100
AcDbEntity
  8
1
  6
Continuous
 62
     5
100
AcDbLine
 10
-248.5987566261957
 20
10.96085270293105
 30
0.0
 11
-198.5987566261956
 21
10.96085270293105
 31
0.0
  0
LINE
  5
63
330
32
100
AcDbEntity
  8
1
  6
Continuous
 62
     5
100
AcDbLine
 10
-248.5987566261957
 20
3.96085270293116
 30
0.0
 11
-198.5987566261956
 21
3.96085270293116
 31
0.0
  0
LINE
  5
64
330
32
100
AcDbEntity
  8
1
  6
Continuous
 62
     5
100
AcDbLine
 10
-248.5987566261957
 20
10.96085270293105
 30
0.0
 11
-248.5987566261957
 21
3.96085270293116
 31
0.0
  0
LINE
  5
65
330
32
100
AcDbEntity
  8
1
  6
Continuous
 62
     5
100
AcDbLine
 10
-248.5987566261957
 20
3.96085270293116
 30
0.0
 11
-248.5987566261957
 21
-3.03914729706872
 31
0.0
  0
LINE
  5
66
330
32
100
AcDbEntity
  8
1
  6
Continuous
 62
     5
100
AcDbLine
 10
-248.5987566261957
 20
-3.03914729706872
 30
0.0
 11
-248.5987566261957
 21
-10.03914729706861
 31
0.0
  0
LINE
  5
67
330
32
100
AcDbEntity
  8
1
  6
Continuous
 62
     5
100
AcDbLine
 10
-248.5987566261957
 20
-3.03914729706872
 30
0.0
 11
-198.5987566261956
 21
-3.03914729706872
 31
0.0
  0
LINE
  5
68
330
32
100
AcDbEntity
  8
1
  6
Continuous
 62
     5
100
AcDbLine
 10
-263.5987566261956
 20
3.96085270293116
 30
0.0
 11
-263.5987566261956
 21
10.96085270293105
 31
0.0
  0
LINE
  5
69
330
32
100
AcDbEntity
  8
1
  6
Continuous
 62
     5
100
AcDbLine
 10
-263.5987566261956
 20
10.96085270293105
 30
0.0
 11
-248.5987566261957
 21
10.96085270293105
 31
0.0
  0
LINE
  5
6A
330
32
100
AcDbEntity
  8
1
  6
Continuous
 62
     5
100
AcDbLine
 10
-263.5987566261956
 20
-3.03914729706872
 30
0.0
 11
-263.5987566261956
 21
3.96085270293116
 31
0.0
  0
LINE
  5
6B
330
32
100
AcDbEntity
  8
1
  6
Continuous
 62
     5
100
AcDbLine
 10
-263.5987566261956
 20
3.96085270293116
 30
0.0
 11
-248.5987566261957
 21
3.96085270293116
 31
0.0
  0
LINE
  5
6C
330
32
100
AcDbEntity
  8
1
  6
Continuous
 62
     5
100
AcDbLine
 10
-263.5987566261956
 20
-10.03914729706861
 30
0.0
 11
-263.5987566261956
 21
-3.03914729706872
 31
0.0
  0
LINE
  5
6D
330
32
100
AcDbEntity
  8
1
  6
Continuous
 62
     5
100
AcDbLine
 10
-263.5987566261956
 20
-3.03914729706872
 30
0.0
 11
-248.5987566261957
 21
-3.03914729706872
 31
0.0
  0
LINE
  5
6E
330
32
100
AcDbEntity
  8
1
  6
Continuous
 62
     7
100
AcDbLine
 10
-263.5987566261956
 20
-69.03914729706861
 30
0.0
 11
-170.5987566261955
 21
-69.03914729706861
 31
0.0
  0
LINE
  5
6F
330
32
100
AcDbEntity
  8
1
  6
Continuous
 62
     7
100
AcDbLine
 10
-83.5987566261955
 20
-69.03914729706861
 30
0.0
 11
-83.5987566261955
 21
-54.0391472970686
 31
0.0
  0
LINE
  5
70
330
32
100
AcDbEntity
  8
1
  6
Continuous
 62
     7
100
AcDbLine
 10
-83.5987566261955
 20
-17.0391472970685
 30
0.0
 11
-113.5987566261955
 21
-17.0391472970685
 31
0.0
  0
LINE
  5
71
330
32
100
AcDbEntity
  8
1
  6
Continuous
 62
     7
100
AcDbLine
 10
-263.5987566261956
 20
-17.0391472970685
 30
0.0
 11
-263.5987566261956
 21
-24.03914729706861
 31
0.0
  0
LINE
  5
72
330
32
100
AcDbEntity
  8
1
  6
Continuous
 62
     7
100
AcDbLine
 10
-263.5987566261956
 20
-24.03914729706861
 30
0.0
 11
-248.5987566261956
 21
-24.03914729706861
 31
0.0
  0
LINE
  5
73
330
32
100
AcDbEntity
  8
1
  6
Continuous
 62
     7
100
AcDbLine
 10
-263.5987566261956
 20
-24.03914729706861
 30
0.0
 11
-263.5987566261956
 21
-34.03914729706861
 31
0.0
  0
LINE
  5
74
330
32
100
AcDbEntity
  8
1
  6
Continuous
 62
     7
100
AcDbLine
 10
-83.5987566261955
 20
-24.03914729706861
 30
0.0
 11
-83.5987566261955
 21
-17.0391472970685
 31
0.0
  0
LINE
  5
75
330
32
100
AcDbEntity
  8
1
  6
Continuous
 62
     7
100
AcDbLine
 10
-170.5987566261955
 20
-24.03914729706861
 30
0.0
 11
-170.5987566261955
 21
-31.03914729706861
 31
0.0
  0
LINE
  5
76
330
32
100
AcDbEntity
  8
1
  6
Continuous
 62
     7
100
AcDbLine
 10
-170.5987566261955
 20
-24.03914729706861
 30
0.0
 11
-168.5987566261955
 21
-24.03914729706861
 31
0.0
  0
LINE
  5
77
330
32
100
AcDbEntity
  8
1
  6
Continuous
 62
     7
100
AcDbLine
 10
-170.5987566261955
 20
-69.03914729706861
 30
0.0
 11
-163.5987566261955
 21
-69.03914729706861
 31
0.0
  0
LINE
  5
78
330
32
100
AcDbEntity
  8
1
  6
Continuous
 62
     7
100
AcDbLine
 10
-163.5987566261955
 20
-24.03914729706861
 30
0.0
 11
-163.5987566261955
 21
-69.03914729706861
 31
0.0
  0
LINE
  5
79
330
32
100
AcDbEntity
  8
1
  6
Continuous
 62
     7
100
AcDbLine
 10
-163.5987566261955
 20
-24.03914729706861
 30
0.0
 11
-153.5987566261955
 21
-24.03914729706861
 31
0.0
  0
LINE
  5
7A
330
32
100
AcDbEntity
  8
1
  6
Continuous
 62
     7
100
AcDbLine
 10
-163.5987566261955
 20
-69.03914729706861
 30
0.0
 11
-83.5987566261955
 21
-69.03914729706861
 31
0.0
  0
LINE
  5
7B
330
32
100
AcDbEntity
  8
1
  6
Continuous
 62
     7
100
AcDbLine
 10
-170.5987566261955
 20
-39.03914729706861
 30
0.0
 11
-83.5987566261955
 21
-39.03914729706861
 31
0.0
  0
LINE
  5
7C
330
32
100
AcDbEntity
  8
1
  6
Continuous
 62
     7
100
AcDbLine
 10
-170.5987566261955
 20
-39.03914729706861
 30
0.0
 11
-170.5987566261955
 21
-42.03914729706861
 31
0.0
  0
LINE
  5
7D
330
32
100
AcDbEntity
  8
1
  6
Continuous
 62
     7
100
AcDbLine
 10
-83.5987566261955
 20
-39.03914729706861
 30
0.0
 11
-83.5987566261955
 21
-24.03914729706861
 31
0.0
  0
LINE
  5
7E
330
32
100
AcDbEntity
  8
1
  6
Continuous
 62
     7
100
AcDbLine
 10
-170.5987566261955
 20
-54.0391472970686
 30
0.0
 11
-83.5987566261955
 21
-54.0391472970686
 31
0.0
  0
LINE
  5
7F
330
32
100
AcDbEntity
  8
1
  6
Continuous
 62
     7
100
AcDbLine
 10
-170.5987566261955
 20
-54.0391472970686
 30
0.0
 11
-170.5987566261955
 21
-69.03914729706861
 31
0.0
  0
LINE
  5
80
330
32
100
AcDbEntity
  8
1
  6
Continuous
 62
     7
100
AcDbLine
 10
-83.5987566261955
 20
-54.0391472970686
 30
0.0
 11
-83.5987566261955
 21
-39.03914729706861
 31
0.0
  0
LINE
  5
81
330
32
100
AcDbEntity
  8
1
  6
Continuous
 62
     7
100
AcDbLine
 10
-230.5987566261956
 20
-24.03914729706861
 30
0.0
 11
-230.5987566261956
 21
-31.03914729706861
 31
0.0
  0
LINE
  5
82
330
32
100
AcDbEntity
  8
1
  6
Continuous
 62
     7
100
AcDbLine
 10
-230.5987566261956
 20
-24.03914729706861
 30
0.0
 11
-210.5987566261956
 21
-24.03914729706861
 31
0.0
  0
LINE
  5
83
330
32
100
AcDbEntity
  8
1
  6
Continuous
 62
     7
100
AcDbLine
 10
-263.5987566261956
 20
-49.0391472970686
 30
0.0
 11
-210.5987566261956
 21
-49.0391472970686
 31
0.0
  0
LINE
  5
84
330
32
100
AcDbEntity
  8
1
  6
Continuous
 62
     7
100
AcDbLine
 10
-263.5987566261956
 20
-49.0391472970686
 30
0.0
 11
-263.5987566261956
 21
-69.03914729706861
 31
0.0
  0
LINE
  5
85
330
32
100
AcDbEntity
  8
1
  6
Continuous
 62
     7
100
AcDbLine
 10
-170.5987566261955
 20
-49.0391472970686
 30
0.0
 11
-170.5987566261955
 21
-54.0391472970686
 31
0.0
  0
LINE
  5
86
330
32
100
AcDbEntity
  8
1
  6
Continuous
 62
     7
100
AcDbLine
 10
-230.5987566261956
 20
-31.03914729706861
 30
0.0
 11
-170.5987566261955
 21
-31.03914729706861
 31
0.0
  0
LINE
  5
87
330
32
100
AcDbEntity
  8
1
  6
Continuous
 62
     7
100
AcDbLine
 10
-230.5987566261956
 20
-31.03914729706861
 30
0.0
 11
-230.5987566261956
 21
-34.03914729706861
 31
0.0
  0
LINE
  5
88
330
32
100
AcDbEntity
  8
1
  6
Continuous
 62
     7
100
AcDbLine
 10
-170.5987566261955
 20
-31.03914729706861
 30
0.0
 11
-170.5987566261955
 21
-39.03914729706861
 31
0.0
  0
LINE
  5
89
330
32
100
AcDbEntity
  8
1
  6
Continuous
 62
     7
100
AcDbLine
 10
-210.5987566261956
 20
-24.03914729706861
 30
0.0
 11
-210.5987566261956
 21
-49.0391472970686
 31
0.0
  0
LINE
  5
8A
330
32
100
AcDbEntity
  8
1
  6
Continuous
 62
     7
100
AcDbLine
 10
-210.5987566261956
 20
-24.03914729706861
 30
0.0
 11
-198.5987566261956
 21
-24.03914729706861
 31
0.0
  0
LINE
  5
8B
330
32
100
AcDbEntity
  8
1
  6
Continuous
 62
     7
100
AcDbLine
 10
-210.5987566261956
 20
-49.0391472970686
 30
0.0
 11
-190.5987566261955
 21
-49.0391472970686
 31
0.0
  0
LINE
  5
8C
330
32
100
AcDbEntity
  8
1
  6
Continuous
 62
     7
100
AcDbLine
 10
-190.5987566261955
 20
-24.03914729706861
 30
0.0
 11
-190.5987566261955
 21
-49.0391472970686
 31
0.0
  0
LINE
  5
8D
330
32
100
AcDbEntity
  8
1
  6
Continuous
 62
     7
100
AcDbLine
 10
-190.5987566261955
 20
-24.03914729706861
 30
0.0
 11
-170.5987566261955
 21
-24.03914729706861
 31
0.0
  0
LINE
  5
8E
330
32
100
AcDbEntity
  8
1
  6
Continuous
 62
     7
100
AcDbLine
 10
-190.5987566261955
 20
-49.0391472970686
 30
0.0
 11
-170.5987566261955
 21
-49.0391472970686
 31
0.0
  0
LINE
  5
8F
330
32
100
AcDbEntity
  8
1
  6
Continuous
 62
     7
100
AcDbLine
 10
-263.5987566261956
 20
-34.03914729706861
 30
0.0
 11
-230.5987566261956
 21
-34.03914729706861
 31
0.0
  0
LINE
  5
90
330
32
100
AcDbEntity
  8
1
  6
Continuous
 62
     7
100
AcDbLine
 10
-263.5987566261956
 20
-34.03914729706861
 30
0.0
 11
-263.5987566261956
 21
-49.0391472970686
 31
0.0
  0
LINE
  5
91
330
32
100
AcDbEntity
  8
1
  6
Continuous
 62
     7
100
AcDbLine
 10
-230.5987566261956
 20
-34.03914729706861
 30
0.0
 11
-230.5987566261956
 21
-42.03914729706861
 31
0.0
  0
LINE
  5
92
330
32
100
AcDbEntity
  8
1
  6
Continuous
 62
     7
100
AcDbLine
 10
-113.5987566261955
 20
-17.0391472970685
 30
0.0
 11
-113.5987566261955
 21
-24.03914729706861
 31
0.0
  0
LINE
  5
93
330
32
100
AcDbEntity
  8
1
  6
Continuous
 62
     7
100
AcDbLine
 10
-113.5987566261955
 20
-17.0391472970685
 30
0.0
 11
-153.5987566261955
 21
-17.0391472970685
 31
0.0
  0
LINE
  5
94
330
32
100
AcDbEntity
  8
1
  6
Continuous
 62
     7
100
AcDbLine
 10
-113.5987566261955
 20
-24.03914729706861
 30
0.0
 11
-83.5987566261955
 21
-24.03914729706861
 31
0.0
  0
LINE
  5
95
330
32
100
AcDbEntity
  8
1
  6
Continuous
 62
     7
100
AcDbLine
 10
-153.5987566261955
 20
-17.0391472970685
 30
0.0
 11
-153.5987566261955
 21
-24.03914729706861
 31
0.0
  0
LINE
  5
96
330
32
100
AcDbEntity
  8
1
  6
Continuous
 62
     7
100
AcDbLine
 10
-153.5987566261955
 20
-17.0391472970685
 30
0.0
 11
-168.5987566261955
 21
-17.0391472970685
 31
0.0
  0
LINE
  5
97
330
32
100
AcDbEntity
  8
1
  6
Continuous
 62
     7
100
AcDbLine
 10
-153.5987566261955
 20
-24.03914729706861
 30
0.0
 11
-113.5987566261955
 21
-24.03914729706861
 31
0.0
  0
LINE
  5
98
330
32
100
AcDbEntity
  8
1
  6
Continuous
 62
     7
100
AcDbLine
 10
-168.5987566261955
 20
-17.0391472970685
 30
0.0
 11
-168.5987566261955
 21
-24.03914729706861
 31
0.0
  0
LINE
  5
99
330
32
100
AcDbEntity
  8
1
  6
Continuous
 62
     7
100
AcDbLine
 10
-168.5987566261955
 20
-17.0391472970685
 30
0.0
 11
-198.5987566261956
 21
-17.0391472970685
 31
0.0
  0
LINE
  5
9A
330
32
100
AcDbEntity
  8
1
  6
Continuous
 62
     7
100
AcDbLine
 10
-168.5987566261955
 20
-24.03914729706861
 30
0.0
 11
-163.5987566261955
 21
-24.03914729706861
 31
0.0
  0
LINE
  5
9B
330
32
100
AcDbEntity
  8
1
  6
Continuous
 62
     7
100
AcDbLine
 10
-198.5987566261956
 20
-17.0391472970685
 30
0.0
 11
-198.5987566261956
 21
-24.03914729706861
 31
0.0
  0
LINE
  5
9C
330
32
100
AcDbEntity
  8
1
  6
Continuous
 62
     7
100
AcDbLine
 10
-198.5987566261956
 20
-17.0391472970685
 30
0.0
 11
-248.5987566261956
 21
-17.0391472970685
 31
0.0
  0
LINE
  5
9D
330
32
100
AcDbEntity
  8
1
  6
Continuous
 62
     7
100
AcDbLine
 10
-198.5987566261956
 20
-24.03914729706861
 30
0.0
 11
-190.5987566261955
 21
-24.03914729706861
 31
0.0
  0
LINE
  5
9E
330
32
100
AcDbEntity
  8
1
  6
Continuous
 62
     7
100
AcDbLine
 10
-248.5987566261956
 20
-17.0391472970685
 30
0.0
 11
-248.5987566261956
 21
-24.03914729706861
 31
0.0
  0
LINE
  5
9F
330
32
100
AcDbEntity
  8
1
  6
Continuous
 62
     7
100
AcDbLine
 10
-248.5987566261956
 20
-17.0391472970685
 30
0.0
 11
-263.5987566261956
 21
-17.0391472970685
 31
0.0
  0
LINE
  5
A0
330
32
100
AcDbEntity
  8
1
  6
Continuous
 62
     7
100
AcDbLine
 10
-248.5987566261956
 20
-24.03914729706861
 30
0.0
 11
-230.5987566261956
 21
-24.03914729706861
 31
0.0
  0
LINE
  5
A1
330
32
100
AcDbEntity
  8
1
  6
Continuous
 62
     5
100
AcDbLine
 10
-263.5987566261956
 20
-17.0391472970685
 30
0.0
 11
-263.5987566261956
 21
-10.03914729706861
 31
0.0
  0
LINE
  5
A2
330
32
100
AcDbEntity
  8
1
  6
Continuous
 62
     5
100
AcDbLine
 10
-263.5987566261956
 20
-10.03914729706861
 30
0.0
 11
-248.5987566261957
 21
-10.03914729706861
 31
0.0
  0
LINE
  5
A3
330
32
100
AcDbEntity
  8
1
  6
Continuous
 62
     5
100
AcDbLine
 10
-83.5987566261955
 20
-10.03914729706861
 30
0.0
 11
-83.5987566261955
 21
-17.0391472970685
 31
0.0
  0
LINE
  5
A4
330
32
100
AcDbEntity
  8
1
  6
Continuous
 62
     5
100
AcDbLine
 10
-113.5987566261955
 20
-10.03914729706861
 30
0.0
 11
-113.5987566261955
 21
-17.0391472970685
 31
0.0
  0
LINE
  5
A5
330
32
100
AcDbEntity
  8
1
  6
Continuous
 62
     5
100
AcDbLine
 10
-113.5987566261955
 20
-10.03914729706861
 30
0.0
 11
-83.5987566261955
 21
-10.03914729706861
 31
0.0
  0
LINE
  5
A6
330
32
100
AcDbEntity
  8
1
  6
Continuous
 62
     5
100
AcDbLine
 10
-153.5987566261955
 20
-10.03914729706861
 30
0.0
 11
-153.5987566261955
 21
-17.0391472970685
 31
0.0
  0
LINE
  5
A7
330
32
100
AcDbEntity
  8
1
  6
Continuous
 62
     5
100
AcDbLine
 10
-153.5987566261955
 20
-10.03914729706861
 30
0.0
 11
-113.5987566261955
 21
-10.03914729706861
 31
0.0
  0
LINE
  5
A8
330
32
100
AcDbEntity
  8
1
  6
Continuous
 62
     5
100
AcDbLine
 10
-168.5987566261955
 20
-10.03914729706861
 30
0.0
 11
-168.5987566261955
 21
-17.0391472970685
 31
0.0
  0
LINE
  5
A9
330
32
100
AcDbEntity
  8
1
  6
Continuous
 62
     5
100
AcDbLine
 10
-168.5987566261955
 20
-10.03914729706861
 30
0.0
 11
-153.5987566261955
 21
-10.03914729706861
 31
0.0
  0
LINE
  5
AA
330
32
100
AcDbEntity
  8
1
  6
Continuous
 62
     5
100
AcDbLine
 10
-198.5987566261956
 20
-10.03914729706861
 30
0.0
 11
-198.5987566261956
 21
-17.0391472970685
 31
0.0
  0
LINE
  5
AB
330
32
100
AcDbEntity
  8
1
  6
Continuous
 62
     5
100
AcDbLine
 10
-198.5987566261956
 20
-10.03914729706861
 30
0.0
 11
-168.5987566261955
 21
-10.03914729706861
 31
0.0
  0
LINE
  5
AC
330
32
100
AcDbEntity
  8
1
  6
Continuous
 62
     5
100
AcDbLine
 10
-248.5987566261957
 20
-10.03914729706861
 30
0.0
 11
-248.5987566261956
 21
-17.0391472970685
 31
0.0
  0
LINE
  5
AD
330
32
100
AcDbEntity
  8
1
  6
Continuous
 62
     5
100
AcDbLine
 10
-248.5987566261957
 20
-10.03914729706861
 30
0.0
 11
-198.5987566261956
 21
-10.03914729706861
 31
0.0
  0
LINE
  5
AE
330
32
100
AcDbEntity
  8
1
  6
Continuous
 62
     5
100
AcDbLine
 10
-230.5987566261956
 20
-42.03914729706861
 30
0.0
 11
-170.5987566261955
 21
-42.03914729706861
 31
0.0
  0
LINE
  5
AF
330
32
100
AcDbEntity
  8
1
  6
Continuous
 62
     7
100
AcDbLine
 10
-230.5987566261956
 20
-42.03914729706861
 30
0.0
 11
-230.5987566261956
 21
-49.0391472970686
 31
0.0
  0
LINE
  5
B0
330
32
100
AcDbEntity
  8
1
  6
Continuous
 62
     7
100
AcDbLine
 10
-170.5987566261955
 20
-42.03914729706861
 30
0.0
 11
-170.5987566261955
 21
-49.0391472970686
 31
0.0
  0
LINE
  5
B1
330
32
100
AcDbEntity
  8
1
  6
Continuous
 62
     7
100
AcDbLine
 10
-259.4141228804872
 20
-60.39111816286129
 30
0.0
 11
-261.0878653683111
 21
-60.39111816286129
 31
0.0
  0
LINE
  5
B2
330
32
100
AcDbEntity
  8
1
  6
Continuous
 62
     7
100
AcDbLine
 10
-261.0878653683111
 20
-60.39111816286129
 30
0.0
 11
-261.0878653683111
 21
-59.97268254090531
 31
0.0
  0
LINE
  5
B3
330
32
100
AcDbEntity
  8
1
  6
Continuous
 62
     7
100
AcDbLine
 10
-260.983256462822
 20
-59.86807363541629
 30
0.0
 11
-260.7269341051341
 21
-59.86807363541629
 31
0.0
  0
LINE
  5
B4
330
32
100
AcDbEntity
  8
1
  6
Continuous
 62
     7
100
AcDbLine
 10
-260.476839120546
 20
-59.6830130817613
 30
0.0
 11
-258.4865600841712
 21
-53.17310368412029
 31
0.0
  0
LINE
  5
B5
330
32
100
AcDbEntity
  8
1
  6
Continuous
 62
     7
100
AcDbLine
 10
-258.4865600841712
 20
-53.17310368412029
 30
0.0
 11
-256.7823200496075
 21
-53.17310368412029
 31
0.0
  0
LINE
  5
B6
330
32
100
AcDbEntity
  8
1
  6
Continuous
 62
     7
100
AcDbLine
 10
-256.7823200496075
 20
-53.17310368412029
 30
0.0
 11
-254.7920410132327
 21
-59.6830130817613
 31
0.0
  0
LINE
  5
B7
330
32
100
AcDbEntity
  8
1
  6
Continuous
 62
     7
100
AcDbLine
 10
-254.5419460286448
 20
-59.86807363541629
 30
0.0
 11
-254.1836776060371
 21
-59.86807363541629
 31
0.0
  0
LINE
  5
B8
330
32
100
AcDbEntity
  8
1
  6
Continuous
 62
     7
100
AcDbLine
 10
-254.0790687005481
 20
-59.97268254090531
 30
0.0
 11
-254.0790687005481
 21
-60.39111816286129
 31
0.0
  0
LINE
  5
B9
330
32
100
AcDbEntity
  8
1
  6
Continuous
 62
     7
100
AcDbLine
 10
-254.0790687005481
 20
-60.39111816286129
 30
0.0
 11
-257.2173358652182
 21
-60.39111816286129
 31
0.0
  0
LINE
  5
BA
330
32
100
AcDbEntity
  8
1
  6
Continuous
 62
     7
100
AcDbLine
 10
-257.2173358652182
 20
-60.39111816286129
 30
0.0
 11
-257.2173358652182
 21
-59.97268254090531
 31
0.0
  0
LINE
  5
BB
330
32
100
AcDbEntity
  8
1
  6
Continuous
 62
     7
100
AcDbLine
 10
-257.112726959729
 20
-59.86807363541629
 30
0.0
 11
-256.8231170252886
 21
-59.86807363541629
 31
0.0
  0
LINE
  5
BC
330
32
100
AcDbEntity
  8
1
  6
Continuous
 62
     7
100
AcDbLine
 10
-256.6230410376181
 20
-59.59768645638432
 30
0.0
 11
-257.1347554690069
 21
-57.92394396856032
 31
0.0
  0
LINE
  5
BD
330
32
100
AcDbEntity
  8
1
  6
Continuous
 62
     7
100
AcDbLine
 10
-257.3348314566774
 20
-57.77589552563629
 30
0.0
 11
-259.2307216426203
 21
-57.77589552563629
 31
0.0
  0
LINE
  5
BE
330
32
100
AcDbEntity
  8
1
  6
Continuous
 62
     7
100
AcDbLine
 10
-259.3807786333733
 20
-57.88693185782929
 30
0.0
 11
-259.9244752167236
 21
-59.66528325114231
 31
0.0
  0
LINE
  5
BF
330
32
100
AcDbEntity
  8
1
  6
Continuous
 62
     7
100
AcDbLine
 10
-259.7744182259709
 20
-59.86807363541629
 30
0.0
 11
-259.5187317859761
 21
-59.86807363541629
 31
0.0
  0
LINE
  5
C0
330
32
100
AcDbEntity
  8
1
  6
Continuous
 62
     7
100
AcDbLine
 10
-259.4141228804872
 20
-59.97268254090531
 30
0.0
 11
-259.4141228804872
 21
-60.39111816286129
 31
0.0
  0
LINE
  5
C1
330
32
100
AcDbEntity
  8
1
  6
Continuous
 62
     7
100
AcDbLine
 10
-258.4134819108609
 20
-54.72304684014881
 30
0.0
 11
-259.1249214176788
 21
-57.05006061391731
 31
0.0
  0
LINE
  5
C2
330
32
100
AcDbEntity
  8
1
  6
Continuous
 62
     7
100
AcDbLine
 10
-258.9748644269261
 20
-57.25285099819129
 30
0.0
 11
-257.5519854132901
 21
-57.25285099819129
 31
0.0
  0
LINE
  5
C3
330
32
100
AcDbEntity
  8
1
  6
Continuous
 62
     7
100
AcDbLine
 10
-257.4019284225373
 20
-57.05006061391731
 30
0.0
 11
-258.1133679293552
 21
-54.72304684014881
 31
0.0
  0
LINE
  5
C4
330
32
100
AcDbEntity
  8
1
  6
Continuous
 62
     7
100
AcDbLine
 10
-251.6207594215567
 20
-53.17310368412029
 30
0.0
 11
-248.7440145206091
 21
-53.17310368412029
 31
0.0
  0
LINE
  5
C5
330
32
100
AcDbEntity
  8
1
  6
Continuous
 62
     7
100
AcDbLine
 10
-248.7440145206091
 20
-53.17310368412029
 30
0.0
 11
-248.6918467408253
 21
-54.78608788192349
 31
0.0
  0
LINE
  5
C6
330
32
100
AcDbEntity
  8
1
  6
Continuous
 62
     7
100
AcDbLine
 10
-249.2026877358597
 20
-54.87306493679589
 30
0.0
 11
-249.411864206849
 21
-54.20854554071921
 31
0.0
  0
LINE
  5
C7
330
32
100
AcDbEntity
  8
1
  6
Continuous
 62
     7
100
AcDbLine
 10
-250.1103393388129
 20
-53.69614821156528
 30
0.0
 11
-250.2608436501995
 21
-53.69614821156528
 31
0.0
  0
LINE
  5
C8
330
32
100
AcDbEntity
  8
1
  6
Continuous
 62
     7
100
AcDbLine
 10
-250.6269748194112
 20
-54.06227938077679
 30
0.0
 11
-250.6269748194112
 21
-59.60655137169379
 31
0.0
  0
LINE
  5
C9
330
32
100
AcDbEntity
  8
1
  6
Continuous
 62
     7
100
AcDbLine
 10
-250.3654525556887
 20
-59.86807363541629
 30
0.0
 11
-250.1562347447105
 21
-59.86807363541629
 31
0.0
  0
LINE
  5
CA
330
32
100
AcDbEntity
  8
1
  6
Continuous
 62
     7
100
AcDbLine
 10
-250.0516258392215
 20
-59.97268254090531
 30
0.0
 11
-250.0516258392215
 21
-60.39111816286129
 31
0.0
  0
LINE
  5
CB
330
32
100
AcDbEntity
  8
1
  6
Continuous
 62
     7
100
AcDbLine
 10
-250.0516258392215
 20
-60.39111816286129
 30
0.0
 11
-251.6207594215567
 21
-60.39111816286129
 31
0.0
  0
LINE
  5
CC
330
32
100
AcDbEntity
  8
1
  6
Continuous
 62
     7
100
AcDbLine
 10
-254.4975043225041
 20
-53.17310368412029
 30
0.0
 11
-251.6207594215567
 21
-53.17310368412029
 31
0.0
  0
LINE
  5
CD
330
32
100
AcDbEntity
  8
1
  6
Continuous
 62
     7
100
AcDbLine
 10
-254.5496721022878
 20
-54.78608788192341
 30
0.0
 11
-254.4975043225041
 21
-53.17310368412029
 31
0.0
  0
LINE
  5
CE
330
32
100
AcDbEntity
  8
1
  6
Continuous
 62
     7
100
AcDbLine
 10
-253.8296546362641
 20
-54.20854554071921
 30
0.0
 11
-254.0388311072534
 21
-54.87306493679589
 31
0.0
  0
LINE
  5
CF
330
32
100
AcDbEntity
  8
1
  6
Continuous
 62
     7
100
AcDbLine
 10
-252.9806751929136
 20
-53.69614821156528
 30
0.0
 11
-253.1311795043004
 21
-53.69614821156528
 31
0.0
  0
LINE
  5
D0
330
32
100
AcDbEntity
  8
1
  6
Continuous
 62
     7
100
AcDbLine
 10
-252.6145440237021
 20
-59.60655137169379
 30
0.0
 11
-252.6145440237021
 21
-54.06227938077679
 31
0.0
  0
LINE
  5
D1
330
32
100
AcDbEntity
  8
1
  6
Continuous
 62
     7
100
AcDbLine
 10
-253.0852840984026
 20
-59.86807363541629
 30
0.0
 11
-252.8760662874246
 21
-59.86807363541629
 31
0.0
  0
LINE
  5
D2
330
32
100
AcDbEntity
  8
1
  6
Continuous
 62
     7
100
AcDbLine
 10
-253.1898930038916
 20
-60.39111816286129
 30
0.0
 11
-253.1898930038916
 21
-59.97268254090531
 31
0.0
  0
LINE
  5
D3
330
32
100
AcDbEntity
  8
1
  6
Continuous
 62
     7
100
AcDbLine
 10
-251.6207594215567
 20
-60.39111816286129
 30
0.0
 11
-253.1898930038916
 21
-60.39111816286129
 31
0.0
  0
LINE
  5
D4
330
32
100
AcDbEntity
  8
1
  6
Continuous
 62
     7
100
AcDbLine
 10
-242.2819182608148
 20
-55.6355810936123
 30
0.0
 11
-245.7584925836721
 21
-59.11215541646971
 31
0.0
  0
LINE
  5
D5
330
32
100
AcDbEntity
  8
1
  6
Continuous
 62
     7
100
AcDbLine
 10
-246.9420072467725
 20
-57.92864075336932
 30
0.0
 11
-243.4654329239151
 21
-54.4520664305119
 31
0.0
  0
LINE
  5
D6
330
32
100
AcDbEntity
  8
1
  6
Continuous
 62
     7
100
AcDbLine
 10
-237.2370349168192
 20
-53.17310368412029
 30
0.0
 11
-236.3948169798811
 21
-56.3163038158188
 31
0.0
  0
LINE
  5
D7
330
32
100
AcDbEntity
  8
1
  6
Continuous
 62
     7
100
AcDbLine
 10
-236.091683649466
 20
-56.3163038158188
 30
0.0
 11
-235.2494657125279
 21
-53.17310368412029
 31
0.0
  0
LINE
  5
D8
330
32
100
AcDbEntity
  8
1
  6
Continuous
 62
     7
100
AcDbLine
 10
-239.0676907628766
 20
-59.86807363541629
 30
0.0
 11
-238.9107774046431
 21
-59.86807363541629
 31
0.0
  0
LINE
  5
D9
330
32
100
AcDbEntity
  8
1
  6
Continuous
 62
     7
100
AcDbLine
 10
-238.8061684991541
 20
-59.97268254090531
 30
0.0
 11
-238.8061684991541
 21
-60.39111816286129
 31
0.0
  0
LINE
  5
DA
330
32
100
AcDbEntity
  8
1
  6
Continuous
 62
     7
100
AcDbLine
 10
-238.8061684991541
 20
-60.39111816286129
 30
0.0
 11
-240.2706931760001
 21
-60.39111816286129
 31
0.0
  0
LINE
  5
DB
330
32
100
AcDbEntity
  8
1
  6
Continuous
 62
     7
100
AcDbLine
 10
-240.2706931760001
 20
-60.39111816286129
 30
0.0
 11
-240.270693176
 21
-59.97268254090531
 31
0.0
  0
LINE
  5
DC
330
32
100
AcDbEntity
  8
1
  6
Continuous
 62
     7
100
AcDbLine
 10
-240.1660842705111
 20
-59.86807363541629
 30
0.0
 11
-239.9045620067885
 21
-59.86807363541629
 31
0.0
  0
LINE
  5
DD
330
32
100
AcDbEntity
  8
1
  6
Continuous
 62
     7
100
AcDbLine
 10
-239.747648648555
 20
-59.71116027718281
 30
0.0
 11
-239.747648648555
 21
-53.85306156979879
 31
0.0
  0
LINE
  5
DE
330
32
100
AcDbEntity
  8
1
  6
Continuous
 62
     7
100
AcDbLine
 10
-239.9045620067885
 20
-53.69614821156528
 30
0.0
 11
-240.1660842705111
 21
-53.69614821156528
 31
0.0
  0
LINE
  5
DF
330
32
100
AcDbEntity
  8
1
  6
Continuous
 62
     7
100
AcDbLine
 10
-240.2706931760001
 20
-53.5915393060763
 30
0.0
 11
-240.2706931760001
 21
-53.17310368412029
 31
0.0
  0
LINE
  5
E0
330
32
100
AcDbEntity
  8
1
  6
Continuous
 62
     7
100
AcDbLine
 10
-240.2706931760001
 20
-53.17310368412029
 30
0.0
 11
-237.2370349168192
 21
-53.17310368412029
 31
0.0
  0
LINE
  5
E1
330
32
100
AcDbEntity
  8
1
  6
Continuous
 62
     7
100
AcDbLine
 10
-235.2494657125279
 20
-53.17310368412029
 30
0.0
 11
-232.2158074533472
 21
-53.17310368412029
 31
0.0
  0
LINE
  5
E2
330
32
100
AcDbEntity
  8
1
  6
Continuous
 62
     7
100
AcDbLine
 10
-232.2158074533472
 20
-53.17310368412029
 30
0.0
 11
-232.2158074533472
 21
-53.5915393060763
 31
0.0
  0
LINE
  5
E3
330
32
100
AcDbEntity
  8
1
  6
Continuous
 62
     7
100
AcDbLine
 10
-232.320416358836
 20
-53.69614821156528
 30
0.0
 11
-232.529634169814
 21
-53.69614821156528
 31
0.0
  0
LINE
  5
E4
330
32
100
AcDbEntity
  8
1
  6
Continuous
 62
     7
100
AcDbLine
 10
-232.7911564335365
 20
-53.95767047528782
 30
0.0
 11
-232.7911564335365
 21
-59.60655137169379
 31
0.0
  0
LINE
  5
E5
330
32
100
AcDbEntity
  8
1
  6
Continuous
 62
     7
100
AcDbLine
 10
-232.529634169814
 20
-59.86807363541629
 30
0.0
 11
-232.320416358836
 21
-59.86807363541629
 31
0.0
  0
LINE
  5
E6
330
32
100
AcDbEntity
  8
1
  6
Continuous
 62
     7
100
AcDbLine
 10
-232.2158074533472
 20
-59.97268254090531
 30
0.0
 11
-232.2158074533472
 21
-60.39111816286129
 31
0.0
  0
LINE
  5
E7
330
32
100
AcDbEntity
  8
1
  6
Continuous
 62
     7
100
AcDbLine
 10
-232.2158074533472
 20
-60.39111816286129
 30
0.0
 11
-235.1448568070391
 21
-60.39111816286129
 31
0.0
  0
LINE
  5
E8
330
32
100
AcDbEntity
  8
1
  6
Continuous
 62
     7
100
AcDbLine
 10
-235.1448568070391
 20
-60.39111816286129
 30
0.0
 11
-235.1448568070391
 21
-59.97268254090531
 31
0.0
  0
LINE
  5
E9
330
32
100
AcDbEntity
  8
1
  6
Continuous
 62
     7
100
AcDbLine
 10
-235.0402479015501
 20
-59.86807363541629
 30
0.0
 11
-234.831030090572
 21
-59.86807363541629
 31
0.0
  0
LINE
  5
EA
330
32
100
AcDbEntity
  8
1
  6
Continuous
 62
     7
100
AcDbLine
 10
-236.6420313225052
 20
-60.39111816286129
 30
0.0
 11
-237.1440586041804
 21
-60.39111816286129
 31
0.0
  0
LINE
  5
EB
330
32
100
AcDbEntity
  8
1
  6
Continuous
 62
     7
100
AcDbLine
 10
-239.22460412111
 20
-59.71116027718281
 30
0.0
 11
-239.22460412111
 21
-53.81829187236339
 31
0.0
  0
LINE
  5
EC
330
32
100
AcDbEntity
  8
1
  6
Continuous
 62
     7
100
AcDbLine
 10
-238.9161240976691
 20
-53.77767970682149
 30
0.0
 11
-237.1440586041804
 21
-60.39111816286129
 31
0.0
  0
LINE
  5
ED
330
32
100
AcDbEntity
  8
1
  6
Continuous
 62
     7
100
AcDbLine
 10
-236.6420313225052
 20
-60.39111816286129
 30
0.0
 11
-234.8779878502905
 21
-53.80761829779601
 31
0.0
  0
LINE
  5
EE
330
32
100
AcDbEntity
  8
1
  6
Continuous
 62
     7
100
AcDbLine
 10
-234.5695078268495
 20
-53.84823046333782
 30
0.0
 11
-234.5695078268494
 21
-59.60655137169379
 31
0.0
  0
LINE
  5
EF
330
32
100
AcDbEntity
  8
1
  6
Continuous
 62
     5
100
AcDbLine
 10
-245.5484302207975
 20
-43.5391472970686
 30
0.0
 11
-245.5484302207975
 21
-39.53914729706861
 31
0.0
  0
LINE
  5
F0
330
32
100
AcDbEntity
  8
1
  6
Continuous
 62
     5
100
AcDbLine
 10
-245.5484302207975
 20
-39.53914729706861
 30
0.0
 11
-235.7170737291485
 21
-37.53914729706861
 31
0.0
  0
LINE
  5
F1
330
32
100
AcDbEntity
  8
1
  6
Continuous
 62
     5
100
AcDbLine
 10
-235.7170737291485
 20
-37.53914729706861
 30
0.0
 11
-235.7170737291485
 21
-45.5391472970686
 31
0.0
  0
LINE
  5
F2
330
32
100
AcDbEntity
  8
1
  6
Continuous
 62
     5
100
AcDbLine
 10
-235.7170737291485
 20
-45.5391472970686
 30
0.0
 11
-245.5484302207975
 21
-43.5391472970686
 31
0.0
  0
LINE
  5
F3
330
32
100
AcDbEntity
  8
1
  6
Continuous
 62
     5
100
AcDbLine
 10
-261.0044722190024
 20
-41.53914729706861
 30
0.0
 11
-256.9571389746875
 21
-41.53914729706861
 31
0.0
  0
LINE
  5
F4
330
32
100
AcDbEntity
  8
1
  6
Continuous
 62
     5
100
AcDbLine
 10
-256.4083480263055
 20
-41.53914729706861
 30
0.0
 11
-254.4532802726955
 21
-41.53914729706861
 31
0.0
  0
LINE
  5
F5
330
32
100
AcDbEntity
  8
1
  6
Continuous
 62
     5
100
AcDbLine
 10
-253.9730881928615
 20
-41.53914729706861
 30
0.0
 11
-241.8996873284634
 21
-41.53914729706861
 31
0.0
  0
LINE
  5
F6
330
32
100
AcDbEntity
  8
1
  6
Continuous
 62
     5
100
AcDbLine
 10
-241.3851958143555
 20
-41.53914729706861
 30
0.0
 11
-240.5277099575085
 21
-41.53914729706861
 31
0.0
  0
LINE
  5
F7
330
32
100
AcDbEntity
  8
1
  6
Continuous
 62
     5
100
AcDbLine
 10
-239.7731224034844
 20
-41.53914729706861
 30
0.0
 11
-233.3248287599985
 21
-41.53914729706861
 31
0.0
  0
LINE
  5
F8
330
32
100
AcDbEntity
  8
1
  6
Continuous
 62
     5
100
AcDbLine
 10
-255.5233101648785
 20
-35.94310865839521
 30
0.0
 11
-255.5233101648785
 21
-40.29913681117529
 31
0.0
  0
LINE
  5
F9
330
32
100
AcDbEntity
  8
1
  6
Continuous
 62
     5
100
AcDbLine
 10
-255.5233101648785
 20
-40.74502945673541
 30
0.0
 11
-255.5233101648785
 21
-42.2542045647852
 31
0.0
  0
LINE
  5
FA
330
32
100
AcDbEntity
  8
1
  6
Continuous
 62
     5
100
AcDbLine
 10
-255.5233101648785
 20
-42.73439664461928
 30
0.0
 11
-255.5233101648785
 21
-47.5363174429595
 31
0.0
  0
ARC
  5
FB
330
32
100
AcDbEntity
  8
1
  6
Continuous
 62
     7
100
AcDbCircle
 10
-248.9532323315872
 20
-54.7945417191998
 30
0.0
 40
0.2615222637222461
100
AcDbArc
 50
-162.5271147296804
 51
1.85243728531351
  0
ARC
  5
FC
330
32
100
AcDbEntity
  8
1
  6
Continuous
 62
     7
100
AcDbCircle
 10
-254.2882865115262
 20
-54.7945417191998
 30
0.0
 40
0.2615222637223872
100
AcDbArc
 50
178.1475627146656
 51
-17.47288527030094
  0
ARC
  5
FD
330
32
100
AcDbEntity
  8
1
  6
Continuous
 62
     7
100
AcDbCircle
 10
-242.8736755923649
 20
-55.04382376206208
 30
0.0
 40
0.8368712439119423
100
AcDbArc
 50
-45.00000000000549
 51
135.0000000000017
  0
ARC
  5
FE
330
32
100
AcDbEntity
  8
1
  6
Continuous
 62
     7
100
AcDbCircle
 10
-246.3502499152223
 20
-58.52039808491949
 30
0.0
 40
0.8368712439120026
100
AcDbArc
 50
135.0000000000014
 51
-45.00000000000103
  0
CIRCLE
  5
FF
330
32
100
AcDbEntity
  8
1
  6
Continuous
 62
     7
100
AcDbCircle
 10
-244.6119627537935
 20
-56.78211092349079
 30
0.0
 40
3.818225050348416
  0
CIRCLE
  5
100
330
32
100
AcDbEntity
  8
1
  6
Continuous
 62
     5
100
AcDbCircle
 10
-255.5233101648785
 20
-41.53914729706861
 30
0.0
 40
2.000000000000027
  0
CIRCLE
  5
101
330
32
100
AcDbEntity
  8
1
  6
Continuous
 62
     5
100
AcDbCircle
 10
-255.5233101648785
 20
-41.53914729706861
 30
0.0
 40
4.000000000000028
  0
ARC
  5
102
330
32
100
AcDbEntity
  8
1
  6
Continuous
 62
     7
100
AcDbCircle
 10
-258.263424920108
 20
-54.76892386618931
 30
0.0
 40
0.1569133582334489
100
AcDbArc
 50
17.00000000000666
 51
163.0000000000115
  0
ARC
  5
103
330
32
100
AcDbEntity
  8
1
  6
Continuous
 62
     7
100
AcDbCircle
 10
-258.9748644269261
 20
-57.09593763995781
 30
0.0
 40
0.1569133582333945
100
AcDbArc
 50
162.9999999999873
 51
-90.0
  0
ARC
  5
104
330
32
100
AcDbEntity
  8
1
  6
Continuous
 62
     7
100
AcDbCircle
 10
-257.5519854132901
 20
-57.09593763995781
 30
0.0
 40
0.1569133582334814
100
AcDbArc
 50
-90.0
 51
17.00000000000666
  0
ARC
  5
105
330
32
100
AcDbEntity
  8
1
  6
Continuous
 62
     7
100
AcDbCircle
 10
-259.2307216426203
 20
-57.93280888386981
 30
0.0
 40
0.1569133582335098
100
AcDbArc
 50
90.0
 51
163.0000000000201
  0
ARC
  5
106
330
32
100
AcDbEntity
  8
1
  6
Continuous
 62
     7
100
AcDbCircle
 10
-259.7744182259709
 20
-59.71116027718281
 30
0.0
 40
0.1569133582333401
100
AcDbArc
 50
162.9999999999812
 51
-90.0
  0
ARC
  5
107
330
32
100
AcDbEntity
  8
1
  6
Continuous
 62
     7
100
AcDbCircle
 10
-257.3348314566774
 20
-57.98511333661428
 30
0.0
 40
0.2092178109780712
100
AcDbArc
 50
16.99999999998956
 51
90.0
  0
ARC
  5
108
330
32
100
AcDbEntity
  8
1
  6
Continuous
 62
     7
100
AcDbCircle
 10
-256.8231170252886
 20
-59.65885582443828
 30
0.0
 40
0.2092178109779965
100
AcDbArc
 50
-90.0
 51
16.99999999999411
  0
ARC
  5
109
330
32
100
AcDbEntity
  8
1
  6
Continuous
 62
     7
100
AcDbCircle
 10
-260.7269341051341
 20
-59.60655137169379
 30
0.0
 40
0.2615222637224903
100
AcDbArc
 50
-90.0
 51
-17.00000000000346
  0
ARC
  5
10A
330
32
100
AcDbEntity
  8
1
  6
Continuous
 62
     7
100
AcDbCircle
 10
-254.5419460286448
 20
-59.60655137169379
 30
0.0
 40
0.2615222637223758
100
AcDbArc
 50
-162.9999999999929
 51
-90.0
  0
ARC
  5
10B
330
32
100
AcDbEntity
  8
1
  6
Continuous
 62
     7
100
AcDbCircle
 10
-260.983256462822
 20
-59.97268254090531
 30
0.0
 40
0.1046089054890231
100
AcDbArc
 50
90.0
 51
180.0
  0
ARC
  5
10C
330
32
100
AcDbEntity
  8
1
  6
Continuous
 62
     7
100
AcDbCircle
 10
-259.5187317859761
 20
-59.97268254090531
 30
0.0
 40
0.1046089054889308
100
AcDbArc
 50
0.0
 51
90.0
  0
ARC
  5
10D
330
32
100
AcDbEntity
  8
1
  6
Continuous
 62
     7
100
AcDbCircle
 10
-257.112726959729
 20
-59.97268254090531
 30
0.0
 40
0.1046089054890231
100
AcDbArc
 50
90.0
 51
180.0
  0
ARC
  5
10E
330
32
100
AcDbEntity
  8
1
  6
Continuous
 62
     7
100
AcDbCircle
 10
-254.1836776060371
 20
-59.97268254090531
 30
0.0
 40
0.1046089054889876
100
AcDbArc
 50
0.0
 51
90.0
  0
ARC
  5
10F
330
32
100
AcDbEntity
  8
1
  6
Continuous
 62
     7
100
AcDbCircle
 10
-252.9806751929136
 20
-54.06227938077679
 30
0.0
 40
0.366131169211485
100
AcDbArc
 50
0.0
 51
90.0
  0
ARC
  5
110
330
32
100
AcDbEntity
  8
1
  6
Continuous
 62
     7
100
AcDbCircle
 10
-250.2608436501995
 20
-54.06227938077679
 30
0.0
 40
0.3661311692115135
100
AcDbArc
 50
90.0
 51
180.0
  0
ARC
  5
111
330
32
100
AcDbEntity
  8
1
  6
Continuous
 62
     7
100
AcDbCircle
 10
-250.1103393388129
 20
-54.42841054998829
 30
0.0
 40
0.7322623384231159
100
AcDbArc
 50
17.47288527029706
 51
90.0
  0
ARC
  5
112
330
32
100
AcDbEntity
  8
1
  6
Continuous
 62
     7
100
AcDbCircle
 10
-253.1311795043004
 20
-54.42841054998829
 30
0.0
 40
0.7322623384230056
100
AcDbArc
 50
90.0
 51
162.5271147296983
  0
ARC
  5
113
330
32
100
AcDbEntity
  8
1
  6
Continuous
 62
     7
100
AcDbCircle
 10
-252.8760662874246
 20
-59.60655137169379
 30
0.0
 40
0.2615222637224903
100
AcDbArc
 50
-90.0
 51
0.0
  0
ARC
  5
114
330
32
100
AcDbEntity
  8
1
  6
Continuous
 62
     7
100
AcDbCircle
 10
-250.3654525556887
 20
-59.60655137169379
 30
0.0
 40
0.2615222637224974
100
AcDbArc
 50
180.0
 51
-90.0
  0
ARC
  5
115
330
32
100
AcDbEntity
  8
1
  6
Continuous
 62
     7
100
AcDbCircle
 10
-250.1562347447105
 20
-59.97268254090531
 30
0.0
 40
0.104608905489016
100
AcDbArc
 50
0.0
 51
90.0
  0
ARC
  5
116
330
32
100
AcDbEntity
  8
1
  6
Continuous
 62
     7
100
AcDbCircle
 10
-253.0852840984026
 20
-59.97268254090531
 30
0.0
 40
0.1046089054890231
100
AcDbArc
 50
90.0
 51
180.0
  0
ARC
  5
117
330
32
100
AcDbEntity
  8
1
  6
Continuous
 62
     7
100
AcDbCircle
 10
-240.1660842705111
 20
-53.5915393060763
 30
0.0
 40
0.1046089054889876
100
AcDbArc
 50
180.0
 51
-90.0
  0
ARC
  5
118
330
32
100
AcDbEntity
  8
1
  6
Continuous
 62
     7
100
AcDbCircle
 10
-232.320416358836
 20
-53.5915393060763
 30
0.0
 40
0.1046089054889876
100
AcDbArc
 50
-90.0
 51
0.0
  0
ARC
  5
119
330
32
100
AcDbEntity
  8
1
  6
Continuous
 62
     7
100
AcDbCircle
 10
-232.320416358836
 20
-59.97268254090531
 30
0.0
 40
0.1046089054888171
100
AcDbArc
 50
0.0
 51
90.0
  0
ARC
  5
11A
330
32
100
AcDbEntity
  8
1
  6
Continuous
 62
     7
100
AcDbCircle
 10
-235.0402479015501
 20
-59.97268254090531
 30
0.0
 40
0.1046089054890231
100
AcDbArc
 50
90.0
 51
180.0
  0
ARC
  5
11B
330
32
100
AcDbEntity
  8
1
  6
Continuous
 62
     7
100
AcDbCircle
 10
-240.1660842705111
 20
-59.97268254090531
 30
0.0
 40
0.1046089054890231
100
AcDbArc
 50
90.0
 51
180.0
  0
ARC
  5
11C
330
32
100
AcDbEntity
  8
1
  6
Continuous
 62
     7
100
AcDbCircle
 10
-238.9107774046431
 20
-59.97268254090531
 30
0.0
 40
0.104608905489016
100
AcDbArc
 50
0.0
 51
90.0
  0
ARC
  5
11D
330
32
100
AcDbEntity
  8
1
  6
Continuous
 62
     7
100
AcDbCircle
 10
-239.9045620067885
 20
-53.85306156979879
 30
0.0
 40
0.1569133582334814
100
AcDbArc
 50
0.0
 51
90.0
  0
ARC
  5
11E
330
32
100
AcDbEntity
  8
1
  6
Continuous
 62
     7
100
AcDbCircle
 10
-239.9045620067885
 20
-59.71116027718281
 30
0.0
 40
0.1569133582334743
100
AcDbArc
 50
-90.0
 51
0.0
  0
ARC
  5
11F
330
32
100
AcDbEntity
  8
1
  6
Continuous
 62
     7
100
AcDbCircle
 10
-239.0676907628766
 20
-59.71116027718281
 30
0.0
 40
0.1569133582333961
100
AcDbArc
 50
180.0
 51
-90.0
  0
ARC
  5
120
330
32
100
AcDbEntity
  8
1
  6
Continuous
 62
     7
100
AcDbCircle
 10
-239.0676907628766
 20
-53.81829187236339
 30
0.0
 40
0.1569133582335342
100
AcDbArc
 50
15.0000000000312
 51
180.0
  0
ARC
  5
121
330
32
100
AcDbEntity
  8
1
  6
Continuous
 62
     7
100
AcDbCircle
 10
-236.2432503146736
 20
-56.27569165027701
 30
0.0
 40
0.1569133582335322
100
AcDbArc
 50
-165.0000000000116
 51
-14.99999999998304
  0
ARC
  5
122
330
32
100
AcDbEntity
  8
1
  6
Continuous
 62
     7
100
AcDbCircle
 10
-234.7264211850832
 20
-53.84823046333782
 30
0.0
 40
0.1569133582337088
100
AcDbArc
 50
0.0
 51
164.9999999999901
  0
ARC
  5
123
330
32
100
AcDbEntity
  8
1
  6
Continuous
 62
     7
100
AcDbCircle
 10
-232.529634169814
 20
-53.95767047528782
 30
0.0
 40
0.2615222637225259
100
AcDbArc
 50
90.0
 51
180.0
  0
ARC
  5
124
330
32
100
AcDbEntity
  8
1
  6
Continuous
 62
     7
100
AcDbCircle
 10
-234.831030090572
 20
-59.60655137169379
 30
0.0
 40
0.2615222637224903
100
AcDbArc
 50
-90.0
 51
0.0
  0
ARC
  5
125
330
32
100
AcDbEntity
  8
1
  6
Continuous
 62
     7
100
AcDbCircle
 10
-232.529634169814
 20
-59.60655137169379
 30
0.0
 40
0.2615222637224974
100
AcDbArc
 50
180.0
 51
-90.0
  0
MTEXT
  5
127
102
{ACAD_XDICTIONARY
360
3A0
102
}
330
32
100
AcDbEntity
  8
1
 62
     3
100
AcDbMText
 10
-111.5987566261954
 20
7.46085270293111
 30
0.0
 40
3.5
 41
0.0
 71
     4
 72
     1
  1
M5\U+0081~10(\U+0192\U+00C68)
  7
CONVERTER_1
 73
     1
 44
1.32052821128451
1001
ACAD
1000
MTEXTBEGIN
1070
    73
1070
     1
1070
    44
1040
1.32052821128451
1070
    74
1070
     0
1000
MTEXTEND
  0
MTEXT
  5
128
102
{ACAD_XDICTIONARY
360
3A2
102
}
330
32
100
AcDbEntity
  8
1
 62
     3
100
AcDbMText
 10
-111.5987566261954
 20
0.46085270293122
 30
0.0
 40
3.5
 41
0.0
 71
     4
 72
     1
  1
\U+201A\U+201D\U+0081\U+00812.6
  7
CONVERTER_1
 73
     1
 44
1.32052821128451
1001
ACAD
1000
MTEXTBEGIN
1070
    73
1070
     1
1070
    44
1040
1.32052821128451
1070
    74
1070
     0
1000
MTEXTEND
  0
MTEXT
  5
129
102
{ACAD_XDICTIONARY
360
3A4
102
}
330
32
100
AcDbEntity
  8
1
 62
     3
100
AcDbMText
 10
-151.5987566261954
 20
7.46085270293111
 30
0.0
 40
3.5
 41
0.0
 71
     4
 72
     1
  1
GB\U+0192\U+0081\U+0192b\U+0192L
  7
CONVERTER_1
 73
     1
 44
1.32052821128451
1001
ACAD
1000
MTEXTBEGIN
1070
    73
1070
     1
1070
    44
1040
1.32052821128451
1070
    74
1070
     0
1000
MTEXTEND
  0
MTEXT
  5
12A
102
{ACAD_XDICTIONARY
360
3A6
102
}
330
32
100
AcDbEntity
  8
1
 62
     3
100
AcDbMText
 10
-151.5987566261954
 20
0.46085270293122
 30
0.0
 40
3.5
 41
0.0
 71
     4
 72
     1
  1
\U+0192N\U+0192\U+008D\U+0192\U+0081\U+0081[\U+0192g
  7
CONVERTER_1
 73
     1
 44
1.32052821128451
1001
ACAD
1000
MTEXTBEGIN
1070
    73
1070
     1
1070
    44
1040
1.32052821128451
1070
    74
1070
     0
1000
MTEXTEND
  0
MTEXT
  5
12B
102
{ACAD_XDICTIONARY
360
3A8
102
}
330
32
100
AcDbEntity
  8
1
 62
     3
100
AcDbMText
 10
-151.5987566261954
 20
-6.539147297068669
 30
0.0
 40
3.5
 41
0.0
 71
     4
 72
     1
  1
\U+008D\U+2022\U+0090F
  7
CONVERTER_1
 73
     1
 44
1.32052821128451
1001
ACAD
1000
MTEXTBEGIN
1070
    73
1070
     1
1070
    44
1040
1.32052821128451
1070
    74
1070
     0
1000
MTEXTEND
  0
MTEXT
  5
12C
330
32
100
AcDbEntity
  8
1
 62
     3
100
AcDbMText
 10
-161.0987566261954
 20
7.46085270293111
 30
0.0
 40
3.5
 41
0.0
 71
     5
 72
     1
  1
1
  7
CONVERTER_1
 73
     1
 44
1.32052821128451
1001
ACAD
1000
MTEXTBEGIN
1070
    73
1070
     1
1070
    44
1040
1.32052821128451
1070
    74
1070
     0
1000
MTEXTEND
  0
MTEXT
  5
12D
330
32
100
AcDbEntity
  8
1
 62
     3
100
AcDbMText
 10
-161.0987566261954
 20
0.46085270293122
 30
0.0
 40
3.5
 41
0.0
 71
     5
 72
     1
  1
1
  7
CONVERTER_1
 73
     1
 44
1.32052821128451
1001
ACAD
1000
MTEXTBEGIN
1070
    73
1070
     1
1070
    44
1040
1.32052821128451
1070
    74
1070
     0
1000
MTEXTEND
  0
MTEXT
  5
12E
330
32
100
AcDbEntity
  8
1
 62
     3
100
AcDbMText
 10
-161.0987566261954
 20
-6.539147297068669
 30
0.0
 40
3.5
 41
0.0
 71
     5
 72
     1
  1
1
  7
CONVERTER_1
 73
     1
 44
1.32052821128451
1001
ACAD
1000
MTEXTBEGIN
1070
    73
1070
     1
1070
    44
1040
1.32052821128451
1070
    74
1070
     0
1000
MTEXTEND
  0
MTEXT
  5
12F
330
32
100
AcDbEntity
  8
1
 62
     3
100
AcDbMText
 10
-196.5987566261956
 20
7.46085270293111
 30
0.0
 40
3.5
 41
0.0
 71
     4
 72
     1
  1
SWCH
  7
CONVERTER_1
 73
     1
 44
1.32052821128451
1001
ACAD
1000
MTEXTBEGIN
1070
    73
1070
     1
1070
    44
1040
1.32052821128451
1070
    74
1070
     0
1000
MTEXTEND
  0
MTEXT
  5
130
330
32
100
AcDbEntity
  8
1
 62
     3
100
AcDbMText
 10
-196.5987566261956
 20
0.46085270293122
 30
0.0
 40
3.5
 41
0.0
 71
     4
 72
     1
  1
SPCC
  7
CONVERTER_1
 73
     1
 44
1.32052821128451
1001
ACAD
1000
MTEXTBEGIN
1070
    73
1070
     1
1070
    44
1040
1.32052821128451
1070
    74
1070
     0
1000
MTEXTEND
  0
MTEXT
  5
131
330
32
100
AcDbEntity
  8
1
 62
     3
100
AcDbMText
 10
-196.5987566261956
 20
-6.539147297068669
 30
0.0
 40
3.5
 41
0.0
 71
     4
 72
     1
  1
ABS
  7
CONVERTER_1
 73
     1
 44
1.32052821128451
1001
ACAD
1000
MTEXTBEGIN
1070
    73
1070
     1
1070
    44
1040
1.32052821128451
1070
    74
1070
     0
1000
MTEXTEND
  0
MTEXT
  5
132
102
{ACAD_XDICTIONARY
360
3AA
102
}
330
32
100
AcDbEntity
  8
1
 62
     3
100
AcDbMText
 10
-246.5987566261957
 20
7.46085270293111
 30
0.0
 40
3.5
 41
0.0
 71
     4
 72
     1
  1
\U+017D~\U+201A\U+00D4\U+0192l\U+0192W
  7
CONVERTER_1
 73
     1
 44
1.32052821128451
1001
ACAD
1000
MTEXTBEGIN
1070
    73
1070
     1
1070
    44
1040
1.32052821128451
1070
    74
1070
     0
1000
MTEXTEND
  0
MTEXT
  5
133
102
{ACAD_XDICTIONARY
360
3AC
102
}
330
32
100
AcDbEntity
  8
1
 62
     3
100
AcDbMText
 10
-246.5987566261957
 20
0.46085270293122
 30
0.0
 40
3.5
 41
0.0
 71
     4
 72
     1
  1
\U+201D\U+00F4\U+0192i\U+0192b\U+0192g
  7
CONVERTER_1
 73
     1
 44
1.32052821128451
1001
ACAD
1000
MTEXTBEGIN
1070
    73
1070
     1
1070
    44
1040
1.32052821128451
1070
    74
1070
     0
1000
MTEXTEND
  0
MTEXT
  5
134
102
{ACAD_XDICTIONARY
360
3AE
102
}
330
32
100
AcDbEntity
  8
1
 62
     3
100
AcDbMText
 10
-246.5987566261957
 20
-6.539147297068669
 30
0.0
 40
3.5
 41
0.0
 71
     4
 72
     1
  1
\U+0192i\U+0192b\U+0192g\U+2039K\U+0090\U+00CF\U+008D\U+00DF
  7
CONVERTER_1
 73
     1
 44
1.32052821128451
1001
ACAD
1000
MTEXTBEGIN
1070
    73
1070
     1
1070
    44
1040
1.32052821128451
1070
    74
1070
     0
1000
MTEXTEND
  0
MTEXT
  5
135
330
32
100
AcDbEntity
  8
1
 62
     3
100
AcDbMText
 10
-256.0987566261957
 20
7.46085270293111
 30
0.0
 40
3.5
 41
0.0
 71
     5
 72
     1
  1
4
  7
CONVERTER_1
 73
     1
 44
1.32052821128451
1001
ACAD
1000
MTEXTBEGIN
1070
    73
1070
     1
1070
    44
1040
1.32052821128451
1070
    74
1070
     0
1000
MTEXTEND
  0
MTEXT
  5
136
330
32
100
AcDbEntity
  8
1
 62
     3
100
AcDbMText
 10
-256.0987566261957
 20
0.46085270293122
 30
0.0
 40
3.5
 41
0.0
 71
     5
 72
     1
  1
3
  7
CONVERTER_1
 73
     1
 44
1.32052821128451
1001
ACAD
1000
MTEXTBEGIN
1070
    73
1070
     1
1070
    44
1040
1.32052821128451
1070
    74
1070
     0
1000
MTEXTEND
  0
MTEXT
  5
137
330
32
100
AcDbEntity
  8
1
 62
     3
100
AcDbMText
 10
-256.0987566261957
 20
-6.539147297068669
 30
0.0
 40
3.5
 41
0.0
 71
     5
 72
     1
  1
2
  7
CONVERTER_1
 73
     1
 44
1.32052821128451
1001
ACAD
1000
MTEXTBEGIN
1070
    73
1070
     1
1070
    44
1040
1.32052821128451
1070
    74
1070
     0
1000
MTEXTEND
  0
MTEXT
  5
138
102
{ACAD_XDICTIONARY
360
3B0
102
}
330
32
100
AcDbEntity
  8
1
 62
     3
100
AcDbMText
 10
-111.5987566261954
 20
-13.53914729706855
 30
0.0
 40
3.5
 41
0.0
 71
     4
 72
     1
  1
\U+201A\U+201D\U+0081\U+00812
  7
CONVERTER_1
 73
     1
 44
1.32052821128451
1001
ACAD
1000
MTEXTBEGIN
1070
    73
1070
     1
1070
    44
1040
1.32052821128451
1070
    74
1070
     0
1000
MTEXTEND
  0
MTEXT
  5
139
102
{ACAD_XDICTIONARY
360
3B2
102
}
330
32
100
AcDbEntity
  8
1
 62
     3
100
AcDbMText
 10
-151.5987566261954
 20
-13.53914729706855
 30
0.0
 40
3.5
 41
0.0
 71
     4
 72
     1
  1
GB\U+0192\U+0081\U+0192b\U+0192L
  7
CONVERTER_1
 73
     1
 44
1.32052821128451
1001
ACAD
1000
MTEXTBEGIN
1070
    73
1070
     1
1070
    44
1040
1.32052821128451
1070
    74
1070
     0
1000
MTEXTEND
  0
MTEXT
  5
13A
330
32
100
AcDbEntity
  8
1
 62
     3
100
AcDbMText
 10
-196.5987566261956
 20
-13.53914729706855
 30
0.0
 40
3.5
 41
0.0
 71
     4
 72
     1
  1
SPEC-SD
  7
CONVERTER_1
 73
     1
 44
1.32052821128451
1001
ACAD
1000
MTEXTBEGIN
1070
    73
1070
     1
1070
    44
1040
1.32052821128451
1070
    74
1070
     0
1000
MTEXTEND
  0
MTEXT
  5
13B
102
{ACAD_XDICTIONARY
360
3B4
102
}
330
32
100
AcDbEntity
  8
1
 62
     3
100
AcDbMText
 10
-246.5987566261957
 20
-13.53914729706855
 30
0.0
 40
3.5
 41
0.0
 71
     4
 72
     1
  1
\U+017D\U+00F8\U+201A\U+00A3\U+2039\U+00C1
  7
CONVERTER_1
 73
     1
 44
1.32052821128451
1001
ACAD
1000
MTEXTBEGIN
1070
    73
1070
     1
1070
    44
1040
1.32052821128451
1070
    74
1070
     0
1000
MTEXTEND
  0
MTEXT
  5
13C
330
32
100
AcDbEntity
  8
1
 62
     3
100
AcDbMText
 10
-161.0987566261954
 20
-61.5391472970686
 30
0.0
 40
6.0
 41
0.0
 71
     4
 72
     1
  1
GDFD-HR4-A04
  7
CONVERTER_1
 73
     1
 44
1.32052821128451
1001
ACAD
1000
MTEXTBEGIN
1070
    73
1070
     1
1070
    44
1040
1.32052821128451
1070
    74
1070
     0
1000
MTEXTEND
  0
MTEXT
  5
13D
102
{ACAD_XDICTIONARY
360
3B6
102
}
330
32
100
AcDbEntity
  8
1
 62
     3
100
AcDbMText
 10
-161.0987566261954
 20
-46.5391472970686
 30
0.0
 40
6.0
 41
0.0
 71
     4
 72
     1
  1
\U+2018g %%d\U+00CF \U+0090}
  7
CONVERTER_1
 73
     1
 44
1.32052821128451
1001
ACAD
1000
MTEXTBEGIN
1070
    73
1070
     1
1070
    44
1040
1.32052821128451
1070
    74
1070
     0
1000
MTEXTEND
  0
MTEXT
  5
13E
102
{ACAD_XDICTIONARY
360
3B8
102
}
330
32
100
AcDbEntity
  8
1
 62
     3
100
AcDbMText
 10
-161.0987566261954
 20
-31.53914729706861
 30
0.0
 40
6.0
 41
0.0
 71
     4
 72
     1
  1
HR-11\U+0081i\U+008F\U+00D0\U+2030\U+00A4\U+0192s\U+0192{\U+0192b\U+0192g\U+017D\U+00F8\U+201A\U+00A3\U+0081j
  7
CONVERTER_1
 73
     1
 44
1.32052821128451
1001
ACAD
1000
MTEXTBEGIN
1070
    73
1070
     1
1070
    44
1040
1.32052821128451
1070
    74
1070
     0
1000
MTEXTEND
  0
MTEXT
  5
13F
330
32
100
AcDbEntity
  8
1
 62
     3
100
AcDbMText
 10
-161.0987566261954
 20
-13.53914729706855
 30
0.0
 40
3.5
 41
0.0
 71
     5
 72
     1
  1
1
  7
CONVERTER_1
 73
     1
 44
1.32052821128451
1001
ACAD
1000
MTEXTBEGIN
1070
    73
1070
     1
1070
    44
1040
1.32052821128451
1070
    74
1070
     0
1000
MTEXTEND
  0
MTEXT
  5
140
330
32
100
AcDbEntity
  8
1
 62
     3
100
AcDbMText
 10
-256.0987566261957
 20
-13.53914729706855
 30
0.0
 40
3.5
 41
0.0
 71
     5
 72
     1
  1
1
  7
CONVERTER_1
 73
     1
 44
1.32052821128451
1001
ACAD
1000
MTEXTBEGIN
1070
    73
1070
     1
1070
    44
1040
1.32052821128451
1070
    74
1070
     0
1000
MTEXTEND
  0
MTEXT
  5
141
330
32
100
AcDbEntity
  8
1
 62
     3
100
AcDbMText
 10
-246.0364561071975
 20
-29.03914729706861
 30
0.0
 40
6.0
 41
0.0
 71
     5
 72
     1
  1
2 : 1
  7
CONVERTER_1
 73
     1
 44
1.32052821128451
1001
ACAD
1000
MTEXTBEGIN
1070
    73
1070
     1
1070
    44
1040
1.32052821128451
1070
    74
1070
     0
1000
MTEXTEND
  0
MTEXT
  5
142
330
32
100
AcDbEntity
  8
1
 62
     3
100
AcDbMText
 10
-180.5987566261954
 20
-45.5391472970686
 30
0.0
 40
3.5
 41
0.0
 71
     5
 72
     1
  1
98.11.25.
  7
CONVERTER_1
 73
     1
 44
1.32052821128451
1001
ACAD
1000
MTEXTBEGIN
1070
    73
1070
     1
1070
    44
1040
1.32052821128451
1070
    74
1070
     0
1000
MTEXTEND
  0
MTEXT
  5
143
330
32
100
AcDbEntity
  8
1
 62
     3
100
AcDbMText
 10
-200.5987566261956
 20
-45.5391472970686
 30
0.0
 40
3.5
 41
0.0
 71
     5
 72
     1
  1
98.11.25.
  7
CONVERTER_1
 73
     1
 44
1.32052821128451
1001
ACAD
1000
MTEXTBEGIN
1070
    73
1070
     1
1070
    44
1040
1.32052821128451
1070
    74
1070
     0
1000
MTEXTEND
  0
MTEXT
  5
144
330
32
100
AcDbEntity
  8
1
 62
     3
100
AcDbMText
 10
-220.5987566261957
 20
-45.5391472970686
 30
0.0
 40
3.5
 41
0.0
 71
     5
 72
     1
  1
98.11.25.
  7
CONVERTER_1
 73
     1
 44
1.32052821128451
1001
ACAD
1000
MTEXTBEGIN
1070
    73
1070
     1
1070
    44
1040
1.32052821128451
1070
    74
1070
     0
1000
MTEXTEND
  0
MTEXT
  5
145
102
{ACAD_XDICTIONARY
360
3BA
102
}
330
32
100
AcDbEntity
  8
1
 62
     3
100
AcDbMText
 10
-220.5987566261957
 20
-36.53914729706861
 30
0.0
 40
6.0
 41
0.0
 71
     5
 72
     1
  1
\U+02C6\U+00CF\U+008D\U+00E3
  7
CONVERTER_1
 73
     1
 44
1.32052821128451
1001
ACAD
1000
MTEXTBEGIN
1070
    73
1070
     1
1070
    44
1040
1.32052821128451
1070
    74
1070
     0
1000
MTEXTEND
  0
MTEXT
  5
146
102
{ACAD_XDICTIONARY
360
3BC
102
}
330
32
100
AcDbEntity
  8
1
 62
     3
100
AcDbMText
 10
-200.5987566261956
 20
-36.53914729706861
 30
0.0
 40
6.0
 41
0.0
 71
     5
 72
     1
  1
\U+2019\U+2020\U+201C\U+2021
  7
CONVERTER_1
 73
     1
 44
1.32052821128451
1001
ACAD
1000
MTEXTBEGIN
1070
    73
1070
     1
1070
    44
1040
1.32052821128451
1070
    74
1070
     0
1000
MTEXTEND
  0
MTEXT
  5
147
102
{ACAD_XDICTIONARY
360
3BE
102
}
330
32
100
AcDbEntity
  8
1
 62
     3
100
AcDbMText
 10
-180.5987566261954
 20
-36.53914729706861
 30
0.0
 40
6.0
 41
0.0
 71
     5
 72
     1
  1
\U+008F\U+008F\U+2022\U+00AB
  7
CONVERTER_1
 73
     1
 44
1.32052821128451
1001
ACAD
1000
MTEXTBEGIN
1070
    73
1070
     1
1070
    44
1040
1.32052821128451
1070
    74
1070
     0
1000
MTEXTEND
  0
MTEXT
  5
149
102
{ACAD_XDICTIONARY
360
3C0
102
}
330
32
100
AcDbEntity
  8
1
 62
     4
100
AcDbMText
 10
-170.6987566261955
 20
-31.53914729706861
 30
0.0
 40
4.0
 41
0.0
 71
     4
 72
     1
  1
\U+2022i\P\U+00B2\U+00A5
  7
CONVERTER_2
 73
     1
 44
1.20048019207683
1001
ACAD
1000
MTEXTBEGIN
1070
    73
1070
     1
1070
    44
1040
1.20048019207683
1070
    74
1070
     0
1000
MTEXTEND
  0
MTEXT
  5
14A
102
{ACAD_XDICTIONARY
360
3C2
102
}
330
32
100
AcDbEntity
  8
1
 62
     4
100
AcDbMText
 10
-170.6987566261955
 20
-46.5391472970686
 30
0.0
 40
4.0
 41
0.0
 71
     4
 72
     1
  1
\U+0090}\P\U+00B2\U+00A5
  7
CONVERTER_2
 73
     1
 44
1.20048019207683
1001
ACAD
1000
MTEXTBEGIN
1070
    73
1070
     1
1070
    44
1040
1.20048019207683
1070
    74
1070
     0
1000
MTEXTEND
  0
MTEXT
  5
14B
102
{ACAD_XDICTIONARY
360
3C4
102
}
330
32
100
AcDbEntity
  8
1
 62
     4
100
AcDbMText
 10
-170.6987566261955
 20
-61.5391472970686
 30
0.0
 40
4.0
 41
0.0
 71
     4
 72
     1
  1
\U+0090}\P\U+201D\U+00E5
  7
CONVERTER_2
 73
     1
 44
1.20048019207683
1001
ACAD
1000
MTEXTBEGIN
1070
    73
1070
     1
1070
    44
1040
1.20048019207683
1070
    74
1070
     0
1000
MTEXTEND
  0
MTEXT
  5
14C
102
{ACAD_XDICTIONARY
360
3C6
102
}
330
32
100
AcDbEntity
  8
1
 62
     4
100
AcDbMText
 10
-256.0987566261956
 20
-20.5391472970685
 30
0.0
 40
4.0
 41
0.0
 71
     5
 72
     1
  1
\U+2022i \U+201D\U+00E5
  7
CONVERTER_2
 73
     1
 44
1.20048019207683
1001
ACAD
1000
MTEXTBEGIN
1070
    73
1070
     1
1070
    44
1040
1.20048019207683
1070
    74
1070
     0
1000
MTEXTEND
  0
MTEXT
  5
14D
102
{ACAD_XDICTIONARY
360
3C8
102
}
330
32
100
AcDbEntity
  8
1
 62
     4
100
AcDbMText
 10
-223.5987566261956
 20
-20.5391472970685
 30
0.0
 40
4.0
 41
0.0
 71
     5
 72
     1
  1
\U+2022i        \U+00B2\U+00A5
  7
CONVERTER_2
 73
     1
 44
1.20048019207683
1001
ACAD
1000
MTEXTBEGIN
1070
    73
1070
     1
1070
    44
1040
1.20048019207683
1070
    74
1070
     0
1000
MTEXTEND
  0
MTEXT
  5
14E
102
{ACAD_XDICTIONARY
360
3CA
102
}
330
32
100
AcDbEntity
  8
1
 62
     4
100
AcDbMText
 10
-183.5987566261955
 20
-20.5391472970685
 30
0.0
 40
4.0
 41
0.0
 71
     5
 72
     1
  1
\U+008D\U+00DF   \U+017D\U+00A2
  7
CONVERTER_2
 73
     1
 44
1.20048019207683
1001
ACAD
1000
MTEXTBEGIN
1070
    73
1070
     1
1070
    44
1040
1.20048019207683
1070
    74
1070
     0
1000
MTEXTEND
  0
MTEXT
  5
14F
102
{ACAD_XDICTIONARY
360
3CC
102
}
330
32
100
AcDbEntity
  8
1
 62
     4
100
AcDbMText
 10
-161.0987566261955
 20
-20.53914729706861
 30
0.0
 40
4.0
 41
0.0
 71
     5
 72
     1
  1
\U+0090\U+201D %%d%%d
  7
CONVERTER_2
 73
     1
 44
1.20048019207683
1001
ACAD
1000
MTEXTBEGIN
1070
    73
1070
     1
1070
    44
1040
1.20048019207683
1070
    74
1070
     0
1000
MTEXTEND
  0
MTEXT
  5
150
102
{ACAD_XDICTIONARY
360
3CE
102
}
330
32
100
AcDbEntity
  8
1
 62
     4
100
AcDbMText
 10
-133.5987566261955
 20
-20.53914729706861
 30
0.0
 40
4.0
 41
0.0
 71
     5
 72
     1
  1
\U+017Dd   \U+008F\U+00D0   \U+201A\U+00AF
  7
CONVERTER_2
 73
     1
 44
1.20048019207683
1001
ACAD
1000
MTEXTBEGIN
1070
    73
1070
     1
1070
    44
1040
1.20048019207683
1070
    74
1070
     0
1000
MTEXTEND
  0
MTEXT
  5
151
102
{ACAD_XDICTIONARY
360
3D0
102
}
330
32
100
AcDbEntity
  8
1
 62
     4
100
AcDbMText
 10
-98.5987566261955
 20
-20.53914729706861
 30
0.0
 40
4.0
 41
0.0
 71
     5
 72
     1
  1
\U+2039L   \U+017D\U+00B2
  7
CONVERTER_2
 73
     1
 44
1.20048019207683
1001
ACAD
1000
MTEXTBEGIN
1070
    73
1070
     1
1070
    44
1040
1.20048019207683
1070
    74
1070
     0
1000
MTEXTEND
  0
MTEXT
  5
152
102
{ACAD_XDICTIONARY
360
3D2
102
}
330
32
100
AcDbEntity
  8
1
 62
     4
100
AcDbMText
 10
-220.5987566261956
 20
-27.53914729706861
 30
0.0
 40
4.0
 41
0.0
 71
     5
 72
     1
  1
\U+008F\U+00B0  \U+201DF
  7
CONVERTER_2
 73
     1
 44
1.20048019207683
1001
ACAD
1000
MTEXTBEGIN
1070
    73
1070
     1
1070
    44
1040
1.20048019207683
1070
    74
1070
     0
1000
MTEXTEND
  0
MTEXT
  5
153
102
{ACAD_XDICTIONARY
360
3D4
102
}
330
32
100
AcDbEntity
  8
1
 62
     4
100
AcDbMText
 10
-200.5987566261956
 20
-27.53914729706861
 30
0.0
 40
4.0
 41
0.0
 71
     5
 72
     1
  1
\U+0152\U+0081  \U+0090}
  7
CONVERTER_2
 73
     1
 44
1.20048019207683
1001
ACAD
1000
MTEXTBEGIN
1070
    73
1070
     1
1070
    44
1040
1.20048019207683
1070
    74
1070
     0
1000
MTEXTEND
  0
MTEXT
  5
154
102
{ACAD_XDICTIONARY
360
3D6
102
}
330
32
100
AcDbEntity
  8
1
 62
     4
100
AcDbMText
 10
-180.5987566261955
 20
-27.53914729706861
 30
0.0
 40
4.0
 41
0.0
 71
     5
 72
     1
  1
\U+2019S  \U+201C\U+00B2
  7
CONVERTER_2
 73
     1
 44
1.20048019207683
1001
ACAD
1000
MTEXTBEGIN
1070
    73
1070
     1
1070
    44
1040
1.20048019207683
1070
    74
1070
     0
1000
MTEXTEND
  0
MTEXT
  5
155
102
{ACAD_XDICTIONARY
360
3D8
102
}
330
32
100
AcDbEntity
  8
1
 62
     4
100
AcDbMText
 10
-259.4116851276644
 20
-26.5460033205749
 30
0.0
 40
4.0
 41
0.0
 71
     5
 72
     1
  1
\U+017D\U+00D6\U+201Cx
  7
CONVERTER_2
 73
     1
 44
1.20048019207683
1001
ACAD
1000
MTEXTBEGIN
1070
    73
1070
     1
1070
    44
1040
1.20048019207683
1070
    74
1070
     0
1000
MTEXTEND
  0
MTEXT
  5
157
102
{ACAD_XDICTIONARY
360
3DA
102
}
330
32
100
AcDbEntity
  8
1
 62
     4
100
AcDbMText
 10
-246.6738417966054
 20
-64.6327770075354
 30
0.0
 40
4.0
 41
0.0
 71
     5
 72
     1
  1
\U+0192A\U+0192g\U+0192\U+20AC\U+0192\U+0160\U+0192r\U+0192\U+201C\U+0192e\U+0192b\U+0192N\U+0160\U+201D\U+017D\U+00DB\U+2030\U+00FF\U+017D\U+00C5
  7
CONVERTER_3
 73
     1
 44
1.20048019207683
1001
ACAD
1000
MTEXTBEGIN
1070
    73
1070
     1
1070
    44
1040
1.20048019207683
1070
    74
1070
     0
1000
MTEXTEND
  0
MTEXT
  5
158
102
{ACAD_XDICTIONARY
360
3DC
102
}
330
32
100
AcDbEntity
  8
1
 62
     4
100
AcDbMText
 10
-219.1090444986026
 20
-54.36235167985839
 30
0.0
 40
3.0
 41
0.0
 71
     5
 72
     1
  1
\U+00B2{\U+017D\U+00C5
  7
CONVERTER_2
 73
     1
 44
1.20048019207683
1001
ACAD
1000
MTEXTBEGIN
1070
    73
1070
     1
1070
    44
1040
1.20048019207683
1070
    74
1070
     0
1000
MTEXTEND
  0
MTEXT
  5
159
102
{ACAD_XDICTIONARY
360
3DE
102
}
330
32
100
AcDbEntity
  8
1
 62
     4
100
AcDbMText
 10
-198.9629000165648
 20
-59.0912581599375
 30
0.0
 40
2.5
 41
0.0
 71
     5
 72
     1
  1
\U+201C\U+0152\U+2039\U+20AC\U+201Cs\U+2018\U+00F0\U+201C\U+0152\U+2039\U+00CC\U+201C*\U+2019J
  7
CONVERTER_2
 73
     1
 44
1.20048019207683
1001
ACAD
1000
MTEXTBEGIN
1070
    73
1070
     1
1070
    44
1040
1.20048019207683
1070
    74
1070
     0
1000
MTEXTEND
  0
MTEXT
  5
15A
330
32
100
AcDbEntity
  8
1
 62
     4
100
AcDbMText
 10
-182.6868536983559
 20
-59.07284044950231
 30
0.0
 40
2.0
 41
0.0
 71
     5
 72
     1
  1
1-27-4
  7
CONVERTER_2
 73
     1
 44
1.20048019207683
1001
ACAD
1000
MTEXTBEGIN
1070
    73
1070
     1
1070
    44
1040
1.20048019207683
1070
    74
1070
     0
1000
MTEXTEND
  0
MTEXT
  5
15B
330
32
100
AcDbEntity
  8
1
 62
     4
100
AcDbMText
 10
-201.8125519393117
 20
-64.25008556599689
 30
0.0
 40
2.0
 41
0.0
 71
     5
 72
     1
  1
03 (3876) 0600
  7
CONVERTER_2
 73
     1
 44
1.20048019207683
1001
ACAD
1000
MTEXTBEGIN
1070
    73
1070
     1
1070
    44
1040
1.20048019207683
1070
    74
1070
     0
1000
MTEXTEND
  0
MTEXT
  5
15C
102
{ACAD_XDICTIONARY
360
3E0
102
}
330
32
100
AcDbEntity
  8
1
 62
     4
100
AcDbMText
 10
-220.4489678132075
 20
-59.18841185976332
 30
0.0
 40
2.5
 41
0.0
 71
     5
 72
     1
  1
\U+0081\U+00CF
  7
CONVERTER_2
 73
     1
 44
1.20048019207683
1001
ACAD
1000
MTEXTBEGIN
1070
    73
1070
     1
1070
    44
1040
1.20048019207683
1070
    74
1070
     0
1000
MTEXTEND
  0
MTEXT
  5
15E
330
32
100
AcDbEntity
  8
1
 62
     4
100
AcDbMText
 10
-217.4779449927327
 20
-64.2301475551167
 30
0.0
 40
2.0
 41
0.0
 71
     5
 72
     1
  1
TEL
  7
CONVERTER_4
 73
     1
 44
1.20048019207683
1001
ACAD
1000
MTEXTBEGIN
1070
    73
1070
     1
1070
    44
1040
1.20048019207683
1070
    74
1070
     0
1000
MTEXTEND
  0
MTEXT
  5
15F
330
32
100
AcDbEntity
  8
1
 62
     4
100
AcDbMText
 10
-216.3000468288415
 20
-59.12595477430611
 30
0.0
 40
2.0
 41
0.0
 71
     5
 72
     1
  1
110
  7
CONVERTER_2
 73
     1
 44
1.20048019207683
1001
ACAD
1000
MTEXTBEGIN
1070
    73
1070
     1
1070
    44
1040
1.20048019207683
1070
    74
1070
     0
1000
MTEXTEND
  0
ENDBLK
  5
34
330
32
100
AcDbEntity
  8
0
100
AcDbBlockEnd
  0
BLOCK
  5
37
330
35
100
AcDbEntity
  8
0
100
AcDbBlockBegin
  2
format_A3
 70
     0
 10
-432.598756626196
 20
-275.039147297069
 30
0.0
  3
format_A3
  1

  0
INSERT
  5
36
330
35
100
AcDbEntity
  8
0
100
AcDbBlockReference
  2
______
 10
-36.17879291713749
 20
-296.9106918635446
 30
0.0
  0
LINE
  5
160
330
35
100
AcDbEntity
  8
1
  6
Continuous
 62
     7
100
AcDbLine
 10
-458.5987566261955
 20
200.9608527029314
 30
0.0
 11
-458.598756626196
 21
-69.0391472970677
 31
0.0
  0
LINE
  5
161
330
35
100
AcDbEntity
  8
1
  6
Continuous
 62
     7
100
AcDbLine
 10
-83.5987566261952
 20
200.9608527029306
 30
0.0
 11
-458.5987566261955
 21
200.9608527029314
 31
0.0
  0
LINE
  5
162
330
35
100
AcDbEntity
  8
1
  6
Continuous
 62
     7
100
AcDbLine
 10
-83.5987566261955
 20
-17.03914729706861
 30
0.0
 11
-83.5987566261952
 21
200.9608527029306
 31
0.0
  0
LINE
  5
163
330
35
100
AcDbEntity
  8
1
  6
Continuous
 62
     7
100
AcDbLine
 10
-263.5987566261956
 20
-69.03914729706821
 30
0.0
 11
-458.598756626196
 21
-69.0391472970677
 31
0.0
  0
ENDBLK
  5
38
330
35
100
AcDbEntity
  8
0
100
AcDbBlockEnd
  0
BLOCK
  5
3B
330
39
100
AcDbEntity
  8
0
100
AcDbBlockBegin
  2
_3
 70
     0
 10
-458.598756626196
 20
-69.03914729706861
 30
0.0
  3
_3
  1

  0
INSERT
  5
3A
330
39
100
AcDbEntity
  8
0
100
AcDbBlockReference
  2
format_A3
 10
-432.598756626196
 20
-275.039147297069
 30
0.0
 41
0.5
 42
0.5
 43
0.5
  0
LINE
  5
164
330
39
100
AcDbEntity
  8
1
  6
Continuous
 62
     7
100
AcDbLine
 10
-377.0472567694418
 20
-103.2956065274708
 30
0.0
 11
-377.0472567694418
 21
-110.7956065274708
 31
0.0
  0
LINE
  5
165
330
39
100
AcDbEntity
  8
1
  6
Continuous
 62
     7
100
AcDbLine
 10
-406.3229927007299
 20
-103.2956065274708
 30
0.0
 11
-400.8229927007299
 21
-103.2956065274708
 31
0.0
  0
LINE
  5
166
330
39
100
AcDbEntity
  8
1
  6
Continuous
 62
     7
100
AcDbLine
 10
-377.0472567694418
 20
-103.2956065274708
 30
0.0
 11
-390.8229927007299
 21
-103.2956065274708
 31
0.0
  0
LINE
  5
167
330
39
100
AcDbEntity
  8
1
  6
Continuous
 62
     7
100
AcDbLine
 10
-390.8229927007299
 20
-103.2956065274708
 30
0.0
 11
-390.8229927007299
 21
-107.7956065274708
 31
0.0
  0
LINE
  5
168
330
39
100
AcDbEntity
  8
1
  6
Continuous
 62
     7
100
AcDbLine
 10
-391.3229927007299
 20
-108.2956065274708
 30
0.0
 11
-400.3229927007299
 21
-108.2956065274708
 31
0.0
  0
LINE
  5
169
330
39
100
AcDbEntity
  8
1
  6
Continuous
 62
     7
100
AcDbLine
 10
-400.8229927007299
 20
-107.7956065274708
 30
0.0
 11
-400.8229927007299
 21
-103.2956065274708
 31
0.0
  0
LINE
  5
16A
330
39
100
AcDbEntity
  8
1
  6
Continuous
 62
     7
100
AcDbLine
 10
-377.5472567694418
 20
-111.2956065274708
 30
0.0
 11
-405.8229927007299
 21
-111.2956065274708
 31
0.0
  0
LINE
  5
16B
330
39
100
AcDbEntity
  8
1
  6
Continuous
 62
     7
100
AcDbLine
 10
-406.3229927007299
 20
-110.7956065274708
 30
0.0
 11
-406.3229927007299
 21
-103.2956065274708
 31
0.0
  0
LINE
  5
16C
330
39
100
AcDbEntity
  8
1
  6
Continuous
 62
     7
100
AcDbLine
 10
-405.8229927007299
 20
-149.3304405143745
 30
0.0
 11
-379.8229927007299
 21
-149.3304405143745
 31
0.0
  0
LINE
  5
16D
330
39
100
AcDbEntity
  8
1
  6
Continuous
 62
     7
100
AcDbLine
 10
-388.3229927007299
 20
-142.1304405143745
 30
0.0
 11
-388.3229927007299
 21
-148.8304405143745
 31
0.0
  0
LINE
  5
16E
330
39
100
AcDbEntity
  8
1
  6
Continuous
 62
     7
100
AcDbLine
 10
-386.9454916999291
 20
-141.6304405143745
 30
0.0
 11
-387.8229927007299
 21
-141.6304405143745
 31
0.0
  0
LINE
  5
16F
330
39
100
AcDbEntity
  8
1
  6
Continuous
 62
     7
100
AcDbLine
 10
-379.3229927007299
 20
-141.6304405143745
 30
0.0
 11
-380.7004937015307
 21
-141.6304405143745
 31
0.0
  0
LINE
  5
170
330
39
100
AcDbEntity
  8
1
  6
DOT_CENTER
 62
     2
100
AcDbLine
 10
-383.8229927007299
 20
-141.5115055444497
 30
0.0
 11
-383.8229927007299
 21
-146.7493754842993
 31
0.0
  0
LINE
  5
171
330
39
100
AcDbEntity
  8
1
  6
Continuous
 62
     7
100
AcDbLine
 10
-379.3229927007299
 20
-148.8304405143745
 30
0.0
 11
-379.3229927007299
 21
-141.6304405143745
 31
0.0
  0
LINE
  5
172
330
39
100
AcDbEntity
  8
1
  6
Continuous
 62
     7
100
AcDbLine
 10
-405.8229927007299
 20
-138.9304405143745
 30
0.0
 11
-377.3472567694418
 21
-138.9304405143745
 31
0.0
  0
LINE
  5
173
330
39
100
AcDbEntity
  8
1
  6
Continuous
 62
     7
100
AcDbLine
 10
-377.1351247350859
 20
-139.4425725487305
 30
0.0
 11
-379.3229927007299
 21
-141.6304405143745
 31
0.0
  0
LINE
  5
174
330
39
100
AcDbEntity
  8
1
  6
Continuous
 62
     7
100
AcDbLine
 10
-406.3229927007299
 20
-139.4304405143745
 30
0.0
 11
-406.3229927007299
 21
-148.8304405143745
 31
0.0
  0
ARC
  5
175
330
39
100
AcDbEntity
  8
1
  6
Continuous
 62
     7
100
AcDbCircle
 10
-383.8229927007299
 20
-144.1304405143745
 30
0.0
 40
3.999999999999996
100
AcDbArc
 50
38.68218745348947
 51
141.3178125465105
  0
ARC
  5
176
330
39
100
AcDbEntity
  8
1
  6
Continuous
 62
     7
100
AcDbCircle
 10
-377.3472567694418
 20
-139.2304405143744
 30
0.0
 40
0.3000000000000345
100
AcDbArc
 50
-45.00000000003069
 51
90.0
  0
CIRCLE
  5
177
330
39
100
AcDbEntity
  8
1
  6
Continuous
 62
     7
100
AcDbCircle
 10
-383.8229927007299
 20
-144.1304405143745
 30
0.0
 40
1.05000000000001
  0
ARC
  5
178
330
39
100
AcDbEntity
  8
1
  6
Continuous
 62
     7
100
AcDbCircle
 10
-377.5472567694418
 20
-110.7956065274708
 30
0.0
 40
0.5
100
AcDbArc
 50
-90.0
 51
0.0
  0
ARC
  5
179
330
39
100
AcDbEntity
  8
1
  6
Continuous
 62
     7
100
AcDbCircle
 10
-405.8229927007299
 20
-110.7956065274708
 30
0.0
 40
0.5
100
AcDbArc
 50
180.0
 51
-90.0
  0
ARC
  5
17A
330
39
100
AcDbEntity
  8
1
  6
Continuous
 62
     7
100
AcDbCircle
 10
-391.3229927007299
 20
-107.7956065274708
 30
0.0
 40
0.5
100
AcDbArc
 50
-90.0
 51
0.0
  0
ARC
  5
17B
330
39
100
AcDbEntity
  8
1
  6
Continuous
 62
     7
100
AcDbCircle
 10
-400.3229927007299
 20
-107.7956065274708
 30
0.0
 40
0.5
100
AcDbArc
 50
180.0
 51
-90.0
  0
ARC
  5
17C
330
39
100
AcDbEntity
  8
1
  6
Continuous
 62
     7
100
AcDbCircle
 10
-387.8229927007299
 20
-142.1304405143745
 30
0.0
 40
0.5
100
AcDbArc
 50
90.0
 51
180.0
  0
ARC
  5
17D
330
39
100
AcDbEntity
  8
1
  6
Continuous
 62
     7
100
AcDbCircle
 10
-388.8229927007299
 20
-148.8304405143745
 30
0.0
 40
0.5
100
AcDbArc
 50
-90.0
 51
0.0
  0
ARC
  5
17E
330
39
100
AcDbEntity
  8
1
  6
Continuous
 62
     7
100
AcDbCircle
 10
-379.8229927007299
 20
-148.8304405143745
 30
0.0
 40
0.5
100
AcDbArc
 50
-90.0
 51
0.0
  0
ARC
  5
17F
330
39
100
AcDbEntity
  8
1
  6
Continuous
 62
     7
100
AcDbCircle
 10
-405.8229927007299
 20
-139.4304405143745
 30
0.0
 40
0.5
100
AcDbArc
 50
90.0
 51
180.0
  0
ARC
  5
180
330
39
100
AcDbEntity
  8
1
  6
Continuous
 62
     7
100
AcDbCircle
 10
-405.8229927007299
 20
-148.8304405143745
 30
0.0
 40
0.5
100
AcDbArc
 50
180.0
 51
-90.0
  0
ENDBLK
  5
3C
330
39
100
AcDbEntity
  8
0
100
AcDbBlockEnd
  0
BLOCK
  5
3E
330
3D
100
AcDbEntity
  8
0
100
AcDbBlockBegin
  2
_2
 70
     0
 10
-322.8229927007299
 20
26.57828501413181
 30
0.0
  3
_2
  1

  0
LINE
  5
181
330
3D
100
AcDbEntity
  8
1
  6
DOT_CENTER
 62
     7
100
AcDbLine
 10
-370.3229927007299
 20
-144.1304405143745
 30
0.0
 11
-370.5229927007299
 21
-144.1304405143745
 31
0.0
  0
LINE
  5
182
330
3D
100
AcDbEntity
  8
1
  6
Continuous
 62
     7
100
AcDbLine
 10
-373.8229927007299
 20
-109.5742377153343
 30
0.0
 11
-371.8229927007299
 21
-109.5742377153343
 31
0.0
  0
LINE
  5
183
330
3D
100
AcDbEntity
  8
1
  6
Continuous
 62
     7
100
AcDbLine
 10
-373.8229927007299
 20
-106.9742377153343
 30
0.0
 11
-373.8229927007299
 21
-109.5742377153343
 31
0.0
  0
LINE
  5
184
330
3D
100
AcDbEntity
  8
1
  6
Continuous
 62
     7
100
AcDbLine
 10
-371.8229927007299
 20
-109.5742377153343
 30
0.0
 11
-367.8229927007299
 21
-109.5742377153343
 31
0.0
  0
LINE
  5
185
330
3D
100
AcDbEntity
  8
1
  6
Continuous
 62
     7
100
AcDbLine
 10
-371.8229927007299
 20
-106.9742377153343
 30
0.0
 11
-371.8229927007299
 21
-109.5742377153343
 31
0.0
  0
LINE
  5
186
330
3D
100
AcDbEntity
  8
1
  6
Continuous
 62
     7
100
AcDbLine
 10
-373.8229927007299
 20
-106.9742377153343
 30
0.0
 11
-371.8229927007299
 21
-106.9742377153343
 31
0.0
  0
LINE
  5
187
330
3D
100
AcDbEntity
  8
1
  6
Continuous
 62
     7
100
AcDbLine
 10
-373.8229927007299
 20
-106.6742377153343
 30
0.0
 11
-377.0472567694418
 21
-106.6742377153343
 31
0.0
  0
LINE
  5
188
330
3D
100
AcDbEntity
  8
1
  6
Continuous
 62
     7
100
AcDbLine
 10
-373.8229927007299
 20
-106.6742377153343
 30
0.0
 11
-373.8229927007299
 21
-106.9742377153343
 31
0.0
  0
LINE
  5
189
330
3D
100
AcDbEntity
  8
1
  6
Continuous
 62
     7
100
AcDbLine
 10
-373.610860666374
 20
-106.6742377153343
 30
0.0
 11
-373.8229927007299
 21
-106.6742377153343
 31
0.0
  0
LINE
  5
18A
330
3D
100
AcDbEntity
  8
1
  6
Continuous
 62
     7
100
AcDbLine
 10
-373.610860666374
 20
-106.9742377153343
 30
0.0
 11
-373.610860666374
 21
-106.6742377153343
 31
0.0
  0
LINE
  5
18B
330
3D
100
AcDbEntity
  8
1
  6
Continuous
 62
     7
100
AcDbLine
 10
-371.8229927007299
 20
-106.6742377153343
 30
0.0
 11
-372.0351247350859
 21
-106.6742377153343
 31
0.0
  0
LINE
  5
18C
330
3D
100
AcDbEntity
  8
1
  6
Continuous
 62
     7
100
AcDbLine
 10
-371.8229927007299
 20
-106.6742377153343
 30
0.0
 11
-371.8229927007299
 21
-106.9742377153343
 31
0.0
  0
LINE
  5
18D
330
3D
100
AcDbEntity
  8
1
  6
Continuous
 62
     7
100
AcDbLine
 10
-372.0351247350859
 20
-106.6742377153343
 30
0.0
 11
-372.0351247350859
 21
-106.9742377153343
 31
0.0
  0
LINE
  5
18E
330
3D
100
AcDbEntity
  8
1
  6
Continuous
 62
     7
100
AcDbLine
 10
-367.8229927007299
 20
-106.6742377153343
 30
0.0
 11
-371.8229927007299
 21
-106.6742377153343
 31
0.0
  0
LINE
  5
18F
330
3D
100
AcDbEntity
  8
1
  6
Continuous
 62
     7
100
AcDbLine
 10
-367.8229927007299
 20
-109.5742377153343
 30
0.0
 11
-367.8229927007299
 21
-106.6742377153343
 31
0.0
  0
LINE
  5
190
330
3D
100
AcDbEntity
  8
1
  6
Continuous
 62
     7
100
AcDbLine
 10
-377.8229927007299
 20
-140.1304405143745
 30
0.0
 11
-377.8229927007299
 21
-144.1304405143745
 31
0.0
  0
LINE
  5
191
330
3D
100
AcDbEntity
  8
1
  6
Continuous
 62
     7
100
AcDbLine
 10
-373.8229927007299
 20
-136.1304405143745
 30
0.0
 11
-377.8229927007299
 21
-140.1304405143745
 31
0.0
  0
LINE
  5
192
330
3D
100
AcDbEntity
  8
1
  6
Continuous
 62
     7
100
AcDbLine
 10
-367.8229927007299
 20
-140.1304405143745
 30
0.0
 11
-367.8229927007299
 21
-144.1304405143745
 31
0.0
  0
LINE
  5
193
330
3D
100
AcDbEntity
  8
1
  6
Continuous
 62
     7
100
AcDbLine
 10
-371.8229927007299
 20
-136.1304405143745
 30
0.0
 11
-367.8229927007299
 21
-140.1304405143745
 31
0.0
  0
LINE
  5
194
330
3D
100
AcDbEntity
  8
1
  6
Continuous
 62
     7
100
AcDbLine
 10
-373.8229927007299
 20
-136.1304405143745
 30
0.0
 11
-371.8229927007299
 21
-136.1304405143745
 31
0.0
  0
LINE
  5
195
330
3D
100
AcDbEntity
  8
1
  6
Continuous
 62
     7
100
AcDbLine
 10
-377.8229927007299
 20
-144.1304405143745
 30
0.0
 11
-377.8229927007299
 21
-148.1304405143745
 31
0.0
  0
LINE
  5
196
330
3D
100
AcDbEntity
  8
1
  6
Continuous
 62
     7
100
AcDbLine
 10
-377.8229927007299
 20
-148.1304405143745
 30
0.0
 11
-373.8229927007299
 21
-152.1304405143745
 31
0.0
  0
LINE
  5
197
330
3D
100
AcDbEntity
  8
1
  6
Continuous
 62
     7
100
AcDbLine
 10
-367.8229927007299
 20
-144.1304405143745
 30
0.0
 11
-367.8229927007299
 21
-148.1304405143745
 31
0.0
  0
LINE
  5
198
330
3D
100
AcDbEntity
  8
1
  6
Continuous
 62
     7
100
AcDbLine
 10
-367.8229927007299
 20
-148.1304405143745
 30
0.0
 11
-371.8229927007299
 21
-152.1304405143745
 31
0.0
  0
LINE
  5
199
330
3D
100
AcDbEntity
  8
1
  6
Continuous
 62
     7
100
AcDbLine
 10
-371.8229927007299
 20
-152.1304405143745
 30
0.0
 11
-373.8229927007299
 21
-152.1304405143745
 31
0.0
  0
LINE
  5
19A
330
3D
100
AcDbEntity
  8
1
  6
Continuous
 62
     7
100
AcDbLine
 10
-377.0472567694418
 20
-109.5742377153343
 30
0.0
 11
-373.8229927007299
 21
-109.5742377153343
 31
0.0
  0
CIRCLE
  5
19B
330
3D
100
AcDbEntity
  8
1
  6
Continuous
 62
     7
100
AcDbCircle
 10
-372.8229927007299
 20
-144.1304405143745
 30
0.0
 40
2.5
  0
CIRCLE
  5
19C
330
3D
100
AcDbEntity
  8
1
  6
Continuous
 62
     7
100
AcDbCircle
 10
-372.8229927007299
 20
-144.1304405143745
 30
0.0
 40
2.30000000000001
  0
ENDBLK
  5
3F
330
3D
100
AcDbEntity
  8
0
100
AcDbBlockEnd
  0
BLOCK
  5
41
330
40
100
AcDbEntity
  8
0
100
AcDbBlockBegin
  2
_______t__________M__________M5X12
 70
     0
 10
-321.8229927007298
 20
22.0347254987218
 30
0.0
  3
_______t__________M__________M5X12
  1

  0
LINE
  5
19D
330
40
100
AcDbEntity
  8
1
  6
Continuous
 62
     7
100
AcDbLine
 10
-370.3229927007299
 20
-112.0956065274708
 30
0.0
 11
-370.3229927007299
 21
-109.5742377153343
 31
0.0
  0
LINE
  5
19E
330
40
100
AcDbEntity
  8
1
  6
Continuous
 62
     7
100
AcDbLine
 10
-370.3229927007299
 20
-112.0956065274708
 30
0.0
 11
-375.3229927007299
 21
-112.0956065274708
 31
0.0
  0
LINE
  5
19F
330
40
100
AcDbEntity
  8
1
  6
Continuous
 62
     7
100
AcDbLine
 10
-370.7559927007299
 20
-109.5742377153343
 30
0.0
 11
-370.7559927007299
 21
-112.0956065274708
 31
0.0
  0
LINE
  5
1A0
330
40
100
AcDbEntity
  8
1
  6
Continuous
 62
     7
100
AcDbLine
 10
-374.8899927007299
 20
-109.5742377153343
 30
0.0
 11
-374.8899927007299
 21
-112.0956065274708
 31
0.0
  0
LINE
  5
1A1
330
40
100
AcDbEntity
  8
1
  6
Continuous
 62
     7
100
AcDbLine
 10
-370.3229927007299
 20
-106.6742377153343
 30
0.0
 11
-370.3229927007299
 21
-103.2956065274708
 31
0.0
  0
LINE
  5
1A2
330
40
100
AcDbEntity
  8
1
  6
Continuous
 62
     7
100
AcDbLine
 10
-375.3229927007299
 20
-109.5742377153343
 30
0.0
 11
-375.3229927007299
 21
-112.0956065274708
 31
0.0
  0
LINE
  5
1A3
330
40
100
AcDbEntity
  8
1
  6
Continuous
 62
     7
100
AcDbLine
 10
-370.7559927007299
 20
-103.2956065274708
 30
0.0
 11
-370.7559927007299
 21
-106.6742377153343
 31
0.0
  0
LINE
  5
1A4
330
40
100
AcDbEntity
  8
1
  6
Continuous
 62
     7
100
AcDbLine
 10
-374.8899927007299
 20
-103.2956065274708
 30
0.0
 11
-374.8899927007299
 21
-106.6742377153343
 31
0.0
  0
LINE
  5
1A5
330
40
100
AcDbEntity
  8
1
  6
Continuous
 62
     7
100
AcDbLine
 10
-375.3229927007299
 20
-103.2956065274708
 30
0.0
 11
-375.3229927007299
 21
-106.6742377153343
 31
0.0
  0
LINE
  5
1A6
330
40
100
AcDbEntity
  8
1
  6
Continuous
 62
     7
100
AcDbLine
 10
-373.2875088297622
 20
-60.77467707166269
 30
0.0
 11
-372.3584765716976
 21
-60.77467707166269
 31
0.0
  0
LINE
  5
1A7
330
40
100
AcDbEntity
  8
1
  6
Continuous
 62
     7
100
AcDbLine
 10
-372.3584765716976
 20
-60.77467707166269
 30
0.0
 11
-372.0487991523429
 21
-62.3230641684369
 31
0.0
  0
LINE
  5
1A8
330
40
100
AcDbEntity
  8
1
  6
Continuous
 62
     7
100
AcDbLine
 10
-372.0487991523429
 20
-62.3230641684369
 30
0.0
 11
-370.5004120555686
 21
-62.63274158779169
 31
0.0
  0
LINE
  5
1A9
330
40
100
AcDbEntity
  8
1
  6
Continuous
 62
     7
100
AcDbLine
 10
-370.5004120555686
 20
-62.63274158779169
 30
0.0
 11
-370.5004120555686
 21
-63.56177384585627
 31
0.0
  0
LINE
  5
1AA
330
40
100
AcDbEntity
  8
1
  6
Continuous
 62
     7
100
AcDbLine
 10
-370.5004120555686
 20
-63.56177384585627
 30
0.0
 11
-372.0487991523429
 21
-63.87145126521104
 31
0.0
  0
LINE
  5
1AB
330
40
100
AcDbEntity
  8
1
  6
Continuous
 62
     7
100
AcDbLine
 10
-372.0487991523429
 20
-63.87145126521104
 30
0.0
 11
-372.3584765716976
 21
-65.41983836198525
 31
0.0
  0
LINE
  5
1AC
330
40
100
AcDbEntity
  8
1
  6
Continuous
 62
     7
100
AcDbLine
 10
-372.3584765716976
 20
-65.41983836198525
 30
0.0
 11
-373.2875088297622
 21
-65.41983836198525
 31
0.0
  0
LINE
  5
1AD
330
40
100
AcDbEntity
  8
1
  6
Continuous
 62
     7
100
AcDbLine
 10
-373.2875088297622
 20
-65.41983836198525
 30
0.0
 11
-373.597186249117
 21
-63.87145126521104
 31
0.0
  0
LINE
  5
1AE
330
40
100
AcDbEntity
  8
1
  6
Continuous
 62
     7
100
AcDbLine
 10
-373.597186249117
 20
-63.87145126521104
 30
0.0
 11
-375.1455733458912
 21
-63.56177384585627
 31
0.0
  0
LINE
  5
1AF
330
40
100
AcDbEntity
  8
1
  6
Continuous
 62
     7
100
AcDbLine
 10
-375.1455733458912
 20
-63.56177384585627
 30
0.0
 11
-375.1455733458912
 21
-62.63274158779169
 31
0.0
  0
LINE
  5
1B0
330
40
100
AcDbEntity
  8
1
  6
Continuous
 62
     7
100
AcDbLine
 10
-375.1455733458912
 20
-62.63274158779169
 30
0.0
 11
-373.597186249117
 21
-62.3230641684369
 31
0.0
  0
LINE
  5
1B1
330
40
100
AcDbEntity
  8
1
  6
Continuous
 62
     7
100
AcDbLine
 10
-373.597186249117
 20
-62.3230641684369
 30
0.0
 11
-373.2875088297622
 21
-60.77467707166269
 31
0.0
  0
LINE
  5
1B2
330
40
100
AcDbEntity
  8
1
  6
DOT_CENTER
 62
     2
100
AcDbLine
 10
-372.8229927007299
 20
-56.95471155883681
 30
0.0
 11
-372.8229927007299
 21
-69.23980387481114
 31
0.0
  0
CIRCLE
  5
1B3
330
40
100
AcDbEntity
  8
1
  6
Continuous
 62
     7
100
AcDbCircle
 10
-372.8229927007299
 20
-63.09725771682398
 30
0.0
 40
4.0
  0
ENDBLK
  5
42
330
40
100
AcDbEntity
  8
0
100
AcDbBlockEnd
  0
BLOCK
  5
45
330
43
100
AcDbEntity
  8
0
100
AcDbBlockBegin
  2
_1
 70
     0
 10
12.0501824817518
 20
49.0
 30
0.0
  3
_1
  1

  0
INSERT
  5
44
330
43
100
AcDbEntity
  8
1
100
AcDbBlockReference
  2
_______t__________M__________M5X12
 10
-321.8229927007298
 20
22.0347254987218
 30
0.0
  0
LINE
  5
1B4
330
43
100
AcDbEntity
  8
1
  6
Continuous
 62
     7
100
AcDbLine
 10
-405.3229927007299
 20
-103.2956065274708
 30
0.0
 11
-406.3229927007299
 21
-103.2956065274708
 31
0.0
  0
LINE
  5
1B5
330
43
100
AcDbEntity
  8
1
  6
Continuous
 62
     7
100
AcDbLine
 10
-405.3229927007299
 20
-101.2956065274708
 30
0.0
 11
-367.3229927007299
 21
-101.2956065274708
 31
0.0
  0
LINE
  5
1B6
330
43
100
AcDbEntity
  8
1
  6
Continuous
 62
     7
100
AcDbLine
 10
-405.3229927007299
 20
-101.2956065274708
 30
0.0
 11
-405.3229927007299
 21
-103.2956065274708
 31
0.0
  0
LINE
  5
1B7
330
43
100
AcDbEntity
  8
1
  6
Continuous
 62
     7
100
AcDbLine
 10
-367.3229927007299
 20
-101.2956065274708
 30
0.0
 11
-366.3229927007299
 21
-101.2956065274708
 31
0.0
  0
LINE
  5
1B8
330
43
100
AcDbEntity
  8
1
  6
Continuous
 62
     7
100
AcDbLine
 10
-367.3229927007299
 20
-103.2956065274708
 30
0.0
 11
-391.7479927007299
 21
-103.2956065274708
 31
0.0
  0
LINE
  5
1B9
330
43
100
AcDbEntity
  8
1
  6
Continuous
 62
     7
100
AcDbLine
 10
-367.3229927007299
 20
-101.2956065274708
 30
0.0
 11
-367.3229927007299
 21
-103.2956065274708
 31
0.0
  0
LINE
  5
1BA
330
43
100
AcDbEntity
  8
1
  6
DOT_CENTER
 62
     2
100
AcDbLine
 10
-372.8229927007299
 20
-134.5445093691866
 30
0.0
 11
-372.8229927007299
 21
-153.7163716595624
 31
0.0
  0
LINE
  5
1BB
330
43
100
AcDbEntity
  8
1
  6
DOT_CENTER
 62
     2
100
AcDbLine
 10
-360.1478102189781
 20
-63.09725771682398
 30
0.0
 11
-412.7937956204379
 21
-63.09725771682398
 31
0.0
  0
LINE
  5
1BC
330
43
100
AcDbEntity
  8
1
  6
Continuous
 62
     7
100
AcDbLine
 10
-405.3229927007299
 20
-68.497257716824
 30
0.0
 11
-408.3229927007299
 21
-68.497257716824
 31
0.0
  0
LINE
  5
1BD
330
43
100
AcDbEntity
  8
1
  6
Continuous
 62
     7
100
AcDbLine
 10
-405.3229927007299
 20
-71.09725771682398
 30
0.0
 11
-405.3229927007299
 21
-68.497257716824
 31
0.0
  0
LINE
  5
1BE
330
43
100
AcDbEntity
  8
1
  6
Continuous
 62
     7
100
AcDbLine
 10
-367.3229927007299
 20
-71.09725771682398
 30
0.0
 11
-405.3229927007299
 21
-71.09725771682398
 31
0.0
  0
LINE
  5
1BF
330
43
100
AcDbEntity
  8
1
  6
Continuous
 62
     7
100
AcDbLine
 10
-367.3229927007299
 20
-68.497257716824
 30
0.0
 11
-367.3229927007299
 21
-71.09725771682398
 31
0.0
  0
LINE
  5
1C0
330
43
100
AcDbEntity
  8
1
  6
Continuous
 62
     7
100
AcDbLine
 10
-364.3229927007299
 20
-68.497257716824
 30
0.0
 11
-367.3229927007299
 21
-68.497257716824
 31
0.0
  0
LINE
  5
1C1
330
43
100
AcDbEntity
  8
1
  6
Continuous
 62
     7
100
AcDbLine
 10
-364.3229927007299
 20
-57.69725771682398
 30
0.0
 11
-364.3229927007299
 21
-68.497257716824
 31
0.0
  0
LINE
  5
1C2
330
43
100
AcDbEntity
  8
1
  6
Continuous
 62
     7
100
AcDbLine
 10
-367.3229927007299
 20
-57.69725771682398
 30
0.0
 11
-364.3229927007299
 21
-57.69725771682398
 31
0.0
  0
LINE
  5
1C3
330
43
100
AcDbEntity
  8
1
  6
Continuous
 62
     7
100
AcDbLine
 10
-367.3229927007299
 20
-55.09725771682397
 30
0.0
 11
-367.3229927007299
 21
-57.69725771682398
 31
0.0
  0
LINE
  5
1C4
330
43
100
AcDbEntity
  8
1
  6
Continuous
 62
     7
100
AcDbLine
 10
-405.3229927007299
 20
-55.09725771682397
 30
0.0
 11
-367.3229927007299
 21
-55.09725771682397
 31
0.0
  0
LINE
  5
1C5
330
43
100
AcDbEntity
  8
1
  6
Continuous
 62
     7
100
AcDbLine
 10
-405.3229927007299
 20
-57.69725771682398
 30
0.0
 11
-405.3229927007299
 21
-55.09725771682397
 31
0.0
  0
LINE
  5
1C6
330
43
100
AcDbEntity
  8
1
  6
Continuous
 62
     7
100
AcDbLine
 10
-408.3229927007299
 20
-57.69725771682398
 30
0.0
 11
-405.3229927007299
 21
-57.69725771682398
 31
0.0
  0
LINE
  5
1C7
330
43
100
AcDbEntity
  8
1
  6
Continuous
 62
     7
100
AcDbLine
 10
-408.3229927007299
 20
-68.497257716824
 30
0.0
 11
-408.3229927007299
 21
-57.69725771682398
 31
0.0
  0
LINE
  5
1C8
330
43
100
AcDbEntity
  8
1
  6
DOT_CENTER
 62
     2
100
AcDbLine
 10
-396.8229927007299
 20
-57.02387745345018
 30
0.0
 11
-396.8229927007299
 21
-69.17063798019777
 31
0.0
  0
LINE
  5
1C9
330
43
100
AcDbEntity
  8
1
  6
DOT_CENTER
 62
     2
100
AcDbLine
 10
-383.8229927007299
 20
-60.51783595695898
 30
0.0
 11
-383.8229927007299
 21
-65.67667947668899
 31
0.0
  0
LINE
  5
1CA
330
43
100
AcDbEntity
  8
1
  6
Continuous
 62
     7
100
AcDbLine
 10
-406.3229927007299
 20
-111.2956065274708
 30
0.0
 11
-408.3229927007299
 21
-111.2956065274708
 31
0.0
  0
LINE
  5
1CB
330
43
100
AcDbEntity
  8
1
  6
Continuous
 62
     7
100
AcDbLine
 10
-406.3229927007299
 20
-103.2956065274708
 30
0.0
 11
-406.3229927007299
 21
-111.2956065274708
 31
0.0
  0
LINE
  5
1CC
330
43
100
AcDbEntity
  8
1
  6
Continuous
 62
     7
100
AcDbLine
 10
-391.7479927007299
 20
-103.2956065274708
 30
0.0
 11
-405.3229927007299
 21
-103.2956065274708
 31
0.0
  0
LINE
  5
1CD
330
43
100
AcDbEntity
  8
1
  6
Continuous
 62
     7
100
AcDbLine
 10
-366.3229927007299
 20
-106.2956065274708
 30
0.0
 11
-366.3229927007299
 21
-103.2956065274708
 31
0.0
  0
LINE
  5
1CE
330
43
100
AcDbEntity
  8
1
  6
Continuous
 62
     7
100
AcDbLine
 10
-364.3229927007299
 20
-106.2956065274708
 30
0.0
 11
-366.3229927007299
 21
-106.2956065274708
 31
0.0
  0
LINE
  5
1CF
330
43
100
AcDbEntity
  8
1
  6
Continuous
 62
     7
100
AcDbLine
 10
-406.3229927007299
 20
-101.2956065274708
 30
0.0
 11
-405.3229927007299
 21
-101.2956065274708
 31
0.0
  0
LINE
  5
1D0
330
43
100
AcDbEntity
  8
1
  6
Continuous
 62
     7
100
AcDbLine
 10
-408.3229927007299
 20
-111.2956065274708
 30
0.0
 11
-408.3229927007299
 21
-103.2956065274708
 31
0.0
  0
LINE
  5
1D1
330
43
100
AcDbEntity
  8
1
  6
Continuous
 62
     7
100
AcDbLine
 10
-393.7479927007299
 20
-107.7956065274708
 30
0.0
 11
-399.8979927007299
 21
-107.7956065274708
 31
0.0
  0
LINE
  5
1D2
330
43
100
AcDbEntity
  8
1
  6
Continuous
 62
     7
100
AcDbLine
 10
-391.7479927007299
 20
-103.2956065274708
 30
0.0
 11
-391.7479927007299
 21
-105.7956065274708
 31
0.0
  0
LINE
  5
1D3
330
43
100
AcDbEntity
  8
1
  6
Continuous
 62
     7
100
AcDbLine
 10
-366.3229927007299
 20
-103.2956065274708
 30
0.0
 11
-367.3229927007299
 21
-103.2956065274708
 31
0.0
  0
LINE
  5
1D4
330
43
100
AcDbEntity
  8
1
  6
DOTTED
 62
     7
100
AcDbLine
 10
-393.7479927007299
 20
-105.7956065274708
 30
0.0
 11
-399.8979927007299
 21
-105.7956065274708
 31
0.0
  0
LINE
  5
1D5
330
43
100
AcDbEntity
  8
1
  6
DOTTED
 62
     7
100
AcDbLine
 10
-393.7479927007299
 20
-103.2956065274708
 30
0.0
 11
-393.7479927007299
 21
-105.7956065274708
 31
0.0
  0
LINE
  5
1D6
330
43
100
AcDbEntity
  8
1
  6
DOTTED
 62
     7
100
AcDbLine
 10
-399.8979927007299
 20
-103.2956065274708
 30
0.0
 11
-399.8979927007299
 21
-105.7956065274708
 31
0.0
  0
LINE
  5
1D7
330
43
100
AcDbEntity
  8
1
  6
DOT_CENTER
 62
     2
100
AcDbLine
 10
-396.8229927007299
 20
-100.2198680159278
 30
0.0
 11
-396.8229927007299
 21
-109.0115133348168
 31
0.0
  0
LINE
  5
1D8
330
43
100
AcDbEntity
  8
1
  6
DOT_CENTER
 62
     2
100
AcDbLine
 10
-372.8229927007299
 20
-100.3741074074872
 30
0.0
 11
-372.8229927007299
 21
-113.384331588033
 31
0.0
  0
LINE
  5
1D9
330
43
100
AcDbEntity
  8
1
  6
Continuous
 62
     7
100
AcDbLine
 10
-408.3229927007299
 20
-138.7304405143745
 30
0.0
 11
-405.3229927007299
 21
-138.7304405143745
 31
0.0
  0
LINE
  5
1DA
330
43
100
AcDbEntity
  8
1
  6
Continuous
 62
     7
100
AcDbLine
 10
-405.3229927007299
 20
-138.7304405143745
 30
0.0
 11
-405.3229927007299
 21
-136.1304405143745
 31
0.0
  0
LINE
  5
1DB
330
43
100
AcDbEntity
  8
1
  6
Continuous
 62
     7
100
AcDbLine
 10
-405.3229927007299
 20
-136.1304405143745
 30
0.0
 11
-367.3229927007299
 21
-136.1304405143745
 31
0.0
  0
LINE
  5
1DC
330
43
100
AcDbEntity
  8
1
  6
Continuous
 62
     7
100
AcDbLine
 10
-367.3229927007299
 20
-136.1304405143745
 30
0.0
 11
-367.3229927007299
 21
-138.7304405143745
 31
0.0
  0
LINE
  5
1DD
330
43
100
AcDbEntity
  8
1
  6
Continuous
 62
     7
100
AcDbLine
 10
-367.3229927007299
 20
-138.7304405143745
 30
0.0
 11
-364.3229927007299
 21
-138.7304405143745
 31
0.0
  0
LINE
  5
1DE
330
43
100
AcDbEntity
  8
1
  6
Continuous
 62
     7
100
AcDbLine
 10
-364.3229927007299
 20
-149.5304405143745
 30
0.0
 11
-367.3229927007299
 21
-149.5304405143745
 31
0.0
  0
LINE
  5
1DF
330
43
100
AcDbEntity
  8
1
  6
Continuous
 62
     7
100
AcDbLine
 10
-367.3229927007299
 20
-149.5304405143745
 30
0.0
 11
-367.3229927007299
 21
-152.1304405143745
 31
0.0
  0
LINE
  5
1E0
330
43
100
AcDbEntity
  8
1
  6
Continuous
 62
     7
100
AcDbLine
 10
-367.3229927007299
 20
-152.1304405143745
 30
0.0
 11
-405.3229927007299
 21
-152.1304405143745
 31
0.0
  0
LINE
  5
1E1
330
43
100
AcDbEntity
  8
1
  6
Continuous
 62
     7
100
AcDbLine
 10
-405.3229927007299
 20
-152.1304405143745
 30
0.0
 11
-405.3229927007299
 21
-149.5304405143745
 31
0.0
  0
LINE
  5
1E2
330
43
100
AcDbEntity
  8
1
  6
Continuous
 62
     7
100
AcDbLine
 10
-405.3229927007299
 20
-149.5304405143745
 30
0.0
 11
-408.3229927007299
 21
-149.5304405143745
 31
0.0
  0
LINE
  5
1E3
330
43
100
AcDbEntity
  8
1
  6
Continuous
 62
     7
100
AcDbLine
 10
-408.3229927007299
 20
-149.5304405143745
 30
0.0
 11
-408.3229927007299
 21
-138.7304405143745
 31
0.0
  0
LINE
  5
1E4
330
43
100
AcDbEntity
  8
1
  6
Continuous
 62
     7
100
AcDbLine
 10
-406.3229927007299
 20
-138.7304405143745
 30
0.0
 11
-406.3229927007299
 21
-149.5304405143745
 31
0.0
  0
LINE
  5
1E5
330
43
100
AcDbEntity
  8
1
  6
Continuous
 62
     7
100
AcDbLine
 10
-364.3229927007299
 20
-138.7304405143745
 30
0.0
 11
-364.3229927007299
 21
-149.5304405143745
 31
0.0
  0
LINE
  5
1E6
330
43
100
AcDbEntity
  8
1
  6
Continuous
 62
     7
100
AcDbLine
 10
-366.3229927007299
 20
-138.7304405143745
 30
0.0
 11
-366.3229927007299
 21
-149.5304405143745
 31
0.0
  0
LINE
  5
1E7
330
43
100
AcDbEntity
  8
1
  6
DOT_CENTER
 62
     2
100
AcDbLine
 10
-412.7937956204379
 20
-144.1304405143745
 30
0.0
 11
-360.1478102189781
 21
-144.1304405143745
 31
0.0
  0
LINE
  5
1E8
330
43
100
AcDbEntity
  8
1
  6
Continuous
 62
     7
100
AcDbLine
 10
-364.3229927007299
 20
-103.2956065274708
 30
0.0
 11
-364.3229927007299
 21
-106.2956065274708
 31
0.0
  0
ARC
  5
1E9
330
43
100
AcDbEntity
  8
1
  6
Continuous
 62
     7
100
AcDbCircle
 10
-366.3229927007299
 20
-103.2956065274708
 30
0.0
 40
2.0
100
AcDbArc
 50
0.0
 51
90.0
  0
ARC
  5
1EA
330
43
100
AcDbEntity
  8
1
  6
Continuous
 62
     7
100
AcDbCircle
 10
-406.3229927007299
 20
-103.2956065274708
 30
0.0
 40
2.0
100
AcDbArc
 50
90.0
 51
180.0
  0
CIRCLE
  5
1EB
330
43
100
AcDbEntity
  8
1
  6
Continuous
 62
     7
100
AcDbCircle
 10
-396.8229927007299
 20
-63.097257716824
 30
0.0
 40
3.074999999999988
  0
CIRCLE
  5
1EC
330
43
100
AcDbEntity
  8
1
  6
Continuous
 62
     7
100
AcDbCircle
 10
-383.8229927007299
 20
-63.09725771682398
 30
0.0
 40
2.0
  0
ARC
  5
1ED
330
43
100
AcDbEntity
  8
1
  6
Continuous
 62
     7
100
AcDbCircle
 10
-399.8979927007299
 20
-105.7956065274708
 30
0.0
 40
1.999999999999985
100
AcDbArc
 50
-117.5485459594847
 51
-90.0
  0
ARC
  5
1EE
330
43
100
AcDbEntity
  8
1
  6
Continuous
 62
     7
100
AcDbCircle
 10
-393.7479927007299
 20
-105.7956065274708
 30
0.0
 40
2.0
100
AcDbArc
 50
-90.0
 51
0.0
  0
ARC
  5
1EF
330
43
100
AcDbEntity
  8
1
  6
DOTTED
 62
     7
100
AcDbCircle
 10
-401.8979927007299
 20
-103.2956065274708
 30
0.0
 40
2.0
100
AcDbArc
 50
0.0
 51
90.0
  0
ARC
  5
1F0
330
43
100
AcDbEntity
  8
1
  6
DOTTED
 62
     7
100
AcDbCircle
 10
-391.7479927007299
 20
-103.2956065274708
 30
0.0
 40
2.0
100
AcDbArc
 50
90.0
 51
180.0
  0
ENDBLK
  5
46
330
43
100
AcDbEntity
  8
0
100
AcDbBlockEnd
  0
BLOCK
  5
20F
330
205
100
AcDbEntity
  8
0
100
AcDbBlockBegin
  2
*D7
 70
     1
 10
0.0
 20
0.0
 30
0.0
  3
*D7
  1

  0
LINE
  5
206
330
205
100
AcDbEntity
  8
1
  6
Continuous
 62
     2
100
AcDbLine
 10
-405.3229927007299
 20
-78.09725771682399
 30
0.0
 11
-367.3229927007299
 21
-78.09725771682399
 31
0.0
  0
LINE
  5
207
330
205
100
AcDbEntity
  8
1
  6
Continuous
 62
     2
100
AcDbLine
 10
-367.3229927007299
 20
-71.59725771682399
 30
0.0
 11
-367.3229927007299
 21
-78.59725771682398
 31
0.0
  0
LINE
  5
208
330
205
100
AcDbEntity
  8
1
  6
Continuous
 62
     2
100
AcDbLine
 10
-405.3229927007299
 20
-71.59725771682399
 30
0.0
 11
-405.3229927007299
 21
-78.59725771682398
 31
0.0
  0
LINE
  5
209
330
205
100
AcDbEntity
  8
1
 62
     2
100
AcDbLine
 10
-367.3229927007299
 20
-78.09725771682399
 30
0.0
 11
-368.5479927007299
 21
-78.42549547755209
 31
0.0
  0
LINE
  5
20A
330
205
100
AcDbEntity
  8
1
 62
     2
100
AcDbLine
 10
-367.3229927007299
 20
-78.09725771682399
 30
0.0
 11
-368.5479927007299
 21
-77.76901995609584
 31
0.0
  0
LINE
  5
20B
330
205
100
AcDbEntity
  8
1
 62
     2
100
AcDbLine
 10
-405.3229927007299
 20
-78.09725771682399
 30
0.0
 11
-404.0979927007298
 21
-77.76901995609584
 31
0.0
  0
LINE
  5
20C
330
205
100
AcDbEntity
  8
1
 62
     2
100
AcDbLine
 10
-405.3229927007299
 20
-78.09725771682399
 30
0.0
 11
-404.0979927007298
 21
-78.42549547755209
 31
0.0
  0
MTEXT
  5
20E
330
205
100
AcDbEntity
  8
1
 62
     3
100
AcDbMText
 10
-387.2417427007299
 20
-77.59725771682399
 30
0.0
 40
1.75
 41
0.0
 71
     7
 72
     1
  1
38
  7
CONVERTER_5
 11
0.999999999997062
 21
0.0000024240684055
 31
0.0
 73
     1
 44
0.6002400960384202
1001
ACAD
1000
MTEXTBEGIN
1070
    73
1070
     1
1070
    44
1040
0.6002400960384202
1070
    74
1070
     0
1000
MTEXTEND
  0
ENDBLK
  5
210
330
205
100
AcDbEntity
  8
0
100
AcDbBlockEnd
  0
BLOCK
  5
212
330
211
100
AcDbEntity
  8
0
100
AcDbBlockBegin
  2
_Open30
 70
     0
 10
0.0
 20
0.0
 30
0.0
  3
_Open30
  1

  0
LINE
  5
214
330
211
100
AcDbEntity
  8
0
  6
ByBlock
 62
     0
370
    -2
100
AcDbLine
 10
-1.0
 20
0.267949
 30
0.0
 11
0.0
 21
0.0
 31
0.0
  0
LINE
  5
215
330
211
100
AcDbEntity
  8
0
  6
ByBlock
 62
     0
370
    -2
100
AcDbLine
 10
0.0
 20
0.0
 30
0.0
 11
-1.0
 21
-0.267949
 31
0.0
  0
LINE
  5
216
330
211
100
AcDbEntity
  8
0
  6
ByBlock
 62
     0
370
    -2
100
AcDbLine
 10
0.0
 20
0.0
 30
0.0
 11
-1.0
 21
0.0
 31
0.0
  0
ENDBLK
  5
213
330
211
100
AcDbEntity
  8
0
100
AcDbBlockEnd
  0
BLOCK
  5
222
330
219
100
AcDbEntity
  8
0
100
AcDbBlockBegin
  2
*D9
 70
     1
 10
0.0
 20
0.0
 30
0.0
  3
*D9
  1

  0
LINE
  5
21A
330
219
100
AcDbEntity
  8
1
  6
Continuous
 62
     2
100
AcDbLine
 10
-408.3229927007299
 20
-44.59725771682397
 30
0.0
 11
-364.3229927007299
 21
-44.59725771682397
 31
0.0
  0
LINE
  5
21B
330
219
100
AcDbEntity
  8
1
  6
Continuous
 62
     2
100
AcDbLine
 10
-364.3229927007299
 20
-57.19725771682398
 30
0.0
 11
-364.3229927007299
 21
-44.09725771682397
 31
0.0
  0
LINE
  5
21C
330
219
100
AcDbEntity
  8
1
  6
Continuous
 62
     2
100
AcDbLine
 10
-408.3229927007299
 20
-57.19725771682398
 30
0.0
 11
-408.3229927007299
 21
-44.09725771682397
 31
0.0
  0
LINE
  5
21D
330
219
100
AcDbEntity
  8
1
 62
     2
100
AcDbLine
 10
-364.3229927007299
 20
-44.59725771682397
 30
0.0
 11
-365.5479927007299
 21
-44.92549547755209
 31
0.0
  0
LINE
  5
21E
330
219
100
AcDbEntity
  8
1
 62
     2
100
AcDbLine
 10
-364.3229927007299
 20
-44.59725771682397
 30
0.0
 11
-365.5479927007299
 21
-44.26901995609584
 31
0.0
  0
LINE
  5
21F
330
219
100
AcDbEntity
  8
1
 62
     2
100
AcDbLine
 10
-408.3229927007299
 20
-44.59725771682397
 30
0.0
 11
-407.0979927007298
 21
-44.26901995609585
 31
0.0
  0
LINE
  5
220
330
219
100
AcDbEntity
  8
1
 62
     2
100
AcDbLine
 10
-408.3229927007299
 20
-44.59725771682397
 30
0.0
 11
-407.0979927007298
 21
-44.92549547755209
 31
0.0
  0
MTEXT
  5
221
330
219
100
AcDbEntity
  8
1
 62
     3
100
AcDbMText
 10
-387.2417427007299
 20
-44.09725771682397
 30
0.0
 40
1.75
 41
0.0
 71
     7
 72
     1
  1
44
  7
CONVERTER_5
 11
0.999999999997062
 21
0.0000024240684055
 31
0.0
 73
     1
 44
0.6002400960384202
1001
ACAD
1000
MTEXTBEGIN
1070
    73
1070
     1
1070
    44
1040
0.6002400960384202
1070
    74
1070
     0
1000
MTEXTEND
  0
ENDBLK
  5
223
330
219
100
AcDbEntity
  8
0
100
AcDbBlockEnd
  0
BLOCK
  5
22F
330
226
100
AcDbEntity
  8
0
100
AcDbBlockBegin
  2
*D10
 70
     1
 10
0.0
 20
0.0
 30
0.0
  3
*D10
  1

  0
LINE
  5
227
330
226
100
AcDbEntity
  8
1
  6
Continuous
 62
     2
100
AcDbLine
 10
-377.8229927007299
 20
-162.6304405143745
 30
0.0
 11
-367.8229927007299
 21
-162.6304405143745
 31
0.0
  0
LINE
  5
228
330
226
100
AcDbEntity
  8
1
  6
Continuous
 62
     2
100
AcDbLine
 10
-367.8229927007299
 20
-148.6304405143745
 30
0.0
 11
-367.8229927007299
 21
-163.1304405143745
 31
0.0
  0
LINE
  5
229
330
226
100
AcDbEntity
  8
1
  6
Continuous
 62
     2
100
AcDbLine
 10
-377.8229927007299
 20
-148.6304405143745
 30
0.0
 11
-377.8229927007299
 21
-163.1304405143745
 31
0.0
  0
LINE
  5
22A
330
226
100
AcDbEntity
  8
1
 62
     2
100
AcDbLine
 10
-367.8229927007299
 20
-162.6304405143745
 30
0.0
 11
-369.0479927007299
 21
-162.9586782751026
 31
0.0
  0
LINE
  5
22B
330
226
100
AcDbEntity
  8
1
 62
     2
100
AcDbLine
 10
-367.8229927007299
 20
-162.6304405143745
 30
0.0
 11
-369.0479927007299
 21
-162.3022027536464
 31
0.0
  0
LINE
  5
22C
330
226
100
AcDbEntity
  8
1
 62
     2
100
AcDbLine
 10
-377.8229927007299
 20
-162.6304405143745
 30
0.0
 11
-376.5979927007299
 21
-162.3022027536464
 31
0.0
  0
LINE
  5
22D
330
226
100
AcDbEntity
  8
1
 62
     2
100
AcDbLine
 10
-377.8229927007299
 20
-162.6304405143745
 30
0.0
 11
-376.5979927007299
 21
-162.9586782751026
 31
0.0
  0
MTEXT
  5
22E
330
226
100
AcDbEntity
  8
1
 62
     3
100
AcDbMText
 10
-373.5579927007299
 20
-162.1304405143745
 30
0.0
 40
1.75
 41
0.0
 71
     7
 72
     1
  1
10
  7
CONVERTER_5
 11
0.999999999997062
 21
0.0000024240684055
 31
0.0
 73
     1
 44
0.6002400960384202
1001
ACAD
1000
MTEXTBEGIN
1070
    73
1070
     1
1070
    44
1040
0.6002400960384202
1070
    74
1070
     0
1000
MTEXTEND
  0
ENDBLK
  5
230
330
226
100
AcDbEntity
  8
0
100
AcDbBlockEnd
  0
BLOCK
  5
23C
330
233
100
AcDbEntity
  8
0
100
AcDbBlockBegin
  2
*D11
 70
     1
 10
0.0
 20
0.0
 30
0.0
  3
*D11
  1

  0
LINE
  5
234
330
233
100
AcDbEntity
  8
1
  6
Continuous
 62
     2
100
AcDbLine
 10
-353.8229927007299
 20
-152.1304405143745
 30
0.0
 11
-353.8229927007299
 21
-136.1304405143745
 31
0.0
  0
LINE
  5
235
330
233
100
AcDbEntity
  8
1
  6
Continuous
 62
     2
100
AcDbLine
 10
-371.3229927007299
 20
-136.1304405143745
 30
0.0
 11
-353.3229927007299
 21
-136.1304405143745
 31
0.0
  0
LINE
  5
236
330
233
100
AcDbEntity
  8
1
  6
Continuous
 62
     2
100
AcDbLine
 10
-371.3229927007299
 20
-152.1304405143745
 30
0.0
 11
-353.3229927007299
 21
-152.1304405143745
 31
0.0
  0
LINE
  5
237
330
233
100
AcDbEntity
  8
1
 62
     2
100
AcDbLine
 10
-353.8229927007299
 20
-136.1304405143745
 30
0.0
 11
-353.4947549400018
 21
-137.3554405143745
 31
0.0
  0
LINE
  5
238
330
233
100
AcDbEntity
  8
1
 62
     2
100
AcDbLine
 10
-353.8229927007299
 20
-136.1304405143745
 30
0.0
 11
-354.1512304614581
 21
-137.3554405143745
 31
0.0
  0
LINE
  5
239
330
233
100
AcDbEntity
  8
1
 62
     2
100
AcDbLine
 10
-353.8229927007299
 20
-152.1304405143745
 30
0.0
 11
-354.1512304614581
 21
-150.9054405143745
 31
0.0
  0
LINE
  5
23A
330
233
100
AcDbEntity
  8
1
 62
     2
100
AcDbLine
 10
-353.8229927007299
 20
-152.1304405143745
 30
0.0
 11
-353.4947549400018
 21
-150.9054405143745
 31
0.0
  0
MTEXT
  5
23B
330
233
100
AcDbEntity
  8
1
 62
     3
100
AcDbMText
 10
-354.3229927007299
 20
-144.8654405143745
 30
0.0
 40
1.75
 41
0.0
 71
     7
 72
     1
  1
16
  7
CONVERTER_5
 11
0.0
 21
1.0
 31
0.0
 73
     1
 44
0.6002400960384202
1001
ACAD
1000
MTEXTBEGIN
1070
    73
1070
     1
1070
    44
1040
0.6002400960384202
1070
    74
1070
     0
1000
MTEXTEND
  0
ENDBLK
  5
23D
330
233
100
AcDbEntity
  8
0
100
AcDbBlockEnd
  0
BLOCK
  5
249
330
240
100
AcDbEntity
  8
0
100
AcDbBlockBegin
  2
*D12
 70
     1
 10
0.0
 20
0.0
 30
0.0
  3
*D12
  1

  0
LINE
  5
241
330
240
100
AcDbEntity
  8
1
  6
Continuous
 62
     2
100
AcDbLine
 10
-353.8229927007299
 20
-68.497257716824
 30
0.0
 11
-353.8229927007299
 21
-57.69725771682398
 31
0.0
  0
LINE
  5
242
330
240
100
AcDbEntity
  8
1
  6
Continuous
 62
     2
100
AcDbLine
 10
-363.8229927007299
 20
-57.69725771682398
 30
0.0
 11
-353.3229927007299
 21
-57.69725771682398
 31
0.0
  0
LINE
  5
243
330
240
100
AcDbEntity
  8
1
  6
Continuous
 62
     2
100
AcDbLine
 10
-363.8229927007299
 20
-68.497257716824
 30
0.0
 11
-353.3229927007299
 21
-68.497257716824
 31
0.0
  0
LINE
  5
244
330
240
100
AcDbEntity
  8
1
 62
     2
100
AcDbLine
 10
-353.8229927007299
 20
-57.69725771682398
 30
0.0
 11
-353.4947549400018
 21
-58.92225771682398
 31
0.0
  0
LINE
  5
245
330
240
100
AcDbEntity
  8
1
 62
     2
100
AcDbLine
 10
-353.8229927007299
 20
-57.69725771682398
 30
0.0
 11
-354.1512304614581
 21
-58.92225771682398
 31
0.0
  0
LINE
  5
246
330
240
100
AcDbEntity
  8
1
 62
     2
100
AcDbLine
 10
-353.8229927007299
 20
-68.497257716824
 30
0.0
 11
-354.1512304614581
 21
-67.27225771682403
 31
0.0
  0
LINE
  5
247
330
240
100
AcDbEntity
  8
1
 62
     2
100
AcDbLine
 10
-353.8229927007299
 20
-68.497257716824
 30
0.0
 11
-353.4947549400018
 21
-67.27225771682403
 31
0.0
  0
MTEXT
  5
248
330
240
100
AcDbEntity
  8
1
 62
     3
100
AcDbMText
 10
-354.3229927007299
 20
-64.597882716824
 30
0.0
 40
1.75
 41
0.0
 71
     7
 72
     1
  1
10.8
  7
CONVERTER_5
 11
0.0
 21
1.0
 31
0.0
 73
     1
 44
0.6002400960384202
1001
ACAD
1000
MTEXTBEGIN
1070
    73
1070
     1
1070
    44
1040
0.6002400960384202
1070
    74
1070
     0
1000
MTEXTEND
  0
ENDBLK
  5
24A
330
240
100
AcDbEntity
  8
0
100
AcDbBlockEnd
  0
BLOCK
  5
256
330
24D
100
AcDbEntity
  8
0
100
AcDbBlockBegin
  2
*D13
 70
     1
 10
0.0
 20
0.0
 30
0.0
  3
*D13
  1

  0
LINE
  5
24E
330
24D
100
AcDbEntity
  8
1
  6
Continuous
 62
     2
100
AcDbLine
 10
-353.8229927007299
 20
-106.2956065274708
 30
0.0
 11
-353.8229927007299
 21
-101.2956065274708
 31
0.0
  0
LINE
  5
24F
330
24D
100
AcDbEntity
  8
1
  6
Continuous
 62
     2
100
AcDbLine
 10
-365.8229927007299
 20
-101.2956065274708
 30
0.0
 11
-353.3229927007299
 21
-101.2956065274708
 31
0.0
  0
LINE
  5
250
330
24D
100
AcDbEntity
  8
1
  6
Continuous
 62
     2
100
AcDbLine
 10
-363.8229927007299
 20
-106.2956065274708
 30
0.0
 11
-353.3229927007299
 21
-106.2956065274708
 31
0.0
  0
LINE
  5
251
330
24D
100
AcDbEntity
  8
1
 62
     2
100
AcDbLine
 10
-353.8229927007299
 20
-106.2956065274708
 30
0.0
 11
-354.1512304614581
 21
-105.0706065274708
 31
0.0
  0
LINE
  5
252
330
24D
100
AcDbEntity
  8
1
 62
     2
100
AcDbLine
 10
-353.8229927007299
 20
-106.2956065274708
 30
0.0
 11
-353.4947549400018
 21
-105.0706065274708
 31
0.0
  0
LINE
  5
253
330
24D
100
AcDbEntity
  8
1
 62
     2
100
AcDbLine
 10
-353.8229927007299
 20
-101.2956065274708
 30
0.0
 11
-353.4947549400018
 21
-102.5206065274708
 31
0.0
  0
LINE
  5
254
330
24D
100
AcDbEntity
  8
1
 62
     2
100
AcDbLine
 10
-353.8229927007299
 20
-101.2956065274708
 30
0.0
 11
-354.1512304614581
 21
-102.5206065274708
 31
0.0
  0
MTEXT
  5
255
330
24D
100
AcDbEntity
  8
1
 62
     3
100
AcDbMText
 10
-354.3229927007299
 20
-104.1631065274708
 30
0.0
 40
1.75
 41
0.0
 71
     7
 72
     1
  1
5
  7
CONVERTER_5
 11
0.0
 21
1.0
 31
0.0
 73
     1
 44
0.6002400960384202
1001
ACAD
1000
MTEXTBEGIN
1070
    73
1070
     1
1070
    44
1040
0.6002400960384202
1070
    74
1070
     0
1000
MTEXTEND
  0
ENDBLK
  5
257
330
24D
100
AcDbEntity
  8
0
100
AcDbBlockEnd
  0
BLOCK
  5
263
330
25A
100
AcDbEntity
  8
0
100
AcDbBlockBegin
  2
*D14
 70
     1
 10
0.0
 20
0.0
 30
0.0
  3
*D14
  1

  0
LINE
  5
25B
330
25A
100
AcDbEntity
  8
1
  6
Continuous
 62
     2
100
AcDbLine
 10
-418.8229927007299
 20
-111.2956065274708
 30
0.0
 11
-418.8229927007299
 21
-101.2956065274708
 31
0.0
  0
LINE
  5
25C
330
25A
100
AcDbEntity
  8
1
  6
Continuous
 62
     2
100
AcDbLine
 10
-406.8229927007299
 20
-101.2956065274708
 30
0.0
 11
-419.3229927007299
 21
-101.2956065274708
 31
0.0
  0
LINE
  5
25D
330
25A
100
AcDbEntity
  8
1
  6
Continuous
 62
     2
100
AcDbLine
 10
-408.8229927007299
 20
-111.2956065274708
 30
0.0
 11
-419.3229927007299
 21
-111.2956065274708
 31
0.0
  0
LINE
  5
25E
330
25A
100
AcDbEntity
  8
1
 62
     2
100
AcDbLine
 10
-418.8229927007299
 20
-101.2956065274708
 30
0.0
 11
-418.4947549400018
 21
-102.5206065274708
 31
0.0
  0
LINE
  5
25F
330
25A
100
AcDbEntity
  8
1
 62
     2
100
AcDbLine
 10
-418.8229927007299
 20
-101.2956065274708
 30
0.0
 11
-419.1512304614581
 21
-102.5206065274708
 31
0.0
  0
LINE
  5
260
330
25A
100
AcDbEntity
  8
1
 62
     2
100
AcDbLine
 10
-418.8229927007299
 20
-111.2956065274708
 30
0.0
 11
-419.1512304614581
 21
-110.0706065274708
 31
0.0
  0
LINE
  5
261
330
25A
100
AcDbEntity
  8
1
 62
     2
100
AcDbLine
 10
-418.8229927007299
 20
-111.2956065274708
 30
0.0
 11
-418.4947549400018
 21
-110.0706065274708
 31
0.0
  0
MTEXT
  5
262
330
25A
100
AcDbEntity
  8
1
 62
     3
100
AcDbMText
 10
-419.3229927007299
 20
-107.0306065274708
 30
0.0
 40
1.75
 41
0.0
 71
     7
 72
     1
  1
10
  7
CONVERTER_5
 11
0.0
 21
1.0
 31
0.0
 73
     1
 44
0.6002400960384202
1001
ACAD
1000
MTEXTBEGIN
1070
    73
1070
     1
1070
    44
1040
0.6002400960384202
1070
    74
1070
     0
1000
MTEXTEND
  0
ENDBLK
  5
264
330
25A
100
AcDbEntity
  8
0
100
AcDbBlockEnd
  0
BLOCK
  5
270
330
267
100
AcDbEntity
  8
0
100
AcDbBlockBegin
  2
*D15
 70
     1
 10
0.0
 20
0.0
 30
0.0
  3
*D15
  1

  0
LINE
  5
268
330
267
100
AcDbEntity
  8
1
  6
Continuous
 62
     2
100
AcDbLine
 10
-415.3229927007298
 20
-105.7956065274708
 30
0.0
 11
-415.3229927007298
 21
-101.2956065274708
 31
0.0
  0
LINE
  5
269
330
267
100
AcDbEntity
  8
1
  6
Continuous
 62
     2
100
AcDbLine
 10
-406.8229927007299
 20
-101.2956065274708
 30
0.0
 11
-415.8229927007298
 21
-101.2956065274708
 31
0.0
  0
LINE
  5
26A
330
267
100
AcDbEntity
  8
1
  6
Continuous
 62
     2
100
AcDbLine
 10
-400.3979927007298
 20
-105.7956065274708
 30
0.0
 11
-415.8229927007298
 21
-105.7956065274708
 31
0.0
  0
LINE
  5
26B
330
267
100
AcDbEntity
  8
1
 62
     2
100
AcDbLine
 10
-415.3229927007298
 20
-105.7956065274708
 30
0.0
 11
-415.651230461458
 21
-104.5706065274708
 31
0.0
  0
LINE
  5
26C
330
267
100
AcDbEntity
  8
1
 62
     2
100
AcDbLine
 10
-415.3229927007298
 20
-105.7956065274708
 30
0.0
 11
-414.9947549400017
 21
-104.5706065274708
 31
0.0
  0
LINE
  5
26D
330
267
100
AcDbEntity
  8
1
 62
     2
100
AcDbLine
 10
-415.3229927007298
 20
-101.2956065274708
 30
0.0
 11
-414.9947549400017
 21
-102.5206065274708
 31
0.0
  0
LINE
  5
26E
330
267
100
AcDbEntity
  8
1
 62
     2
100
AcDbLine
 10
-415.3229927007298
 20
-101.2956065274708
 30
0.0
 11
-415.651230461458
 21
-102.5206065274708
 31
0.0
  0
MTEXT
  5
26F
330
267
100
AcDbEntity
  8
1
 62
     3
100
AcDbMText
 10
-415.8229927007298
 20
-104.6787315274708
 30
0.0
 40
1.75
 41
0.0
 71
     7
 72
     1
  1
4.5
  7
CONVERTER_5
 11
0.0
 21
1.0
 31
0.0
 73
     1
 44
0.6002400960384202
1001
ACAD
1000
MTEXTBEGIN
1070
    73
1070
     1
1070
    44
1040
0.6002400960384202
1070
    74
1070
     0
1000
MTEXTEND
  0
ENDBLK
  5
271
330
267
100
AcDbEntity
  8
0
100
AcDbBlockEnd
  0
BLOCK
  5
27D
330
274
100
AcDbEntity
  8
0
100
AcDbBlockBegin
  2
*D16
 70
     1
 10
0.0
 20
0.0
 30
0.0
  3
*D16
  1

  0
LINE
  5
275
330
274
100
AcDbEntity
  8
1
  6
Continuous
 62
     2
100
AcDbLine
 10
-399.8979927007299
 20
-94.29560652747079
 30
0.0
 11
-393.7479927007299
 21
-94.29560652747079
 31
0.0
  0
LINE
  5
276
330
274
100
AcDbEntity
  8
1
  6
Continuous
 62
     2
100
AcDbLine
 10
-393.7479927007299
 20
-102.7956065274708
 30
0.0
 11
-393.7479927007299
 21
-93.79560652747079
 31
0.0
  0
LINE
  5
277
330
274
100
AcDbEntity
  8
1
  6
Continuous
 62
     2
100
AcDbLine
 10
-399.8979927007299
 20
-102.7956065274708
 30
0.0
 11
-399.8979927007299
 21
-93.79560652747079
 31
0.0
  0
LINE
  5
278
330
274
100
AcDbEntity
  8
1
 62
     2
100
AcDbLine
 10
-393.7479927007299
 20
-94.29560652747079
 30
0.0
 11
-394.97299270073
 21
-94.62384428819893
 31
0.0
  0
LINE
  5
279
330
274
100
AcDbEntity
  8
1
 62
     2
100
AcDbLine
 10
-393.7479927007299
 20
-94.29560652747079
 30
0.0
 11
-394.97299270073
 21
-93.96736876674268
 31
0.0
  0
LINE
  5
27A
330
274
100
AcDbEntity
  8
1
 62
     2
100
AcDbLine
 10
-399.8979927007299
 20
-94.29560652747079
 30
0.0
 11
-398.6729927007299
 21
-93.96736876674268
 31
0.0
  0
LINE
  5
27B
330
274
100
AcDbEntity
  8
1
 62
     2
100
AcDbLine
 10
-399.8979927007299
 20
-94.29560652747079
 30
0.0
 11
-398.6729927007299
 21
-94.62384428819893
 31
0.0
  0
MTEXT
  5
27C
330
274
100
AcDbEntity
  8
1
 62
     3
100
AcDbMText
 10
-398.3236177007299
 20
-93.79560652747079
 30
0.0
 40
1.75
 41
0.0
 71
     7
 72
     1
  1
6.15
  7
CONVERTER_5
 11
0.999999999997062
 21
0.0000024240684055
 31
0.0
 73
     1
 44
0.6002400960384202
1001
ACAD
1000
MTEXTBEGIN
1070
    73
1070
     1
1070
    44
1040
0.6002400960384202
1070
    74
1070
     0
1000
MTEXTEND
  0
ENDBLK
  5
27E
330
274
100
AcDbEntity
  8
0
100
AcDbBlockEnd
  0
BLOCK
  5
28A
330
281
100
AcDbEntity
  8
0
100
AcDbBlockBegin
  2
*D17
 70
     1
 10
0.0
 20
0.0
 30
0.0
  3
*D17
  1

  0
LINE
  5
282
330
281
100
AcDbEntity
  8
1
  6
Continuous
 62
     2
100
AcDbLine
 10
-408.3229927007299
 20
-48.09725771682398
 30
0.0
 11
-396.8229927007299
 21
-48.09725771682398
 31
0.0
  0
LINE
  5
283
330
281
100
AcDbEntity
  8
1
  6
Continuous
 62
     2
100
AcDbLine
 10
-396.8229927007299
 20
-56.52387745345018
 30
0.0
 11
-396.8229927007299
 21
-47.59725771682397
 31
0.0
  0
LINE
  5
284
330
281
100
AcDbEntity
  8
1
  6
Continuous
 62
     2
100
AcDbLine
 10
-408.3229927007299
 20
-57.19725771682398
 30
0.0
 11
-408.3229927007299
 21
-47.59725771682397
 31
0.0
  0
LINE
  5
285
330
281
100
AcDbEntity
  8
1
 62
     2
100
AcDbLine
 10
-396.8229927007299
 20
-48.09725771682398
 30
0.0
 11
-398.0479927007299
 21
-48.4254954775521
 31
0.0
  0
LINE
  5
286
330
281
100
AcDbEntity
  8
1
 62
     2
100
AcDbLine
 10
-396.8229927007299
 20
-48.09725771682398
 30
0.0
 11
-398.0479927007299
 21
-47.76901995609584
 31
0.0
  0
LINE
  5
287
330
281
100
AcDbEntity
  8
1
 62
     2
100
AcDbLine
 10
-408.3229927007299
 20
-48.09725771682398
 30
0.0
 11
-407.0979927007298
 21
-47.76901995609586
 31
0.0
  0
LINE
  5
288
330
281
100
AcDbEntity
  8
1
 62
     2
100
AcDbLine
 10
-408.3229927007299
 20
-48.09725771682398
 30
0.0
 11
-407.0979927007298
 21
-48.4254954775521
 31
0.0
  0
MTEXT
  5
289
330
281
100
AcDbEntity
  8
1
 62
     3
100
AcDbMText
 10
-403.8898677007298
 20
-47.59725771682397
 30
0.0
 40
1.75
 41
0.0
 71
     7
 72
     1
  1
11.5
  7
CONVERTER_5
 11
0.999999999997062
 21
0.0000024240684055
 31
0.0
 73
     1
 44
0.6002400960384202
1001
ACAD
1000
MTEXTBEGIN
1070
    73
1070
     1
1070
    44
1040
0.6002400960384202
1070
    74
1070
     0
1000
MTEXTEND
  0
ENDBLK
  5
28B
330
281
100
AcDbEntity
  8
0
100
AcDbBlockEnd
  0
BLOCK
  5
297
330
28E
100
AcDbEntity
  8
0
100
AcDbBlockBegin
  2
*D18
 70
     1
 10
0.0
 20
0.0
 30
0.0
  3
*D18
  1

  0
LINE
  5
28F
330
28E
100
AcDbEntity
  8
1
  6
Continuous
 62
     2
100
AcDbLine
 10
-372.8229927007299
 20
-48.09725771682398
 30
0.0
 11
-364.3229927007299
 21
-48.09725771682398
 31
0.0
  0
LINE
  5
290
330
28E
100
AcDbEntity
  8
1
  6
Continuous
 62
     2
100
AcDbLine
 10
-364.3229927007299
 20
-57.19725771682398
 30
0.0
 11
-364.3229927007299
 21
-47.59725771682397
 31
0.0
  0
LINE
  5
291
330
28E
100
AcDbEntity
  8
1
  6
Continuous
 62
     2
100
AcDbLine
 10
-372.8229927007299
 20
-56.45471155883681
 30
0.0
 11
-372.8229927007299
 21
-47.59725771682397
 31
0.0
  0
LINE
  5
292
330
28E
100
AcDbEntity
  8
1
 62
     2
100
AcDbLine
 10
-372.8229927007299
 20
-48.09725771682398
 30
0.0
 11
-371.5979927007299
 21
-47.76901995609586
 31
0.0
  0
LINE
  5
293
330
28E
100
AcDbEntity
  8
1
 62
     2
100
AcDbLine
 10
-372.8229927007299
 20
-48.09725771682398
 30
0.0
 11
-371.5979927007299
 21
-48.4254954775521
 31
0.0
  0
LINE
  5
294
330
28E
100
AcDbEntity
  8
1
 62
     2
100
AcDbLine
 10
-364.3229927007299
 20
-48.09725771682398
 30
0.0
 11
-365.5479927007299
 21
-48.4254954775521
 31
0.0
  0
LINE
  5
295
330
28E
100
AcDbEntity
  8
1
 62
     2
100
AcDbLine
 10
-364.3229927007299
 20
-48.09725771682398
 30
0.0
 11
-365.5479927007299
 21
-47.76901995609584
 31
0.0
  0
MTEXT
  5
296
330
28E
100
AcDbEntity
  8
1
 62
     3
100
AcDbMText
 10
-369.7673677007299
 20
-47.59725771682397
 30
0.0
 40
1.75
 41
0.0
 71
     7
 72
     1
  1
8.5
  7
CONVERTER_5
 11
0.999999999997062
 21
0.0000024240684055
 31
0.0
 73
     1
 44
0.6002400960384202
1001
ACAD
1000
MTEXTBEGIN
1070
    73
1070
     1
1070
    44
1040
0.6002400960384202
1070
    74
1070
     0
1000
MTEXTEND
  0
ENDBLK
  5
298
330
28E
100
AcDbEntity
  8
0
100
AcDbBlockEnd
  0
BLOCK
  5
2A4
330
29B
100
AcDbEntity
  8
0
100
AcDbBlockBegin
  2
*D19
 70
     1
 10
0.0
 20
0.0
 30
0.0
  3
*D19
  1

  0
LINE
  5
29C
330
29B
100
AcDbEntity
  8
1
  6
Continuous
 62
     2
100
AcDbLine
 10
-396.8229927007299
 20
-48.09725771682398
 30
0.0
 11
-372.8229927007299
 21
-48.09725771682398
 31
0.0
  0
LINE
  5
29D
330
29B
100
AcDbEntity
  8
1
  6
Continuous
 62
     2
100
AcDbLine
 10
-372.8229927007299
 20
-56.45471155883681
 30
0.0
 11
-372.8229927007299
 21
-47.59725771682397
 31
0.0
  0
LINE
  5
29E
330
29B
100
AcDbEntity
  8
1
  6
Continuous
 62
     2
100
AcDbLine
 10
-396.8229927007299
 20
-56.52387745345018
 30
0.0
 11
-396.8229927007299
 21
-47.59725771682397
 31
0.0
  0
LINE
  5
29F
330
29B
100
AcDbEntity
  8
1
 62
     2
100
AcDbLine
 10
-372.8229927007299
 20
-48.09725771682398
 30
0.0
 11
-374.0479927007299
 21
-48.4254954775521
 31
0.0
  0
LINE
  5
2A0
330
29B
100
AcDbEntity
  8
1
 62
     2
100
AcDbLine
 10
-372.8229927007299
 20
-48.09725771682398
 30
0.0
 11
-374.0479927007299
 21
-47.76901995609584
 31
0.0
  0
LINE
  5
2A1
330
29B
100
AcDbEntity
  8
1
 62
     2
100
AcDbLine
 10
-396.8229927007299
 20
-48.09725771682398
 30
0.0
 11
-395.5979927007299
 21
-47.76901995609586
 31
0.0
  0
LINE
  5
2A2
330
29B
100
AcDbEntity
  8
1
 62
     2
100
AcDbLine
 10
-396.8229927007299
 20
-48.09725771682398
 30
0.0
 11
-395.5979927007299
 21
-48.4254954775521
 31
0.0
  0
MTEXT
  5
2A3
330
29B
100
AcDbEntity
  8
1
 62
     3
100
AcDbMText
 10
-385.7417427007299
 20
-47.59725771682397
 30
0.0
 40
1.75
 41
0.0
 71
     7
 72
     1
  1
24
  7
CONVERTER_5
 11
0.999999999997062
 21
0.0000024240684055
 31
0.0
 73
     1
 44
0.6002400960384202
1001
ACAD
1000
MTEXTBEGIN
1070
    73
1070
     1
1070
    44
1040
0.6002400960384202
1070
    74
1070
     0
1000
MTEXTEND
  0
ENDBLK
  5
2A5
330
29B
100
AcDbEntity
  8
0
100
AcDbBlockEnd
  0
ENDSEC
  0
SECTION
  2
ENTITIES
  0
LINE
  5
1F8
330
1F
100
AcDbEntity
  8
1
 62
     2
100
AcDbLine
 10
-370.3229927007299
 20
-112.0956065274708
 30
0.0
 11
-369.4426826493556
 21
-113.0441510262392
 31
0.0
  0
LINE
  5
1F9
330
1F
100
AcDbEntity
  8
1
 62
     2
100
AcDbLine
 10
-370.3229927007299
 20
-112.0956065274708
 30
0.0
 11
-370.0348940824172
 21
-113.3572251857114
 31
0.0
  0
LINE
  5
1FB
330
1F
100
AcDbEntity
  8
1
 62
     2
100
AcDbLine
 10
-367.8229927007299
 20
-109.5742377153343
 30
0.0
 11
-366.6519501097948
 21
-110.1250023682584
 31
0.0
  0
LINE
  5
1FC
330
1F
100
AcDbEntity
  8
1
 62
     2
100
AcDbLine
 10
-367.8229927007299
 20
-109.5742377153343
 30
0.0
 11
-367.0842223945286
 21
-110.6367351917405
 31
0.0
  0
LINE
  5
2FA
330
1F
100
AcDbEntity
  8
1
  6
Continuous
 62
     7
100
AcDbLine
 10
-377.0472567694418
 20
-103.2956065274708
 30
0.0
 11
-377.0472567694418
 21
-110.7956065274708
 31
0.0
  0
LINE
  5
2FB
330
1F
100
AcDbEntity
  8
1
  6
Continuous
 62
     7
100
AcDbLine
 10
-406.3229927007299
 20
-103.2956065274708
 30
0.0
 11
-400.8229927007299
 21
-103.2956065274708
 31
0.0
  0
LINE
  5
2FC
330
1F
100
AcDbEntity
  8
1
  6
Continuous
 62
     7
100
AcDbLine
 10
-377.0472567694418
 20
-103.2956065274708
 30
0.0
 11
-390.8229927007299
 21
-103.2956065274708
 31
0.0
  0
LINE
  5
2FD
330
1F
100
AcDbEntity
  8
1
  6
Continuous
 62
     7
100
AcDbLine
 10
-390.8229927007299
 20
-103.2956065274708
 30
0.0
 11
-390.8229927007299
 21
-107.7956065274708
 31
0.0
  0
LINE
  5
2FE
330
1F
100
AcDbEntity
  8
1
  6
Continuous
 62
     7
100
AcDbLine
 10
-391.3229927007299
 20
-108.2956065274708
 30
0.0
 11
-400.3229927007299
 21
-108.2956065274708
 31
0.0
  0
LINE
  5
2FF
330
1F
100
AcDbEntity
  8
1
  6
Continuous
 62
     7
100
AcDbLine
 10
-400.8229927007299
 20
-107.7956065274708
 30
0.0
 11
-400.8229927007299
 21
-103.2956065274708
 31
0.0
  0
LINE
  5
300
330
1F
100
AcDbEntity
  8
1
  6
Continuous
 62
     7
100
AcDbLine
 10
-377.5472567694418
 20
-111.2956065274708
 30
0.0
 11
-405.8229927007299
 21
-111.2956065274708
 31
0.0
  0
LINE
  5
301
330
1F
100
AcDbEntity
  8
1
  6
Continuous
 62
     7
100
AcDbLine
 10
-406.3229927007299
 20
-110.7956065274708
 30
0.0
 11
-406.3229927007299
 21
-103.2956065274708
 31
0.0
  0
ARC
  5
30E
330
1F
100
AcDbEntity
  8
1
  6
Continuous
 62
     7
100
AcDbCircle
 10
-377.5472567694418
 20
-110.7956065274708
 30
0.0
 40
0.5
100
AcDbArc
 50
270.0
 51
0.0
  0
ARC
  5
30F
330
1F
100
AcDbEntity
  8
1
  6
Continuous
 62
     7
100
AcDbCircle
 10
-405.8229927007299
 20
-110.7956065274708
 30
0.0
 40
0.5
100
AcDbArc
 50
180.0
 51
270.0
  0
ARC
  5
310
330
1F
100
AcDbEntity
  8
1
  6
Continuous
 62
     7
100
AcDbCircle
 10
-391.3229927007299
 20
-107.7956065274708
 30
0.0
 40
0.5
100
AcDbArc
 50
270.0
 51
0.0
  0
ARC
  5
311
330
1F
100
AcDbEntity
  8
1
  6
Continuous
 62
     7
100
AcDbCircle
 10
-400.3229927007299
 20
-107.7956065274708
 30
0.0
 40
0.5
100
AcDbArc
 50
180.0
 51
270.0
  0
INSERT
  5
321
330
1F
100
AcDbEntity
  8
1
100
AcDbBlockReference
  2
_______t__________M__________M5X12
 10
-321.8229927007298
 20
22.0347254987218
 30
0.0
  0
LINE
  5
322
330
1F
100
AcDbEntity
  8
1
  6
Continuous
 62
     7
100
AcDbLine
 10
-405.3229927007299
 20
-103.2956065274708
 30
0.0
 11
-406.3229927007299
 21
-103.2956065274708
 31
0.0
  0
LINE
  5
323
330
1F
100
AcDbEntity
  8
1
  6
Continuous
 62
     7
100
AcDbLine
 10
-405.3229927007299
 20
-101.2956065274708
 30
0.0
 11
-367.3229927007299
 21
-101.2956065274708
 31
0.0
  0
LINE
  5
324
330
1F
100
AcDbEntity
  8
1
  6
Continuous
 62
     7
100
AcDbLine
 10
-405.3229927007299
 20
-101.2956065274708
 30
0.0
 11
-405.3229927007299
 21
-103.2956065274708
 31
0.0
  0
LINE
  5
325
330
1F
100
AcDbEntity
  8
1
  6
Continuous
 62
     7
100
AcDbLine
 10
-367.3229927007299
 20
-101.2956065274708
 30
0.0
 11
-366.3229927007299
 21
-101.2956065274708
 31
0.0
  0
LINE
  5
326
330
1F
100
AcDbEntity
  8
1
  6
Continuous
 62
     7
100
AcDbLine
 10
-367.3229927007299
 20
-103.2956065274708
 30
0.0
 11
-391.7479927007299
 21
-103.2956065274708
 31
0.0
  0
LINE
  5
327
330
1F
100
AcDbEntity
  8
1
  6
Continuous
 62
     7
100
AcDbLine
 10
-367.3229927007299
 20
-101.2956065274708
 30
0.0
 11
-367.3229927007299
 21
-103.2956065274708
 31
0.0
  0
LINE
  5
329
330
1F
100
AcDbEntity
  8
1
  6
DOT_CENTER
 62
     2
100
AcDbLine
 10
-360.1478102189781
 20
-63.09725771682398
 30
0.0
 11
-412.7937956204379
 21
-63.09725771682398
 31
0.0
  0
LINE
  5
32A
330
1F
100
AcDbEntity
  8
1
  6
Continuous
 62
     7
100
AcDbLine
 10
-405.3229927007299
 20
-68.497257716824
 30
0.0
 11
-408.3229927007299
 21
-68.497257716824
 31
0.0
  0
LINE
  5
32B
330
1F
100
AcDbEntity
  8
1
  6
Continuous
 62
     7
100
AcDbLine
 10
-405.3229927007299
 20
-71.09725771682398
 30
0.0
 11
-405.3229927007299
 21
-68.497257716824
 31
0.0
  0
LINE
  5
32C
330
1F
100
AcDbEntity
  8
1
  6
Continuous
 62
     7
100
AcDbLine
 10
-367.3229927007299
 20
-71.09725771682398
 30
0.0
 11
-405.3229927007299
 21
-71.09725771682398
 31
0.0
  0
LINE
  5
32D
330
1F
100
AcDbEntity
  8
1
  6
Continuous
 62
     7
100
AcDbLine
 10
-367.3229927007299
 20
-68.497257716824
 30
0.0
 11
-367.3229927007299
 21
-71.09725771682398
 31
0.0
  0
LINE
  5
32E
330
1F
100
AcDbEntity
  8
1
  6
Continuous
 62
     7
100
AcDbLine
 10
-364.3229927007299
 20
-68.497257716824
 30
0.0
 11
-367.3229927007299
 21
-68.497257716824
 31
0.0
  0
LINE
  5
32F
330
1F
100
AcDbEntity
  8
1
  6
Continuous
 62
     7
100
AcDbLine
 10
-364.3229927007299
 20
-57.69725771682398
 30
0.0
 11
-364.3229927007299
 21
-68.497257716824
 31
0.0
  0
LINE
  5
330
330
1F
100
AcDbEntity
  8
1
  6
Continuous
 62
     7
100
AcDbLine
 10
-367.3229927007299
 20
-57.69725771682398
 30
0.0
 11
-364.3229927007299
 21
-57.69725771682398
 31
0.0
  0
LINE
  5
331
330
1F
100
AcDbEntity
  8
1
  6
Continuous
 62
     7
100
AcDbLine
 10
-367.3229927007299
 20
-55.09725771682397
 30
0.0
 11
-367.3229927007299
 21
-57.69725771682398
 31
0.0
  0
LINE
  5
332
330
1F
100
AcDbEntity
  8
1
  6
Continuous
 62
     7
100
AcDbLine
 10
-405.3229927007299
 20
-55.09725771682397
 30
0.0
 11
-367.3229927007299
 21
-55.09725771682397
 31
0.0
  0
LINE
  5
333
330
1F
100
AcDbEntity
  8
1
  6
Continuous
 62
     7
100
AcDbLine
 10
-405.3229927007299
 20
-57.69725771682398
 30
0.0
 11
-405.3229927007299
 21
-55.09725771682397
 31
0.0
  0
LINE
  5
334
330
1F
100
AcDbEntity
  8
1
  6
Continuous
 62
     7
100
AcDbLine
 10
-408.3229927007299
 20
-57.69725771682398
 30
0.0
 11
-405.3229927007299
 21
-57.69725771682398
 31
0.0
  0
LINE
  5
335
330
1F
100
AcDbEntity
  8
1
  6
Continuous
 62
     7
100
AcDbLine
 10
-408.3229927007299
 20
-68.497257716824
 30
0.0
 11
-408.3229927007299
 21
-57.69725771682398
 31
0.0
  0
LINE
  5
336
330
1F
100
AcDbEntity
  8
1
  6
DOT_CENTER
 62
     2
100
AcDbLine
 10
-396.8229927007299
 20
-57.02387745345018
 30
0.0
 11
-396.8229927007299
 21
-69.17063798019777
 31
0.0
  0
LINE
  5
337
330
1F
100
AcDbEntity
  8
1
  6
DOT_CENTER
 62
     2
100
AcDbLine
 10
-383.8229927007299
 20
-60.51783595695898
 30
0.0
 11
-383.8229927007299
 21
-65.67667947668899
 31
0.0
  0
LINE
  5
338
330
1F
100
AcDbEntity
  8
1
  6
Continuous
 62
     7
100
AcDbLine
 10
-406.3229927007299
 20
-111.2956065274708
 30
0.0
 11
-408.3229927007299
 21
-111.2956065274708
 31
0.0
  0
LINE
  5
339
330
1F
100
AcDbEntity
  8
1
  6
Continuous
 62
     7
100
AcDbLine
 10
-406.3229927007299
 20
-103.2956065274708
 30
0.0
 11
-406.3229927007299
 21
-111.2956065274708
 31
0.0
  0
LINE
  5
33A
330
1F
100
AcDbEntity
  8
1
  6
Continuous
 62
     7
100
AcDbLine
 10
-391.7479927007299
 20
-103.2956065274708
 30
0.0
 11
-405.3229927007299
 21
-103.2956065274708
 31
0.0
  0
LINE
  5
33B
330
1F
100
AcDbEntity
  8
1
  6
Continuous
 62
     7
100
AcDbLine
 10
-366.3229927007299
 20
-106.2956065274708
 30
0.0
 11
-366.3229927007299
 21
-103.2956065274708
 31
0.0
  0
LINE
  5
33C
330
1F
100
AcDbEntity
  8
1
  6
Continuous
 62
     7
100
AcDbLine
 10
-364.3229927007299
 20
-106.2956065274708
 30
0.0
 11
-366.3229927007299
 21
-106.2956065274708
 31
0.0
  0
LINE
  5
33D
330
1F
100
AcDbEntity
  8
1
  6
Continuous
 62
     7
100
AcDbLine
 10
-406.3229927007299
 20
-101.2956065274708
 30
0.0
 11
-405.3229927007299
 21
-101.2956065274708
 31
0.0
  0
LINE
  5
33E
330
1F
100
AcDbEntity
  8
1
  6
Continuous
 62
     7
100
AcDbLine
 10
-408.3229927007299
 20
-111.2956065274708
 30
0.0
 11
-408.3229927007299
 21
-103.2956065274708
 31
0.0
  0
LINE
  5
33F
330
1F
100
AcDbEntity
  8
1
  6
Continuous
 62
     7
100
AcDbLine
 10
-393.7479927007299
 20
-107.7956065274708
 30
0.0
 11
-399.8979927007299
 21
-107.7956065274708
 31
0.0
  0
LINE
  5
340
330
1F
100
AcDbEntity
  8
1
  6
Continuous
 62
     7
100
AcDbLine
 10
-391.7479927007299
 20
-103.2956065274708
 30
0.0
 11
-391.7479927007299
 21
-105.7956065274708
 31
0.0
  0
LINE
  5
341
330
1F
100
AcDbEntity
  8
1
  6
Continuous
 62
     7
100
AcDbLine
 10
-366.3229927007299
 20
-103.2956065274708
 30
0.0
 11
-367.3229927007299
 21
-103.2956065274708
 31
0.0
  0
LINE
  5
342
330
1F
100
AcDbEntity
  8
1
  6
DOTTED
 62
     7
100
AcDbLine
 10
-393.7479927007299
 20
-105.7956065274708
 30
0.0
 11
-399.8979927007299
 21
-105.7956065274708
 31
0.0
  0
LINE
  5
343
330
1F
100
AcDbEntity
  8
1
  6
DOTTED
 62
     7
100
AcDbLine
 10
-393.7479927007299
 20
-103.2956065274708
 30
0.0
 11
-393.7479927007299
 21
-105.7956065274708
 31
0.0
  0
LINE
  5
344
330
1F
100
AcDbEntity
  8
1
  6
DOTTED
 62
     7
100
AcDbLine
 10
-399.8979927007299
 20
-103.2956065274708
 30
0.0
 11
-399.8979927007299
 21
-105.7956065274708
 31
0.0
  0
LINE
  5
345
330
1F
100
AcDbEntity
  8
1
  6
DOT_CENTER
 62
     2
100
AcDbLine
 10
-396.8229927007299
 20
-100.2198680159278
 30
0.0
 11
-396.8229927007299
 21
-109.0115133348168
 31
0.0
  0
LINE
  5
346
330
1F
100
AcDbEntity
  8
1
  6
DOT_CENTER
 62
     2
100
AcDbLine
 10
-372.8229927007299
 20
-100.3741074074872
 30
0.0
 11
-372.8229927007299
 21
-113.384331588033
 31
0.0
  0
LINE
  5
356
330
1F
100
AcDbEntity
  8
1
  6
Continuous
 62
     7
100
AcDbLine
 10
-364.3229927007299
 20
-103.2956065274708
 30
0.0
 11
-364.3229927007299
 21
-106.2956065274708
 31
0.0
  0
ARC
  5
357
330
1F
100
AcDbEntity
  8
1
  6
Continuous
 62
     7
100
AcDbCircle
 10
-366.3229927007299
 20
-103.2956065274708
 30
0.0
 40
2.0
100
AcDbArc
 50
0.0
 51
90.0
  0
ARC
  5
358
330
1F
100
AcDbEntity
  8
1
  6
Continuous
 62
     7
100
AcDbCircle
 10
-406.3229927007299
 20
-103.2956065274708
 30
0.0
 40
2.0
100
AcDbArc
 50
90.0
 51
180.0
  0
CIRCLE
  5
359
330
1F
100
AcDbEntity
  8
1
  6
Continuous
 62
     7
100
AcDbCircle
 10
-396.8229927007299
 20
-63.097257716824
 30
0.0
 40
3.074999999999988
  0
CIRCLE
  5
35A
330
1F
100
AcDbEntity
  8
1
  6
Continuous
 62
     7
100
AcDbCircle
 10
-383.8229927007299
 20
-63.09725771682398
 30
0.0
 40
2.0
  0
ARC
  5
35B
330
1F
100
AcDbEntity
  8
1
  6
Continuous
 62
     7
100
AcDbCircle
 10
-399.8979927007299
 20
-105.7956065274708
 30
0.0
 40
1.999999999999985
100
AcDbArc
 50
242.4514540405153
 51
270.0
  0
ARC
  5
35C
330
1F
100
AcDbEntity
  8
1
  6
Continuous
 62
     7
100
AcDbCircle
 10
-393.7479927007299
 20
-105.7956065274708
 30
0.0
 40
2.0
100
AcDbArc
 50
270.0
 51
0.0
  0
ARC
  5
35D
330
1F
100
AcDbEntity
  8
1
  6
DOTTED
 62
     7
100
AcDbCircle
 10
-401.8979927007299
 20
-103.2956065274708
 30
0.0
 40
2.0
100
AcDbArc
 50
0.0
 51
90.0
  0
ARC
  5
35E
330
1F
100
AcDbEntity
  8
1
  6
DOTTED
 62
     7
100
AcDbCircle
 10
-391.7479927007299
 20
-103.2956065274708
 30
0.0
 40
2.0
100
AcDbArc
 50
90.0
 51
180.0
  0
LINE
  5
36E
330
1F
100
AcDbEntity
  8
1
  6
Continuous
 62
     7
100
AcDbLine
 10
-373.8229927007299
 20
-109.5742377153343
 30
0.0
 11
-371.8229927007299
 21
-109.5742377153343
 31
0.0
  0
LINE
  5
36F
330
1F
100
AcDbEntity
  8
1
  6
Continuous
 62
     7
100
AcDbLine
 10
-373.8229927007299
 20
-106.9742377153343
 30
0.0
 11
-373.8229927007299
 21
-109.5742377153343
 31
0.0
  0
LINE
  5
370
330
1F
100
AcDbEntity
  8
1
  6
Continuous
 62
     7
100
AcDbLine
 10
-371.8229927007299
 20
-109.5742377153343
 30
0.0
 11
-367.8229927007299
 21
-109.5742377153343
 31
0.0
  0
LINE
  5
371
330
1F
100
AcDbEntity
  8
1
  6
Continuous
 62
     7
100
AcDbLine
 10
-371.8229927007299
 20
-106.9742377153343
 30
0.0
 11
-371.8229927007299
 21
-109.5742377153343
 31
0.0
  0
LINE
  5
372
330
1F
100
AcDbEntity
  8
1
  6
Continuous
 62
     7
100
AcDbLine
 10
-373.8229927007299
 20
-106.9742377153343
 30
0.0
 11
-371.8229927007299
 21
-106.9742377153343
 31
0.0
  0
LINE
  5
373
330
1F
100
AcDbEntity
  8
1
  6
Continuous
 62
     7
100
AcDbLine
 10
-373.8229927007299
 20
-106.6742377153343
 30
0.0
 11
-377.0472567694418
 21
-106.6742377153343
 31
0.0
  0
LINE
  5
374
330
1F
100
AcDbEntity
  8
1
  6
Continuous
 62
     7
100
AcDbLine
 10
-373.8229927007299
 20
-106.6742377153343
 30
0.0
 11
-373.8229927007299
 21
-106.9742377153343
 31
0.0
  0
LINE
  5
375
330
1F
100
AcDbEntity
  8
1
  6
Continuous
 62
     7
100
AcDbLine
 10
-373.610860666374
 20
-106.6742377153343
 30
0.0
 11
-373.8229927007299
 21
-106.6742377153343
 31
0.0
  0
LINE
  5
376
330
1F
100
AcDbEntity
  8
1
  6
Continuous
 62
     7
100
AcDbLine
 10
-373.610860666374
 20
-106.9742377153343
 30
0.0
 11
-373.610860666374
 21
-106.6742377153343
 31
0.0
  0
LINE
  5
377
330
1F
100
AcDbEntity
  8
1
  6
Continuous
 62
     7
100
AcDbLine
 10
-371.8229927007299
 20
-106.6742377153343
 30
0.0
 11
-372.0351247350859
 21
-106.6742377153343
 31
0.0
  0
LINE
  5
378
330
1F
100
AcDbEntity
  8
1
  6
Continuous
 62
     7
100
AcDbLine
 10
-371.8229927007299
 20
-106.6742377153343
 30
0.0
 11
-371.8229927007299
 21
-106.9742377153343
 31
0.0
  0
LINE
  5
379
330
1F
100
AcDbEntity
  8
1
  6
Continuous
 62
     7
100
AcDbLine
 10
-372.0351247350859
 20
-106.6742377153343
 30
0.0
 11
-372.0351247350859
 21
-106.9742377153343
 31
0.0
  0
LINE
  5
37A
330
1F
100
AcDbEntity
  8
1
  6
Continuous
 62
     7
100
AcDbLine
 10
-367.8229927007299
 20
-106.6742377153343
 30
0.0
 11
-371.8229927007299
 21
-106.6742377153343
 31
0.0
  0
LINE
  5
37B
330
1F
100
AcDbEntity
  8
1
  6
Continuous
 62
     7
100
AcDbLine
 10
-367.8229927007299
 20
-109.5742377153343
 30
0.0
 11
-367.8229927007299
 21
-106.6742377153343
 31
0.0
  0
LINE
  5
386
330
1F
100
AcDbEntity
  8
1
  6
Continuous
 62
     7
100
AcDbLine
 10
-377.0472567694418
 20
-109.5742377153343
 30
0.0
 11
-373.8229927007299
 21
-109.5742377153343
 31
0.0
  0
ENDSEC
  0
SECTION
  2
OBJECTS
  0
DICTIONARY
  5
C
330
0
100
AcDbDictionary
281
     1
  3
ACAD_CIP_PREVIOUS_PRODUCT_INFO
350
2F6
  3
ACAD_COLOR
350
2DC
  3
ACAD_GROUP
350
D
  3
ACAD_LAYOUT
350
1A
  3
ACAD_MATERIAL
350
2AA
  3
ACAD_MLEADERSTYLE
350
2F1
  3
ACAD_MLINESTYLE
350
17
  3
ACAD_PLOTSETTINGS
350
19
  3
ACAD_PLOTSTYLENAME
350
E
  3
ACAD_SCALELIST
350
2DF
  3
ACAD_TABLESTYLE
350
2DD
  3
ACAD_VISUALSTYLE
350
2C3
  3
ACDB_RECOMPOSE_DATA
350
398
  3
AcDbVariableDictionary
350
38D
  3
DWGPROPS
350
399
  0
DICTIONARY
  5
389
330
10
100
AcDbDictionary
280
     1
281
     1
  3
ADSK_XREC_LAYER_RECONCILED
360
38A
  0
DICTIONARY
  5
38B
330
31
100
AcDbDictionary
280
     1
281
     1
  3
ADSK_XREC_LAYER_RECONCILED
360
38C
  0
DICTIONARY
  5
317
330
1F
100
AcDbDictionary
280
     1
281
     1
  3
ACAD_SORTENTS
360
318
  0
DICTIONARY
  5
3A0
330
127
100
AcDbDictionary
280
     1
281
     1
  3
ACAD_MTEXT_RT
360
3A1
  0
DICTIONARY
  5
3A2
330
128
100
AcDbDictionary
280
     1
281
     1
  3
ACAD_MTEXT_RT
360
3A3
  0
DICTIONARY
  5
3A4
330
129
100
AcDbDictionary
280
     1
281
     1
  3
ACAD_MTEXT_RT
360
3A5
  0
DICTIONARY
  5
3A6
330
12A
100
AcDbDictionary
280
     1
281
     1
  3
ACAD_MTEXT_RT
360
3A7
  0
DICTIONARY
  5
3A8
330
12B
100
AcDbDictionary
280
     1
281
     1
  3
ACAD_MTEXT_RT
360
3A9
  0
DICTIONARY
  5
3AA
330
132
100
AcDbDictionary
280
     1
281
     1
  3
ACAD_MTEXT_RT
360
3AB
  0
DICTIONARY
  5
3AC
330
133
100
AcDbDictionary
280
     1
281
     1
  3
ACAD_MTEXT_RT
360
3AD
  0
DICTIONARY
  5
3AE
330
134
100
AcDbDictionary
280
     1
281
     1
  3
ACAD_MTEXT_RT
360
3AF
  0
DICTIONARY
  5
3B0
330
138
100
AcDbDictionary
280
     1
281
     1
  3
ACAD_MTEXT_RT
360
3B1
  0
DICTIONARY
  5
3B2
330
139
100
AcDbDictionary
280
     1
281
     1
  3
ACAD_MTEXT_RT
360
3B3
  0
DICTIONARY
  5
3B4
330
13B
100
AcDbDictionary
280
     1
281
     1
  3
ACAD_MTEXT_RT
360
3B5
  0
DICTIONARY
  5
3B6
330
13D
100
AcDbDictionary
280
     1
281
     1
  3
ACAD_MTEXT_RT
360
3B7
  0
DICTIONARY
  5
3B8
330
13E
100
AcDbDictionary
280
     1
281
     1
  3
ACAD_MTEXT_RT
360
3B9
  0
DICTIONARY
  5
3BA
330
145
100
AcDbDictionary
280
     1
281
     1
  3
ACAD_MTEXT_RT
360
3BB
  0
DICTIONARY
  5
3BC
330
146
100
AcDbDictionary
280
     1
281
     1
  3
ACAD_MTEXT_RT
360
3BD
  0
DICTIONARY
  5
3BE
330
147
100
AcDbDictionary
280
     1
281
     1
  3
ACAD_MTEXT_RT
360
3BF
  0
DICTIONARY
  5
3C0
330
149
100
AcDbDictionary
280
     1
281
     1
  3
ACAD_MTEXT_RT
360
3C1
  0
DICTIONARY
  5
3C2
330
14A
100
AcDbDictionary
280
     1
281
     1
  3
ACAD_MTEXT_RT
360
3C3
  0
DICTIONARY
  5
3C4
330
14B
100
AcDbDictionary
280
     1
281
     1
  3
ACAD_MTEXT_RT
360
3C5
  0
DICTIONARY
  5
3C6
330
14C
100
AcDbDictionary
280
     1
281
     1
  3
ACAD_MTEXT_RT
360
3C7
  0
DICTIONARY
  5
3C8
330
14D
100
AcDbDictionary
280
     1
281
     1
  3
ACAD_MTEXT_RT
360
3C9
  0
DICTIONARY
  5
3CA
330
14E
100
AcDbDictionary
280
     1
281
     1
  3
ACAD_MTEXT_RT
360
3CB
  0
DICTIONARY
  5
3CC
330
14F
100
AcDbDictionary
280
     1
281
     1
  3
ACAD_MTEXT_RT
360
3CD
  0
DICTIONARY
  5
3CE
330
150
100
AcDbDictionary
280
     1
281
     1
  3
ACAD_MTEXT_RT
360
3CF
  0
DICTIONARY
  5
3D0
330
151
100
AcDbDictionary
280
     1
281
     1
  3
ACAD_MTEXT_RT
360
3D1
  0
DICTIONARY
  5
3D2
330
152
100
AcDbDictionary
280
     1
281
     1
  3
ACAD_MTEXT_RT
360
3D3
  0
DICTIONARY
  5
3D4
330
153
100
AcDbDictionary
280
     1
281
     1
  3
ACAD_MTEXT_RT
360
3D5
  0
DICTIONARY
  5
3D6
330
154
100
AcDbDictionary
280
     1
281
     1
  3
ACAD_MTEXT_RT
360
3D7
  0
DICTIONARY
  5
3D8
330
155
100
AcDbDictionary
280
     1
281
     1
  3
ACAD_MTEXT_RT
360
3D9
  0
DICTIONARY
  5
3DA
330
157
100
AcDbDictionary
280
     1
281
     1
  3
ACAD_MTEXT_RT
360
3DB
  0
DICTIONARY
  5
3DC
330
158
100
AcDbDictionary
280
     1
281
     1
  3
ACAD_MTEXT_RT
360
3DD
  0
DICTIONARY
  5
3DE
330
159
100
AcDbDictionary
280
     1
281
     1
  3
ACAD_MTEXT_RT
360
3DF
  0
DICTIONARY
  5
3E0
330
15C
100
AcDbDictionary
280
     1
281
     1
  3
ACAD_MTEXT_RT
360
3E1
  0
XRECORD
  5
2F6
102
{ACAD_REACTORS
330
C
102
}
330
C
100
AcDbXrecord
280
     1
300
ACD
300
2012
300
ACD_F_S
  0
DICTIONARY
  5
2DC
102
{ACAD_REACTORS
330
C
102
}
330
C
100
AcDbDictionary
281
     1
  0
DICTIONARY
  5
D
102
{ACAD_REACTORS
330
C
102
}
330
C
100
AcDbDictionary
281
     1
  0
DICTIONARY
  5
1A
102
{ACAD_REACTORS
330
C
102
}
330
C
100
AcDbDictionary
281
     1
  3
Layout1
350
1E
  3
Layout2
350
26
  3
Model
350
22
  0
DICTIONARY
  5
2AA
102
{ACAD_REACTORS
330
C
102
}
330
C
100
AcDbDictionary
281
     1
  3
ByBlock
350
2B3
  3
ByLayer
350
2AB
  3
Global
350
2BB
  0
DICTIONARY
  5
2F1
102
{ACAD_REACTORS
330
C
102
}
330
C
100
AcDbDictionary
281
     1
  3
Standard
350
2F2
  0
DICTIONARY
  5
17
102
{ACAD_REACTORS
330
C
102
}
330
C
100
AcDbDictionary
281
     1
  3
Standard
350
18
  0
DICTIONARY
  5
19
102
{ACAD_REACTORS
330
C
102
}
330
C
100
AcDbDictionary
281
     1
  0
ACDBDICTIONARYWDFLT
  5
E
102
{ACAD_REACTORS
330
C
102
}
330
C
100
AcDbDictionary
281
     1
  3
Normal
350
F
100
AcDbDictionaryWithDefault
340
F
  0
DICTIONARY
  5
2DF
102
{ACAD_REACTORS
330
C
102
}
330
C
100
AcDbDictionary
281
     1
  3
A0
350
2E0
  3
A1
350
2E1
  3
A2
350
2E2
  3
A3
350
2E3
  3
A4
350
2E4
  3
A5
350
2E5
  3
A6
350
2E6
  3
A7
350
2E7
  3
A8
350
2E8
  3
A9
350
2E9
  3
B0
350
2EA
  3
B1
350
2EB
  3
B2
350
2EC
  3
B3
350
2ED
  3
B4
350
2EE
  3
B5
350
2EF
  3
B6
350
2F0
  0
DICTIONARY
  5
2DD
102
{ACAD_REACTORS
330
C
102
}
330
C
100
AcDbDictionary
281
     1
  3
Standard
350
2DE
  0
DICTIONARY
  5
2C3
102
{ACAD_REACTORS
330
C
102
}
330
C
100
AcDbDictionary
281
     1
  3
2dWireframe
350
2C9
  3
Basic
350
2C8
  3
Brighten
350
2CF
  3
ColorChange
350
2D3
  3
Conceptual
350
2CC
  3
Dim
350
2CE
  3
EdgeColorOff
350
2DB
  3
Facepattern
350
2D2
  3
Flat
350
2C4
  3
FlatWithEdges
350
2C5
  3
Gouraud
350
2C6
  3
GouraudWithEdges
350
2C7
  3
Hidden
350
2CB
  3
JitterOff
350
2D9
  3
Linepattern
350
2D1
  3
OverhangOff
350
2DA
  3
Realistic
350
2CD
  3
Shaded
350
2D8
  3
Shaded with edges
350
2D7
  3
Shades of Gray
350
2D4
  3
Sketchy
350
2D5
  3
Thicken
350
2D0
  3
Wireframe
350
2CA
  3
X-Ray
350
2D6
  0
XRECORD
  5
398
102
{ACAD_REACTORS
330
C
102
}
330
C
100
AcDbXrecord
280
     1
 90
        1
330
2DE
  0
DICTIONARY
  5
38D
102
{ACAD_REACTORS
330
C
102
}
330
C
100
AcDbDictionary
281
     1
  3
CANNOSCALE
350
390
  3
CMLEADERSTYLE
350
38F
  3
CTABLESTYLE
350
38E
  3
DIMASSOC
350
393
  3
INDEXCTL
350
392
  3
SORTENTS
350
391
  3
XCLIPFRAME
350
394
  0
XRECORD
  5
399
102
{ACAD_REACTORS
330
C
102
}
330
C
100
AcDbXrecord
280
     1
  1
DWGPROPS COOKIE
  2

  3

  4

  6

  7

  8
0035sekine
  9

300
=
301
=
302
=
303
=
304
=
305
=
306
=
307
=
308
=
309
=
 40
0.0011407986111111
 41
2454160.385366007
 42
2457578.397615463
  1

 90
        0
  0
XRECORD
  5
38A
102
{ACAD_REACTORS
330
389
102
}
330
389
100
AcDbXrecord
280
     1
290
     1
  0
XRECORD
  5
38C
102
{ACAD_REACTORS
330
38B
102
}
330
38B
100
AcDbXrecord
280
     1
290
     1
  0
SORTENTSTABLE
  5
318
102
{ACAD_REACTORS
330
317
102
}
330
317
100
AcDbSortentsTable
330
1F
331
370
  5
2FF
331
345
  5
33F
331
323
  5
31D
331
301
  5
1FC
331
334
  5
32E
331
1F8
  5
362
331
36E
  5
2FD
331
35D
  5
358
331
343
  5
33D
331
321
  5
31B
331
2FF
  5
1FA
331
332
  5
32C
331
310
  5
266
331
341
  5
33B
331
2FD
  5
1F8
331
35B
  5
356
331
330
  5
32A
331
30E
  5
24C
331
33F
  5
339
331
2FB
  5
1F6
331
359
  5
354
331
37B
  5
30A
331
32E
  5
328
331
357
  5
351
331
33D
  5
337
331
379
  5
308
331
32C
  5
326
331
33B
  5
335
331
377
  5
306
331
32A
  5
324
331
339
  5
333
331
375
  5
304
331
386
  5
316
331
373
  5
302
331
326
  5
320
331
337
  5
331
331
1FB
  5
365
331
371
  5
300
331
346
  5
340
331
324
  5
31E
331
335
  5
32F
331
1F9
  5
363
331
36F
  5
2FE
331
35E
  5
359
331
344
  5
33E
331
322
  5
31C
331
300
  5
1FB
331
333
  5
32D
331
311
  5
273
331
35C
  5
357
331
342
  5
33C
331
2FE
  5
1F9
331
331
  5
32B
331
30F
  5
259
331
35A
  5
355
331
340
  5
33A
331
2FC
  5
1F7
331
32F
  5
329
331
358
  5
352
331
33E
  5
338
331
2FA
  5
1F5
331
37A
  5
309
331
32D
  5
327
331
356
  5
350
331
33C
  5
336
331
378
  5
307
331
32B
  5
325
331
33A
  5
334
331
376
  5
305
331
329
  5
323
331
338
  5
332
331
374
  5
303
331
327
  5
321
331
1FC
  5
366
331
372
  5
301
331
325
  5
31F
331
336
  5
330
  0
XRECORD
  5
3A1
102
{ACAD_REACTORS
330
3A0
102
}
330
3A0
100
AcDbXrecord
280
     1
 40
25554.0
  1
M5\U+0081~10(\U+0192\U+00C68)
  0
XRECORD
  5
3A3
102
{ACAD_REACTORS
330
3A2
102
}
330
3A2
100
AcDbXrecord
280
     1
 40
28469.0
  1
\U+201A\U+201D\U+0081\U+00812.6
  0
XRECORD
  5
3A5
102
{ACAD_REACTORS
330
3A4
102
}
330
3A4
100
AcDbXrecord
280
     1
 40
32646.0
  1
GB\U+0192\U+0081\U+0192b\U+0192L
  0
XRECORD
  5
3A7
102
{ACAD_REACTORS
330
3A6
102
}
330
3A6
100
AcDbXrecord
280
     1
 40
86044.0
  1
\U+0192N\U+0192\U+008D\U+0192\U+0081\U+0081[\U+0192g
  0
XRECORD
  5
3A9
102
{ACAD_REACTORS
330
3A8
102
}
330
3A8
100
AcDbXrecord
280
     1
 40
14977.0
  1
\U+008D\U+2022\U+0090F
  0
XRECORD
  5
3AB
102
{ACAD_REACTORS
330
3AA
102
}
330
3AA
100
AcDbXrecord
280
     1
 40
47447.0
  1
\U+017D~\U+201A\U+00D4\U+0192l\U+0192W
  0
XRECORD
  5
3AD
102
{ACAD_REACTORS
330
3AC
102
}
330
3AC
100
AcDbXrecord
280
     1
 40
47982.0
  1
\U+201D\U+00F4\U+0192i\U+0192b\U+0192g
  0
XRECORD
  5
3AF
102
{ACAD_REACTORS
330
3AE
102
}
330
3AE
100
AcDbXrecord
280
     1
 40
115789.0
  1
\U+0192i\U+0192b\U+0192g\U+2039K\U+0090\U+00CF\U+008D\U+00DF
  0
XRECORD
  5
3B1
102
{ACAD_REACTORS
330
3B0
102
}
330
3B0
100
AcDbXrecord
280
     1
 40
25415.0
  1
\U+201A\U+201D\U+0081\U+00812
  0
XRECORD
  5
3B3
102
{ACAD_REACTORS
330
3B2
102
}
330
3B2
100
AcDbXrecord
280
     1
 40
32646.0
  1
GB\U+0192\U+0081\U+0192b\U+0192L
  0
XRECORD
  5
3B5
102
{ACAD_REACTORS
330
3B4
102
}
330
3B4
100
AcDbXrecord
280
     1
 40
54785.0
  1
\U+017D\U+00F8\U+201A\U+00A3\U+2039\U+00C1
  0
XRECORD
  5
3B7
102
{ACAD_REACTORS
330
3B6
102
}
330
3B6
100
AcDbXrecord
280
     1
 40
25818.0
  1
\U+2018g %%d\U+00CF \U+0090}
  0
XRECORD
  5
3B9
102
{ACAD_REACTORS
330
3B8
102
}
330
3B8
100
AcDbXrecord
280
     1
 40
382588.0
  1
HR-11\U+0081i\U+008F\U+00D0\U+2030\U+00A4\U+0192s\U+0192{\U+0192b\U+0192g\U+017D\U+00F8\U+201A\U+00A3\U+0081j
  0
XRECORD
  5
3BB
102
{ACAD_REACTORS
330
3BA
102
}
330
3BA
100
AcDbXrecord
280
     1
 40
25044.0
  1
\U+02C6\U+00CF\U+008D\U+00E3
  0
XRECORD
  5
3BD
102
{ACAD_REACTORS
330
3BC
102
}
330
3BC
100
AcDbXrecord
280
     1
 40
23804.0
  1
\U+2019\U+2020\U+201C\U+2021
  0
XRECORD
  5
3BF
102
{ACAD_REACTORS
330
3BE
102
}
330
3BE
100
AcDbXrecord
280
     1
 40
24787.0
  1
\U+008F\U+008F\U+2022\U+00AB
  0
XRECORD
  5
3C1
102
{ACAD_REACTORS
330
3C0
102
}
330
3C0
100
AcDbXrecord
280
     1
 40
18800.0
  1
\U+2022i\P\U+00B2\U+00A5
  0
XRECORD
  5
3C3
102
{ACAD_REACTORS
330
3C2
102
}
330
3C2
100
AcDbXrecord
280
     1
 40
18980.0
  1
\U+0090}\P\U+00B2\U+00A5
  0
XRECORD
  5
3C5
102
{ACAD_REACTORS
330
3C4
102
}
330
3C4
100
AcDbXrecord
280
     1
 40
19134.0
  1
\U+0090}\P\U+201D\U+00E5
  0
XRECORD
  5
3C7
102
{ACAD_REACTORS
330
3C6
102
}
330
3C6
100
AcDbXrecord
280
     1
 40
16741.0
  1
\U+2022i \U+201D\U+00E5
  0
XRECORD
  5
3C9
102
{ACAD_REACTORS
330
3C8
102
}
330
3C8
100
AcDbXrecord
280
     1
 40
25568.0
  1
\U+2022i        \U+00B2\U+00A5
  0
XRECORD
  5
3CB
102
{ACAD_REACTORS
330
3CA
102
}
330
3CA
100
AcDbXrecord
280
     1
 40
29091.0
  1
\U+008D\U+00DF   \U+017D\U+00A2
  0
XRECORD
  5
3CD
102
{ACAD_REACTORS
330
3CC
102
}
330
3CC
100
AcDbXrecord
280
     1
 40
13191.0
  1
\U+0090\U+201D %%d%%d
  0
XRECORD
  5
3CF
102
{ACAD_REACTORS
330
3CE
102
}
330
3CE
100
AcDbXrecord
280
     1
 40
53004.0
  1
\U+017Dd   \U+008F\U+00D0   \U+201A\U+00AF
  0
XRECORD
  5
3D1
102
{ACAD_REACTORS
330
3D0
102
}
330
3D0
100
AcDbXrecord
280
     1
 40
18923.0
  1
\U+2039L   \U+017D\U+00B2
  0
XRECORD
  5
3D3
102
{ACAD_REACTORS
330
3D2
102
}
330
3D2
100
AcDbXrecord
280
     1
 40
17447.0
  1
\U+008F\U+00B0  \U+201DF
  0
XRECORD
  5
3D5
102
{ACAD_REACTORS
330
3D4
102
}
330
3D4
100
AcDbXrecord
280
     1
 40
18174.0
  1
\U+0152\U+0081  \U+0090}
  0
XRECORD
  5
3D7
102
{ACAD_REACTORS
330
3D6
102
}
330
3D6
100
AcDbXrecord
280
     1
 40
17643.0
  1
\U+2019S  \U+201C\U+00B2
  0
XRECORD
  5
3D9
102
{ACAD_REACTORS
330
3D8
102
}
330
3D8
100
AcDbXrecord
280
     1
 40
16619.0
  1
\U+017D\U+00D6\U+201Cx
  0
XRECORD
  5
3DB
102
{ACAD_REACTORS
330
3DA
102
}
330
3DA
100
AcDbXrecord
280
     1
 40
671622.0
  1
\U+0192A\U+0192g\U+0192\U+20AC\U+0192\U+0160\U+0192r\U+0192\U+201C\U+0192e\U+0192b\U+0192N\U+0160\U+201D\U+017D\U+00DB\U+2030\U+00FF\U+017D\U+00C5
  0
XRECORD
  5
3DD
102
{ACAD_REACTORS
330
3DC
102
}
330
3DC
100
AcDbXrecord
280
     1
 40
15843.0
  1
\U+00B2{\U+017D\U+00C5
  0
XRECORD
  5
3DF
102
{ACAD_REACTORS
330
3DE
102
}
330
3DE
100
AcDbXrecord
280
     1
 40
274718.0
  1
\U+201C\U+0152\U+2039\U+20AC\U+201Cs\U+2018\U+00F0\U+201C\U+0152\U+2039\U+00CC\U+201C*\U+2019J
  0
XRECORD
  5
3E1
102
{ACAD_REACTORS
330
3E0
102
}
330
3E0
100
AcDbXrecord
280
     1
 40
6388.0
  1
\U+0081\U+00CF
  0
LAYOUT
  5
1E
102
{ACAD_XDICTIONARY
360
39A
102
}
102
{ACAD_REACTORS
330
1A
102
}
330
1A
100
AcDbPlotSettings
  1

  2

  4

  6

 40
0.0
 41
0.0
 42
0.0
 43
0.0
 44
0.0
 45
0.0
 46
0.0
 47
0.0
 48
0.0
 49
0.0
140
0.0
141
0.0
142
1.0
143
1.0
 70
   688
 72
     0
 73
     0
 74
     5
  7

 75
    16
147
1.0
148
0.0
149
0.0
100
AcDbLayout
  1
Layout1
 70
     1
 71
     1
 10
0.0
 20
0.0
 11
12.0
 21
9.0
 12
0.0
 22
0.0
 32
0.0
 14
1.000000000000000E+20
 24
1.000000000000000E+20
 34
1.000000000000000E+20
 15
-1.000000000000000E+20
 25
-1.000000000000000E+20
 35
-1.000000000000000E+20
146
0.0
 13
0.0
 23
0.0
 33
0.0
 16
1.0
 26
0.0
 36
0.0
 17
0.0
 27
1.0
 37
0.0
 76
     0
330
1B
  0
LAYOUT
  5
26
102
{ACAD_XDICTIONARY
360
39E
102
}
102
{ACAD_REACTORS
330
1A
102
}
330
1A
100
AcDbPlotSettings
  1

  2

  4

  6

 40
0.0
 41
0.0
 42
0.0
 43
0.0
 44
0.0
 45
0.0
 46
0.0
 47
0.0
 48
0.0
 49
0.0
140
0.0
141
0.0
142
1.0
143
1.0
 70
   688
 72
     0
 73
     0
 74
     5
  7

 75
    16
147
1.0
148
0.0
149
0.0
100
AcDbLayout
  1
Layout2
 70
     1
 71
     2
 10
0.0
 20
0.0
 11
0.0
 21
0.0
 12
0.0
 22
0.0
 32
0.0
 14
0.0
 24
0.0
 34
0.0
 15
0.0
 25
0.0
 35
0.0
146
0.0
 13
0.0
 23
0.0
 33
0.0
 16
1.0
 26
0.0
 36
0.0
 17
0.0
 27
1.0
 37
0.0
 76
     0
330
23
  0
LAYOUT
  5
22
102
{ACAD_XDICTIONARY
360
39C
102
}
102
{ACAD_REACTORS
330
1A
102
}
330
1A
100
AcDbPlotSettings
  1

  2

  4

  6

 40
0.0
 41
0.0
 42
0.0
 43
0.0
 44
0.0
 45
0.0
 46
0.0
 47
0.0
 48
0.0
 49
0.0
140
0.0
141
0.0
142
1.0
143
1.0
 70
  1712
 72
     0
 73
     0
 74
     0
  7

 75
     0
147
1.0
148
0.0
149
0.0
100
AcDbLayout
  1
Model
 70
     1
 71
     0
 10
0.0
 20
0.0
 11
0.0
 21
0.0
 12
0.0
 22
0.0
 32
0.0
 14
-445.598756626196
 24
-172.0391472970688
 34
0.0
 15
-258.0987566261956
 25
-37.03914729706881
 35
0.0
146
0.0
 13
0.0
 23
0.0
 33
0.0
 16
1.0
 26
0.0
 36
0.0
 17
0.0
 27
1.0
 37
0.0
 76
     0
330
1F
331
29
  0
MATERIAL
  5
2B3
102
{ACAD_XDICTIONARY
360
2B4
102
}
102
{ACAD_REACTORS
330
2AA
102
}
330
2AA
100
AcDbMaterial
  1
ByBlock
 72
     0
 43
0.0208333333333333
 43
0.0
 43
0.0
 43
0.0
 43
0.0
 43
0.0208333333333333
 43
0.0
 43
0.0
 43
0.0
 43
0.0
 43
1.0
 43
0.0
 43
0.0
 43
0.0
 43
0.0
 43
1.0
 77
     0
 47
0.0208333333333333
 47
0.0
 47
0.0
 47
0.0
 47
0.0
 47
0.0208333333333333
 47
0.0
 47
0.0
 47
0.0
 47
0.0
 47
1.0
 47
0.0
 47
0.0
 47
0.0
 47
0.0
 47
1.0
171
     0
 49
0.0208333333333333
 49
0.0
 49
0.0
 49
0.0
 49
0.0
 49
0.0208333333333333
 49
0.0
 49
0.0
 49
0.0
 49
0.0
 49
1.0
 49
0.0
 49
0.0
 49
0.0
 49
0.0
 49
1.0
175
     0
142
0.0208333333333333
142
0.0
142
0.0
142
0.0
142
0.0
142
0.0208333333333333
142
0.0
142
0.0
142
0.0
142
0.0
142
1.0
142
0.0
142
0.0
142
0.0
142
0.0
142
1.0
179
     0
144
0.0208333333333333
144
0.0
144
0.0
144
0.0
144
0.0
144
0.0208333333333333
144
0.0
144
0.0
144
0.0
144
0.0
144
1.0
144
0.0
144
0.0
144
0.0
144
0.0
144
1.0
147
0.0208333333333333
147
0.0
147
0.0
147
0.0
147
0.0
147
0.0208333333333333
147
0.0
147
0.0
147
0.0
147
0.0
147
1.0
147
0.0
147
0.0
147
0.0
147
0.0
147
1.0
  0
MATERIAL
  5
2AB
102
{ACAD_XDICTIONARY
360
2AC
102
}
102
{ACAD_REACTORS
330
2AA
102
}
330
2AA
100
AcDbMaterial
  1
ByLayer
 72
     0
 43
0.0208333333333333
 43
0.0
 43
0.0
 43
0.0
 43
0.0
 43
0.0208333333333333
 43
0.0
 43
0.0
 43
0.0
 43
0.0
 43
1.0
 43
0.0
 43
0.0
 43
0.0
 43
0.0
 43
1.0
 77
     0
 47
0.0208333333333333
 47
0.0
 47
0.0
 47
0.0
 47
0.0
 47
0.0208333333333333
 47
0.0
 47
0.0
 47
0.0
 47
0.0
 47
1.0
 47
0.0
 47
0.0
 47
0.0
 47
0.0
 47
1.0
171
     0
 49
0.0208333333333333
 49
0.0
 49
0.0
 49
0.0
 49
0.0
 49
0.0208333333333333
 49
0.0
 49
0.0
 49
0.0
 49
0.0
 49
1.0
 49
0.0
 49
0.0
 49
0.0
 49
0.0
 49
1.0
175
     0
142
0.0208333333333333
142
0.0
142
0.0
142
0.0
142
0.0
142
0.0208333333333333
142
0.0
142
0.0
142
0.0
142
0.0
142
1.0
142
0.0
142
0.0
142
0.0
142
0.0
142
1.0
179
     0
144
0.0208333333333333
144
0.0
144
0.0
144
0.0
144
0.0
144
0.0208333333333333
144
0.0
144
0.0
144
0.0
144
0.0
144
1.0
144
0.0
144
0.0
144
0.0
144
0.0
144
1.0
147
0.0208333333333333
147
0.0
147
0.0
147
0.0
147
0.0
147
0.0208333333333333
147
0.0
147
0.0
147
0.0
147
0.0
147
1.0
147
0.0
147
0.0
147
0.0
147
0.0
147
1.0
  0
MATERIAL
  5
2BB
102
{ACAD_XDICTIONARY
360
2BC
102
}
102
{ACAD_REACTORS
330
2AA
102
}
330
2AA
100
AcDbMaterial
  1
Global
 72
     0
 43
0.0208333333333333
 43
0.0
 43
0.0
 43
0.0
 43
0.0
 43
0.0208333333333333
 43
0.0
 43
0.0
 43
0.0
 43
0.0
 43
1.0
 43
0.0
 43
0.0
 43
0.0
 43
0.0
 43
1.0
 77
     0
 47
0.0208333333333333
 47
0.0
 47
0.0
 47
0.0
 47
0.0
 47
0.0208333333333333
 47
0.0
 47
0.0
 47
0.0
 47
0.0
 47
1.0
 47
0.0
 47
0.0
 47
0.0
 47
0.0
 47
1.0
171
     0
 49
0.0208333333333333
 49
0.0
 49
0.0
 49
0.0
 49
0.0
 49
0.0208333333333333
 49
0.0
 49
0.0
 49
0.0
 49
0.0
 49
1.0
 49
0.0
 49
0.0
 49
0.0
 49
0.0
 49
1.0
175
     0
142
0.0208333333333333
142
0.0
142
0.0
142
0.0
142
0.0
142
0.0208333333333333
142
0.0
142
0.0
142
0.0
142
0.0
142
1.0
142
0.0
142
0.0
142
0.0
142
0.0
142
1.0
179
     0
144
0.0208333333333333
144
0.0
144
0.0
144
0.0
144
0.0
144
0.0208333333333333
144
0.0
144
0.0
144
0.0
144
0.0
144
1.0
144
0.0
144
0.0
144
0.0
144
0.0
144
1.0
147
0.0208333333333333
147
0.0
147
0.0
147
0.0
147
0.0
147
0.0208333333333333
147
0.0
147
0.0
147
0.0
147
0.0
147
1.0
147
0.0
147
0.0
147
0.0
147
0.0
147
1.0
  0
MLEADERSTYLE
  5
2F2
102
{ACAD_REACTORS
330
2F1
102
}
330
2F1
100
AcDbMLeaderStyle
170
     2
171
     1
172
     0
 90
        2
 40
0.0
 41
0.0
173
     1
 91
-1056964608
340
14
 92
       -2
290
     1
 42
2.0
291
     1
 43
0.36
  3
Standard
 44
4.0
300

342
11
174
     1
178
     6
175
     1
176
     0
 93
-1056964608
 45
4.0
292
     0
297
     0
 46
4.0
 94
-1056964608
 47
1.0
 49
1.0
140
1.0
293
     1
141
0.0
294
     1
177
     0
142
1.0
295
     0
296
     0
143
0.125
1001
ACAD_MLEADERVER
1070
     2
  0
MLINESTYLE
  5
18
102
{ACAD_REACTORS
330
17
102
}
330
17
100
AcDbMlineStyle
  2
STANDARD
 70
     0
  3

 62
   256
 51
90.0
 52
90.0
 71
     2
 49
0.5
 62
   256
  6
BYLAYER
 49
-0.5
 62
   256
  6
BYLAYER
  0
ACDBPLACEHOLDER
  5
F
102
{ACAD_REACTORS
330
E
102
}
330
E
  0
SCALE
  5
2E0
102
{ACAD_REACTORS
330
2DF
102
}
330
2DF
100
AcDbScale
 70
     0
300
1:1
140
1.0
141
1.0
290
     1
  0
SCALE
  5
2E1
102
{ACAD_REACTORS
330
2DF
102
}
330
2DF
100
AcDbScale
 70
     0
300
1:2
140
1.0
141
2.0
290
     0
  0
SCALE
  5
2E2
102
{ACAD_REACTORS
330
2DF
102
}
330
2DF
100
AcDbScale
 70
     0
300
1:4
140
1.0
141
4.0
290
     0
  0
SCALE
  5
2E3
102
{ACAD_REACTORS
330
2DF
102
}
330
2DF
100
AcDbScale
 70
     0
300
1:5
140
1.0
141
5.0
290
     0
  0
SCALE
  5
2E4
102
{ACAD_REACTORS
330
2DF
102
}
330
2DF
100
AcDbScale
 70
     0
300
1:8
140
1.0
141
8.0
290
     0
  0
SCALE
  5
2E5
102
{ACAD_REACTORS
330
2DF
102
}
330
2DF
100
AcDbScale
 70
     0
300
1:10
140
1.0
141
10.0
290
     0
  0
SCALE
  5
2E6
102
{ACAD_REACTORS
330
2DF
102
}
330
2DF
100
AcDbScale
 70
     0
300
1:16
140
1.0
141
16.0
290
     0
  0
SCALE
  5
2E7
102
{ACAD_REACTORS
330
2DF
102
}
330
2DF
100
AcDbScale
 70
     0
300
1:20
140
1.0
141
20.0
290
     0
  0
SCALE
  5
2E8
102
{ACAD_REACTORS
330
2DF
102
}
330
2DF
100
AcDbScale
 70
     0
300
1:30
140
1.0
141
30.0
290
     0
  0
SCALE
  5
2E9
102
{ACAD_REACTORS
330
2DF
102
}
330
2DF
100
AcDbScale
 70
     0
300
1:40
140
1.0
141
40.0
290
     0
  0
SCALE
  5
2EA
102
{ACAD_REACTORS
330
2DF
102
}
330
2DF
100
AcDbScale
 70
     0
300
1:50
140
1.0
141
50.0
290
     0
  0
SCALE
  5
2EB
102
{ACAD_REACTORS
330
2DF
102
}
330
2DF
100
AcDbScale
 70
     0
300
1:100
140
1.0
141
100.0
290
     0
  0
SCALE
  5
2EC
102
{ACAD_REACTORS
330
2DF
102
}
330
2DF
100
AcDbScale
 70
     0
300
2:1
140
2.0
141
1.0
290
     0
  0
SCALE
  5
2ED
102
{ACAD_REACTORS
330
2DF
102
}
330
2DF
100
AcDbScale
 70
     0
300
4:1
140
4.0
141
1.0
290
     0
  0
SCALE
  5
2EE
102
{ACAD_REACTORS
330
2DF
102
}
330
2DF
100
AcDbScale
 70
     0
300
8:1
140
8.0
141
1.0
290
     0
  0
SCALE
  5
2EF
102
{ACAD_REACTORS
330
2DF
102
}
330
2DF
100
AcDbScale
 70
     0
300
10:1
140
10.0
141
1.0
290
     0
  0
SCALE
  5
2F0
102
{ACAD_REACTORS
330
2DF
102
}
330
2DF
100
AcDbScale
 70
     0
300
100:1
140
100.0
141
1.0
290
     0
  0
TABLESTYLE
  5
2DE
102
{ACAD_XDICTIONARY
360
396
102
}
102
{ACAD_REACTORS
330
2DD
102
}
330
2DD
100
AcDbTableStyle
  3
Standard
 70
     0
 71
     0
 40
1.5
 41
1.5
280
     0
281
     0
  7
Standard
140
4.5
170
     2
 62
     0
 63
     7
283
     0
274
    -2
284
     1
 64
     0
275
    -2
285
     1
 65
     0
276
    -2
286
     1
 66
     0
277
    -2
287
     1
 67
     0
278
    -2
288
     1
 68
     0
279
    -2
289
     1
 69
     0
  7
Standard
140
6.0
170
     5
 62
     0
 63
     7
283
     0
274
    -2
284
     1
 64
     0
275
    -2
285
     1
 65
     0
276
    -2
286
     1
 66
     0
277
    -2
287
     1
 67
     0
278
    -2
288
     1
 68
     0
279
    -2
289
     1
 69
     0
  7
Standard
140
4.5
170
     5
 62
     0
 63
     7
283
     0
274
    -2
284
     1
 64
     0
275
    -2
285
     1
 65
     0
276
    -2
286
     1
 66
     0
277
    -2
287
     1
 67
     0
278
    -2
288
     1
 68
     0
279
    -2
289
     1
 69
     0
  0
VISUALSTYLE
  5
2C9
102
{ACAD_XDICTIONARY
360
3EF
102
}
102
{ACAD_REACTORS
330
2C3
102
}
330
2C3
100
AcDbVisualStyle
  2
2dWireframe
 70
     4
 71
     0
 72
     2
 73
     0
 90
        0
 40
-0.6
 41
-30.0
 62
     5
 63
     7
 74
     1
 91
        4
 64
     7
 65
   257
 75
     1
175
     1
 42
1.0
 92
        0
 66
   257
 43
1.0
 76
     1
 77
     6
 78
     2
 67
     7
 79
     5
170
     0
171
     0
290
     0
174
     0
 93
        1
 44
0.0
173
     0
291
     0
 45
0.0
1001
ACAD
1000
AcDbSavedByObjectVersion
1070
     0
  0
VISUALSTYLE
  5
2C8
102
{ACAD_XDICTIONARY
360
3ED
102
}
102
{ACAD_REACTORS
330
2C3
102
}
330
2C3
100
AcDbVisualStyle
  2
Basic
 70
     7
 71
     1
 72
     0
 73
     1
 90
        0
 40
-0.6
 41
-30.0
 62
     5
 63
     7
 74
     0
 91
        4
 64
     7
 65
   257
 75
     1
175
     1
 42
1.0
 92
        8
 66
     7
 43
1.0
 76
     1
 77
     6
 78
     2
 67
     7
 79
     5
170
     0
171
     0
290
     0
174
     0
 93
        1
 44
0.0
173
     0
291
     1
 45
0.0
1001
ACAD
1000
AcDbSavedByObjectVersion
1070
     0
  0
VISUALSTYLE
  5
2CF
102
{ACAD_XDICTIONARY
360
3FB
102
}
102
{ACAD_REACTORS
330
2C3
102
}
330
2C3
100
AcDbVisualStyle
  2
Brighten
 70
    12
 71
     2
 72
     2
 73
     0
 90
        0
 40
-0.6
 41
-30.0
 62
     5
 63
     7
 74
     1
 91
        4
 64
     7
 65
   257
 75
     1
175
     1
 42
1.0
 92
        8
 66
     7
 43
1.0
 76
     1
 77
     6
 78
     2
 67
     7
 79
     5
170
     0
171
     0
290
     0
174
     0
 93
        1
 44
50.0
173
     0
291
     1
 45
0.0
1001
ACAD
1000
AcDbSavedByObjectVersion
1070
     0
  0
VISUALSTYLE
  5
2D3
102
{ACAD_XDICTIONARY
360
403
102
}
102
{ACAD_REACTORS
330
2C3
102
}
330
2C3
100
AcDbVisualStyle
  2
ColorChange
 70
    16
 71
     2
 72
     2
 73
     3
 90
        0
 40
-0.6
 41
-30.0
 62
     5
 63
     8
 74
     1
 91
        4
 64
     7
 65
   257
 75
     1
175
     1
 42
1.0
 92
        8
 66
     8
 43
1.0
 76
     1
 77
     6
 78
     2
 67
     7
 79
     5
170
     0
171
     0
290
     0
174
     0
 93
        1
 44
0.0
173
     0
291
     1
 45
0.0
1001
ACAD
1000
AcDbSavedByObjectVersion
1070
     0
  0
VISUALSTYLE
  5
2CC
102
{ACAD_XDICTIONARY
360
3F5
102
}
102
{ACAD_REACTORS
330
2C3
102
}
330
2C3
100
AcDbVisualStyle
  2
Conceptual
 70
     9
 71
     3
 72
     2
 73
     0
 90
        0
 40
-0.6
 41
-30.0
 62
     5
 63
     7
 74
     2
 91
        2
 64
     7
 65
   257
 75
     1
175
     1
 42
179.0
 92
        8
 66
     7
 43
1.0
 76
     1
 77
     6
 78
     2
 67
     7
 79
     3
170
     0
171
     0
290
     0
174
     0
 93
        1
 44
0.0
173
     0
291
     0
 45
0.0
1001
ACAD
1000
AcDbSavedByObjectVersion
1070
     0
  0
VISUALSTYLE
  5
2CE
102
{ACAD_XDICTIONARY
360
3F9
102
}
102
{ACAD_REACTORS
330
2C3
102
}
330
2C3
100
AcDbVisualStyle
  2
Dim
 70
    11
 71
     2
 72
     2
 73
     0
 90
        0
 40
-0.6
 41
-30.0
 62
     5
 63
     7
 74
     1
 91
        4
 64
     7
 65
   257
 75
     1
175
     1
 42
1.0
 92
        8
 66
     7
 43
1.0
 76
     1
 77
     6
 78
     2
 67
     7
 79
     5
170
     0
171
     0
290
     0
174
     0
 93
        1
 44
-50.0
173
     0
291
     1
 45
0.0
1001
ACAD
1000
AcDbSavedByObjectVersion
1070
     0
  0
VISUALSTYLE
  5
2DB
102
{ACAD_XDICTIONARY
360
413
102
}
102
{ACAD_REACTORS
330
2C3
102
}
330
2C3
100
AcDbVisualStyle
  2
EdgeColorOff
 70
    22
 71
     2
 72
     2
 73
     0
 90
        0
 40
-0.6
 41
-30.0
 62
     5
 63
     7
 74
     1
 91
        4
 64
     7
 65
   257
 75
     1
175
     1
 42
1.0
 92
        8
 66
     7
 43
1.0
 76
     1
 77
     6
 78
     2
 67
     7
 79
     5
170
     0
171
     0
290
     0
174
     0
 93
        1
 44
0.0
173
     0
291
     1
 45
0.0
1001
ACAD
1000
AcDbSavedByObjectVersion
1070
     0
  0
VISUALSTYLE
  5
2D2
102
{ACAD_XDICTIONARY
360
401
102
}
102
{ACAD_REACTORS
330
2C3
102
}
330
2C3
100
AcDbVisualStyle
  2
Facepattern
 70
    15
 71
     2
 72
     2
 73
     0
 90
        0
 40
-0.6
 41
-30.0
 62
     5
 63
     7
 74
     1
 91
        4
 64
     7
 65
   257
 75
     1
175
     1
 42
1.0
 92
        8
 66
     7
 43
1.0
 76
     1
 77
     6
 78
     2
 67
     7
 79
     5
170
     0
171
     0
290
     0
174
     0
 93
        1
 44
0.0
173
     0
291
     1
 45
0.0
1001
ACAD
1000
AcDbSavedByObjectVersion
1070
     0
  0
VISUALSTYLE
  5
2C4
102
{ACAD_XDICTIONARY
360
3E5
102
}
102
{ACAD_REACTORS
330
2C3
102
}
330
2C3
100
AcDbVisualStyle
  2
Flat
 70
     0
 71
     2
 72
     1
 73
     1
 90
        2
 40
-0.6
 41
30.0
 62
     5
 63
     7
 74
     0
 91
        0
 64
     7
 65
   257
 75
     1
175
     1
 42
1.0
 92
        8
 66
     7
 43
1.0
 76
     1
 77
     6
 78
     2
 67
     7
 79
     5
170
     0
171
     0
290
     0
174
     0
 93
       13
 44
0.0
173
     0
291
     1
 45
0.0
1001
ACAD
1000
AcDbSavedByObjectVersion
1070
     0
  0
VISUALSTYLE
  5
2C5
102
{ACAD_XDICTIONARY
360
3E7
102
}
102
{ACAD_REACTORS
330
2C3
102
}
330
2C3
100
AcDbVisualStyle
  2
FlatWithEdges
 70
     1
 71
     2
 72
     1
 73
     1
 90
        2
 40
-0.6
 41
30.0
 62
     5
 63
     7
 74
     1
 91
        0
 64
     7
 65
   257
 75
     1
175
     1
 42
1.0
 92
        0
 66
   257
 43
1.0
 76
     1
 77
     6
 78
     2
 67
     7
 79
     5
170
     0
171
     0
290
     0
174
     0
 93
       13
 44
0.0
173
     0
291
     1
 45
0.0
1001
ACAD
1000
AcDbSavedByObjectVersion
1070
     0
  0
VISUALSTYLE
  5
2C6
102
{ACAD_XDICTIONARY
360
3E9
102
}
102
{ACAD_REACTORS
330
2C3
102
}
330
2C3
100
AcDbVisualStyle
  2
Gouraud
 70
     2
 71
     2
 72
     2
 73
     1
 90
        2
 40
-0.6
 41
30.0
 62
     5
 63
     7
 74
     0
 91
        0
 64
     7
 65
   257
 75
     1
175
     1
 42
1.0
 92
        0
 66
     7
 43
1.0
 76
     1
 77
     6
 78
     2
 67
     7
 79
     5
170
     0
171
     0
290
     0
174
     0
 93
       13
 44
0.0
173
     0
291
     1
 45
0.0
1001
ACAD
1000
AcDbSavedByObjectVersion
1070
     0
  0
VISUALSTYLE
  5
2C7
102
{ACAD_XDICTIONARY
360
3EB
102
}
102
{ACAD_REACTORS
330
2C3
102
}
330
2C3
100
AcDbVisualStyle
  2
GouraudWithEdges
 70
     3
 71
     2
 72
     2
 73
     1
 90
        2
 40
-0.6
 41
30.0
 62
     5
 63
     7
 74
     1
 91
        0
 64
     7
 65
   257
 75
     1
175
     1
 42
1.0
 92
        0
 66
   257
 43
1.0
 76
     1
 77
     6
 78
     2
 67
     7
 79
     5
170
     0
171
     0
290
     0
174
     0
 93
       13
 44
0.0
173
     0
291
     1
 45
0.0
1001
ACAD
1000
AcDbSavedByObjectVersion
1070
     0
  0
VISUALSTYLE
  5
2CB
102
{ACAD_XDICTIONARY
360
3F3
102
}
102
{ACAD_REACTORS
330
2C3
102
}
330
2C3
100
AcDbVisualStyle
  2
Hidden
 70
     6
 71
     1
 72
     2
 73
     2
 90
        0
 40
-0.6
 41
-30.0
 62
     5
 63
     7
 74
     2
 91
        2
 64
     7
 65
   257
 75
     2
175
     1
 42
40.0
 92
        0
 66
   257
 43
1.0
 76
     1
 77
     6
 78
     2
 67
     7
 79
     3
170
     0
171
     0
290
     0
174
     0
 93
        1
 44
0.0
173
     0
291
     0
 45
0.0
1001
ACAD
1000
AcDbSavedByObjectVersion
1070
     0
  0
VISUALSTYLE
  5
2D9
102
{ACAD_XDICTIONARY
360
40F
102
}
102
{ACAD_REACTORS
330
2C3
102
}
330
2C3
100
AcDbVisualStyle
  2
JitterOff
 70
    20
 71
     2
 72
     2
 73
     0
 90
        0
 40
-0.6
 41
-30.0
 62
     5
 63
     7
 74
     1
 91
        4
 64
     7
 65
   257
 75
     1
175
     1
 42
1.0
 92
       10
 66
     7
 43
1.0
 76
     1
 77
     6
 78
     2
 67
     7
 79
     5
170
     0
171
     0
290
     0
174
     0
 93
        1
 44
0.0
173
     0
291
     1
 45
0.0
1001
ACAD
1000
AcDbSavedByObjectVersion
1070
     0
  0
VISUALSTYLE
  5
2D1
102
{ACAD_XDICTIONARY
360
3FF
102
}
102
{ACAD_REACTORS
330
2C3
102
}
330
2C3
100
AcDbVisualStyle
  2
Linepattern
 70
    14
 71
     2
 72
     2
 73
     0
 90
        0
 40
-0.6
 41
-30.0
 62
     5
 63
     7
 74
     1
 91
        4
 64
     7
 65
   257
 75
     7
175
     7
 42
1.0
 92
        8
 66
     7
 43
1.0
 76
     1
 77
     6
 78
     2
 67
     7
 79
     5
170
     0
171
     0
290
     0
174
     0
 93
        1
 44
0.0
173
     0
291
     1
 45
0.0
1001
ACAD
1000
AcDbSavedByObjectVersion
1070
     0
  0
VISUALSTYLE
  5
2DA
102
{ACAD_XDICTIONARY
360
411
102
}
102
{ACAD_REACTORS
330
2C3
102
}
330
2C3
100
AcDbVisualStyle
  2
OverhangOff
 70
    21
 71
     2
 72
     2
 73
     0
 90
        0
 40
-0.6
 41
-30.0
 62
     5
 63
     7
 74
     1
 91
        4
 64
     7
 65
   257
 75
     1
175
     1
 42
1.0
 92
        9
 66
     7
 43
1.0
 76
     1
 77
     6
 78
     2
 67
     7
 79
     5
170
     0
171
     0
290
     0
174
     0
 93
        1
 44
0.0
173
     0
291
     1
 45
0.0
1001
ACAD
1000
AcDbSavedByObjectVersion
1070
     0
  0
VISUALSTYLE
  5
2CD
102
{ACAD_XDICTIONARY
360
3F7
102
}
102
{ACAD_REACTORS
330
2C3
102
}
330
2C3
100
AcDbVisualStyle
  2
Realistic
 70
     8
 71
     2
 72
     3
 73
     0
 90
        2
 40
-0.6
 41
30.0
 62
     5
 63
     7
 74
     0
 91
        0
 64
     7
 65
   257
 75
     1
175
     1
 42
1.0
 92
        8
 66
   257
 43
1.0
 76
     1
 77
     6
 78
     2
 67
     7
 79
     3
170
     0
171
     0
290
     0
174
     0
 93
       13
 44
0.0
173
     0
291
     0
 45
0.0
1001
ACAD
1000
AcDbSavedByObjectVersion
1070
     0
  0
VISUALSTYLE
  5
2D8
102
{ACAD_XDICTIONARY
360
40D
102
}
102
{ACAD_REACTORS
330
2C3
102
}
330
2C3
100
AcDbVisualStyle
  2
Shaded
 70
    27
 71
     2
 72
     2
 73
     1
 90
        2
 40
-0.6
 41
30.0
 62
     5
 63
     7
 74
     0
 91
        4
 64
     7
 65
   257
 75
     1
175
     1
 42
1.0
 92
        8
 66
   257
 43
1.0
 76
     1
 77
     6
 78
     2
 67
     8
 79
     3
170
     0
171
     0
290
     0
174
     0
 93
        5
 44
0.0
173
     0
291
     0
 45
0.0
1001
ACAD
1000
AcDbSavedByObjectVersion
1070
     0
  0
VISUALSTYLE
  5
2D7
102
{ACAD_XDICTIONARY
360
40B
102
}
102
{ACAD_REACTORS
330
2C3
102
}
330
2C3
100
AcDbVisualStyle
  2
Shaded with edges
 70
    26
 71
     2
 72
     2
 73
     1
 90
        2
 40
-0.6
 41
30.0
 62
     5
 63
     7
 74
     1
 91
       10
 64
     7
 65
   257
 75
     2
175
     1
 42
1.0
 92
        8
 66
   257
 43
1.0
 76
     1
 77
     6
 78
     2
 67
     7
 79
     3
170
     0
171
     0
290
     0
174
     0
 93
        5
 44
0.0
173
     0
291
     0
 45
0.0
1001
ACAD
1000
AcDbSavedByObjectVersion
1070
     0
  0
VISUALSTYLE
  5
2D4
102
{ACAD_XDICTIONARY
360
405
102
}
102
{ACAD_REACTORS
330
2C3
102
}
330
2C3
100
AcDbVisualStyle
  2
Shades of Gray
 70
    23
 71
     2
 72
     2
 73
     3
 90
        0
 40
-0.6
 41
-30.0
 62
     5
 63
     7
 74
     2
 91
        2
 64
     7
 65
     7
 75
     1
175
     1
 42
40.0
 92
        8
 66
     7
 43
1.0
 76
     1
 77
     6
 78
     2
 67
     7
 79
     3
170
     0
171
     0
290
     0
174
     0
 93
        1
 44
0.0
173
     0
291
     0
 45
0.0
1001
ACAD
1000
AcDbSavedByObjectVersion
1070
     0
  0
VISUALSTYLE
  5
2D5
102
{ACAD_XDICTIONARY
360
407
102
}
102
{ACAD_REACTORS
330
2C3
102
}
330
2C3
100
AcDbVisualStyle
  2
Sketchy
 70
    24
 71
     1
 72
     2
 73
     2
 90
        0
 40
-0.6
 41
-30.0
 62
     5
 63
     7
 74
     2
 91
        2
 64
     7
 65
     7
 75
     1
175
     1
 42
40.0
 92
       11
 66
     7
 43
1.0
 76
     1
 77
     6
 78
     2
 67
     7
 79
     6
170
     0
171
     0
290
     0
174
     0
 93
        1
 44
0.0
173
     0
291
     0
 45
0.0
1001
ACAD
1000
AcDbSavedByObjectVersion
1070
     0
  0
VISUALSTYLE
  5
2D0
102
{ACAD_XDICTIONARY
360
3FD
102
}
102
{ACAD_REACTORS
330
2C3
102
}
330
2C3
100
AcDbVisualStyle
  2
Thicken
 70
    13
 71
     2
 72
     2
 73
     0
 90
        0
 40
-0.6
 41
-30.0
 62
     5
 63
     7
 74
     1
 91
        4
 64
     7
 65
   257
 75
     1
175
     1
 42
1.0
 92
       12
 66
     7
 43
1.0
 76
     1
 77
     6
 78
     2
 67
     7
 79
     5
170
     0
171
     0
290
     0
174
     0
 93
        1
 44
0.0
173
     0
291
     1
 45
0.0
1001
ACAD
1000
AcDbSavedByObjectVersion
1070
     0
  0
VISUALSTYLE
  5
2CA
102
{ACAD_XDICTIONARY
360
3F1
102
}
102
{ACAD_REACTORS
330
2C3
102
}
330
2C3
100
AcDbVisualStyle
  2
Wireframe
 70
     5
 71
     0
 72
     2
 73
     0
 90
        0
 40
-0.6
 41
-30.0
 62
     5
 63
     7
 74
     1
 91
        4
 64
     7
 65
   257
 75
     1
175
     1
 42
1.0
 92
        0
 66
   257
 43
1.0
 76
     1
 77
     6
 78
     2
 67
     7
 79
     3
170
     0
171
     0
290
     0
174
     0
 93
        1
 44
0.0
173
     0
291
     0
 45
0.0
1001
ACAD
1000
AcDbSavedByObjectVersion
1070
     0
  0
VISUALSTYLE
  5
2D6
102
{ACAD_XDICTIONARY
360
409
102
}
102
{ACAD_REACTORS
330
2C3
102
}
330
2C3
100
AcDbVisualStyle
  2
X-Ray
 70
    25
 71
     2
 72
     2
 73
     1
 90
        1
 40
0.5
 41
-30.0
 62
     5
 63
     7
 74
     1
 91
        0
 64
     7
 65
   257
 75
     1
175
     1
 42
1.0
 92
        8
 66
     7
 43
1.0
 76
     1
 77
     6
 78
     2
 67
     7
 79
     3
170
     0
171
     0
290
     0
174
     0
 93
       13
 44
0.0
173
     0
291
     0
 45
0.0
1001
ACAD
1000
AcDbSavedByObjectVersion
1070
     0
  0
DICTIONARYVAR
  5
390
102
{ACAD_REACTORS
330
38D
102
}
330
38D
100
DictionaryVariables
280
     0
  1
1:1
  0
DICTIONARYVAR
  5
38F
102
{ACAD_REACTORS
330
38D
102
}
330
38D
100
DictionaryVariables
280
     0
  1
STANDARD
  0
DICTIONARYVAR
  5
38E
102
{ACAD_REACTORS
330
38D
102
}
330
38D
100
DictionaryVariables
280
     0
  1
STANDARD
  0
DICTIONARYVAR
  5
393
102
{ACAD_REACTORS
330
38D
102
}
330
38D
100
DictionaryVariables
280
     0
  1
1
  0
DICTIONARYVAR
  5
392
102
{ACAD_REACTORS
330
38D
102
}
330
38D
100
DictionaryVariables
280
     0
  1
0
  0
DICTIONARYVAR
  5
391
102
{ACAD_REACTORS
330
38D
102
}
330
38D
100
DictionaryVariables
280
     0
  1
127
  0
DICTIONARYVAR
  5
394
102
{ACAD_REACTORS
330
38D
102
}
330
38D
100
DictionaryVariables
280
     0
  1
2
  0
DICTIONARY
  5
39A
330
1E
100
AcDbDictionary
280
     1
281
     1
  3
ACAD_XREC_ROUNDTRIP
360
39B
  0
DICTIONARY
  5
39E
330
26
100
AcDbDictionary
280
     1
281
     1
  3
ACAD_XREC_ROUNDTRIP
360
39F
  0
DICTIONARY
  5
39C
330
22
100
AcDbDictionary
280
     1
281
     1
  3
ACAD_XREC_ROUNDTRIP
360
39D
  0
DICTIONARY
  5
2B4
330
2B3
100
AcDbDictionary
280
     1
281
     1
  3
ACAD_XREC_ROUNDTRIP
360
3E3
  3
BUMPTILE
360
2B6
  3
DIFFUSETILE
360
2B5
  3
OPACITYTILE
360
2B9
  3
REFLECTIONTILE
360
2B8
  3
REFRACTIONTILE
360
2BA
  3
SPECULARTILE
360
2B7
  0
DICTIONARY
  5
2AC
330
2AB
100
AcDbDictionary
280
     1
281
     1
  3
ACAD_XREC_ROUNDTRIP
360
3E2
  3
BUMPTILE
360
2AE
  3
DIFFUSETILE
360
2AD
  3
OPACITYTILE
360
2B1
  3
REFLECTIONTILE
360
2B0
  3
REFRACTIONTILE
360
2B2
  3
SPECULARTILE
360
2AF
  0
DICTIONARY
  5
2BC
330
2BB
100
AcDbDictionary
280
     1
281
     1
  3
ACAD_XREC_ROUNDTRIP
360
3E4
  3
BUMPTILE
360
2BE
  3
DIFFUSETILE
360
2BD
  3
OPACITYTILE
360
2C1
  3
REFLECTIONTILE
360
2C0
  3
REFRACTIONTILE
360
2C2
  3
SPECULARTILE
360
2BF
  0
DICTIONARY
  5
396
330
2DE
100
AcDbDictionary
280
     1
281
     1
  3
ACAD_ROUNDTRIP_2008_TABLESTYLE_CELLSTYLEMAP
360
397
  3
ACAD_XREC_ROUNDTRIP
360
415
  0
DICTIONARY
  5
3EF
330
2C9
100
AcDbDictionary
280
     1
281
     1
  3
ACAD_XREC_ROUNDTRIP
360
3F0
  0
DICTIONARY
  5
3ED
330
2C8
100
AcDbDictionary
280
     1
281
     1
  3
ACAD_XREC_ROUNDTRIP
360
3EE
  0
DICTIONARY
  5
3FB
330
2CF
100
AcDbDictionary
280
     1
281
     1
  3
ACAD_XREC_ROUNDTRIP
360
3FC
  0
DICTIONARY
  5
403
330
2D3
100
AcDbDictionary
280
     1
281
     1
  3
ACAD_XREC_ROUNDTRIP
360
404
  0
DICTIONARY
  5
3F5
330
2CC
100
AcDbDictionary
280
     1
281
     1
  3
ACAD_XREC_ROUNDTRIP
360
3F6
  0
DICTIONARY
  5
3F9
330
2CE
100
AcDbDictionary
280
     1
281
     1
  3
ACAD_XREC_ROUNDTRIP
360
3FA
  0
DICTIONARY
  5
413
330
2DB
100
AcDbDictionary
280
     1
281
     1
  3
ACAD_XREC_ROUNDTRIP
360
414
  0
DICTIONARY
  5
401
330
2D2
100
AcDbDictionary
280
     1
281
     1
  3
ACAD_XREC_ROUNDTRIP
360
402
  0
DICTIONARY
  5
3E5
330
2C4
100
AcDbDictionary
280
     1
281
     1
  3
ACAD_XREC_ROUNDTRIP
360
3E6
  0
DICTIONARY
  5
3E7
330
2C5
100
AcDbDictionary
280
     1
281
     1
  3
ACAD_XREC_ROUNDTRIP
360
3E8
  0
DICTIONARY
  5
3E9
330
2C6
100
AcDbDictionary
280
     1
281
     1
  3
ACAD_XREC_ROUNDTRIP
360
3EA
  0
DICTIONARY
  5
3EB
330
2C7
100
AcDbDictionary
280
     1
281
     1
  3
ACAD_XREC_ROUNDTRIP
360
3EC
  0
DICTIONARY
  5
3F3
330
2CB
100
AcDbDictionary
280
     1
281
     1
  3
ACAD_XREC_ROUNDTRIP
360
3F4
  0
DICTIONARY
  5
40F
330
2D9
100
AcDbDictionary
280
     1
281
     1
  3
ACAD_XREC_ROUNDTRIP
360
410
  0
DICTIONARY
  5
3FF
330
2D1
100
AcDbDictionary
280
     1
281
     1
  3
ACAD_XREC_ROUNDTRIP
360
400
  0
DICTIONARY
  5
411
330
2DA
100
AcDbDictionary
280
     1
281
     1
  3
ACAD_XREC_ROUNDTRIP
360
412
  0
DICTIONARY
  5
3F7
330
2CD
100
AcDbDictionary
280
     1
281
     1
  3
ACAD_XREC_ROUNDTRIP
360
3F8
  0
DICTIONARY
  5
40D
330
2D8
100
AcDbDictionary
280
     1
281
     1
  3
ACAD_XREC_ROUNDTRIP
360
40E
  0
DICTIONARY
  5
40B
330
2D7
100
AcDbDictionary
280
     1
281
     1
  3
ACAD_XREC_ROUNDTRIP
360
40C
  0
DICTIONARY
  5
405
330
2D4
100
AcDbDictionary
280
     1
281
     1
  3
ACAD_XREC_ROUNDTRIP
360
406
  0
DICTIONARY
  5
407
330
2D5
100
AcDbDictionary
280
     1
281
     1
  3
ACAD_XREC_ROUNDTRIP
360
408
  0
DICTIONARY
  5
3FD
330
2D0
100
AcDbDictionary
280
     1
281
     1
  3
ACAD_XREC_ROUNDTRIP
360
3FE
  0
DICTIONARY
  5
3F1
330
2CA
100
AcDbDictionary
280
     1
281
     1
  3
ACAD_XREC_ROUNDTRIP
360
3F2
  0
DICTIONARY
  5
409
330
2D6
100
AcDbDictionary
280
     1
281
     1
  3
ACAD_XREC_ROUNDTRIP
360
40A
  0
XRECORD
  5
39B
102
{ACAD_REACTORS
330
39A
102
}
330
39A
100
AcDbXrecord
280
     1
102
SHADEPLOT
 70
     0
102
SHADEPLOTRESLEVEL
 70
     2
102
SHADEPLOTCUSTOMDPI
 70
   300
  0
XRECORD
  5
39F
102
{ACAD_REACTORS
330
39E
102
}
330
39E
100
AcDbXrecord
280
     1
102
SHADEPLOT
 70
     0
102
SHADEPLOTRESLEVEL
 70
     2
102
SHADEPLOTCUSTOMDPI
 70
   300
  0
XRECORD
  5
39D
102
{ACAD_REACTORS
330
39C
102
}
330
39C
100
AcDbXrecord
280
     1
102
SHADEPLOT
 70
     0
102
SHADEPLOTRESLEVEL
 70
     2
102
SHADEPLOTCUSTOMDPI
 70
   300
  0
XRECORD
  5
3E3
102
{ACAD_REACTORS
330
2B4
102
}
330
2B4
100
AcDbXrecord
280
     1
102
MATERIAL
148
0.0
149
0.0
149
0.0
 93
        0
 94
      127
282
     0
 72
     0
 77
     0
171
     0
175
     0
179
     0
273
     0
  0
XRECORD
  5
2B6
102
{ACAD_REACTORS
330
2B4
102
}
330
2B4
100
AcDbXrecord
280
     1
270
     1
271
     1
  0
XRECORD
  5
2B5
102
{ACAD_REACTORS
330
2B4
102
}
330
2B4
100
AcDbXrecord
280
     1
270
     1
271
     1
  0
XRECORD
  5
2B9
102
{ACAD_REACTORS
330
2B4
102
}
330
2B4
100
AcDbXrecord
280
     1
270
     1
271
     1
  0
XRECORD
  5
2B8
102
{ACAD_REACTORS
330
2B4
102
}
330
2B4
100
AcDbXrecord
280
     1
270
     1
271
     1
  0
XRECORD
  5
2BA
102
{ACAD_REACTORS
330
2B4
102
}
330
2B4
100
AcDbXrecord
280
     1
270
     1
271
     1
  0
XRECORD
  5
2B7
102
{ACAD_REACTORS
330
2B4
102
}
330
2B4
100
AcDbXrecord
280
     1
270
     1
271
     1
  0
XRECORD
  5
3E2
102
{ACAD_REACTORS
330
2AC
102
}
330
2AC
100
AcDbXrecord
280
     1
102
MATERIAL
148
0.0
149
0.0
149
0.0
 93
        0
 94
      127
282
     0
 72
     0
 77
     0
171
     0
175
     0
179
     0
273
     0
  0
XRECORD
  5
2AE
102
{ACAD_REACTORS
330
2AC
102
}
330
2AC
100
AcDbXrecord
280
     1
270
     1
271
     1
  0
XRECORD
  5
2AD
102
{ACAD_REACTORS
330
2AC
102
}
330
2AC
100
AcDbXrecord
280
     1
270
     1
271
     1
  0
XRECORD
  5
2B1
102
{ACAD_REACTORS
330
2AC
102
}
330
2AC
100
AcDbXrecord
280
     1
270
     1
271
     1
  0
XRECORD
  5
2B0
102
{ACAD_REACTORS
330
2AC
102
}
330
2AC
100
AcDbXrecord
280
     1
270
     1
271
     1
  0
XRECORD
  5
2B2
102
{ACAD_REACTORS
330
2AC
102
}
330
2AC
100
AcDbXrecord
280
     1
270
     1
271
     1
  0
XRECORD
  5
2AF
102
{ACAD_REACTORS
330
2AC
102
}
330
2AC
100
AcDbXrecord
280
     1
270
     1
271
     1
  0
XRECORD
  5
3E4
102
{ACAD_REACTORS
330
2BC
102
}
330
2BC
100
AcDbXrecord
280
     1
102
MATERIAL
148
0.0
149
0.0
149
0.0
 93
        0
 94
      127
282
     0
 72
     0
 77
     0
171
     0
175
     0
179
     0
273
     0
  0
XRECORD
  5
2BE
102
{ACAD_REACTORS
330
2BC
102
}
330
2BC
100
AcDbXrecord
280
     1
270
     1
271
     1
  0
XRECORD
  5
2BD
102
{ACAD_REACTORS
330
2BC
102
}
330
2BC
100
AcDbXrecord
280
     1
270
     1
271
     1
  0
XRECORD
  5
2C1
102
{ACAD_REACTORS
330
2BC
102
}
330
2BC
100
AcDbXrecord
280
     1
270
     1
271
     1
  0
XRECORD
  5
2C0
102
{ACAD_REACTORS
330
2BC
102
}
330
2BC
100
AcDbXrecord
280
     1
270
     1
271
     1
  0
XRECORD
  5
2C2
102
{ACAD_REACTORS
330
2BC
102
}
330
2BC
100
AcDbXrecord
280
     1
270
     1
271
     1
  0
XRECORD
  5
2BF
102
{ACAD_REACTORS
330
2BC
102
}
330
2BC
100
AcDbXrecord
280
     1
270
     1
271
     1
  0
CELLSTYLEMAP
  5
397
102
{ACAD_REACTORS
330
396
102
}
330
396
100
AcDbCellStyleMap
 90
        3
300
CELLSTYLE
  1
TABLEFORMAT_BEGIN
 90
        5
170
     1
 91
        0
 92
    32768
 62
   257
 93
        1
300
CONTENTFORMAT
  1
CONTENTFORMAT_BEGIN
 90
        0
 91
        0
 92
      512
 93
        0
300

 40
0.0
140
1.0
 94
        5
 62
     0
340
11
144
6.0
309
CONTENTFORMAT_END
171
     1
301
MARGIN
  1
CELLMARGIN_BEGIN
 40
1.5
 40
1.5
 40
1.5
 40
1.5
 40
4.5
 40
4.5
309
CELLMARGIN_END
 94
        6
 95
        1
302
GRIDFORMAT
  1
GRIDFORMAT_BEGIN
 90
        0
 91
        1
 62
     0
 92
       -2
340
0
 93
        0
 40
1.125
309
GRIDFORMAT_END
 95
        2
302
GRIDFORMAT
  1
GRIDFORMAT_BEGIN
 90
        0
 91
        1
 62
     0
 92
       -2
340
0
 93
        0
 40
1.125
309
GRIDFORMAT_END
 95
        4
302
GRIDFORMAT
  1
GRIDFORMAT_BEGIN
 90
        0
 91
        1
 62
     0
 92
       -2
340
0
 93
        0
 40
1.125
309
GRIDFORMAT_END
 95
        8
302
GRIDFORMAT
  1
GRIDFORMAT_BEGIN
 90
        0
 91
        1
 62
     0
 92
       -2
340
0
 93
        0
 40
1.125
309
GRIDFORMAT_END
 95
       16
302
GRIDFORMAT
  1
GRIDFORMAT_BEGIN
 90
        0
 91
        1
 62
     0
 92
       -2
340
0
 93
        0
 40
1.125
309
GRIDFORMAT_END
 95
       32
302
GRIDFORMAT
  1
GRIDFORMAT_BEGIN
 90
        0
 91
        1
 62
     0
 92
       -2
340
0
 93
        0
 40
1.125
309
GRIDFORMAT_END
309
TABLEFORMAT_END
  1
CELLSTYLE_BEGIN
 90
        1
 91
        1
300
_TITLE
309
CELLSTYLE_END
300
CELLSTYLE
  1
TABLEFORMAT_BEGIN
 90
        5
170
     1
 91
        0
 92
        0
 62
   257
 93
        1
300
CONTENTFORMAT
  1
CONTENTFORMAT_BEGIN
 90
        0
 91
        0
 92
      512
 93
        0
300

 40
0.0
140
1.0
 94
        5
 62
     0
340
11
144
4.5
309
CONTENTFORMAT_END
171
     1
301
MARGIN
  1
CELLMARGIN_BEGIN
 40
1.5
 40
1.5
 40
1.5
 40
1.5
 40
4.5
 40
4.5
309
CELLMARGIN_END
 94
        6
 95
        1
302
GRIDFORMAT
  1
GRIDFORMAT_BEGIN
 90
        0
 91
        1
 62
     0
 92
       -2
340
0
 93
        0
 40
1.125
309
GRIDFORMAT_END
 95
        2
302
GRIDFORMAT
  1
GRIDFORMAT_BEGIN
 90
        0
 91
        1
 62
     0
 92
       -2
340
0
 93
        0
 40
1.125
309
GRIDFORMAT_END
 95
        4
302
GRIDFORMAT
  1
GRIDFORMAT_BEGIN
 90
        0
 91
        1
 62
     0
 92
       -2
340
0
 93
        0
 40
1.125
309
GRIDFORMAT_END
 95
        8
302
GRIDFORMAT
  1
GRIDFORMAT_BEGIN
 90
        0
 91
        1
 62
     0
 92
       -2
340
0
 93
        0
 40
1.125
309
GRIDFORMAT_END
 95
       16
302
GRIDFORMAT
  1
GRIDFORMAT_BEGIN
 90
        0
 91
        1
 62
     0
 92
       -2
340
0
 93
        0
 40
1.125
309
GRIDFORMAT_END
 95
       32
302
GRIDFORMAT
  1
GRIDFORMAT_BEGIN
 90
        0
 91
        1
 62
     0
 92
       -2
340
0
 93
        0
 40
1.125
309
GRIDFORMAT_END
309
TABLEFORMAT_END
  1
CELLSTYLE_BEGIN
 90
        2
 91
        1
300
_HEADER
309
CELLSTYLE_END
300
CELLSTYLE
  1
TABLEFORMAT_BEGIN
 90
        5
170
     1
 91
        0
 92
        0
 62
   257
 93
        1
300
CONTENTFORMAT
  1
CONTENTFORMAT_BEGIN
 90
        0
 91
        0
 92
      512
 93
        0
300

 40
0.0
140
1.0
 94
        2
 62
     0
340
11
144
4.5
309
CONTENTFORMAT_END
171
     1
301
MARGIN
  1
CELLMARGIN_BEGIN
 40
1.5
 40
1.5
 40
1.5
 40
1.5
 40
4.5
 40
4.5
309
CELLMARGIN_END
 94
        6
 95
        1
302
GRIDFORMAT
  1
GRIDFORMAT_BEGIN
 90
        0
 91
        1
 62
     0
 92
       -2
340
0
 93
        0
 40
1.125
309
GRIDFORMAT_END
 95
        2
302
GRIDFORMAT
  1
GRIDFORMAT_BEGIN
 90
        0
 91
        1
 62
     0
 92
       -2
340
0
 93
        0
 40
1.125
309
GRIDFORMAT_END
 95
        4
302
GRIDFORMAT
  1
GRIDFORMAT_BEGIN
 90
        0
 91
        1
 62
     0
 92
       -2
340
0
 93
        0
 40
1.125
309
GRIDFORMAT_END
 95
        8
302
GRIDFORMAT
  1
GRIDFORMAT_BEGIN
 90
        0
 91
        1
 62
     0
 92
       -2
340
0
 93
        0
 40
1.125
309
GRIDFORMAT_END
 95
       16
302
GRIDFORMAT
  1
GRIDFORMAT_BEGIN
 90
        0
 91
        1
 62
     0
 92
       -2
340
0
 93
        0
 40
1.125
309
GRIDFORMAT_END
 95
       32
302
GRIDFORMAT
  1
GRIDFORMAT_BEGIN
 90
        0
 91
        1
 62
     0
 92
       -2
340
0
 93
        0
 40
1.125
309
GRIDFORMAT_END
309
TABLEFORMAT_END
  1
CELLSTYLE_BEGIN
 90
        3
 91
        2
300
_DATA
309
CELLSTYLE_END
  0
XRECORD
  5
415
102
{ACAD_REACTORS
330
396
102
}
330
396
100
AcDbXrecord
280
     1
102
ACAD_ROUNDTRIP_PRE2007_TABLESTYLE
 90
      512
 91
        0
  1

 92
      512
 93
        0
  2

 94
      512
 95
        0
  3

  0
XRECORD
  5
3F0
102
{ACAD_REACTORS
330
3EF
102
}
330
3EF
100
AcDbXrecord
280
     1
102
RTVSPropertyOp0
 70
     1
102
RTVSPropertyOp1
 70
     1
102
RTVSPropertyOp2
 70
     1
102
RTVSPropertyOp3
 70
     1
102
RTVSPropertyOp4
 70
     1
102
RTVSPropertyOp5
 70
     1
102
RTVSPropertyOp6
 70
     1
102
RTVSPropertyOp7
 70
     1
102
RTVSPropertyOp8
 70
     1
102
RTVSPropertyOp9
 70
     1
102
RTVSPropertyOp10
 70
     1
102
RTVSPropertyOp11
 70
     1
102
RTVSPropertyOp12
 70
     1
102
RTVSPropertyOp13
 70
     1
102
RTVSPropertyOp14
 70
     1
102
RTVSPropertyOp15
 70
     1
102
RTVSPropertyOp16
 70
     1
102
RTVSPropertyOp17
 70
     1
102
RTVSPropertyOp18
 70
     1
102
RTVSPropertyOp19
 70
     1
102
RTVSPropertyOp20
 70
     1
102
RTVSPropertyOp21
 70
     1
102
RTVSPropertyOp22
 70
     1
102
RTVSPropertyOp23
 70
     1
102
RTVSPropertyOp24
 70
     1
102
RTVSPropertyOp25
 70
     1
102
RTVSPropertyOp26
 70
     1
102
RTVSPropertyOp27
 70
     1
102
RTVSPropertyOp28
 70
     1
102
RTVSPropertyOp29
 70
     1
102
RTVSPropertyOp30
 70
     1
102
RTVSPropertyOp31
 70
     1
102
RTVSPropertyOp32
 70
     1
  0
XRECORD
  5
3EE
102
{ACAD_REACTORS
330
3ED
102
}
330
3ED
100
AcDbXrecord
280
     1
102
RTVSPropertyOp0
 70
     1
102
RTVSPropertyOp1
 70
     1
102
RTVSPropertyOp2
 70
     1
102
RTVSPropertyOp3
 70
     1
102
RTVSPropertyOp4
 70
     1
102
RTVSPropertyOp5
 70
     1
102
RTVSPropertyOp6
 70
     1
102
RTVSPropertyOp7
 70
     1
102
RTVSPropertyOp8
 70
     1
102
RTVSPropertyOp9
 70
     1
102
RTVSPropertyOp10
 70
     1
102
RTVSPropertyOp11
 70
     1
102
RTVSPropertyOp12
 70
     1
102
RTVSPropertyOp13
 70
     1
102
RTVSPropertyOp14
 70
     1
102
RTVSPropertyOp15
 70
     1
102
RTVSPropertyOp16
 70
     1
102
RTVSPropertyOp17
 70
     1
102
RTVSPropertyOp18
 70
     1
102
RTVSPropertyOp19
 70
     1
102
RTVSPropertyOp20
 70
     1
102
RTVSPropertyOp21
 70
     1
102
RTVSPropertyOp22
 70
     1
102
RTVSPropertyOp23
 70
     1
102
RTVSPropertyOp24
 70
     1
102
RTVSPropertyOp25
 70
     1
102
RTVSPropertyOp26
 70
     1
102
RTVSPropertyOp27
 70
     1
102
RTVSPropertyOp28
 70
     1
102
RTVSPropertyOp29
 70
     1
102
RTVSPropertyOp30
 70
     1
102
RTVSPropertyOp31
 70
     1
102
RTVSPropertyOp32
 70
     1
  0
XRECORD
  5
3FC
102
{ACAD_REACTORS
330
3FB
102
}
330
3FB
100
AcDbXrecord
280
     1
102
RTVSPropertyOp0
 70
     1
102
RTVSPropertyOp1
 70
     1
102
RTVSPropertyOp2
 70
     1
102
RTVSPropertyOp3
 70
     1
102
RTVSPropertyOp4
 70
     1
102
RTVSPropertyOp5
 70
     1
102
RTVSPropertyOp6
 70
     1
102
RTVSPropertyOp7
 70
     1
102
RTVSPropertyOp8
 70
     1
102
RTVSPropertyOp9
 70
     1
102
RTVSPropertyOp10
 70
     1
102
RTVSPropertyOp11
 70
     1
102
RTVSPropertyOp12
 70
     1
102
RTVSPropertyOp13
 70
     1
102
RTVSPropertyOp14
 70
     1
102
RTVSPropertyOp15
 70
     1
102
RTVSPropertyOp16
 70
     1
102
RTVSPropertyOp17
 70
     1
102
RTVSPropertyOp18
 70
     1
102
RTVSPropertyOp19
 70
     1
102
RTVSPropertyOp20
 70
     1
102
RTVSPropertyOp21
 70
     1
102
RTVSPropertyOp22
 70
     1
102
RTVSPropertyOp23
 70
     1
102
RTVSPropertyOp24
 70
     1
102
RTVSPropertyOp25
 70
     1
102
RTVSPropertyOp26
 70
     1
102
RTVSPropertyOp27
 70
     1
102
RTVSPropertyOp28
 70
     1
102
RTVSPropertyOp29
 70
     1
102
RTVSPropertyOp30
 70
     1
102
RTVSPropertyOp31
 70
     1
102
RTVSPropertyOp32
 70
     1
  0
XRECORD
  5
404
102
{ACAD_REACTORS
330
403
102
}
330
403
100
AcDbXrecord
280
     1
102
RTVSPropertyOp0
 70
     1
102
RTVSPropertyOp1
 70
     1
102
RTVSPropertyOp2
 70
     1
102
RTVSPropertyOp3
 70
     1
102
RTVSPropertyOp4
 70
     1
102
RTVSPropertyOp5
 70
     1
102
RTVSPropertyOp6
 70
     1
102
RTVSPropertyOp7
 70
     1
102
RTVSPropertyOp8
 70
     1
102
RTVSPropertyOp9
 70
     1
102
RTVSPropertyOp10
 70
     1
102
RTVSPropertyOp11
 70
     1
102
RTVSPropertyOp12
 70
     1
102
RTVSPropertyOp13
 70
     1
102
RTVSPropertyOp14
 70
     1
102
RTVSPropertyOp15
 70
     1
102
RTVSPropertyOp16
 70
     1
102
RTVSPropertyOp17
 70
     1
102
RTVSPropertyOp18
 70
     1
102
RTVSPropertyOp19
 70
     1
102
RTVSPropertyOp20
 70
     1
102
RTVSPropertyOp21
 70
     1
102
RTVSPropertyOp22
 70
     1
102
RTVSPropertyOp23
 70
     1
102
RTVSPropertyOp24
 70
     1
102
RTVSPropertyOp25
 70
     1
102
RTVSPropertyOp26
 70
     1
102
RTVSPropertyOp27
 70
     1
102
RTVSPropertyOp28
 70
     1
102
RTVSPropertyOp29
 70
     1
102
RTVSPropertyOp30
 70
     1
102
RTVSPropertyOp31
 70
     1
102
RTVSPropertyOp32
 70
     1
  0
XRECORD
  5
3F6
102
{ACAD_REACTORS
330
3F5
102
}
330
3F5
100
AcDbXrecord
280
     1
102
RTVSPropertyOp0
 70
     1
102
RTVSPropertyOp1
 70
     1
102
RTVSPropertyOp2
 70
     1
102
RTVSPropertyOp3
 70
     1
102
RTVSPropertyOp4
 70
     1
102
RTVSPropertyOp5
 70
     1
102
RTVSPropertyOp6
 70
     1
102
RTVSPropertyOp7
 70
     1
102
RTVSPropertyOp8
 70
     1
102
RTVSPropertyOp9
 70
     1
102
RTVSPropertyOp10
 70
     1
102
RTVSPropertyOp11
 70
     1
102
RTVSPropertyOp12
 70
     1
102
RTVSPropertyOp13
 70
     1
102
RTVSPropertyOp14
 70
     1
102
RTVSPropertyOp15
 70
     1
102
RTVSPropertyOp16
 70
     1
102
RTVSPropertyOp17
 70
     1
102
RTVSPropertyOp18
 70
     1
102
RTVSPropertyOp19
 70
     1
102
RTVSPropertyOp20
 70
     1
102
RTVSPropertyOp21
 70
     1
102
RTVSPropertyOp22
 70
     1
102
RTVSPropertyOp23
 70
     1
102
RTVSPropertyOp24
 70
     1
102
RTVSPropertyOp25
 70
     1
102
RTVSPropertyOp26
 70
     1
102
RTVSPropertyOp27
 70
     1
102
RTVSPropertyOp28
 70
     1
102
RTVSPropertyOp29
 70
     1
102
RTVSPropertyOp30
 70
     1
102
RTVSPropertyOp31
 70
     1
102
RTVSPropertyOp32
 70
     1
  0
XRECORD
  5
3FA
102
{ACAD_REACTORS
330
3F9
102
}
330
3F9
100
AcDbXrecord
280
     1
102
RTVSPropertyOp0
 70
     1
102
RTVSPropertyOp1
 70
     1
102
RTVSPropertyOp2
 70
     1
102
RTVSPropertyOp3
 70
     1
102
RTVSPropertyOp4
 70
     1
102
RTVSPropertyOp5
 70
     1
102
RTVSPropertyOp6
 70
     1
102
RTVSPropertyOp7
 70
     1
102
RTVSPropertyOp8
 70
     1
102
RTVSPropertyOp9
 70
     1
102
RTVSPropertyOp10
 70
     1
102
RTVSPropertyOp11
 70
     1
102
RTVSPropertyOp12
 70
     1
102
RTVSPropertyOp13
 70
     1
102
RTVSPropertyOp14
 70
     1
102
RTVSPropertyOp15
 70
     1
102
RTVSPropertyOp16
 70
     1
102
RTVSPropertyOp17
 70
     1
102
RTVSPropertyOp18
 70
     1
102
RTVSPropertyOp19
 70
     1
102
RTVSPropertyOp20
 70
     1
102
RTVSPropertyOp21
 70
     1
102
RTVSPropertyOp22
 70
     1
102
RTVSPropertyOp23
 70
     1
102
RTVSPropertyOp24
 70
     1
102
RTVSPropertyOp25
 70
     1
102
RTVSPropertyOp26
 70
     1
102
RTVSPropertyOp27
 70
     1
102
RTVSPropertyOp28
 70
     1
102
RTVSPropertyOp29
 70
     1
102
RTVSPropertyOp30
 70
     1
102
RTVSPropertyOp31
 70
     1
102
RTVSPropertyOp32
 70
     1
  0
XRECORD
  5
414
102
{ACAD_REACTORS
330
413
102
}
330
413
100
AcDbXrecord
280
     1
102
RTVSPropertyOp0
 70
     0
102
RTVSPropertyOp1
 70
     0
102
RTVSPropertyOp2
 70
     0
102
RTVSPropertyOp3
 70
     0
102
RTVSPropertyOp4
 70
     0
102
RTVSPropertyOp5
 70
     0
102
RTVSPropertyOp6
 70
     0
102
RTVSPropertyOp7
 70
     0
102
RTVSPropertyOp8
 70
     0
102
RTVSPropertyOp9
 70
     0
102
RTVSPropertyOp10
 70
     0
102
RTVSPropertyOp11
 70
     0
102
RTVSPropertyOp12
 70
     0
102
RTVSPropertyOp13
 70
     0
102
RTVSPropertyOp14
 70
     2
102
RTVSPropertyOp15
 70
     0
102
RTVSPropertyOp16
 70
     0
102
RTVSPropertyOp17
 70
     0
102
RTVSPropertyOp18
 70
     0
102
RTVSPropertyOp19
 70
     0
102
RTVSPropertyOp20
 70
     0
102
RTVSPropertyOp21
 70
     0
102
RTVSPropertyOp22
 70
     0
102
RTVSPropertyOp23
 70
     0
102
RTVSPropertyOp24
 70
     0
102
RTVSPropertyOp25
 70
     0
102
RTVSPropertyOp26
 70
     0
102
RTVSPropertyOp27
 70
     0
102
RTVSPropertyOp28
 70
     0
102
RTVSPropertyOp29
 70
     0
102
RTVSPropertyOp30
 70
     0
102
RTVSPropertyOp31
 70
     0
102
RTVSPropertyOp32
 70
     0
  0
XRECORD
  5
402
102
{ACAD_REACTORS
330
401
102
}
330
401
100
AcDbXrecord
280
     1
102
RTVSPropertyOp0
 70
     1
102
RTVSPropertyOp1
 70
     1
102
RTVSPropertyOp2
 70
     1
102
RTVSPropertyOp3
 70
     1
102
RTVSPropertyOp4
 70
     1
102
RTVSPropertyOp5
 70
     1
102
RTVSPropertyOp6
 70
     1
102
RTVSPropertyOp7
 70
     1
102
RTVSPropertyOp8
 70
     1
102
RTVSPropertyOp9
 70
     1
102
RTVSPropertyOp10
 70
     1
102
RTVSPropertyOp11
 70
     1
102
RTVSPropertyOp12
 70
     1
102
RTVSPropertyOp13
 70
     1
102
RTVSPropertyOp14
 70
     1
102
RTVSPropertyOp15
 70
     1
102
RTVSPropertyOp16
 70
     1
102
RTVSPropertyOp17
 70
     1
102
RTVSPropertyOp18
 70
     1
102
RTVSPropertyOp19
 70
     1
102
RTVSPropertyOp20
 70
     1
102
RTVSPropertyOp21
 70
     1
102
RTVSPropertyOp22
 70
     1
102
RTVSPropertyOp23
 70
     1
102
RTVSPropertyOp24
 70
     1
102
RTVSPropertyOp25
 70
     1
102
RTVSPropertyOp26
 70
     1
102
RTVSPropertyOp27
 70
     1
102
RTVSPropertyOp28
 70
     1
102
RTVSPropertyOp29
 70
     1
102
RTVSPropertyOp30
 70
     1
102
RTVSPropertyOp31
 70
     1
102
RTVSPropertyOp32
 70
     1
  0
XRECORD
  5
3E6
102
{ACAD_REACTORS
330
3E5
102
}
330
3E5
100
AcDbXrecord
280
     1
102
RTVSPropertyOp0
 70
     1
102
RTVSPropertyOp1
 70
     1
102
RTVSPropertyOp2
 70
     1
102
RTVSPropertyOp3
 70
     1
102
RTVSPropertyOp4
 70
     1
102
RTVSPropertyOp5
 70
     1
102
RTVSPropertyOp6
 70
     1
102
RTVSPropertyOp7
 70
     1
102
RTVSPropertyOp8
 70
     1
102
RTVSPropertyOp9
 70
     1
102
RTVSPropertyOp10
 70
     1
102
RTVSPropertyOp11
 70
     1
102
RTVSPropertyOp12
 70
     1
102
RTVSPropertyOp13
 70
     1
102
RTVSPropertyOp14
 70
     1
102
RTVSPropertyOp15
 70
     1
102
RTVSPropertyOp16
 70
     1
102
RTVSPropertyOp17
 70
     1
102
RTVSPropertyOp18
 70
     1
102
RTVSPropertyOp19
 70
     1
102
RTVSPropertyOp20
 70
     1
102
RTVSPropertyOp21
 70
     1
102
RTVSPropertyOp22
 70
     1
102
RTVSPropertyOp23
 70
     1
102
RTVSPropertyOp24
 70
     1
102
RTVSPropertyOp25
 70
     1
102
RTVSPropertyOp26
 70
     1
102
RTVSPropertyOp27
 70
     1
102
RTVSPropertyOp28
 70
     1
102
RTVSPropertyOp29
 70
     1
102
RTVSPropertyOp30
 70
     1
102
RTVSPropertyOp31
 70
     1
102
RTVSPropertyOp32
 70
     1
  0
XRECORD
  5
3E8
102
{ACAD_REACTORS
330
3E7
102
}
330
3E7
100
AcDbXrecord
280
     1
102
RTVSPropertyOp0
 70
     1
102
RTVSPropertyOp1
 70
     1
102
RTVSPropertyOp2
 70
     1
102
RTVSPropertyOp3
 70
     1
102
RTVSPropertyOp4
 70
     1
102
RTVSPropertyOp5
 70
     1
102
RTVSPropertyOp6
 70
     1
102
RTVSPropertyOp7
 70
     1
102
RTVSPropertyOp8
 70
     1
102
RTVSPropertyOp9
 70
     1
102
RTVSPropertyOp10
 70
     1
102
RTVSPropertyOp11
 70
     1
102
RTVSPropertyOp12
 70
     1
102
RTVSPropertyOp13
 70
     1
102
RTVSPropertyOp14
 70
     1
102
RTVSPropertyOp15
 70
     1
102
RTVSPropertyOp16
 70
     1
102
RTVSPropertyOp17
 70
     1
102
RTVSPropertyOp18
 70
     1
102
RTVSPropertyOp19
 70
     1
102
RTVSPropertyOp20
 70
     1
102
RTVSPropertyOp21
 70
     1
102
RTVSPropertyOp22
 70
     1
102
RTVSPropertyOp23
 70
     1
102
RTVSPropertyOp24
 70
     1
102
RTVSPropertyOp25
 70
     1
102
RTVSPropertyOp26
 70
     1
102
RTVSPropertyOp27
 70
     1
102
RTVSPropertyOp28
 70
     1
102
RTVSPropertyOp29
 70
     1
102
RTVSPropertyOp30
 70
     1
102
RTVSPropertyOp31
 70
     1
102
RTVSPropertyOp32
 70
     1
  0
XRECORD
  5
3EA
102
{ACAD_REACTORS
330
3E9
102
}
330
3E9
100
AcDbXrecord
280
     1
102
RTVSPropertyOp0
 70
     1
102
RTVSPropertyOp1
 70
     1
102
RTVSPropertyOp2
 70
     1
102
RTVSPropertyOp3
 70
     1
102
RTVSPropertyOp4
 70
     1
102
RTVSPropertyOp5
 70
     1
102
RTVSPropertyOp6
 70
     1
102
RTVSPropertyOp7
 70
     1
102
RTVSPropertyOp8
 70
     1
102
RTVSPropertyOp9
 70
     1
102
RTVSPropertyOp10
 70
     1
102
RTVSPropertyOp11
 70
     1
102
RTVSPropertyOp12
 70
     1
102
RTVSPropertyOp13
 70
     1
102
RTVSPropertyOp14
 70
     1
102
RTVSPropertyOp15
 70
     1
102
RTVSPropertyOp16
 70
     1
102
RTVSPropertyOp17
 70
     1
102
RTVSPropertyOp18
 70
     1
102
RTVSPropertyOp19
 70
     1
102
RTVSPropertyOp20
 70
     1
102
RTVSPropertyOp21
 70
     1
102
RTVSPropertyOp22
 70
     1
102
RTVSPropertyOp23
 70
     1
102
RTVSPropertyOp24
 70
     1
102
RTVSPropertyOp25
 70
     1
102
RTVSPropertyOp26
 70
     1
102
RTVSPropertyOp27
 70
     1
102
RTVSPropertyOp28
 70
     1
102
RTVSPropertyOp29
 70
     1
102
RTVSPropertyOp30
 70
     1
102
RTVSPropertyOp31
 70
     1
102
RTVSPropertyOp32
 70
     1
  0
XRECORD
  5
3EC
102
{ACAD_REACTORS
330
3EB
102
}
330
3EB
100
AcDbXrecord
280
     1
102
RTVSPropertyOp0
 70
     1
102
RTVSPropertyOp1
 70
     1
102
RTVSPropertyOp2
 70
     1
102
RTVSPropertyOp3
 70
     1
102
RTVSPropertyOp4
 70
     1
102
RTVSPropertyOp5
 70
     1
102
RTVSPropertyOp6
 70
     1
102
RTVSPropertyOp7
 70
     1
102
RTVSPropertyOp8
 70
     1
102
RTVSPropertyOp9
 70
     1
102
RTVSPropertyOp10
 70
     1
102
RTVSPropertyOp11
 70
     1
102
RTVSPropertyOp12
 70
     1
102
RTVSPropertyOp13
 70
     1
102
RTVSPropertyOp14
 70
     1
102
RTVSPropertyOp15
 70
     1
102
RTVSPropertyOp16
 70
     1
102
RTVSPropertyOp17
 70
     1
102
RTVSPropertyOp18
 70
     1
102
RTVSPropertyOp19
 70
     1
102
RTVSPropertyOp20
 70
     1
102
RTVSPropertyOp21
 70
     1
102
RTVSPropertyOp22
 70
     1
102
RTVSPropertyOp23
 70
     1
102
RTVSPropertyOp24
 70
     1
102
RTVSPropertyOp25
 70
     1
102
RTVSPropertyOp26
 70
     1
102
RTVSPropertyOp27
 70
     1
102
RTVSPropertyOp28
 70
     1
102
RTVSPropertyOp29
 70
     1
102
RTVSPropertyOp30
 70
     1
102
RTVSPropertyOp31
 70
     1
102
RTVSPropertyOp32
 70
     1
  0
XRECORD
  5
3F4
102
{ACAD_REACTORS
330
3F3
102
}
330
3F3
100
AcDbXrecord
280
     1
102
RTVSPropertyOp0
 70
     1
102
RTVSPropertyOp1
 70
     1
102
RTVSPropertyOp2
 70
     1
102
RTVSPropertyOp3
 70
     1
102
RTVSPropertyOp4
 70
     1
102
RTVSPropertyOp5
 70
     1
102
RTVSPropertyOp6
 70
     1
102
RTVSPropertyOp7
 70
     1
102
RTVSPropertyOp8
 70
     1
102
RTVSPropertyOp9
 70
     1
102
RTVSPropertyOp10
 70
     1
102
RTVSPropertyOp11
 70
     1
102
RTVSPropertyOp12
 70
     1
102
RTVSPropertyOp13
 70
     1
102
RTVSPropertyOp14
 70
     1
102
RTVSPropertyOp15
 70
     1
102
RTVSPropertyOp16
 70
     1
102
RTVSPropertyOp17
 70
     1
102
RTVSPropertyOp18
 70
     1
102
RTVSPropertyOp19
 70
     1
102
RTVSPropertyOp20
 70
     1
102
RTVSPropertyOp21
 70
     1
102
RTVSPropertyOp22
 70
     1
102
RTVSPropertyOp23
 70
     1
102
RTVSPropertyOp24
 70
     1
102
RTVSPropertyOp25
 70
     1
102
RTVSPropertyOp26
 70
     1
102
RTVSPropertyOp27
 70
     1
102
RTVSPropertyOp28
 70
     1
102
RTVSPropertyOp29
 70
     1
102
RTVSPropertyOp30
 70
     1
102
RTVSPropertyOp31
 70
     1
102
RTVSPropertyOp32
 70
     1
  0
XRECORD
  5
410
102
{ACAD_REACTORS
330
40F
102
}
330
40F
100
AcDbXrecord
280
     1
102
RTVSPropertyOp0
 70
     0
102
RTVSPropertyOp1
 70
     0
102
RTVSPropertyOp2
 70
     0
102
RTVSPropertyOp3
 70
     0
102
RTVSPropertyOp4
 70
     0
102
RTVSPropertyOp5
 70
     0
102
RTVSPropertyOp6
 70
     0
102
RTVSPropertyOp7
 70
     0
102
RTVSPropertyOp8
 70
     0
102
RTVSPropertyOp9
 70
     0
102
RTVSPropertyOp10
 70
     0
102
RTVSPropertyOp11
 70
     0
102
RTVSPropertyOp12
 70
     0
102
RTVSPropertyOp13
 70
     0
102
RTVSPropertyOp14
 70
     2
102
RTVSPropertyOp15
 70
     0
102
RTVSPropertyOp16
 70
     0
102
RTVSPropertyOp17
 70
     0
102
RTVSPropertyOp18
 70
     0
102
RTVSPropertyOp19
 70
     0
102
RTVSPropertyOp20
 70
     0
102
RTVSPropertyOp21
 70
     0
102
RTVSPropertyOp22
 70
     0
102
RTVSPropertyOp23
 70
     0
102
RTVSPropertyOp24
 70
     0
102
RTVSPropertyOp25
 70
     0
102
RTVSPropertyOp26
 70
     0
102
RTVSPropertyOp27
 70
     0
102
RTVSPropertyOp28
 70
     0
102
RTVSPropertyOp29
 70
     0
102
RTVSPropertyOp30
 70
     0
102
RTVSPropertyOp31
 70
     0
102
RTVSPropertyOp32
 70
     0
  0
XRECORD
  5
400
102
{ACAD_REACTORS
330
3FF
102
}
330
3FF
100
AcDbXrecord
280
     1
102
RTVSPropertyOp0
 70
     1
102
RTVSPropertyOp1
 70
     1
102
RTVSPropertyOp2
 70
     1
102
RTVSPropertyOp3
 70
     1
102
RTVSPropertyOp4
 70
     1
102
RTVSPropertyOp5
 70
     1
102
RTVSPropertyOp6
 70
     1
102
RTVSPropertyOp7
 70
     1
102
RTVSPropertyOp8
 70
     1
102
RTVSPropertyOp9
 70
     1
102
RTVSPropertyOp10
 70
     1
102
RTVSPropertyOp11
 70
     1
102
RTVSPropertyOp12
 70
     1
102
RTVSPropertyOp13
 70
     1
102
RTVSPropertyOp14
 70
     1
102
RTVSPropertyOp15
 70
     1
102
RTVSPropertyOp16
 70
     1
102
RTVSPropertyOp17
 70
     1
102
RTVSPropertyOp18
 70
     1
102
RTVSPropertyOp19
 70
     1
102
RTVSPropertyOp20
 70
     1
102
RTVSPropertyOp21
 70
     1
102
RTVSPropertyOp22
 70
     1
102
RTVSPropertyOp23
 70
     1
102
RTVSPropertyOp24
 70
     1
102
RTVSPropertyOp25
 70
     1
102
RTVSPropertyOp26
 70
     1
102
RTVSPropertyOp27
 70
     1
102
RTVSPropertyOp28
 70
     1
102
RTVSPropertyOp29
 70
     1
102
RTVSPropertyOp30
 70
     1
102
RTVSPropertyOp31
 70
     1
102
RTVSPropertyOp32
 70
     1
  0
XRECORD
  5
412
102
{ACAD_REACTORS
330
411
102
}
330
411
100
AcDbXrecord
280
     1
102
RTVSPropertyOp0
 70
     0
102
RTVSPropertyOp1
 70
     0
102
RTVSPropertyOp2
 70
     0
102
RTVSPropertyOp3
 70
     0
102
RTVSPropertyOp4
 70
     0
102
RTVSPropertyOp5
 70
     0
102
RTVSPropertyOp6
 70
     0
102
RTVSPropertyOp7
 70
     0
102
RTVSPropertyOp8
 70
     0
102
RTVSPropertyOp9
 70
     0
102
RTVSPropertyOp10
 70
     0
102
RTVSPropertyOp11
 70
     0
102
RTVSPropertyOp12
 70
     0
102
RTVSPropertyOp13
 70
     0
102
RTVSPropertyOp14
 70
     2
102
RTVSPropertyOp15
 70
     0
102
RTVSPropertyOp16
 70
     0
102
RTVSPropertyOp17
 70
     0
102
RTVSPropertyOp18
 70
     0
102
RTVSPropertyOp19
 70
     0
102
RTVSPropertyOp20
 70
     0
102
RTVSPropertyOp21
 70
     0
102
RTVSPropertyOp22
 70
     0
102
RTVSPropertyOp23
 70
     0
102
RTVSPropertyOp24
 70
     0
102
RTVSPropertyOp25
 70
     0
102
RTVSPropertyOp26
 70
     0
102
RTVSPropertyOp27
 70
     0
102
RTVSPropertyOp28
 70
     0
102
RTVSPropertyOp29
 70
     0
102
RTVSPropertyOp30
 70
     0
102
RTVSPropertyOp31
 70
     0
102
RTVSPropertyOp32
 70
     0
  0
XRECORD
  5
3F8
102
{ACAD_REACTORS
330
3F7
102
}
330
3F7
100
AcDbXrecord
280
     1
102
RTVSPropertyOp0
 70
     1
102
RTVSPropertyOp1
 70
     1
102
RTVSPropertyOp2
 70
     1
102
RTVSPropertyOp3
 70
     1
102
RTVSPropertyOp4
 70
     1
102
RTVSPropertyOp5
 70
     1
102
RTVSPropertyOp6
 70
     1
102
RTVSPropertyOp7
 70
     1
102
RTVSPropertyOp8
 70
     1
102
RTVSPropertyOp9
 70
     1
102
RTVSPropertyOp10
 70
     1
102
RTVSPropertyOp11
 70
     1
102
RTVSPropertyOp12
 70
     1
102
RTVSPropertyOp13
 70
     1
102
RTVSPropertyOp14
 70
     1
102
RTVSPropertyOp15
 70
     1
102
RTVSPropertyOp16
 70
     1
102
RTVSPropertyOp17
 70
     1
102
RTVSPropertyOp18
 70
     1
102
RTVSPropertyOp19
 70
     1
102
RTVSPropertyOp20
 70
     1
102
RTVSPropertyOp21
 70
     1
102
RTVSPropertyOp22
 70
     1
102
RTVSPropertyOp23
 70
     1
102
RTVSPropertyOp24
 70
     1
102
RTVSPropertyOp25
 70
     1
102
RTVSPropertyOp26
 70
     1
102
RTVSPropertyOp27
 70
     1
102
RTVSPropertyOp28
 70
     1
102
RTVSPropertyOp29
 70
     1
102
RTVSPropertyOp30
 70
     1
102
RTVSPropertyOp31
 70
     1
102
RTVSPropertyOp32
 70
     1
  0
XRECORD
  5
40E
102
{ACAD_REACTORS
330
40D
102
}
330
40D
100
AcDbXrecord
280
     1
102
RTVSPropertyOp0
 70
     1
102
RTVSPropertyOp1
 70
     1
102
RTVSPropertyOp2
 70
     1
102
RTVSPropertyOp3
 70
     1
102
RTVSPropertyOp4
 70
     1
102
RTVSPropertyOp5
 70
     1
102
RTVSPropertyOp6
 70
     1
102
RTVSPropertyOp7
 70
     1
102
RTVSPropertyOp8
 70
     1
102
RTVSPropertyOp9
 70
     1
102
RTVSPropertyOp10
 70
     1
102
RTVSPropertyOp11
 70
     1
102
RTVSPropertyOp12
 70
     1
102
RTVSPropertyOp13
 70
     1
102
RTVSPropertyOp14
 70
     1
102
RTVSPropertyOp15
 70
     1
102
RTVSPropertyOp16
 70
     1
102
RTVSPropertyOp17
 70
     1
102
RTVSPropertyOp18
 70
     1
102
RTVSPropertyOp19
 70
     1
102
RTVSPropertyOp20
 70
     1
102
RTVSPropertyOp21
 70
     1
102
RTVSPropertyOp22
 70
     1
102
RTVSPropertyOp23
 70
     1
102
RTVSPropertyOp24
 70
     1
102
RTVSPropertyOp25
 70
     1
102
RTVSPropertyOp26
 70
     1
102
RTVSPropertyOp27
 70
     1
102
RTVSPropertyOp28
 70
     1
102
RTVSPropertyOp29
 70
     1
102
RTVSPropertyOp30
 70
     1
102
RTVSPropertyOp31
 70
     1
102
RTVSPropertyOp32
 70
     1
  0
XRECORD
  5
40C
102
{ACAD_REACTORS
330
40B
102
}
330
40B
100
AcDbXrecord
280
     1
102
RTVSPropertyOp0
 70
     1
102
RTVSPropertyOp1
 70
     1
102
RTVSPropertyOp2
 70
     1
102
RTVSPropertyOp3
 70
     1
102
RTVSPropertyOp4
 70
     1
102
RTVSPropertyOp5
 70
     1
102
RTVSPropertyOp6
 70
     1
102
RTVSPropertyOp7
 70
     1
102
RTVSPropertyOp8
 70
     1
102
RTVSPropertyOp9
 70
     1
102
RTVSPropertyOp10
 70
     1
102
RTVSPropertyOp11
 70
     1
102
RTVSPropertyOp12
 70
     1
102
RTVSPropertyOp13
 70
     1
102
RTVSPropertyOp14
 70
     1
102
RTVSPropertyOp15
 70
     1
102
RTVSPropertyOp16
 70
     1
102
RTVSPropertyOp17
 70
     1
102
RTVSPropertyOp18
 70
     1
102
RTVSPropertyOp19
 70
     1
102
RTVSPropertyOp20
 70
     1
102
RTVSPropertyOp21
 70
     1
102
RTVSPropertyOp22
 70
     1
102
RTVSPropertyOp23
 70
     1
102
RTVSPropertyOp24
 70
     1
102
RTVSPropertyOp25
 70
     1
102
RTVSPropertyOp26
 70
     1
102
RTVSPropertyOp27
 70
     1
102
RTVSPropertyOp28
 70
     1
102
RTVSPropertyOp29
 70
     1
102
RTVSPropertyOp30
 70
     1
102
RTVSPropertyOp31
 70
     1
102
RTVSPropertyOp32
 70
     1
  0
XRECORD
  5
406
102
{ACAD_REACTORS
330
405
102
}
330
405
100
AcDbXrecord
280
     1
102
RTVSPropertyOp0
 70
     1
102
RTVSPropertyOp1
 70
     1
102
RTVSPropertyOp2
 70
     1
102
RTVSPropertyOp3
 70
     1
102
RTVSPropertyOp4
 70
     1
102
RTVSPropertyOp5
 70
     1
102
RTVSPropertyOp6
 70
     1
102
RTVSPropertyOp7
 70
     1
102
RTVSPropertyOp8
 70
     1
102
RTVSPropertyOp9
 70
     1
102
RTVSPropertyOp10
 70
     1
102
RTVSPropertyOp11
 70
     1
102
RTVSPropertyOp12
 70
     1
102
RTVSPropertyOp13
 70
     1
102
RTVSPropertyOp14
 70
     1
102
RTVSPropertyOp15
 70
     1
102
RTVSPropertyOp16
 70
     1
102
RTVSPropertyOp17
 70
     1
102
RTVSPropertyOp18
 70
     1
102
RTVSPropertyOp19
 70
     1
102
RTVSPropertyOp20
 70
     1
102
RTVSPropertyOp21
 70
     1
102
RTVSPropertyOp22
 70
     1
102
RTVSPropertyOp23
 70
     1
102
RTVSPropertyOp24
 70
     1
102
RTVSPropertyOp25
 70
     1
102
RTVSPropertyOp26
 70
     1
102
RTVSPropertyOp27
 70
     1
102
RTVSPropertyOp28
 70
     1
102
RTVSPropertyOp29
 70
     1
102
RTVSPropertyOp30
 70
     1
102
RTVSPropertyOp31
 70
     1
102
RTVSPropertyOp32
 70
     1
  0
XRECORD
  5
408
102
{ACAD_REACTORS
330
407
102
}
330
407
100
AcDbXrecord
280
     1
102
RTVSPropertyOp0
 70
     1
102
RTVSPropertyOp1
 70
     1
102
RTVSPropertyOp2
 70
     1
102
RTVSPropertyOp3
 70
     1
102
RTVSPropertyOp4
 70
     1
102
RTVSPropertyOp5
 70
     1
102
RTVSPropertyOp6
 70
     1
102
RTVSPropertyOp7
 70
     1
102
RTVSPropertyOp8
 70
     1
102
RTVSPropertyOp9
 70
     1
102
RTVSPropertyOp10
 70
     1
102
RTVSPropertyOp11
 70
     1
102
RTVSPropertyOp12
 70
     1
102
RTVSPropertyOp13
 70
     1
102
RTVSPropertyOp14
 70
     1
102
RTVSPropertyOp15
 70
     1
102
RTVSPropertyOp16
 70
     1
102
RTVSPropertyOp17
 70
     1
102
RTVSPropertyOp18
 70
     1
102
RTVSPropertyOp19
 70
     1
102
RTVSPropertyOp20
 70
     1
102
RTVSPropertyOp21
 70
     1
102
RTVSPropertyOp22
 70
     1
102
RTVSPropertyOp23
 70
     1
102
RTVSPropertyOp24
 70
     1
102
RTVSPropertyOp25
 70
     1
102
RTVSPropertyOp26
 70
     1
102
RTVSPropertyOp27
 70
     1
102
RTVSPropertyOp28
 70
     1
102
RTVSPropertyOp29
 70
     1
102
RTVSPropertyOp30
 70
     1
102
RTVSPropertyOp31
 70
     1
102
RTVSPropertyOp32
 70
     1
  0
XRECORD
  5
3FE
102
{ACAD_REACTORS
330
3FD
102
}
330
3FD
100
AcDbXrecord
280
     1
102
RTVSPropertyOp0
 70
     1
102
RTVSPropertyOp1
 70
     1
102
RTVSPropertyOp2
 70
     1
102
RTVSPropertyOp3
 70
     1
102
RTVSPropertyOp4
 70
     1
102
RTVSPropertyOp5
 70
     1
102
RTVSPropertyOp6
 70
     1
102
RTVSPropertyOp7
 70
     1
102
RTVSPropertyOp8
 70
     1
102
RTVSPropertyOp9
 70
     1
102
RTVSPropertyOp10
 70
     1
102
RTVSPropertyOp11
 70
     1
102
RTVSPropertyOp12
 70
     1
102
RTVSPropertyOp13
 70
     1
102
RTVSPropertyOp14
 70
     1
102
RTVSPropertyOp15
 70
     1
102
RTVSPropertyOp16
 70
     1
102
RTVSPropertyOp17
 70
     1
102
RTVSPropertyOp18
 70
     1
102
RTVSPropertyOp19
 70
     1
102
RTVSPropertyOp20
 70
     1
102
RTVSPropertyOp21
 70
     1
102
RTVSPropertyOp22
 70
     1
102
RTVSPropertyOp23
 70
     1
102
RTVSPropertyOp24
 70
     1
102
RTVSPropertyOp25
 70
     1
102
RTVSPropertyOp26
 70
     1
102
RTVSPropertyOp27
 70
     1
102
RTVSPropertyOp28
 70
     1
102
RTVSPropertyOp29
 70
     1
102
RTVSPropertyOp30
 70
     1
102
RTVSPropertyOp31
 70
     1
102
RTVSPropertyOp32
 70
     1
  0
XRECORD
  5
3F2
102
{ACAD_REACTORS
330
3F1
102
}
330
3F1
100
AcDbXrecord
280
     1
102
RTVSPropertyOp0
 70
     1
102
RTVSPropertyOp1
 70
     1
102
RTVSPropertyOp2
 70
     1
102
RTVSPropertyOp3
 70
     1
102
RTVSPropertyOp4
 70
     1
102
RTVSPropertyOp5
 70
     1
102
RTVSPropertyOp6
 70
     1
102
RTVSPropertyOp7
 70
     1
102
RTVSPropertyOp8
 70
     1
102
RTVSPropertyOp9
 70
     1
102
RTVSPropertyOp10
 70
     1
102
RTVSPropertyOp11
 70
     1
102
RTVSPropertyOp12
 70
     1
102
RTVSPropertyOp13
 70
     1
102
RTVSPropertyOp14
 70
     1
102
RTVSPropertyOp15
 70
     1
102
RTVSPropertyOp16
 70
     1
102
RTVSPropertyOp17
 70
     1
102
RTVSPropertyOp18
 70
     1
102
RTVSPropertyOp19
 70
     1
102
RTVSPropertyOp20
 70
     1
102
RTVSPropertyOp21
 70
     1
102
RTVSPropertyOp22
 70
     1
102
RTVSPropertyOp23
 70
     1
102
RTVSPropertyOp24
 70
     1
102
RTVSPropertyOp25
 70
     1
102
RTVSPropertyOp26
 70
     1
102
RTVSPropertyOp27
 70
     1
102
RTVSPropertyOp28
 70
     1
102
RTVSPropertyOp29
 70
     1
102
RTVSPropertyOp30
 70
     1
102
RTVSPropertyOp31
 70
     1
102
RTVSPropertyOp32
 70
     1
  0
XRECORD
  5
40A
102
{ACAD_REACTORS
330
409
102
}
330
409
100
AcDbXrecord
280
     1
102
RTVSPropertyOp0
 70
     1
102
RTVSPropertyOp1
 70
     1
102
RTVSPropertyOp2
 70
     1
102
RTVSPropertyOp3
 70
     1
102
RTVSPropertyOp4
 70
     1
102
RTVSPropertyOp5
 70
     1
102
RTVSPropertyOp6
 70
     1
102
RTVSPropertyOp7
 70
     1
102
RTVSPropertyOp8
 70
     1
102
RTVSPropertyOp9
 70
     1
102
RTVSPropertyOp10
 70
     1
102
RTVSPropertyOp11
 70
     1
102
RTVSPropertyOp12
 70
     1
102
RTVSPropertyOp13
 70
     1
102
RTVSPropertyOp14
 70
     1
102
RTVSPropertyOp15
 70
     1
102
RTVSPropertyOp16
 70
     1
102
RTVSPropertyOp17
 70
     1
102
RTVSPropertyOp18
 70
     1
102
RTVSPropertyOp19
 70
     1
102
RTVSPropertyOp20
 70
     1
102
RTVSPropertyOp21
 70
     1
102
RTVSPropertyOp22
 70
     1
102
RTVSPropertyOp23
 70
     1
102
RTVSPropertyOp24
 70
     1
102
RTVSPropertyOp25
 70
     1
102
RTVSPropertyOp26
 70
     1
102
RTVSPropertyOp27
 70
     1
102
RTVSPropertyOp28
 70
     1
102
RTVSPropertyOp29
 70
     1
102
RTVSPropertyOp30
 70
     1
102
RTVSPropertyOp31
 70
     1
102
RTVSPropertyOp32
 70
     1
  0
ENDSEC
  0
EOF
