  0
SECTION
  2
HEADER
  9
$ACADVER
  1
AC1015
  9
$ACADMAINTVER
 70
    20
  9
$DWGCODEPAGE
  3
ANSI_932
  9
$INSBASE
 10
0.0
 20
0.0
 30
0.0
  9
$EXTMIN
 10
212.1545177478582
 20
175.7203159438783
 30
-0.0015258207003583
  9
$EXTMAX
 10
270.1691965260021
 20
263.9197695668746
 30
0.0000000349246037
  9
$LIMMIN
 10
133.1390768221017
 20
52.67618491598534
  9
$LIMMAX
 10
343.1124044588205
 20
349.7080147499697
  9
$ORTHOMODE
 70
     0
  9
$REGENMODE
 70
     1
  9
$FILLMODE
 70
     1
  9
$QTEXTMODE
 70
     0
  9
$MIRRTEXT
 70
     0
  9
$LTSCALE
 40
1.0
  9
$ATTMODE
 70
     1
  9
$TEXTSIZE
 40
4.0
  9
$TRACEWID
 40
1.0
  9
$TEXTSTYLE
  7
ATOM
  9
$CLAYER
  8
text
  9
$CELTYPE
  6
ByLayer
  9
$CECOLOR
 62
   256
  9
$CELTSCALE
 40
1.0
  9
$DISPSILH
 70
     0
  9
$DIMSCALE
 40
0.0
  9
$DIMASZ
 40
2.0
  9
$DIMEXO
 40
2.0
  9
$DIMDLI
 40
7.0
  9
$DIMRND
 40
0.0
  9
$DIMDLE
 40
0.0
  9
$DIMEXE
 40
1.0
  9
$DIMTP
 40
0.1
  9
$DIMTM
 40
0.1
  9
$DIMTXT
 40
3.0
  9
$DIMCEN
 40
-2.5
  9
$DIMTSZ
 40
0.0
  9
$DIMTOL
 70
     0
  9
$DIMLIM
 70
     0
  9
$DIMTIH
 70
     0
  9
$DIMTOH
 70
     0
  9
$DIMSE1
 70
     0
  9
$DIMSE2
 70
     0
  9
$DIMTAD
 70
     1
  9
$DIMZIN
 70
     8
  9
$DIMBLK
  1
Open30
  9
$DIMASO
 70
     1
  9
$DIMSHO
 70
     1
  9
$DIMPOST
  1

  9
$DIMAPOST
  1

  9
$DIMALT
 70
     0
  9
$DIMALTD
 70
     3
  9
$DIMALTF
 40
0.03937007874016
  9
$DIMLFAC
 40
1.0
  9
$DIMTOFL
 70
     1
  9
$DIMTVP
 40
0.0
  9
$DIMTIX
 70
     0
  9
$DIMSOXD
 70
     0
  9
$DIMSAH
 70
     0
  9
$DIMBLK1
  1

  9
$DIMBLK2
  1

  9
$DIMSTYLE
  2
ATOM
  9
$DIMCLRD
 70
     0
  9
$DIMCLRE
 70
     0
  9
$DIMCLRT
 70
     3
  9
$DIMTFAC
 40
0.4999999999999998
  9
$DIMGAP
 40
0.625
  9
$DIMJUST
 70
     0
  9
$DIMSD1
 70
     0
  9
$DIMSD2
 70
     0
  9
$DIMTOLJ
 70
     0
  9
$DIMTZIN
 70
     8
  9
$DIMALTZ
 70
     0
  9
$DIMALTTZ
 70
     0
  9
$DIMUPT
 70
     0
  9
$DIMDEC
 70
     2
  9
$DIMTDEC
 70
     2
  9
$DIMALTU
 70
     2
  9
$DIMALTTD
 70
     3
  9
$DIMTXSTY
  7
ATOM
  9
$DIMAUNIT
 70
     0
  9
$DIMADEC
 70
     0
  9
$DIMALTRND
 40
0.0
  9
$DIMAZIN
 70
     0
  9
$DIMDSEP
 70
    46
  9
$DIMATFIT
 70
     0
  9
$DIMFRAC
 70
     2
  9
$DIMLDRBLK
  1
Open30
  9
$DIMLUNIT
 70
     2
  9
$DIMLWD
 70
    -2
  9
$DIMLWE
 70
    -2
  9
$DIMTMOVE
 70
     1
  9
$LUNITS
 70
     2
  9
$LUPREC
 70
     4
  9
$SKETCHINC
 40
1.0
  9
$FILLETRAD
 40
0.0
  9
$AUNITS
 70
     0
  9
$AUPREC
 70
     0
  9
$MENU
  1
.
  9
$ELEVATION
 40
0.0
  9
$PELEVATION
 40
0.0
  9
$THICKNESS
 40
0.0
  9
$LIMCHECK
 70
     0
  9
$CHAMFERA
 40
0.0
  9
$CHAMFERB
 40
0.0
  9
$CHAMFERC
 40
0.0
  9
$CHAMFERD
 40
0.0
  9
$SKPOLY
 70
     0
  9
$TDCREATE
 40
2455947.407273646
  9
$TDUCREATE
 40
2455947.032273646
  9
$TDUPDATE
 40
2457584.453735475
  9
$TDUUPDATE
 40
2457584.078735475
  9
$TDINDWG
 40
0.0015272222
  9
$TDUSRTIMER
 40
0.0015270370
  9
$USRTIMER
 70
     1
  9
$ANGBASE
 50
0.0
  9
$ANGDIR
 70
     0
  9
$PDMODE
 70
     0
  9
$PDSIZE
 40
0.0
  9
$PLINEWID
 40
0.0
  9
$SPLFRAME
 70
     0
  9
$SPLINETYPE
 70
     6
  9
$SPLINESEGS
 70
     8
  9
$HANDSEED
  5
5DE
  9
$SURFTAB1
 70
     6
  9
$SURFTAB2
 70
     6
  9
$SURFTYPE
 70
     6
  9
$SURFU
 70
     6
  9
$SURFV
 70
     6
  9
$UCSBASE
  2

  9
$UCSNAME
  2

  9
$UCSORG
 10
0.0
 20
0.0
 30
0.0
  9
$UCSXDIR
 10
1.0
 20
0.0
 30
0.0
  9
$UCSYDIR
 10
0.0
 20
1.0
 30
0.0
  9
$UCSORTHOREF
  2

  9
$UCSORTHOVIEW
 70
     0
  9
$UCSORGTOP
 10
0.0
 20
0.0
 30
0.0
  9
$UCSORGBOTTOM
 10
0.0
 20
0.0
 30
0.0
  9
$UCSORGLEFT
 10
0.0
 20
0.0
 30
0.0
  9
$UCSORGRIGHT
 10
0.0
 20
0.0
 30
0.0
  9
$UCSORGFRONT
 10
0.0
 20
0.0
 30
0.0
  9
$UCSORGBACK
 10
0.0
 20
0.0
 30
0.0
  9
$PUCSBASE
  2

  9
$PUCSNAME
  2

  9
$PUCSORG
 10
0.0
 20
0.0
 30
0.0
  9
$PUCSXDIR
 10
1.0
 20
0.0
 30
0.0
  9
$PUCSYDIR
 10
0.0
 20
1.0
 30
0.0
  9
$PUCSORTHOREF
  2

  9
$PUCSORTHOVIEW
 70
     0
  9
$PUCSORGTOP
 10
0.0
 20
0.0
 30
0.0
  9
$PUCSORGBOTTOM
 10
0.0
 20
0.0
 30
0.0
  9
$PUCSORGLEFT
 10
0.0
 20
0.0
 30
0.0
  9
$PUCSORGRIGHT
 10
0.0
 20
0.0
 30
0.0
  9
$PUCSORGFRONT
 10
0.0
 20
0.0
 30
0.0
  9
$PUCSORGBACK
 10
0.0
 20
0.0
 30
0.0
  9
$USERI1
 70
     0
  9
$USERI2
 70
     0
  9
$USERI3
 70
     0
  9
$USERI4
 70
     0
  9
$USERI5
 70
     0
  9
$USERR1
 40
0.0
  9
$USERR2
 40
0.0
  9
$USERR3
 40
0.0
  9
$USERR4
 40
0.0
  9
$USERR5
 40
0.0
  9
$WORLDVIEW
 70
     1
  9
$SHADEDGE
 70
     3
  9
$SHADEDIF
 70
    70
  9
$TILEMODE
 70
     1
  9
$MAXACTVP
 70
    64
  9
$PINSBASE
 10
0.0
 20
0.0
 30
0.0
  9
$PLIMCHECK
 70
     0
  9
$PEXTMIN
 10
1.000000000000000E+20
 20
1.000000000000000E+20
 30
1.000000000000000E+20
  9
$PEXTMAX
 10
-1.000000000000000E+20
 20
-1.000000000000000E+20
 30
-1.000000000000000E+20
  9
$PLIMMIN
 10
0.0
 20
0.0
  9
$PLIMMAX
 10
12.0
 20
9.0
  9
$UNITMODE
 70
     0
  9
$VISRETAIN
 70
     1
  9
$PLINEGEN
 70
     0
  9
$PSLTSCALE
 70
     1
  9
$TREEDEPTH
 70
  3020
  9
$CMLSTYLE
  2
Standard
  9
$CMLJUST
 70
     0
  9
$CMLSCALE
 40
10.0
  9
$PROXYGRAPHICS
 70
     1
  9
$MEASUREMENT
 70
     1
  9
$CELWEIGHT
370
    -1
  9
$ENDCAPS
280
     0
  9
$JOINSTYLE
280
     0
  9
$LWDISPLAY
290
     0
  9
$INSUNITS
 70
     4
  9
$HYPERLINKBASE
  1

  9
$STYLESHEET
  1

  9
$XEDIT
290
     1
  9
$CEPSNTYPE
380
     0
  9
$PSTYLEMODE
290
     0
  9
$FINGERPRINTGUID
  2
{520FE6F6-E3A8-489E-AB3A-6B15C17FD159}
  9
$VERSIONGUID
  2
{8997127E-0136-49CA-84D8-60AB79ADE169}
  9
$EXTNAMES
290
     1
  9
$PSVPSCALE
 40
0.0
  9
$OLESTARTUP
290
     0
  0
ENDSEC
  0
SECTION
  2
CLASSES
  0
CLASS
  1
ACDBDICTIONARYWDFLT
  2
AcDbDictionaryWithDefault
  3
ObjectDBX Classes
 90
        0
280
     0
281
     0
  0
CLASS
  1
MATERIAL
  2
AcDbMaterial
  3
ObjectDBX Classes
 90
     1153
280
     0
281
     0
  0
CLASS
  1
VISUALSTYLE
  2
AcDbVisualStyle
  3
ObjectDBX Classes
 90
     4095
280
     0
281
     0
  0
CLASS
  1
SCALE
  2
AcDbScale
  3
ObjectDBX Classes
 90
     1153
280
     0
281
     0
  0
CLASS
  1
TABLESTYLE
  2
AcDbTableStyle
  3
ObjectDBX Classes
 90
     4095
280
     0
281
     0
  0
CLASS
  1
MLEADERSTYLE
  2
AcDbMLeaderStyle
  3
ACDB_MLEADERSTYLE_CLASS
 90
     4095
280
     0
281
     0
  0
CLASS
  1
DIMASSOC
  2
AcDbDimAssoc
  3
"AcDbDimAssoc|Product Desc:     AcDim ARX App For Dimension|Company:          Autodesk, Inc.|WEB Address:      www.autodesk.com"
 90
        0
280
     0
281
     0
  0
CLASS
  1
ACDB_ALDIMOBJECTCONTEXTDATA_CLASS
  2
AcDbAlignedDimensionObjectContextData
  3
ObjectDBX Classes
 90
    33921
280
     0
281
     0
  0
CLASS
  1
SORTENTSTABLE
  2
AcDbSortentsTable
  3
ObjectDBX Classes
 90
        0
280
     0
281
     0
  0
CLASS
  1
DICTIONARYVAR
  2
AcDbDictionaryVar
  3
ObjectDBX Classes
 90
        0
280
     0
281
     0
  0
CLASS
  1
CELLSTYLEMAP
  2
AcDbCellStyleMap
  3
ObjectDBX Classes
 90
     1152
280
     0
281
     0
  0
CLASS
  1
ACDBPLACEHOLDER
  2
AcDbPlaceHolder
  3
ObjectDBX Classes
 90
        0
280
     0
281
     0
  0
CLASS
  1
LAYOUT
  2
AcDbLayout
  3
ObjectDBX Classes
 90
        0
280
     0
281
     0
  0
ENDSEC
  0
SECTION
  2
TABLES
  0
TABLE
  2
VPORT
  5
8
330
0
100
AcDbSymbolTable
 70
     1
  0
VPORT
  5
57
330
8
100
AcDbSymbolTableRecord
100
AcDbViewportTableRecord
  2
*Active
 70
     0
 10
0.0
 20
0.0
 11
1.0
 21
1.0
 12
270.7535875671708
 22
235.5545566865556
 13
0.0
 23
0.0
 14
10.0
 24
10.0
 15
10.0
 25
10.0
 16
0.0
 26
0.0
 36
1.0
 17
0.0
 27
0.0
 37
0.0
 40
227.2076110442881
 41
2.023923444976076
 42
50.0
 43
0.0
 44
0.0
 50
0.0
 51
0.0
 71
     0
 72
  1000
 73
     1
 74
     1
 75
     0
 76
     0
 77
     0
 78
     0
281
     0
 65
     1
110
0.0
120
0.0
130
0.0
111
1.0
121
0.0
131
0.0
112
0.0
122
1.0
132
0.0
 79
     0
146
0.0
1001
ACAD_NAV_VCDISPLAY
1070
     3
  0
ENDTAB
  0
TABLE
  2
LTYPE
  5
5
330
0
100
AcDbSymbolTable
 70
     7
  0
LTYPE
  5
5B
330
5
100
AcDbSymbolTableRecord
100
AcDbLinetypeTableRecord
  2
ByBlock
 70
     0
  3

 72
    65
 73
     0
 40
0.0
  0
LTYPE
  5
5C
330
5
100
AcDbSymbolTableRecord
100
AcDbLinetypeTableRecord
  2
ByLayer
 70
     0
  3

 72
    65
 73
     0
 40
0.0
  0
LTYPE
  5
5D
330
5
100
AcDbSymbolTableRecord
100
AcDbLinetypeTableRecord
  2
Continuous
 70
     0
  3
Solid line
 72
    65
 73
     0
 40
0.0
  0
LTYPE
  5
7D
330
5
100
AcDbSymbolTableRecord
100
AcDbLinetypeTableRecord
  2
JIS_08_15
 70
     0
  3
1SASEN15 ____ _ ____ _ ____ _ ____ _ ____
 72
    65
 73
     4
 40
17.25
 49
15.0
 74
     0
 49
-0.75
 74
     0
 49
0.75
 74
     0
 49
-0.75
 74
     0
  0
LTYPE
  5
7E
330
5
100
AcDbSymbolTableRecord
100
AcDbLinetypeTableRecord
  2
JIS_09_15
 70
     0
  3
2SASEN15 ___ _ _ ___ _ _ ___ _ _ ___ _ _ ___
 72
    65
 73
     6
 40
18.9
 49
15.0
 74
     0
 49
-0.9
 74
     0
 49
0.6
 74
     0
 49
-0.9
 74
     0
 49
0.6
 74
     0
 49
-0.9
 74
     0
  0
LTYPE
  5
7F
330
5
100
AcDbSymbolTableRecord
100
AcDbLinetypeTableRecord
  2
DASHED
 70
     0
  3
Dashed __ __ __ __ __ __ __ __ __ __ __ __ __ _
 72
    65
 73
     2
 40
19.05
 49
12.7
 74
     0
 49
-6.349999999999998
 74
     0
  0
LTYPE
  5
80
330
5
100
AcDbSymbolTableRecord
100
AcDbLinetypeTableRecord
  2
PHANTOM
 70
     0
  3
Phantom ______  __  __  ______  __  __  ______
 72
    65
 73
     6
 40
63.5
 49
31.75
 74
     0
 49
-6.349999999999998
 74
     0
 49
6.349999999999998
 74
     0
 49
-6.349999999999998
 74
     0
 49
6.349999999999998
 74
     0
 49
-6.349999999999998
 74
     0
  0
LTYPE
  5
81
330
5
100
AcDbSymbolTableRecord
100
AcDbLinetypeTableRecord
  2
CENTER
 70
     0
  3
Center ____ _ ____ _ ____ _ ____ _ ____ _ ____
 72
    65
 73
     4
 40
50.8
 49
31.75
 74
     0
 49
-6.349999999999998
 74
     0
 49
6.349999999999998
 74
     0
 49
-6.349999999999998
 74
     0
  0
LTYPE
  5
82
330
5
100
AcDbSymbolTableRecord
100
AcDbLinetypeTableRecord
  2
HIDDEN
 70
     0
  3
Hidden __ __ __ __ __ __ __ __ __ __ __ __ __ __
 72
    65
 73
     2
 40
9.525
 49
6.349999999999998
 74
     0
 49
-3.174999999999998
 74
     0
  0
ENDTAB
  0
TABLE
  2
LAYER
  5
2
330
0
100
AcDbSymbolTable
 70
     8
  0
LAYER
  5
54
102
{ACAD_XDICTIONARY
360
557
102
}
330
2
100
AcDbSymbolTableRecord
100
AcDbLayerTableRecord
  2
0
 70
     0
 62
     7
  6
Continuous
370
    35
390
94
1001
AcAecLayerStandard
1000

1000

  0
LAYER
  5
75
330
2
100
AcDbSymbolTableRecord
100
AcDbLayerTableRecord
  2
Defpoints
 70
     0
 62
     7
  6
Continuous
290
     0
370
    -3
390
94
1001
AcAecLayerStandard
1000

1000

  0
LAYER
  5
A8
102
{ACAD_XDICTIONARY
360
A9
102
}
330
2
100
AcDbSymbolTableRecord
100
AcDbLayerTableRecord
  2
viewports
 70
     0
 62
     5
  6
Continuous
290
     0
370
    18
390
94
1001
AcAecLayerStandard
1000

1000

  0
LAYER
  5
ED
102
{ACAD_XDICTIONARY
360
EE
102
}
330
2
100
AcDbSymbolTableRecord
100
AcDbLayerTableRecord
  2
center
 70
     0
 62
     2
  6
JIS_08_15
370
    18
390
94
1001
AcAecLayerStandard
1000

1000

  0
LAYER
  5
103
102
{ACAD_XDICTIONARY
360
104
102
}
330
2
100
AcDbSymbolTableRecord
100
AcDbLayerTableRecord
  2
dim
 70
     0
 62
     2
  6
Continuous
370
    18
390
94
1001
AcAecLayerStandard
1000

1000

  0
LAYER
  5
16F
102
{ACAD_XDICTIONARY
360
170
102
}
330
2
100
AcDbSymbolTableRecord
100
AcDbLayerTableRecord
  2
phantom
 70
     2
 62
     6
  6
JIS_09_15
370
    18
390
94
1001
AcAecLayerStandard
1000

1000

  0
LAYER
  5
173
102
{ACAD_XDICTIONARY
360
174
102
}
330
2
100
AcDbSymbolTableRecord
100
AcDbLayerTableRecord
  2
text
 70
     2
 62
     3
  6
Continuous
370
    18
390
94
1001
AcAecLayerStandard
1000

1000

  0
LAYER
  5
3D1
102
{ACAD_XDICTIONARY
360
3D2
102
}
330
2
100
AcDbSymbolTableRecord
100
AcDbLayerTableRecord
  2
frame
 70
     0
 62
     4
  6
Continuous
370
    18
390
94
1001
AcAecLayerStandard
1000

1000

  0
ENDTAB
  0
TABLE
  2
STYLE
  5
3
330
0
100
AcDbSymbolTable
 70
     9
  0
STYLE
  5
55
330
3
100
AcDbSymbolTableRecord
100
AcDbTextStyleTableRecord
  2
Standard
 70
     0
 40
0.0
 41
1.0
 50
0.0
 71
     0
 42
2.5
  3
txt
  4

  0
STYLE
  5
5A
330
3
100
AcDbSymbolTableRecord
100
AcDbTextStyleTableRecord
  2
Annotative
 70
     0
 40
0.0
 41
1.0
 50
0.0
 71
     0
 42
0.2
  3
txt
  4

1001
AcadAnnotative
1000
AnnotativeData
1002
{
1070
     1
1070
     1
1002
}
  0
STYLE
  5
76
330
3
100
AcDbSymbolTableRecord
100
AcDbTextStyleTableRecord
  2
ATOM
 70
     0
 40
0.0
 41
0.9
 50
0.0
 71
     0
 42
4.0
  3
txt.shx
  4
extfont.shx
1001
AcadAnnotative
1000
AnnotativeData
1002
{
1070
     1
1070
     1
1002
}
  0
STYLE
  5
77
330
3
100
AcDbSymbolTableRecord
100
AcDbTextStyleTableRecord
  2
カタログ用
 70
     0
 40
0.0
 41
1.0
 50
0.0
 71
     0
 42
3.0
  3
MS Gothic.ttf
  4

1001
AcadAnnotative
1000
AnnotativeData
1002
{
1070
     1
1070
     1
1002
}
1001
ACAD
1000
MS Gothic
1071
    32817
  0
STYLE
  5
78
330
3
100
AcDbSymbolTableRecord
100
AcDbTextStyleTableRecord
  2
MX_NOTE_STANDARD
 70
     0
 40
0.0
 41
1.0
 50
0.0
 71
     0
 42
3.2
  3
txt.shx
  4
extfont.shx
  0
STYLE
  5
79
330
3
100
AcDbSymbolTableRecord
100
AcDbTextStyleTableRecord
  2
MX_DIMTXSTY_2
 70
     0
 40
0.0
 41
0.75
 50
0.0
 71
     0
 42
3.2
  3
txt.shx
  4
extfont.shx
  0
STYLE
  5
7A
330
3
100
AcDbSymbolTableRecord
100
AcDbTextStyleTableRecord
  2
MX_DIMTXSTY_3
 70
     0
 40
0.0
 41
1.1
 50
0.0
 71
     0
 42
3.2
  3
txt.shx
  4
extfont.shx
  0
STYLE
  5
7B
330
3
100
AcDbSymbolTableRecord
100
AcDbTextStyleTableRecord
  2
MX_DIMTXSTY_4
 70
     0
 40
0.0
 41
0.8
 50
0.0
 71
     0
 42
3.2
  3
txt.shx
  4
extfont.shx
  0
STYLE
  5
7C
330
3
100
AcDbSymbolTableRecord
100
AcDbTextStyleTableRecord
  2
MX_DIMTXSTY_5
 70
     0
 40
0.0
 41
0.85
 50
0.0
 71
     0
 42
3.2
  3
txt.shx
  4
extfont.shx
  0
ENDTAB
  0
TABLE
  2
VIEW
  5
6
330
0
100
AcDbSymbolTable
 70
     0
  0
ENDTAB
  0
TABLE
  2
UCS
  5
7
330
0
100
AcDbSymbolTable
 70
     0
  0
ENDTAB
  0
TABLE
  2
APPID
  5
9
330
0
100
AcDbSymbolTable
 70
    14
  0
APPID
  5
56
330
9
100
AcDbSymbolTableRecord
100
AcDbRegAppTableRecord
  2
ACAD
 70
     0
  0
APPID
  5
5E
330
9
100
AcDbSymbolTableRecord
100
AcDbRegAppTableRecord
  2
AcadAnnotative
 70
     0
  0
APPID
  5
74
330
9
100
AcDbSymbolTableRecord
100
AcDbRegAppTableRecord
  2
ACAD_PSEXT
 70
     0
  0
APPID
  5
8C
330
9
100
AcDbSymbolTableRecord
100
AcDbRegAppTableRecord
  2
ACAD_DSTYLE_DIMBREAK
 70
     0
  0
APPID
  5
8D
330
9
100
AcDbSymbolTableRecord
100
AcDbRegAppTableRecord
  2
ACAD_DSTYLE_DIMJAG
 70
     0
  0
APPID
  5
8E
330
9
100
AcDbSymbolTableRecord
100
AcDbRegAppTableRecord
  2
ACAD_DSTYLE_DIMTALN
 70
     0
  0
APPID
  5
AB
330
9
100
AcDbSymbolTableRecord
100
AcDbRegAppTableRecord
  2
AcAecLayerStandard
 70
     0
  0
APPID
  5
BD
330
9
100
AcDbSymbolTableRecord
100
AcDbRegAppTableRecord
  2
GENIUS_GENODEF_13
 70
     0
  0
APPID
  5
BE
330
9
100
AcDbSymbolTableRecord
100
AcDbRegAppTableRecord
  2
GENIUS_GENOBJ-N-CEN_13
 70
     0
  0
APPID
  5
3D9
330
9
100
AcDbSymbolTableRecord
100
AcDbRegAppTableRecord
  2
AcDbBlockRepETag
 70
     0
  0
APPID
  5
4B8
330
9
100
AcDbSymbolTableRecord
100
AcDbRegAppTableRecord
  2
AcDbDynamicBlockGUID
 70
     0
  0
APPID
  5
55B
330
9
100
AcDbSymbolTableRecord
100
AcDbRegAppTableRecord
  2
ACAD_NAV_VCDISPLAY
 70
     0
  0
APPID
  5
595
330
9
100
AcDbSymbolTableRecord
100
AcDbRegAppTableRecord
  2
ACAD_MLEADERVER
 70
     0
  0
APPID
  5
596
330
9
100
AcDbSymbolTableRecord
100
AcDbRegAppTableRecord
  2
AcDbAttr
 70
     0
  0
ENDTAB
  0
TABLE
  2
DIMSTYLE
  5
A
330
0
100
AcDbSymbolTable
 70
     5
100
AcDbDimStyleTable
 71
     1
340
84
  0
DIMSTYLE
105
58
330
A
100
AcDbSymbolTableRecord
100
AcDbDimStyleTableRecord
  2
Standard
 70
     0
340
55
  0
DIMSTYLE
105
59
330
A
100
AcDbSymbolTableRecord
100
AcDbDimStyleTableRecord
  2
Annotative
 70
     0
340
55
1001
AcadAnnotative
1000
AnnotativeData
1002
{
1070
     1
1070
     1
1002
}
  0
DIMSTYLE
105
84
330
A
100
AcDbSymbolTableRecord
100
AcDbDimStyleTableRecord
  2
ATOM
 70
     0
 40
0.0
 41
2.0
 42
2.0
 43
7.0
 44
1.0
 47
0.1
 48
0.1
 73
     0
 74
     0
 77
     1
 78
     8
140
3.0
141
-2.5
143
0.03937007874016
146
0.4999999999999998
147
0.625
171
     3
172
     1
178
     3
271
     2
272
     2
274
     3
276
     2
279
     1
283
     0
284
     8
289
     0
340
76
341
86
342
86
1001
ACAD_DSTYLE_DIMBREAK
1070
   391
1040
3.75
1001
AcadAnnotative
1000
AnnotativeData
1002
{
1070
     1
1070
     1
1002
}
1001
ACAD_DSTYLE_DIMJAG
1070
   388
1040
1.5
1001
ACAD_DSTYLE_DIMTALN
1070
   392
1070
     0
  0
DIMSTYLE
105
8F
330
A
100
AcDbSymbolTableRecord
100
AcDbDimStyleTableRecord
  2
カタログ用
 70
     0
 40
0.0
 41
2.0
 42
2.0
 43
7.0
 44
1.0
 47
0.1
 48
0.1
 73
     0
 74
     0
 77
     1
 78
     8
140
3.0
141
-2.5
143
0.03937007874016
146
0.5
147
0.625
171
     3
172
     1
178
     3
271
     2
272
     2
274
     3
276
     2
279
     1
283
     0
284
     8
289
     0
340
77
1001
ACAD_DSTYLE_DIMBREAK
1070
   391
1040
3.75
1001
AcadAnnotative
1000
AnnotativeData
1002
{
1070
     1
1070
     1
1002
}
1001
ACAD_DSTYLE_DIMJAG
1070
   388
1040
1.5
1001
ACAD_DSTYLE_DIMTALN
1070
   392
1070
     0
  0
DIMSTYLE
105
91
330
A
100
AcDbSymbolTableRecord
100
AcDbDimStyleTableRecord
  2
MXDIMSTYLE
 70
     0
 41
2.5
 42
1.0
 43
3.75
 44
2.286
 73
     0
 74
     0
 77
     1
 78
     8
140
3.2
141
2.5
143
0.03937
147
1.0
171
     4
172
     1
173
     1
271
     2
272
     2
274
     4
283
     0
340
78
341
86
343
86
344
86
  0
ENDTAB
  0
TABLE
  2
BLOCK_RECORD
  5
1
330
0
100
AcDbSymbolTable
 70
    14
  0
BLOCK_RECORD
  5
6C
102
{ACAD_XDICTIONARY
360
33C
102
}
330
1
100
AcDbSymbolTableRecord
100
AcDbBlockTableRecord
  2
*Model_Space
340
6F
  0
BLOCK_RECORD
  5
68
102
{ACAD_XDICTIONARY
360
33D
102
}
330
1
100
AcDbSymbolTableRecord
100
AcDbBlockTableRecord
  2
*Paper_Space
340
6B
  0
BLOCK_RECORD
  5
70
330
1
100
AcDbSymbolTableRecord
100
AcDbBlockTableRecord
  2
*Paper_Space0
340
73
  0
BLOCK_RECORD
  5
86
330
1
100
AcDbSymbolTableRecord
100
AcDbBlockTableRecord
  2
_Open30
340
0
310
2800000020000000200000000100080000000000000400000000000000000000000000000000000000000000000080000080000000808000800000008000800080800000C0C0C000C0DCC000F0CAA6000020400000206000002080000020A0000020C0000020E00000400000004020000040400000406000004080000040A0
310
000040C0000040E00000600000006020000060400000606000006080000060A0000060C0000060E00000800000008020000080400000806000008080000080A0000080C0000080E00000A0000000A0200000A0400000A0600000A0800000A0A00000A0C00000A0E00000C0000000C0200000C0400000C0600000C0800000C0
310
A00000C0C00000C0E00000E0000000E0200000E0400000E0600000E0800000E0A00000E0C00000E0E00040000000400020004000400040006000400080004000A0004000C0004000E00040200000402020004020400040206000402080004020A0004020C0004020E000404000004040200040404000404060004040800040
310
40A0004040C0004040E00040600000406020004060400040606000406080004060A0004060C0004060E00040800000408020004080400040806000408080004080A0004080C0004080E00040A0000040A0200040A0400040A0600040A0800040A0A00040A0C00040A0E00040C0000040C0200040C0400040C0600040C08000
310
40C0A00040C0C00040C0E00040E0000040E0200040E0400040E0600040E0800040E0A00040E0C00040E0E00080000000800020008000400080006000800080008000A0008000C0008000E00080200000802020008020400080206000802080008020A0008020C0008020E00080400000804020008040400080406000804080
310
008040A0008040C0008040E00080600000806020008060400080606000806080008060A0008060C0008060E00080800000808020008080400080806000808080008080A0008080C0008080E00080A0000080A0200080A0400080A0600080A0800080A0A00080A0C00080A0E00080C0000080C0200080C0400080C0600080C0
310
800080C0A00080C0C00080C0E00080E0000080E0200080E0400080E0600080E0800080E0A00080E0C00080E0E000C0000000C0002000C0004000C0006000C0008000C000A000C000C000C000E000C0200000C0202000C0204000C0206000C0208000C020A000C020C000C020E000C0400000C0402000C0404000C0406000C0
310
408000C040A000C040C000C040E000C0600000C0602000C0604000C0606000C0608000C060A000C060C000C060E000C0800000C0802000C0804000C0806000C0808000C080A000C080C000C080E000C0A00000C0A02000C0A04000C0A06000C0A08000C0A0A000C0A0C000C0A0E000C0C00000C0C02000C0C04000C0C06000
310
C0C08000C0C0A000F0FBFF00A4A0A000808080000000FF0000FF000000FFFF00FF000000FF00FF00FFFF0000FFFFFF0000000000000000000000000000000000000000000000000000000000000000000000000000000000000000000000000000000000000000000000000000000000000000000000000000000000000000
310
00000000000000000000000000000000000000000000000000000000000000000000000000000000000000000000000000000000000000000000000000000000000000000000000000000000000000000000000000000000000000000000000000000000000000000000000000000000000000000000000000000000000000
310
000000000000000000000000000000000000000000000000000000000000000000000000000000000000000000000000000000FFFF0000000000000000000000000000000000000000000000000000000000000000FFFFFFFF0000000000000000000000000000000000000000000000000000000000000000FFFFFFFF0000
310
000000000000000000000000000000000000000000000000000000000000FFFFFF0000000000000000000000000000000000000000000000000000000000000000FFFFFFFF0000000000000000000000000000000000000000000000000000000000000000FFFFFF0000000000000000000000000000000000000000000000
310
000000000000000000FFFFFFFF0000000000000000000000000000000000000000000000000000000000000000FFFFFFFF00000000FFFFFFFFFFFFFFFFFFFFFFFFFFFFFFFFFFFFFFFFFFFFFFFFFFFFFFFFFFFF00000000000000000000000000000000000000000000000000FFFFFFFF000000000000000000000000000000
310
000000000000000000FFFFFFFF000000000000000000000000000000000000000000000000FFFFFFFF000000000000000000000000000000000000000000000000FFFFFFFF000000000000000000000000000000000000000000000000FFFFFFFF000000000000000000000000000000000000000000000000FFFFFFFF0000
310
0000000000000000000000000000000000000000000000FFFFFF0000000000000000000000000000000000000000000000000000000000000000000000000000000000000000000000000000000000000000000000000000000000000000000000000000000000000000000000000000000000000000000000000000000000
310
00000000000000000000000000000000000000000000000000000000000000000000000000000000000000000000000000000000000000000000000000000000000000000000000000000000000000000000000000000000000000000000000000000000000000000000000000000000000000000000000000000000000000
310
0000000000000000000000000000000000000000000000000000000000000000000000000000000000000000000000000000000000000000
102
{BLKREFS
331
4F7
331
4F8
331
500
331
501
331
50B
331
50C
331
514
331
515
331
523
331
524
331
52B
331
52C
331
537
331
538
331
542
331
543
331
4DC
331
4DD
331
4E5
331
4E6
331
4EE
331
4EF
102
}
  0
BLOCK_RECORD
  5
1B0
330
1
100
AcDbSymbolTableRecord
100
AcDbBlockTableRecord
  2
*D2
340
0
  0
BLOCK_RECORD
  5
1BC
330
1
100
AcDbSymbolTableRecord
100
AcDbBlockTableRecord
  2
*D3
340
0
  0
BLOCK_RECORD
  5
1C8
330
1
100
AcDbSymbolTableRecord
100
AcDbBlockTableRecord
  2
*D4
340
0
  0
BLOCK_RECORD
  5
1D4
330
1
100
AcDbSymbolTableRecord
100
AcDbBlockTableRecord
  2
*D5
340
0
  0
BLOCK_RECORD
  5
1E0
330
1
100
AcDbSymbolTableRecord
100
AcDbBlockTableRecord
  2
*D6
340
0
  0
BLOCK_RECORD
  5
1F1
330
1
100
AcDbSymbolTableRecord
100
AcDbBlockTableRecord
  2
*D7
340
0
  0
BLOCK_RECORD
  5
1FF
330
1
100
AcDbSymbolTableRecord
100
AcDbBlockTableRecord
  2
*D8
340
0
  0
BLOCK_RECORD
  5
210
330
1
100
AcDbSymbolTableRecord
100
AcDbBlockTableRecord
  2
*D9
340
0
  0
BLOCK_RECORD
  5
221
330
1
100
AcDbSymbolTableRecord
100
AcDbBlockTableRecord
  2
*D10
340
0
  0
BLOCK_RECORD
  5
36D
330
1
100
AcDbSymbolTableRecord
100
AcDbBlockTableRecord
  2
*D11
340
0
  0
BLOCK_RECORD
  5
37B
330
1
100
AcDbSymbolTableRecord
100
AcDbBlockTableRecord
  2
*D12
340
0
  0
BLOCK_RECORD
  5
3D4
102
{ACAD_XDICTIONARY
360
3D5
102
}
330
1
100
AcDbSymbolTableRecord
100
AcDbBlockTableRecord
  2
ATOM_A4T_zuwaku
340
0
1001
AcDbDynamicBlockGUID
1000
{B9C2F380-7588-499F-A218-AE65411906E4}
1001
AcDbBlockRepETag
1070
     1
1071
      214
1001
ACAD
1000
DesignCenter Data
1002
{
1070
     1
1070
     4
1002
}
  0
ENDTAB
  0
ENDSEC
  0
SECTION
  2
BLOCKS
  0
BLOCK
  5
6D
330
6C
100
AcDbEntity
  8
0
100
AcDbBlockBegin
  2
*Model_Space
 70
     0
 10
0.0
 20
0.0
 30
0.0
  3
*Model_Space
  1

  0
ENDBLK
  5
6E
330
6C
100
AcDbEntity
  8
0
100
AcDbBlockEnd
  0
BLOCK
  5
69
330
68
100
AcDbEntity
 67
     1
  8
0
100
AcDbBlockBegin
  2
*Paper_Space
 70
     0
 10
0.0
 20
0.0
 30
0.0
  3
*Paper_Space
  1

  0
ENDBLK
  5
6A
330
68
100
AcDbEntity
 67
     1
  8
0
100
AcDbBlockEnd
  0
BLOCK
  5
71
330
70
100
AcDbEntity
 67
     1
  8
0
100
AcDbBlockBegin
  2
*Paper_Space0
 70
     0
 10
0.0
 20
0.0
 30
0.0
  3
*Paper_Space0
  1

  0
ENDBLK
  5
72
330
70
100
AcDbEntity
 67
     1
  8
0
100
AcDbBlockEnd
  0
BLOCK
  5
87
330
86
100
AcDbEntity
  8
0
100
AcDbBlockBegin
  2
_Open30
 70
     0
 10
0.0
 20
0.0
 30
0.0
  3
_Open30
  1

  0
LINE
  5
88
330
86
100
AcDbEntity
  8
0
  6
ByBlock
 62
     0
370
    -2
100
AcDbLine
 10
-1.0
 20
0.26794919
 30
0.0
 11
0.0
 21
0.0
 31
0.0
  0
LINE
  5
89
330
86
100
AcDbEntity
  8
0
  6
ByBlock
 62
     0
370
    -2
100
AcDbLine
 10
0.0
 20
0.0
 30
0.0
 11
-1.0
 21
-0.26794919
 31
0.0
  0
LINE
  5
8A
330
86
100
AcDbEntity
  8
0
  6
ByBlock
 62
     0
370
    -2
100
AcDbLine
 10
0.0
 20
0.0
 30
0.0
 11
-1.0
 21
0.0
 31
0.0
  0
ENDBLK
  5
8B
330
86
100
AcDbEntity
  8
0
100
AcDbBlockEnd
  0
BLOCK
  5
1B1
330
1B0
100
AcDbEntity
  8
0
100
AcDbBlockBegin
  2
*D2
 70
     1
 10
0.0
 20
0.0
 30
0.0
  3
*D2
  1

  0
LINE
  5
4D9
330
1B0
100
AcDbEntity
  8
dim
 62
     0
370
    -2
100
AcDbLine
 10
270.1591606702889
 20
256.1250110965116
 30
0.0
 11
270.1591606702889
 21
284.8470462142882
 31
0.0
  0
LINE
  5
4DA
330
1B0
100
AcDbEntity
  8
dim
 62
     0
370
    -2
100
AcDbLine
 10
212.1591606702884
 20
256.1250110965116
 30
0.0
 11
212.1591606702884
 21
284.8470462142882
 31
0.0
  0
LINE
  5
4DB
330
1B0
100
AcDbEntity
  8
dim
 62
     0
370
    -2
100
AcDbLine
 10
268.1591606702889
 20
283.8470462142882
 30
0.0
 11
214.1591606702884
 21
283.8470462142882
 31
0.0
  0
INSERT
  5
4DC
330
1B0
100
AcDbEntity
  8
dim
 62
     0
370
    -2
100
AcDbBlockReference
  2
_Open30
 10
270.1591606702889
 20
283.8470462142882
 30
0.0
 41
2.0
 42
2.0
 43
2.0
  0
INSERT
  5
4DD
330
1B0
100
AcDbEntity
  8
dim
 62
     0
370
    -2
100
AcDbBlockReference
  2
_Open30
 10
212.1591606702884
 20
283.8470462142882
 30
0.0
 41
2.0
 42
2.0
 43
2.0
 50
180.0
  0
MTEXT
  5
4DE
330
1B0
100
AcDbEntity
  8
dim
 62
     3
100
AcDbMText
 10
241.4503574742864
 20
285.9720462142882
 30
0.0
 40
3.0
 41
0.0
 71
     5
 72
     1
  1
29
  7
ATOM
 73
     1
 44
1.0
1001
ACAD
1000
MTEXTBEGIN
1070
    73
1070
     1
1070
    44
1040
1.0
1070
    74
1070
     0
1000
MTEXTEND
  0
POINT
  5
4DF
330
1B0
100
AcDbEntity
  8
Defpoints
 62
     0
100
AcDbPoint
 10
270.1591606702889
 20
254.1250110965115
 30
0.0
  0
POINT
  5
4E0
330
1B0
100
AcDbEntity
  8
Defpoints
 62
     0
100
AcDbPoint
 10
212.1591606702884
 20
254.1250110965115
 30
0.0
  0
POINT
  5
4E1
330
1B0
100
AcDbEntity
  8
Defpoints
 62
     0
100
AcDbPoint
 10
212.1591606702884
 20
283.8470462142882
 30
0.0
  0
ENDBLK
  5
1B2
330
1B0
100
AcDbEntity
  8
0
100
AcDbBlockEnd
  0
BLOCK
  5
1BD
330
1BC
100
AcDbEntity
  8
0
100
AcDbBlockBegin
  2
*D3
 70
     1
 10
0.0
 20
0.0
 30
0.0
  3
*D3
  1

  0
LINE
  5
4E2
330
1BC
100
AcDbEntity
  8
dim
 62
     0
370
    -2
100
AcDbLine
 10
227.9591606702868
 20
256.1250110965116
 30
0.0
 11
227.9591606702868
 21
274.4095462142882
 31
0.0
  0
LINE
  5
4E3
330
1BC
100
AcDbEntity
  8
dim
 62
     0
370
    -2
100
AcDbLine
 10
254.3591606702873
 20
256.1250110965116
 30
0.0
 11
254.3591606702873
 21
274.4095462142882
 31
0.0
  0
LINE
  5
4E4
330
1BC
100
AcDbEntity
  8
dim
 62
     0
370
    -2
100
AcDbLine
 10
229.9591606702868
 20
273.4095462142882
 30
0.0
 11
252.3591606702873
 21
273.4095462142882
 31
0.0
  0
INSERT
  5
4E5
330
1BC
100
AcDbEntity
  8
dim
 62
     0
370
    -2
100
AcDbBlockReference
  2
_Open30
 10
227.9591606702868
 20
273.4095462142882
 30
0.0
 41
2.0
 42
2.0
 43
2.0
 50
180.0
  0
INSERT
  5
4E6
330
1BC
100
AcDbEntity
  8
dim
 62
     0
370
    -2
100
AcDbBlockReference
  2
_Open30
 10
254.3591606702873
 20
273.4095462142882
 30
0.0
 41
2.0
 42
2.0
 43
2.0
  0
MTEXT
  5
4E7
330
1BC
100
AcDbEntity
  8
dim
 62
     3
100
AcDbMText
 10
241.1591606702871
 20
275.5345462142882
 30
0.0
 40
3.0
 41
0.0
 71
     5
 72
     1
  1
13.2
  7
ATOM
 73
     1
 44
1.0
1001
ACAD
1000
MTEXTBEGIN
1070
    73
1070
     1
1070
    44
1040
1.0
1070
    74
1070
     0
1000
MTEXTEND
  0
POINT
  5
4E8
330
1BC
100
AcDbEntity
  8
Defpoints
 62
     0
100
AcDbPoint
 10
227.9591606702868
 20
254.1250110965115
 30
0.0
  0
POINT
  5
4E9
330
1BC
100
AcDbEntity
  8
Defpoints
 62
     0
100
AcDbPoint
 10
254.3591606702873
 20
254.1250110965115
 30
0.0
  0
POINT
  5
4EA
330
1BC
100
AcDbEntity
  8
Defpoints
 62
     0
100
AcDbPoint
 10
254.3591606702873
 20
273.4095462142882
 30
0.0
  0
ENDBLK
  5
1BE
330
1BC
100
AcDbEntity
  8
0
100
AcDbBlockEnd
  0
BLOCK
  5
1C9
330
1C8
100
AcDbEntity
  8
0
100
AcDbBlockBegin
  2
*D4
 70
     1
 10
0.0
 20
0.0
 30
0.0
  3
*D4
  1

  0
LINE
  5
4EB
330
1C8
100
AcDbEntity
  8
dim
 62
     0
370
    -2
100
AcDbLine
 10
211.1591606702866
 20
255.125011096512
 30
0.0
 11
188.7213725214868
 21
255.1250110965121
 31
0.0
  0
LINE
  5
4EC
330
1C8
100
AcDbEntity
  8
dim
 62
     0
370
    -2
100
AcDbLine
 10
211.1591606702866
 20
178.1250110965111
 30
0.0
 11
188.7213725214867
 21
178.1250110965111
 31
0.0
  0
LINE
  5
4ED
330
1C8
100
AcDbEntity
  8
dim
 62
     0
370
    -2
100
AcDbLine
 10
189.7213725214868
 20
253.1250110965121
 30
0.0
 11
189.7213725214867
 21
180.1250110965111
 31
0.0
  0
INSERT
  5
4EE
330
1C8
100
AcDbEntity
  8
dim
 62
     0
370
    -2
100
AcDbBlockReference
  2
_Open30
 10
189.7213725214868
 20
255.1250110965121
 30
0.0
 41
2.0
 42
2.0
 43
2.0
 50
90.0
  0
INSERT
  5
4EF
330
1C8
100
AcDbEntity
  8
dim
 62
     0
370
    -2
100
AcDbBlockReference
  2
_Open30
 10
189.7213725214867
 20
178.1250110965111
 30
0.0
 41
2.0
 42
2.0
 43
2.0
 50
270.0
  0
MTEXT
  5
4F0
330
1C8
100
AcDbEntity
  8
dim
 62
     3
100
AcDbMText
 10
187.5963725214867
 20
216.625011096512
 30
0.0
 40
3.0
 41
0.0
 71
     5
 72
     1
  1
38.5
  7
ATOM
 11
0.0000000000000001
 21
1.0
 31
0.0
 73
     1
 44
1.0
1001
ACAD
1000
MTEXTBEGIN
1070
    73
1070
     1
1070
    44
1040
1.0
1070
    74
1070
     0
1000
MTEXTEND
  0
POINT
  5
4F1
330
1C8
100
AcDbEntity
  8
Defpoints
 62
     0
100
AcDbPoint
 10
213.1591606702866
 20
255.125011096512
 30
0.0
  0
POINT
  5
4F2
330
1C8
100
AcDbEntity
  8
Defpoints
 62
     0
100
AcDbPoint
 10
213.1591606702866
 20
178.1250110965111
 30
0.0
  0
POINT
  5
4F3
330
1C8
100
AcDbEntity
  8
Defpoints
 62
     0
100
AcDbPoint
 10
189.7213725214867
 20
178.1250110965111
 30
0.0
  0
ENDBLK
  5
1CA
330
1C8
100
AcDbEntity
  8
0
100
AcDbBlockEnd
  0
BLOCK
  5
1D5
330
1D4
100
AcDbEntity
  8
0
100
AcDbBlockBegin
  2
*D5
 70
     1
 10
0.0
 20
0.0
 30
0.0
  3
*D5
  1

  0
LINE
  5
4F4
330
1D4
100
AcDbEntity
  8
dim
 62
     0
370
    -2
100
AcDbLine
 10
219.1591606702875
 20
186.1250110965111
 30
0.0
 11
194.7213725214867
 21
186.1250110965111
 31
0.0
  0
LINE
  5
4F5
330
1D4
100
AcDbEntity
  8
dim
 62
     0
370
    -2
100
AcDbLine
 10
219.1591606702875
 20
252.1250110965111
 30
0.0
 11
194.7213725214867
 21
252.1250110965111
 31
0.0
  0
LINE
  5
4F6
330
1D4
100
AcDbEntity
  8
dim
 62
     0
370
    -2
100
AcDbLine
 10
195.7213725214867
 20
188.1250110965111
 30
0.0
 11
195.7213725214867
 21
250.1250110965111
 31
0.0
  0
INSERT
  5
4F7
330
1D4
100
AcDbEntity
  8
dim
 62
     0
370
    -2
100
AcDbBlockReference
  2
_Open30
 10
195.7213725214867
 20
186.1250110965111
 30
0.0
 41
2.0
 42
2.0
 43
2.0
 50
270.0
  0
INSERT
  5
4F8
330
1D4
100
AcDbEntity
  8
dim
 62
     0
370
    -2
100
AcDbBlockReference
  2
_Open30
 10
195.7213725214867
 20
252.1250110965111
 30
0.0
 41
2.0
 42
2.0
 43
2.0
 50
90.0
  0
MTEXT
  5
4F9
330
1D4
100
AcDbEntity
  8
dim
 62
     3
100
AcDbMText
 10
193.5963725214866
 20
219.1250110965112
 30
0.0
 40
3.0
 41
0.0
 71
     5
 72
     1
  1
33
  7
ATOM
 11
0.0000000000000001
 21
1.0
 31
0.0
 73
     1
 44
1.0
1001
ACAD
1000
MTEXTBEGIN
1070
    73
1070
     1
1070
    44
1040
1.0
1070
    74
1070
     0
1000
MTEXTEND
  0
POINT
  5
4FA
330
1D4
100
AcDbEntity
  8
Defpoints
 62
     0
100
AcDbPoint
 10
221.1591606702875
 20
186.1250110965111
 30
0.0
  0
POINT
  5
4FB
330
1D4
100
AcDbEntity
  8
Defpoints
 62
     0
100
AcDbPoint
 10
221.1591606702875
 20
252.1250110965111
 30
0.0
  0
POINT
  5
4FC
330
1D4
100
AcDbEntity
  8
Defpoints
 62
     0
100
AcDbPoint
 10
195.7213725214867
 20
252.1250110965111
 30
0.0
  0
ENDBLK
  5
1D6
330
1D4
100
AcDbEntity
  8
0
100
AcDbBlockEnd
  0
BLOCK
  5
1E1
330
1E0
100
AcDbEntity
  8
0
100
AcDbBlockBegin
  2
*D6
 70
     1
 10
0.0
 20
0.0
 30
0.0
  3
*D6
  1

  0
LINE
  5
4FD
330
1E0
100
AcDbEntity
  8
dim
 62
     0
370
    -2
100
AcDbLine
 10
219.1591606702875
 20
186.1250110965111
 30
0.0
 11
194.7213725214867
 21
186.1250110965111
 31
0.0
  0
LINE
  5
4FE
330
1E0
100
AcDbEntity
  8
dim
 62
     0
370
    -2
100
AcDbLine
 10
211.1591606702866
 20
178.1250110965111
 30
0.0
 11
194.7213725214867
 21
178.1250110965111
 31
0.0
  0
LINE
  5
4FF
330
1E0
100
AcDbEntity
  8
dim
 62
     0
370
    -2
100
AcDbLine
 10
195.7213725214867
 20
184.1250110965111
 30
0.0
 11
195.7213725214867
 21
180.1250110965111
 31
0.0
  0
INSERT
  5
500
330
1E0
100
AcDbEntity
  8
dim
 62
     0
370
    -2
100
AcDbBlockReference
  2
_Open30
 10
195.7213725214867
 20
186.1250110965111
 30
0.0
 41
2.0
 42
2.0
 43
2.0
 50
90.0
  0
INSERT
  5
501
330
1E0
100
AcDbEntity
  8
dim
 62
     0
370
    -2
100
AcDbBlockReference
  2
_Open30
 10
195.7213725214867
 20
178.1250110965111
 30
0.0
 41
2.0
 42
2.0
 43
2.0
 50
270.0
  0
MTEXT
  5
502
330
1E0
100
AcDbEntity
  8
dim
 62
     3
100
AcDbMText
 10
193.5963725214867
 20
182.1250110965111
 30
0.0
 40
3.0
 41
0.0
 71
     5
 72
     1
  1
4
  7
ATOM
 11
0.0000000000000001
 21
1.0
 31
0.0
 73
     1
 44
1.0
1001
ACAD
1000
MTEXTBEGIN
1070
    73
1070
     1
1070
    44
1040
1.0
1070
    74
1070
     0
1000
MTEXTEND
  0
POINT
  5
503
330
1E0
100
AcDbEntity
  8
Defpoints
 62
     0
100
AcDbPoint
 10
221.1591606702875
 20
186.1250110965111
 30
0.0
  0
POINT
  5
504
330
1E0
100
AcDbEntity
  8
Defpoints
 62
     0
100
AcDbPoint
 10
213.1591606702866
 20
178.1250110965111
 30
0.0
  0
POINT
  5
505
330
1E0
100
AcDbEntity
  8
Defpoints
 62
     0
100
AcDbPoint
 10
195.7213725214867
 20
178.1250110965111
 30
0.0
  0
ENDBLK
  5
1E2
330
1E0
100
AcDbEntity
  8
0
100
AcDbBlockEnd
  0
BLOCK
  5
1F2
330
1F1
100
AcDbEntity
  8
0
100
AcDbBlockBegin
  2
*D7
 70
     1
 10
0.0
 20
0.0
 30
0.0
  3
*D7
  1

  0
LINE
  5
506
330
1F1
100
AcDbEntity
  8
dim
 62
     0
370
    -2
100
AcDbLine
 10
219.1591606702875
 20
252.1250110965111
 30
0.0
 11
194.7213725214867
 21
252.1250110965111
 31
0.0
  0
LINE
  5
507
330
1F1
100
AcDbEntity
  8
dim
 62
     0
370
    -2
100
AcDbLine
 10
211.1591606702866
 20
255.125011096512
 30
0.0
 11
194.7213725214867
 21
255.125011096512
 31
0.0
  0
LINE
  5
508
330
1F1
100
AcDbEntity
  8
dim
 62
     0
370
    -2
100
AcDbLine
 10
195.7213725214867
 20
250.1250110965111
 30
0.0
 11
195.7213725214867
 21
248.1250110965111
 31
0.0
  0
LINE
  5
509
330
1F1
100
AcDbEntity
  8
dim
 62
     0
370
    -2
100
AcDbLine
 10
195.7213725214867
 20
257.125011096512
 30
0.0
 11
195.7213725214867
 21
264.875011096512
 31
0.0
  0
LINE
  5
50A
330
1F1
100
AcDbEntity
  8
dim
 62
     0
370
    -2
100
AcDbLine
 10
195.7213725214867
 20
252.1250110965111
 30
0.0
 11
195.7213725214867
 21
255.125011096512
 31
0.0
  0
INSERT
  5
50B
330
1F1
100
AcDbEntity
  8
dim
 62
     0
370
    -2
100
AcDbBlockReference
  2
_Open30
 10
195.7213725214867
 20
252.1250110965111
 30
0.0
 41
2.0
 42
2.0
 43
2.0
 50
90.0
  0
INSERT
  5
50C
330
1F1
100
AcDbEntity
  8
dim
 62
     0
370
    -2
100
AcDbBlockReference
  2
_Open30
 10
195.7213725214867
 20
255.125011096512
 30
0.0
 41
2.0
 42
2.0
 43
2.0
 50
270.0
  0
MTEXT
  5
50D
330
1F1
100
AcDbEntity
  8
dim
 62
     3
100
AcDbMText
 10
193.5963725214867
 20
262.0000110965121
 30
0.0
 40
3.0
 41
0.0
 71
     5
 72
     1
  1
1.5
  7
ATOM
 11
0.0000000000000001
 21
1.0
 31
0.0
 73
     1
 44
1.0
1001
ACAD
1000
MTEXTBEGIN
1070
    73
1070
     1
1070
    44
1040
1.0
1070
    74
1070
     0
1000
MTEXTEND
  0
POINT
  5
50E
330
1F1
100
AcDbEntity
  8
Defpoints
 62
     0
100
AcDbPoint
 10
221.1591606702875
 20
252.1250110965111
 30
0.0
  0
POINT
  5
50F
330
1F1
100
AcDbEntity
  8
Defpoints
 62
     0
100
AcDbPoint
 10
213.1591606702866
 20
255.125011096512
 30
0.0
  0
POINT
  5
510
330
1F1
100
AcDbEntity
  8
Defpoints
 62
     0
100
AcDbPoint
 10
195.7213725214867
 20
255.125011096512
 30
0.0
  0
ENDBLK
  5
1F3
330
1F1
100
AcDbEntity
  8
0
100
AcDbBlockEnd
  0
BLOCK
  5
200
330
1FF
100
AcDbEntity
  8
0
100
AcDbBlockBegin
  2
*D8
 70
     1
 10
0.0
 20
0.0
 30
0.0
  3
*D8
  1

  0
LINE
  5
511
330
1FF
100
AcDbEntity
  8
dim
 62
     0
370
    -2
100
AcDbLine
 10
225.3591606702873
 20
254.1250110965111
 30
0.0
 11
225.3591606702873
 21
274.4095462142882
 31
0.0
  0
LINE
  5
512
330
1FF
100
AcDbEntity
  8
dim
 62
     0
370
    -2
100
AcDbLine
 10
218.1591606702875
 20
251.1250110965111
 30
0.0
 11
218.1591606702875
 21
274.4095462142882
 31
0.0
  0
LINE
  5
513
330
1FF
100
AcDbEntity
  8
dim
 62
     0
370
    -2
100
AcDbLine
 10
223.3591606702873
 20
273.4095462142882
 30
0.0
 11
220.1591606702875
 21
273.4095462142882
 31
0.0
  0
INSERT
  5
514
330
1FF
100
AcDbEntity
  8
dim
 62
     0
370
    -2
100
AcDbBlockReference
  2
_Open30
 10
225.3591606702873
 20
273.4095462142882
 30
0.0
 41
2.0
 42
2.0
 43
2.0
  0
INSERT
  5
515
330
1FF
100
AcDbEntity
  8
dim
 62
     0
370
    -2
100
AcDbBlockReference
  2
_Open30
 10
218.1591606702875
 20
273.4095462142882
 30
0.0
 41
2.0
 42
2.0
 43
2.0
 50
180.0
  0
MTEXT
  5
516
330
1FF
100
AcDbEntity
  8
dim
 62
     3
100
AcDbMText
 10
221.7591606702874
 20
275.5345462142882
 30
0.0
 40
3.0
 41
0.0
 71
     5
 72
     1
  1
3.6
  7
ATOM
 73
     1
 44
1.0
1001
ACAD
1000
MTEXTBEGIN
1070
    73
1070
     1
1070
    44
1040
1.0
1070
    74
1070
     0
1000
MTEXTEND
  0
POINT
  5
517
330
1FF
100
AcDbEntity
  8
Defpoints
 62
     0
100
AcDbPoint
 10
225.3591606702873
 20
252.1250110965111
 30
0.0
  0
POINT
  5
518
330
1FF
100
AcDbEntity
  8
Defpoints
 62
     0
100
AcDbPoint
 10
218.1591606702875
 20
249.1250110965111
 30
0.0
  0
POINT
  5
519
330
1FF
100
AcDbEntity
  8
Defpoints
 62
     0
100
AcDbPoint
 10
218.1591606702875
 20
273.4095462142882
 30
0.0
  0
ENDBLK
  5
201
330
1FF
100
AcDbEntity
  8
0
100
AcDbBlockEnd
  0
BLOCK
  5
211
330
210
100
AcDbEntity
  8
0
100
AcDbBlockBegin
  2
*D9
 70
     1
 10
0.0
 20
0.0
 30
0.0
  3
*D9
  1

  0
LINE
  5
51A
330
210
100
AcDbEntity
  8
dim
 62
     0
370
    -2
100
AcDbLine
 10
227.9591606702868
 20
256.1250110965116
 30
0.0
 11
227.9591606702868
 21
274.4095462142882
 31
0.0
  0
LINE
  5
51B
330
210
100
AcDbEntity
  8
dim
 62
     0
370
    -2
100
AcDbLine
 10
225.3591606702873
 20
254.1250110965111
 30
0.0
 11
225.3591606702873
 21
274.4095462142882
 31
0.0
  0
LINE
  5
51C
330
210
100
AcDbEntity
  8
dim
 62
     0
370
    -2
100
AcDbLine
 10
229.9591606702868
 20
273.4095462142882
 30
0.0
 11
231.9591606702868
 21
273.4095462142882
 31
0.0
  0
LINE
  5
51D
330
210
100
AcDbEntity
  8
dim
 62
     0
370
    -2
100
AcDbLine
 10
223.3591606702873
 20
273.4095462142882
 30
0.0
 11
221.3591606702873
 21
273.4095462142882
 31
0.0
  0
LINE
  5
51E
330
210
100
AcDbEntity
  8
dim
 62
     0
370
    -2
100
AcDbLine
 10
226.6591606702871
 20
273.4095462142882
 30
0.0
 11
227.6904106702871
 21
276.8470462142882
 31
0.0
  0
LINE
  5
51F
330
210
100
AcDbEntity
  8
dim
 62
     0
370
    -2
100
AcDbLine
 10
227.6904106702871
 20
276.8470462142882
 30
0.0
 11
233.4404106702871
 21
276.8470462142882
 31
0.0
  0
MTEXT
  5
520
330
210
100
AcDbEntity
  8
dim
 62
     3
100
AcDbMText
 10
230.5654106702871
 20
278.9720462142882
 30
0.0
 40
3.0
 41
0.0
 71
     5
 72
     1
  1
1.3
  7
ATOM
 73
     1
 44
1.0
1001
ACAD
1000
MTEXTBEGIN
1070
    73
1070
     1
1070
    44
1040
1.0
1070
    74
1070
     0
1000
MTEXTEND
  0
LINE
  5
521
330
210
100
AcDbEntity
  8
dim
 62
     0
370
    -2
100
AcDbLine
 10
227.9591606702868
 20
273.4095462142882
 30
0.0
 11
225.3591606702873
 21
273.4095462142882
 31
0.0
  0
LINE
  5
522
330
210
100
AcDbEntity
  8
dim
 62
     0
370
    -2
100
AcDbLine
 10
227.9591606702868
 20
273.4095462142882
 30
0.0
 11
225.3591606702873
 21
273.4095462142882
 31
0.0
  0
INSERT
  5
523
330
210
100
AcDbEntity
  8
dim
 62
     0
370
    -2
100
AcDbBlockReference
  2
_Open30
 10
227.9591606702868
 20
273.4095462142882
 30
0.0
 41
2.0
 42
2.0
 43
2.0
 50
180.0
  0
INSERT
  5
524
330
210
100
AcDbEntity
  8
dim
 62
     0
370
    -2
100
AcDbBlockReference
  2
_Open30
 10
225.3591606702873
 20
273.4095462142882
 30
0.0
 41
2.0
 42
2.0
 43
2.0
  0
POINT
  5
525
330
210
100
AcDbEntity
  8
Defpoints
 62
     0
100
AcDbPoint
 10
227.9591606702868
 20
254.1250110965115
 30
0.0
  0
POINT
  5
526
330
210
100
AcDbEntity
  8
Defpoints
 62
     0
100
AcDbPoint
 10
225.3591606702873
 20
252.1250110965111
 30
0.0
  0
POINT
  5
527
330
210
100
AcDbEntity
  8
Defpoints
 62
     0
100
AcDbPoint
 10
225.3591606702873
 20
273.4095462142882
 30
0.0
  0
ENDBLK
  5
212
330
210
100
AcDbEntity
  8
0
100
AcDbBlockEnd
  0
BLOCK
  5
222
330
221
100
AcDbEntity
  8
0
100
AcDbBlockBegin
  2
*D10
 70
     1
 10
0.0
 20
0.0
 30
0.0
  3
*D10
  1

  0
LINE
  5
528
330
221
100
AcDbEntity
  8
dim
 62
     0
370
    -2
100
AcDbLine
 10
218.1591606702875
 20
251.1250110965111
 30
0.0
 11
218.1591606702875
 21
274.4095462142882
 31
0.0
  0
LINE
  5
529
330
221
100
AcDbEntity
  8
dim
 62
     0
370
    -2
100
AcDbLine
 10
212.1591606702866
 20
256.1250110965116
 30
0.0
 11
212.1591606702866
 21
274.4095462142882
 31
0.0
  0
LINE
  5
52A
330
221
100
AcDbEntity
  8
dim
 62
     0
370
    -2
100
AcDbLine
 10
216.1591606702875
 20
273.4095462142882
 30
0.0
 11
214.1591606702866
 21
273.4095462142882
 31
0.0
  0
INSERT
  5
52B
330
221
100
AcDbEntity
  8
dim
 62
     0
370
    -2
100
AcDbBlockReference
  2
_Open30
 10
218.1591606702875
 20
273.4095462142882
 30
0.0
 41
2.0
 42
2.0
 43
2.0
  0
INSERT
  5
52C
330
221
100
AcDbEntity
  8
dim
 62
     0
370
    -2
100
AcDbBlockReference
  2
_Open30
 10
212.1591606702866
 20
273.4095462142882
 30
0.0
 41
2.0
 42
2.0
 43
2.0
 50
180.0
  0
MTEXT
  5
52D
330
221
100
AcDbEntity
  8
dim
 62
     3
100
AcDbMText
 10
215.1591606702871
 20
275.5345462142882
 30
0.0
 40
3.0
 41
0.0
 71
     5
 72
     1
  1
3
  7
ATOM
 73
     1
 44
1.0
1001
ACAD
1000
MTEXTBEGIN
1070
    73
1070
     1
1070
    44
1040
1.0
1070
    74
1070
     0
1000
MTEXTEND
  0
POINT
  5
52E
330
221
100
AcDbEntity
  8
Defpoints
 62
     0
100
AcDbPoint
 10
218.1591606702875
 20
249.1250110965111
 30
0.0
  0
POINT
  5
52F
330
221
100
AcDbEntity
  8
Defpoints
 62
     0
100
AcDbPoint
 10
212.1591606702866
 20
254.1250110965115
 30
0.0
  0
POINT
  5
530
330
221
100
AcDbEntity
  8
Defpoints
 62
     0
100
AcDbPoint
 10
212.1591606702866
 20
273.4095462142882
 30
0.0
  0
ENDBLK
  5
223
330
221
100
AcDbEntity
  8
0
100
AcDbBlockEnd
  0
BLOCK
  5
36E
330
36D
100
AcDbEntity
  8
0
100
AcDbBlockBegin
  2
*D11
 70
     1
 10
0.0
 20
0.0
 30
0.0
  3
*D11
  1

  0
LINE
  5
531
330
36D
100
AcDbEntity
  8
dim
 62
     0
370
    -2
100
AcDbLine
 10
290.7137718519361
 20
136.8832473696657
 30
0.0
 11
290.7137718519361
 21
144.9153006532451
 31
0.0
  0
LINE
  5
532
330
36D
100
AcDbEntity
  8
dim
 62
     0
370
    -2
100
AcDbLine
 10
287.7137718519389
 20
136.8832473696657
 30
0.0
 11
287.7137718519389
 21
144.9153006532451
 31
0.0
  0
LINE
  5
533
330
36D
100
AcDbEntity
  8
dim
 62
     0
370
    -2
100
AcDbLine
 10
292.7137718519361
 20
143.9153006532451
 30
0.0
 11
294.7137718519361
 21
143.9153006532451
 31
0.0
  0
LINE
  5
534
330
36D
100
AcDbEntity
  8
dim
 62
     0
370
    -2
100
AcDbLine
 10
285.7137718519389
 20
143.9153006532451
 30
0.0
 11
283.7137718519389
 21
143.9153006532451
 31
0.0
  0
MTEXT
  5
535
330
36D
100
AcDbEntity
  8
dim
 62
     3
100
AcDbMText
 10
283.7137718519389
 20
146.0403006532451
 30
0.0
 40
3.0
 41
0.0
 71
     5
 72
     1
  1
0.6
  7
ATOM
 73
     1
 44
1.0
1001
ACAD
1000
MTEXTBEGIN
1070
    73
1070
     1
1070
    44
1040
1.0
1070
    74
1070
     0
1000
MTEXTEND
  0
LINE
  5
536
330
36D
100
AcDbEntity
  8
dim
 62
     0
370
    -2
100
AcDbLine
 10
290.7137718519361
 20
143.9153006532451
 30
0.0
 11
287.7137718519389
 21
143.9153006532451
 31
0.0
  0
INSERT
  5
537
330
36D
100
AcDbEntity
  8
dim
 62
     0
370
    -2
100
AcDbBlockReference
  2
_Open30
 10
290.7137718519361
 20
143.9153006532451
 30
0.0
 41
2.0
 42
2.0
 43
2.0
 50
180.0
  0
INSERT
  5
538
330
36D
100
AcDbEntity
  8
dim
 62
     0
370
    -2
100
AcDbBlockReference
  2
_Open30
 10
287.7137718519389
 20
143.9153006532451
 30
0.0
 41
2.0
 42
2.0
 43
2.0
  0
POINT
  5
539
330
36D
100
AcDbEntity
  8
Defpoints
 62
     0
100
AcDbPoint
 10
290.7137718519361
 20
134.8832473696657
 30
0.0
  0
POINT
  5
53A
330
36D
100
AcDbEntity
  8
Defpoints
 62
     0
100
AcDbPoint
 10
287.7137718519389
 20
134.8832473696657
 30
0.0
  0
POINT
  5
53B
330
36D
100
AcDbEntity
  8
Defpoints
 62
     0
100
AcDbPoint
 10
287.7137718519389
 20
143.9153006532451
 30
0.0
  0
ENDBLK
  5
36F
330
36D
100
AcDbEntity
  8
0
100
AcDbBlockEnd
  0
BLOCK
  5
37C
330
37B
100
AcDbEntity
  8
0
100
AcDbBlockBegin
  2
*D12
 70
     1
 10
0.0
 20
0.0
 30
0.0
  3
*D12
  1

  0
LINE
  5
53C
330
37B
100
AcDbEntity
  8
dim
 62
     0
370
    -2
100
AcDbLine
 10
291.213771851938
 20
133.3832473696648
 30
0.0
 11
300.5935745480055
 21
133.3832473696648
 31
0.0
  0
LINE
  5
53D
330
37B
100
AcDbEntity
  8
dim
 62
     0
370
    -2
100
AcDbLine
 10
292.7137718519361
 20
134.8832473696657
 30
0.0
 11
300.5935745480055
 21
134.8832473696657
 31
0.0
  0
LINE
  5
53E
330
37B
100
AcDbEntity
  8
dim
 62
     0
370
    -2
100
AcDbLine
 10
299.5935745480056
 20
131.3832473696648
 30
0.0
 11
299.5935745480056
 21
129.3832473696648
 31
0.0
  0
LINE
  5
53F
330
37B
100
AcDbEntity
  8
dim
 62
     0
370
    -2
100
AcDbLine
 10
299.5935745480056
 20
136.8832473696657
 30
0.0
 11
299.5935745480056
 21
138.8832473696657
 31
0.0
  0
MTEXT
  5
540
330
37B
100
AcDbEntity
  8
dim
 62
     3
100
AcDbMText
 10
297.4685745480055
 20
129.3832473696648
 30
0.0
 40
3.0
 41
0.0
 71
     5
 72
     1
  1
0.3
  7
ATOM
 11
0.0000000000000001
 21
1.0
 31
0.0
 73
     1
 44
1.0
1001
ACAD
1000
MTEXTBEGIN
1070
    73
1070
     1
1070
    44
1040
1.0
1070
    74
1070
     0
1000
MTEXTEND
  0
LINE
  5
541
330
37B
100
AcDbEntity
  8
dim
 62
     0
370
    -2
100
AcDbLine
 10
299.5935745480056
 20
133.3832473696648
 30
0.0
 11
299.5935745480056
 21
134.8832473696657
 31
0.0
  0
INSERT
  5
542
330
37B
100
AcDbEntity
  8
dim
 62
     0
370
    -2
100
AcDbBlockReference
  2
_Open30
 10
299.5935745480056
 20
133.3832473696648
 30
0.0
 41
2.0
 42
2.0
 43
2.0
 50
90.0
  0
INSERT
  5
543
330
37B
100
AcDbEntity
  8
dim
 62
     0
370
    -2
100
AcDbBlockReference
  2
_Open30
 10
299.5935745480056
 20
134.8832473696657
 30
0.0
 41
2.0
 42
2.0
 43
2.0
 50
270.0
  0
POINT
  5
544
330
37B
100
AcDbEntity
  8
Defpoints
 62
     0
100
AcDbPoint
 10
289.2137718519379
 20
133.3832473696648
 30
0.0
  0
POINT
  5
545
330
37B
100
AcDbEntity
  8
Defpoints
 62
     0
100
AcDbPoint
 10
290.7137718519361
 20
134.8832473696657
 30
0.0
  0
POINT
  5
546
330
37B
100
AcDbEntity
  8
Defpoints
 62
     0
100
AcDbPoint
 10
299.5935745480056
 20
134.8832473696657
 30
0.0
  0
ENDBLK
  5
37D
330
37B
100
AcDbEntity
  8
0
100
AcDbBlockEnd
  0
BLOCK
  5
3D7
330
3D4
100
AcDbEntity
  8
0
100
AcDbBlockBegin
  2
ATOM_A4T_zuwaku
 70
     2
 10
0.0
 20
0.0
 30
0.0
  3
ATOM_A4T_zuwaku
  1

  0
LWPOLYLINE
  5
3D8
330
3D4
100
AcDbEntity
  8
frame
  6
ByBlock
100
AcDbPolyline
 90
        4
 70
     1
 43
0.0
 10
24.59999999999946
 20
32.02453525127749
 10
20.59421302496503
 20
33.21128572090675
 10
20.59421302496503
 20
35.45924095267583
 10
24.59999999999946
 20
36.64599142230509
1001
AcDbBlockRepETag
1070
     1
1071
        0
1005
3D8
  0
LWPOLYLINE
  5
3DA
330
3D4
100
AcDbEntity
  8
frame
  6
ByBlock
100
AcDbPolyline
 90
        4
 70
     1
 43
0.0
 10
24.68499999999858
 20
31.9107014793517
 10
20.50921302496499
 20
33.14781598009358
 10
20.50921302496499
 20
35.52271069349081
 10
24.68499999999858
 20
36.75982519423087
1001
AcDbBlockRepETag
1070
     1
1071
        1
1005
3DA
  0
LWPOLYLINE
  5
3DB
330
3D4
100
AcDbEntity
  8
frame
  6
ByBlock
100
AcDbPolyline
 90
        4
 70
     1
 43
0.0
 10
24.51499999999942
 20
32.13836902320327
 10
20.67921302496507
 20
33.27475546172173
 10
20.67921302496507
 20
35.39577121186268
 10
24.51499999999942
 20
36.53215765037931
1001
AcDbBlockRepETag
1070
     1
1071
        2
1005
3DB
  0
LINE
  5
3DC
330
3D4
100
AcDbEntity
  8
frame
  6
ByBlock
100
AcDbLine
 10
119.0
 20
38.00000000000182
 30
0.0
 11
119.0
 21
10.00000000000182
 31
0.0
1001
AcDbBlockRepETag
1070
     1
1071
        3
1005
3DC
  0
LINE
  5
3DD
330
3D4
100
AcDbEntity
  8
frame
  6
ByBlock
100
AcDbLine
 10
144.0
 20
38.00000000000182
 30
0.0
 11
144.0
 21
10.0
 31
0.0
1001
AcDbBlockRepETag
1070
     1
1071
        4
1005
3DD
  0
LINE
  5
3DE
330
3D4
100
AcDbEntity
  8
frame
  6
ByBlock
100
AcDbLine
 10
143.9149999999999
 20
38.00000000000182
 30
0.0
 11
143.9149999999999
 21
10.0
 31
0.0
1001
AcDbBlockRepETag
1070
     1
1071
        5
1005
3DE
  0
LINE
  5
3DF
330
3D4
100
AcDbEntity
  8
frame
  6
ByBlock
100
AcDbLine
 10
144.085
 20
38.00000000000182
 30
0.0
 11
144.085
 21
10.0
 31
0.0
1001
AcDbBlockRepETag
1070
     1
1071
        6
1005
3DF
  0
LINE
  5
3E0
330
3D4
100
AcDbEntity
  8
frame
  6
ByBlock
100
AcDbLine
 10
141.0
 20
38.00000000000182
 30
0.0
 11
141.0
 21
10.0
 31
0.0
1001
AcDbBlockRepETag
1070
     1
1071
        7
1005
3E0
  0
LINE
  5
3E1
330
3D4
100
AcDbEntity
  8
frame
  6
ByBlock
100
AcDbLine
 10
140.9149999999999
 20
38.00000000000182
 30
0.0
 11
140.9149999999999
 21
10.0
 31
0.0
1001
AcDbBlockRepETag
1070
     1
1071
        8
1005
3E1
  0
LINE
  5
3E2
330
3D4
100
AcDbEntity
  8
frame
  6
ByBlock
100
AcDbLine
 10
141.085
 20
38.00000000000182
 30
0.0
 11
141.085
 21
10.0
 31
0.0
1001
AcDbBlockRepETag
1070
     1
1071
        9
1005
3E2
  0
LINE
  5
3E3
330
3D4
100
AcDbEntity
  8
frame
  6
ByBlock
100
AcDbLine
 10
186.5
 20
10.00000000000182
 30
0.0
 11
186.5
 21
17.00000000000182
 31
0.0
1001
AcDbBlockRepETag
1070
     1
1071
       10
1005
3E3
  0
TEXT
  5
3E4
330
3D4
100
AcDbEntity
  8
frame
  6
ByBlock
100
AcDbText
 10
15.55924259358817
 20
11.75
 30
0.0
 40
5.0
  1
アトムリビンテック株式会社
 41
0.6
  7
ATOM
 72
     1
 11
38.75924259358817
 21
14.25
 31
0.0
100
AcDbText
 73
     2
1001
AcDbBlockRepETag
1070
     1
1071
       12
1005
3E4
  0
TEXT
  5
3E5
330
3D4
100
AcDbEntity
  8
frame
  6
ByBlock
100
AcDbText
 10
67.5
 20
21.5
 30
0.0
 40
4.0
  1
開　　発　　部
 41
0.9
  7
ATOM
 11
67.5
 21
23.5
 31
0.0
100
AcDbText
 73
     2
1001
AcDbBlockRepETag
1070
     1
1071
       13
1005
3E5
  0
TEXT
  5
3E6
330
3D4
100
AcDbEntity
  8
frame
  6
ByBlock
100
AcDbText
 10
67.5
 20
17.0
 30
0.0
 40
3.0
  1
〒110-8680
 41
0.7
  7
ATOM
 11
67.5
 21
18.5
 31
0.0
100
AcDbText
 73
     2
1001
AcDbBlockRepETag
1070
     1
1071
       14
1005
3E6
  0
TEXT
  5
3E7
330
3D4
100
AcDbEntity
  8
frame
  6
ByBlock
100
AcDbText
 10
67.5
 20
12.5
 30
0.0
 40
3.0
  1
東京都 台東区 入谷 1-27-4
 41
0.65
  7
ATOM
 11
67.5
 21
14.0
 31
0.0
100
AcDbText
 73
     2
1001
AcDbBlockRepETag
1070
     1
1071
       15
1005
3E7
  0
TEXT
  5
3E8
330
3D4
100
AcDbEntity
  8
frame
  6
ByBlock
100
AcDbText
 10
13.62
 20
40.00000000000182
 30
0.0
 40
3.0
  1
部番
 41
0.9
  7
ATOM
 72
     1
 11
16.5
 21
41.50000000000182
 31
0.0
100
AcDbText
 73
     2
1001
AcDbBlockRepETag
1070
     1
1071
       16
1005
3E8
  0
TEXT
  5
3E9
330
3D4
100
AcDbEntity
  8
frame
  6
ByBlock
100
AcDbText
 10
27.63
 20
40.00000000000182
 30
0.0
 40
3.0
  1
部　　　　品　　　　名
 41
0.9
  7
ATOM
 72
     1
 11
45.0
 21
41.50000000000182
 31
0.0
100
AcDbText
 73
     2
1001
AcDbBlockRepETag
1070
     1
1071
       17
1005
3E9
  0
TEXT
  5
3EA
330
3D4
100
AcDbEntity
  8
frame
  6
ByBlock
100
AcDbText
 10
77.88
 20
40.00000000000182
 30
0.0
 40
3.0
  1
材　　質
 41
0.9
  7
ATOM
 72
     1
 11
84.0
 21
41.50000000000182
 31
0.0
100
AcDbText
 73
     2
1001
AcDbBlockRepETag
1070
     1
1071
       18
1005
3EA
  0
TEXT
  5
3EB
330
3D4
100
AcDbEntity
  8
frame
  6
ByBlock
100
AcDbText
 10
98.62000000000001
 20
40.00000000000182
 30
0.0
 40
3.0
  1
数量
 41
0.9
  7
ATOM
 72
     1
 11
101.5
 21
41.50000000000182
 31
0.0
100
AcDbText
 73
     2
1001
AcDbBlockRepETag
1070
     1
1071
       19
1005
3EB
  0
TEXT
  5
3EC
330
3D4
100
AcDbEntity
  8
frame
  6
ByBlock
100
AcDbText
 10
114.16
 20
40.00000000000182
 30
0.0
 40
3.0
  1
表　　面　　処　　理
 41
0.9
  7
ATOM
 72
     1
 11
130.0
 21
41.50000000000182
 31
0.0
100
AcDbText
 73
     2
1001
AcDbBlockRepETag
1070
     1
1071
       20
1005
3EC
  0
TEXT
  5
3ED
330
3D4
100
AcDbEntity
  8
frame
  6
ByBlock
100
AcDbText
 10
168.26
 20
40.00000000000182
 30
0.0
 40
3.0
  1
備　　　考
 41
0.9
  7
ATOM
 72
     1
 11
176.0
 21
41.50000000000182
 31
0.0
100
AcDbText
 73
     2
1001
AcDbBlockRepETag
1070
     1
1071
       21
1005
3ED
  0
TEXT
  5
3EE
330
3D4
100
AcDbEntity
  8
frame
  6
ByBlock
100
AcDbText
 10
180.18
 20
282.0000000000018
 30
0.0
 40
3.0
  1
改正日
 41
0.9
  7
ATOM
 72
     1
 11
184.5
 21
283.5000000000018
 31
0.0
100
AcDbText
 73
     2
1001
AcDbBlockRepETag
1070
     1
1071
       22
1005
3EE
  0
TEXT
  5
3EF
330
3D4
100
AcDbEntity
  8
frame
  6
ByBlock
100
AcDbText
 10
158.47
 20
282.0000000000018
 30
0.0
 40
3.0
  1
改正担当
 41
0.9
  7
ATOM
 72
     1
 11
164.5
 21
283.5000000000018
 31
0.0
100
AcDbText
 73
     2
1001
AcDbBlockRepETag
1070
     1
1071
       23
1005
3EF
  0
TEXT
  5
3F0
330
3D4
100
AcDbEntity
  8
frame
  6
ByBlock
100
AcDbText
 10
136.94
 20
282.0000000000018
 30
0.0
 40
3.0
  1
改正承認日
 41
0.9
  7
ATOM
 72
     1
 11
144.5
 21
283.5000000000018
 31
0.0
100
AcDbText
 73
     2
1001
AcDbBlockRepETag
1070
     1
1071
       24
1005
3F0
  0
TEXT
  5
3F1
330
3D4
100
AcDbEntity
  8
frame
  6
ByBlock
100
AcDbText
 10
118.38
 20
282.0000000000018
 30
0.0
 40
3.0
  1
改正承認
 41
0.9
  7
ATOM
 72
     1
 11
124.5
 21
283.5000000000018
 31
0.0
100
AcDbText
 73
     2
1001
AcDbBlockRepETag
1070
     1
1071
       25
1005
3F1
  0
TEXT
  5
3F2
330
3D4
100
AcDbEntity
  8
frame
  6
ByBlock
100
AcDbText
 10
43.02999999999999
 20
282.0000000000018
 30
0.0
 40
3.0
  1
改　　　　正　　　　理　　　　由
 41
0.9
  7
ATOM
 72
     1
 11
68.5
 21
283.5000000000018
 31
0.0
100
AcDbText
 73
     2
1001
AcDbBlockRepETag
1070
     1
1071
       26
1005
3F2
  0
TEXT
  5
3F3
330
3D4
100
AcDbEntity
  8
frame
  6
ByBlock
100
AcDbText
 10
13.62
 20
282.0000000000018
 30
0.0
 40
3.0
  1
改番
 41
0.9
  7
ATOM
 72
     1
 11
16.5
 21
283.5000000000018
 31
0.0
100
AcDbText
 73
     2
1001
AcDbBlockRepETag
1070
     1
1071
       27
1005
3F3
  0
TEXT
  5
3F4
330
3D4
100
AcDbEntity
  8
frame
  6
ByBlock
100
AcDbText
 10
48.525
 20
35.00000000000182
 30
0.0
 40
2.5
  1
名
 41
0.9
  7
ATOM
 72
     1
 11
49.5
 21
36.25000000000182
 31
0.0
100
AcDbText
 73
     2
1001
AcDbBlockRepETag
1070
     1
1071
       28
1005
3F4
  0
TEXT
  5
3F5
330
3D4
100
AcDbEntity
  8
frame
  6
ByBlock
100
AcDbText
 10
48.45
 20
31.50000000000182
 30
0.0
 40
2.5
  1
称
 41
0.9
  7
ATOM
 72
     1
 11
49.5
 21
32.75000000000182
 31
0.0
100
AcDbText
 73
     2
1001
AcDbBlockRepETag
1070
     1
1071
       29
1005
3F5
  0
TEXT
  5
3F6
330
3D4
100
AcDbEntity
  8
frame
  6
ByBlock
100
AcDbText
 10
26.45
 20
35.00000000000182
 30
0.0
 40
2.5
  1
尺
 41
0.9
  7
ATOM
 72
     1
 11
27.5
 21
36.25000000000182
 31
0.0
100
AcDbText
 73
     2
1001
AcDbBlockRepETag
1070
     1
1071
       30
1005
3F6
  0
TEXT
  5
3F7
330
3D4
100
AcDbEntity
  8
frame
  6
ByBlock
100
AcDbText
 10
26.45
 20
31.50000000000182
 30
0.0
 40
2.5
  1
度
 41
0.9
  7
ATOM
 72
     1
 11
27.5
 21
32.75000000000182
 31
0.0
100
AcDbText
 73
     2
1001
AcDbBlockRepETag
1070
     1
1071
       31
1005
3F7
  0
TEXT
  5
3F8
330
3D4
100
AcDbEntity
  8
frame
  6
ByBlock
100
AcDbText
 10
102.95
 20
35.00000000000182
 30
0.0
 40
2.5
  1
承
 41
0.9
  7
ATOM
 72
     1
 11
104.0
 21
36.25000000000182
 31
0.0
100
AcDbText
 73
     2
1001
AcDbBlockRepETag
1070
     1
1071
       32
1005
3F8
  0
TEXT
  5
3F9
330
3D4
100
AcDbEntity
  8
frame
  6
ByBlock
100
AcDbText
 10
102.95
 20
31.50000000000182
 30
0.0
 40
2.5
  1
認
 41
0.9
  7
ATOM
 72
     1
 11
104.0
 21
32.75000000000182
 31
0.0
100
AcDbText
 73
     2
1001
AcDbBlockRepETag
1070
     1
1071
       33
1005
3F9
  0
TEXT
  5
3FA
330
3D4
100
AcDbEntity
  8
frame
  6
ByBlock
100
AcDbText
 10
102.95
 20
28.00000000000182
 30
0.0
 40
2.5
  1
検
 41
0.9
  7
ATOM
 72
     1
 11
104.0
 21
29.25000000000182
 31
0.0
100
AcDbText
 73
     2
1001
AcDbBlockRepETag
1070
     1
1071
       34
1005
3FA
  0
TEXT
  5
3FB
330
3D4
100
AcDbEntity
  8
frame
  6
ByBlock
100
AcDbText
 10
102.95
 20
24.50000000000182
 30
0.0
 40
2.5
  1
図
 41
0.9
  7
ATOM
 72
     1
 11
104.0
 21
25.75000000000182
 31
0.0
100
AcDbText
 73
     2
1001
AcDbBlockRepETag
1070
     1
1071
       35
1005
3FB
  0
TEXT
  5
3FC
330
3D4
100
AcDbEntity
  8
frame
  6
ByBlock
100
AcDbText
 10
102.95
 20
21.00000000000182
 30
0.0
 40
2.5
  1
設
 41
0.9
  7
ATOM
 72
     1
 11
104.0
 21
22.25000000000182
 31
0.0
100
AcDbText
 73
     2
1001
AcDbBlockRepETag
1070
     1
1071
       36
1005
3FC
  0
TEXT
  5
3FD
330
3D4
100
AcDbEntity
  8
frame
  6
ByBlock
100
AcDbText
 10
102.95
 20
17.50000000000182
 30
0.0
 40
2.5
  1
計
 41
0.9
  7
ATOM
 72
     1
 11
104.0
 21
18.75000000000182
 31
0.0
100
AcDbText
 73
     2
1001
AcDbBlockRepETag
1070
     1
1071
       37
1005
3FD
  0
TEXT
  5
3FE
330
3D4
100
AcDbEntity
  8
frame
  6
ByBlock
100
AcDbText
 10
102.95
 20
14.00000000000182
 30
0.0
 40
2.5
  1
作
 41
0.9
  7
ATOM
 72
     1
 11
104.0
 21
15.25000000000182
 31
0.0
100
AcDbText
 73
     2
1001
AcDbBlockRepETag
1070
     1
1071
       38
1005
3FE
  0
TEXT
  5
3FF
330
3D4
100
AcDbEntity
  8
frame
  6
ByBlock
100
AcDbText
 10
102.95
 20
10.50000000000182
 30
0.0
 40
2.5
  1
図
 41
0.9
  7
ATOM
 72
     1
 11
104.0
 21
11.75000000000182
 31
0.0
100
AcDbText
 73
     2
1001
AcDbBlockRepETag
1070
     1
1071
       39
1005
3FF
  0
TEXT
  5
400
330
3D4
100
AcDbEntity
  8
frame
  6
ByBlock
100
AcDbText
 10
141.45
 20
35.00000000000182
 30
0.0
 40
2.5
  1
品
 41
0.9
  7
ATOM
 72
     1
 11
142.5
 21
36.25000000000182
 31
0.0
100
AcDbText
 73
     2
1001
AcDbBlockRepETag
1070
     1
1071
       40
1005
400
  0
TEXT
  5
401
330
3D4
100
AcDbEntity
  8
frame
  6
ByBlock
100
AcDbText
 10
141.525
 20
31.50000000000182
 30
0.0
 40
2.5
  1
名
 41
0.9
  7
ATOM
 72
     1
 11
142.5
 21
32.75000000000182
 31
0.0
100
AcDbText
 73
     2
1001
AcDbBlockRepETag
1070
     1
1071
       41
1005
401
  0
TEXT
  5
402
330
3D4
100
AcDbEntity
  8
frame
  6
ByBlock
100
AcDbText
 10
141.45
 20
28.00000000000182
 30
0.0
 40
2.5
  1
品
 41
0.9
  7
ATOM
 72
     1
 11
142.5
 21
29.25000000000182
 31
0.0
100
AcDbText
 73
     2
1001
AcDbBlockRepETag
1070
     1
1071
       42
1005
402
  0
TEXT
  5
403
330
3D4
100
AcDbEntity
  8
frame
  6
ByBlock
100
AcDbText
 10
141.45
 20
24.50000000000182
 30
0.0
 40
2.5
  1
番
 41
0.9
  7
ATOM
 72
     1
 11
142.5
 21
25.75000000000182
 31
0.0
100
AcDbText
 73
     2
1001
AcDbBlockRepETag
1070
     1
1071
       43
1005
403
  0
TEXT
  5
404
330
3D4
100
AcDbEntity
  8
frame
  6
ByBlock
100
AcDbText
 10
141.45
 20
21.00000000000182
 30
0.0
 40
2.5
  1
図
 41
0.9
  7
ATOM
 72
     1
 11
142.5
 21
22.25000000000182
 31
0.0
100
AcDbText
 73
     2
1001
AcDbBlockRepETag
1070
     1
1071
       44
1005
404
  0
TEXT
  5
405
330
3D4
100
AcDbEntity
  8
frame
  6
ByBlock
100
AcDbText
 10
141.525
 20
17.50000000000182
 30
0.0
 40
2.5
  1
名
 41
0.9
  7
ATOM
 72
     1
 11
142.5
 21
18.75000000000182
 31
0.0
100
AcDbText
 73
     2
1001
AcDbBlockRepETag
1070
     1
1071
       45
1005
405
  0
TEXT
  5
406
330
3D4
100
AcDbEntity
  8
frame
  6
ByBlock
100
AcDbText
 10
141.45
 20
14.00000000000182
 30
0.0
 40
2.5
  1
図
 41
0.9
  7
ATOM
 72
     1
 11
142.5
 21
15.25000000000182
 31
0.0
100
AcDbText
 73
     2
1001
AcDbBlockRepETag
1070
     1
1071
       46
1005
406
  0
TEXT
  5
407
330
3D4
100
AcDbEntity
  8
frame
  6
ByBlock
100
AcDbText
 10
141.45
 20
10.50000000000182
 30
0.0
 40
2.5
  1
番
 41
0.9
  7
ATOM
 72
     1
 11
142.5
 21
11.75000000000182
 31
0.0
100
AcDbText
 73
     2
1001
AcDbBlockRepETag
1070
     1
1071
       47
1005
407
  0
TEXT
  5
408
330
3D4
100
AcDbEntity
  8
frame
  6
ByBlock
100
AcDbText
 10
42.16666666666666
 20
32.75000000000182
 30
0.0
 40
3.5
  1
A4T
 41
0.5
  7
ATOM
 72
     1
 11
44.5
 21
34.50000000000182
 31
0.0
100
AcDbText
 73
     2
1001
AcDbBlockRepETag
1070
     1
1071
       48
1005
408
  0
LWPOLYLINE
  5
409
330
3D4
100
AcDbEntity
  8
frame
  6
ByBlock
100
AcDbPolyline
 90
        4
 70
     1
 43
0.0
 10
196.9999999999991
 20
10.0
 10
196.9999999999991
 20
287.0
 10
12.99999999999909
 20
287.0
 10
12.99999999999909
 20
10.0
1001
AcDbBlockRepETag
1070
     1
1071
       49
1005
409
  0
LWPOLYLINE
  5
40A
330
3D4
100
AcDbEntity
  8
frame
  6
ByBlock
100
AcDbPolyline
 90
        4
 70
     1
 43
0.0
 10
197.1599999999989
 20
9.840000000000143
 10
197.1599999999989
 20
287.1599999999999
 10
12.83999999999923
 20
287.1599999999999
 10
12.83999999999923
 20
9.840000000000143
1001
AcDbBlockRepETag
1070
     1
1071
       50
1005
40A
  0
LWPOLYLINE
  5
40B
330
3D4
100
AcDbEntity
  8
frame
  6
ByBlock
100
AcDbPolyline
 90
        4
 70
     1
 43
0.0
 10
196.8399999999992
 20
10.15999999999985
 10
196.8399999999992
 20
286.8400000000002
 10
13.15999999999894
 20
286.8400000000002
 10
13.15999999999894
 20
10.15999999999985
1001
AcDbBlockRepETag
1070
     1
1071
       51
1005
40B
  0
LWPOLYLINE
  5
40C
330
3D4
100
AcDbEntity
  8
frame
  6
ByBlock
390
93
100
AcDbPolyline
 90
        4
 70
     1
 43
0.0
 10
0.0
 20
0.0
 10
210.0
 20
0.0
 10
210.0
 20
297.0
 10
0.0
 20
297.0
1001
AcDbBlockRepETag
1070
     1
1071
       52
1005
40C
  0
LINE
  5
40D
330
3D4
100
AcDbEntity
  8
frame
  6
ByBlock
100
AcDbLine
 10
20.0
 20
287.0000000000018
 30
0.0
 11
20.0
 21
280.0000000000018
 31
0.0
1001
AcDbBlockRepETag
1070
     1
1071
       53
1005
40D
  0
LINE
  5
40E
330
3D4
100
AcDbEntity
  8
frame
  6
ByBlock
100
AcDbLine
 10
20.08500000000004
 20
287.0000000000018
 30
0.0
 11
20.08500000000004
 21
280.0000000000018
 31
0.0
1001
AcDbBlockRepETag
1070
     1
1071
       54
1005
40E
  0
LINE
  5
40F
330
3D4
100
AcDbEntity
  8
frame
  6
ByBlock
100
AcDbLine
 10
19.91499999999996
 20
287.0000000000018
 30
0.0
 11
19.91499999999996
 21
280.0000000000018
 31
0.0
1001
AcDbBlockRepETag
1070
     1
1071
       55
1005
40F
  0
LINE
  5
410
330
3D4
100
AcDbEntity
  8
frame
  6
ByBlock
100
AcDbLine
 10
117.0
 20
287.0000000000018
 30
0.0
 11
117.0
 21
280.0000000000018
 31
0.0
1001
AcDbBlockRepETag
1070
     1
1071
       56
1005
410
  0
LINE
  5
411
330
3D4
100
AcDbEntity
  8
frame
  6
ByBlock
100
AcDbLine
 10
116.9149999999999
 20
287.0000000000018
 30
0.0
 11
116.9149999999999
 21
280.0000000000018
 31
0.0
1001
AcDbBlockRepETag
1070
     1
1071
       57
1005
411
  0
LINE
  5
412
330
3D4
100
AcDbEntity
  8
frame
  6
ByBlock
100
AcDbLine
 10
117.085
 20
287.0000000000018
 30
0.0
 11
117.085
 21
280.0000000000018
 31
0.0
1001
AcDbBlockRepETag
1070
     1
1071
       58
1005
412
  0
LINE
  5
413
330
3D4
100
AcDbEntity
  8
frame
  6
ByBlock
100
AcDbLine
 10
132.0
 20
287.0000000000018
 30
0.0
 11
132.0
 21
280.0000000000018
 31
0.0
1001
AcDbBlockRepETag
1070
     1
1071
       59
1005
413
  0
LINE
  5
414
330
3D4
100
AcDbEntity
  8
frame
  6
ByBlock
100
AcDbLine
 10
131.9149999999999
 20
287.0000000000018
 30
0.0
 11
131.9149999999999
 21
280.0000000000018
 31
0.0
1001
AcDbBlockRepETag
1070
     1
1071
       60
1005
414
  0
LINE
  5
415
330
3D4
100
AcDbEntity
  8
frame
  6
ByBlock
100
AcDbLine
 10
132.085
 20
287.0000000000018
 30
0.0
 11
132.085
 21
280.0000000000018
 31
0.0
1001
AcDbBlockRepETag
1070
     1
1071
       61
1005
415
  0
LINE
  5
416
330
3D4
100
AcDbEntity
  8
frame
  6
ByBlock
100
AcDbLine
 10
157.0
 20
287.0000000000018
 30
0.0
 11
157.0
 21
280.0000000000018
 31
0.0
1001
AcDbBlockRepETag
1070
     1
1071
       62
1005
416
  0
LINE
  5
417
330
3D4
100
AcDbEntity
  8
frame
  6
ByBlock
100
AcDbLine
 10
156.9149999999999
 20
287.0000000000018
 30
0.0
 11
156.9149999999999
 21
280.0000000000018
 31
0.0
1001
AcDbBlockRepETag
1070
     1
1071
       63
1005
417
  0
LINE
  5
418
330
3D4
100
AcDbEntity
  8
frame
  6
ByBlock
100
AcDbLine
 10
157.085
 20
287.0000000000018
 30
0.0
 11
157.085
 21
280.0000000000018
 31
0.0
1001
AcDbBlockRepETag
1070
     1
1071
       64
1005
418
  0
LINE
  5
419
330
3D4
100
AcDbEntity
  8
frame
  6
ByBlock
100
AcDbLine
 10
172.0
 20
287.0000000000018
 30
0.0
 11
172.0
 21
280.0000000000018
 31
0.0
1001
AcDbBlockRepETag
1070
     1
1071
       65
1005
419
  0
LINE
  5
41A
330
3D4
100
AcDbEntity
  8
frame
  6
ByBlock
100
AcDbLine
 10
171.9149999999999
 20
287.0000000000018
 30
0.0
 11
171.9149999999999
 21
280.0000000000018
 31
0.0
1001
AcDbBlockRepETag
1070
     1
1071
       66
1005
41A
  0
LINE
  5
41B
330
3D4
100
AcDbEntity
  8
frame
  6
ByBlock
100
AcDbLine
 10
172.085
 20
287.0000000000018
 30
0.0
 11
172.085
 21
280.0000000000018
 31
0.0
1001
AcDbBlockRepETag
1070
     1
1071
       67
1005
41B
  0
LINE
  5
41C
330
3D4
100
AcDbEntity
  8
frame
  6
ByBlock
100
AcDbLine
 10
13.0
 20
280.0000000000018
 30
0.0
 11
197.0
 21
280.0000000000018
 31
0.0
1001
AcDbBlockRepETag
1070
     1
1071
       68
1005
41C
  0
LINE
  5
41D
330
3D4
100
AcDbEntity
  8
frame
  6
ByBlock
100
AcDbLine
 10
13.0
 20
279.9150000000027
 30
0.0
 11
197.0
 21
279.9150000000027
 31
0.0
1001
AcDbBlockRepETag
1070
     1
1071
       69
1005
41D
  0
LINE
  5
41E
330
3D4
100
AcDbEntity
  8
frame
  6
ByBlock
100
AcDbLine
 10
13.0
 20
280.0850000000028
 30
0.0
 11
197.0
 21
280.0850000000028
 31
0.0
1001
AcDbBlockRepETag
1070
     1
1071
       70
1005
41E
  0
LINE
  5
41F
330
3D4
100
AcDbEntity
  8
frame
  6
ByBlock
100
AcDbLine
 10
20.0
 20
45.00000000000182
 30
0.0
 11
20.0
 21
38.00000000000182
 31
0.0
1001
AcDbBlockRepETag
1070
     1
1071
       71
1005
41F
  0
LINE
  5
420
330
3D4
100
AcDbEntity
  8
frame
  6
ByBlock
100
AcDbLine
 10
19.91499999999996
 20
45.00000000000182
 30
0.0
 11
19.91499999999996
 21
38.00000000000182
 31
0.0
1001
AcDbBlockRepETag
1070
     1
1071
       72
1005
420
  0
LINE
  5
421
330
3D4
100
AcDbEntity
  8
frame
  6
ByBlock
100
AcDbLine
 10
20.08500000000004
 20
45.00000000000182
 30
0.0
 11
20.08500000000004
 21
38.00000000000182
 31
0.0
1001
AcDbBlockRepETag
1070
     1
1071
       73
1005
421
  0
LINE
  5
422
330
3D4
100
AcDbEntity
  8
frame
  6
ByBlock
100
AcDbLine
 10
70.0
 20
38.00000000000182
 30
0.0
 11
70.0
 21
45.00000000000182
 31
0.0
1001
AcDbBlockRepETag
1070
     1
1071
       74
1005
422
  0
LINE
  5
423
330
3D4
100
AcDbEntity
  8
frame
  6
ByBlock
100
AcDbLine
 10
70.08500000000004
 20
38.00000000000182
 30
0.0
 11
70.08500000000004
 21
45.00000000000182
 31
0.0
1001
AcDbBlockRepETag
1070
     1
1071
       75
1005
423
  0
LINE
  5
424
330
3D4
100
AcDbEntity
  8
frame
  6
ByBlock
100
AcDbLine
 10
69.91499999999996
 20
38.00000000000182
 30
0.0
 11
69.91499999999996
 21
45.00000000000182
 31
0.0
1001
AcDbBlockRepETag
1070
     1
1071
       76
1005
424
  0
LINE
  5
425
330
3D4
100
AcDbEntity
  8
frame
  6
ByBlock
100
AcDbLine
 10
98.0
 20
45.00000000000182
 30
0.0
 11
98.0
 21
38.00000000000182
 31
0.0
1001
AcDbBlockRepETag
1070
     1
1071
       77
1005
425
  0
LINE
  5
426
330
3D4
100
AcDbEntity
  8
frame
  6
ByBlock
100
AcDbLine
 10
98.08500000000003
 20
45.00000000000182
 30
0.0
 11
98.08500000000003
 21
38.00000000000182
 31
0.0
1001
AcDbBlockRepETag
1070
     1
1071
       78
1005
426
  0
LINE
  5
427
330
3D4
100
AcDbEntity
  8
frame
  6
ByBlock
100
AcDbLine
 10
97.91499999999997
 20
45.00000000000182
 30
0.0
 11
97.91499999999997
 21
38.00000000000182
 31
0.0
1001
AcDbBlockRepETag
1070
     1
1071
       79
1005
427
  0
LINE
  5
428
330
3D4
100
AcDbEntity
  8
frame
  6
ByBlock
100
AcDbLine
 10
105.0
 20
45.00000000000182
 30
0.0
 11
105.0
 21
38.00000000000182
 31
0.0
1001
AcDbBlockRepETag
1070
     1
1071
       80
1005
428
  0
LINE
  5
429
330
3D4
100
AcDbEntity
  8
frame
  6
ByBlock
100
AcDbLine
 10
105.085
 20
45.00000000000182
 30
0.0
 11
105.085
 21
38.00000000000182
 31
0.0
1001
AcDbBlockRepETag
1070
     1
1071
       81
1005
429
  0
LINE
  5
42A
330
3D4
100
AcDbEntity
  8
frame
  6
ByBlock
100
AcDbLine
 10
105.17
 20
45.00000000000182
 30
0.0
 11
105.17
 21
38.00000000000182
 31
0.0
1001
AcDbBlockRepETag
1070
     1
1071
       82
1005
42A
  0
LINE
  5
42B
330
3D4
100
AcDbEntity
  8
frame
  6
ByBlock
100
AcDbLine
 10
155.0
 20
45.00000000000182
 30
0.0
 11
155.0
 21
38.00000000000182
 31
0.0
1001
AcDbBlockRepETag
1070
     1
1071
       83
1005
42B
  0
LINE
  5
42C
330
3D4
100
AcDbEntity
  8
frame
  6
ByBlock
100
AcDbLine
 10
155.085
 20
45.00000000000182
 30
0.0
 11
155.085
 21
38.00000000000182
 31
0.0
1001
AcDbBlockRepETag
1070
     1
1071
       84
1005
42C
  0
LINE
  5
42D
330
3D4
100
AcDbEntity
  8
frame
  6
ByBlock
100
AcDbLine
 10
154.9149999999999
 20
45.00000000000182
 30
0.0
 11
154.9149999999999
 21
38.00000000000182
 31
0.0
1001
AcDbBlockRepETag
1070
     1
1071
       85
1005
42D
  0
LINE
  5
42E
330
3D4
100
AcDbEntity
  8
frame
  6
ByBlock
100
AcDbLine
 10
12.99999999999909
 20
45.00000000000182
 30
0.0
 11
197.0
 21
45.00000000000182
 31
0.0
1001
AcDbBlockRepETag
1070
     1
1071
       86
1005
42E
  0
LINE
  5
42F
330
3D4
100
AcDbEntity
  8
frame
  6
ByBlock
100
AcDbLine
 10
12.99999999999909
 20
44.91500000000269
 30
0.0
 11
197.0
 21
44.91500000000269
 31
0.0
1001
AcDbBlockRepETag
1070
     1
1071
       87
1005
42F
  0
LINE
  5
430
330
3D4
100
AcDbEntity
  8
frame
  6
ByBlock
100
AcDbLine
 10
12.99999999999909
 20
45.08500000000275
 30
0.0
 11
197.0
 21
45.08500000000275
 31
0.0
1001
AcDbBlockRepETag
1070
     1
1071
       88
1005
430
  0
LINE
  5
431
330
3D4
100
AcDbEntity
  8
frame
  6
ByBlock
100
AcDbLine
 10
12.99999999999909
 20
38.00000000000182
 30
0.0
 11
197.0
 21
38.00000000000182
 31
0.0
1001
AcDbBlockRepETag
1070
     1
1071
       89
1005
431
  0
LINE
  5
432
330
3D4
100
AcDbEntity
  8
frame
  6
ByBlock
100
AcDbLine
 10
12.99999999999909
 20
37.91500000000269
 30
0.0
 11
197.0
 21
37.91500000000269
 31
0.0
1001
AcDbBlockRepETag
1070
     1
1071
       90
1005
432
  0
LINE
  5
433
330
3D4
100
AcDbEntity
  8
frame
  6
ByBlock
100
AcDbLine
 10
12.99999999999909
 20
38.08500000000277
 30
0.0
 11
197.0
 21
38.08500000000277
 31
0.0
1001
AcDbBlockRepETag
1070
     1
1071
       91
1005
433
  0
LINE
  5
434
330
3D4
100
AcDbEntity
  8
frame
  6
ByBlock
100
AcDbLine
 10
12.99999999999909
 20
31.00000000000183
 30
0.0
 11
197.0
 21
31.00000000000183
 31
0.0
1001
AcDbBlockRepETag
1070
     1
1071
       92
1005
434
  0
LINE
  5
435
330
3D4
100
AcDbEntity
  8
frame
  6
ByBlock
100
AcDbLine
 10
12.99999999999909
 20
30.91500000000269
 30
0.0
 11
197.0
 21
30.91500000000269
 31
0.0
1001
AcDbBlockRepETag
1070
     1
1071
       93
1005
435
  0
LINE
  5
436
330
3D4
100
AcDbEntity
  8
frame
  6
ByBlock
100
AcDbLine
 10
12.99999999999909
 20
31.08500000000276
 30
0.0
 11
197.0
 21
31.08500000000276
 31
0.0
1001
AcDbBlockRepETag
1070
     1
1071
       94
1005
436
  0
LINE
  5
437
330
3D4
100
AcDbEntity
  8
frame
  6
ByBlock
100
AcDbLine
 10
102.5
 20
24.00000000000182
 30
0.0
 11
197.0
 21
24.00000000000182
 31
0.0
1001
AcDbBlockRepETag
1070
     1
1071
       95
1005
437
  0
LINE
  5
438
330
3D4
100
AcDbEntity
  8
frame
  6
ByBlock
100
AcDbLine
 10
102.5
 20
23.91500000000269
 30
0.0
 11
197.0
 21
23.91500000000269
 31
0.0
1001
AcDbBlockRepETag
1070
     1
1071
       96
1005
438
  0
LINE
  5
439
330
3D4
100
AcDbEntity
  8
frame
  6
ByBlock
100
AcDbLine
 10
102.5
 20
24.08500000000277
 30
0.0
 11
197.0
 21
24.08500000000277
 31
0.0
1001
AcDbBlockRepETag
1070
     1
1071
       97
1005
439
  0
LINE
  5
43A
330
3D4
100
AcDbEntity
  8
frame
  6
ByBlock
100
AcDbLine
 10
102.5
 20
17.00000000000182
 30
0.0
 11
197.0
 21
17.00000000000182
 31
0.0
1001
AcDbBlockRepETag
1070
     1
1071
       98
1005
43A
  0
LINE
  5
43B
330
3D4
100
AcDbEntity
  8
frame
  6
ByBlock
100
AcDbLine
 10
102.5
 20
16.91500000000269
 30
0.0
 11
197.0
 21
16.91500000000269
 31
0.0
1001
AcDbBlockRepETag
1070
     1
1071
       99
1005
43B
  0
LINE
  5
43C
330
3D4
100
AcDbEntity
  8
frame
  6
ByBlock
100
AcDbLine
 10
102.5
 20
17.08500000000276
 30
0.0
 11
197.0
 21
17.08500000000276
 31
0.0
1001
AcDbBlockRepETag
1070
     1
1071
      100
1005
43C
  0
LINE
  5
43D
330
3D4
100
AcDbEntity
  8
frame
  6
ByBlock
100
AcDbLine
 10
26.0
 20
38.00000000000182
 30
0.0
 11
26.0
 21
31.00000000000183
 31
0.0
1001
AcDbBlockRepETag
1070
     1
1071
      101
1005
43D
  0
LINE
  5
43E
330
3D4
100
AcDbEntity
  8
frame
  6
ByBlock
100
AcDbLine
 10
26.08500000000004
 20
38.00000000000182
 30
0.0
 11
26.08500000000004
 21
31.00000000000183
 31
0.0
1001
AcDbBlockRepETag
1070
     1
1071
      102
1005
43E
  0
LINE
  5
43F
330
3D4
100
AcDbEntity
  8
frame
  6
ByBlock
100
AcDbLine
 10
25.91499999999996
 20
38.00000000000182
 30
0.0
 11
25.91499999999996
 21
31.00000000000183
 31
0.0
1001
AcDbBlockRepETag
1070
     1
1071
      103
1005
43F
  0
LINE
  5
440
330
3D4
100
AcDbEntity
  8
frame
  6
ByBlock
100
AcDbLine
 10
29.0
 20
31.00000000000183
 30
0.0
 11
29.0
 21
38.00000000000182
 31
0.0
1001
AcDbBlockRepETag
1070
     1
1071
      104
1005
440
  0
LINE
  5
441
330
3D4
100
AcDbEntity
  8
frame
  6
ByBlock
100
AcDbLine
 10
29.08500000000003
 20
31.00000000000183
 30
0.0
 11
29.08500000000003
 21
38.00000000000182
 31
0.0
1001
AcDbBlockRepETag
1070
     1
1071
      105
1005
441
  0
LINE
  5
442
330
3D4
100
AcDbEntity
  8
frame
  6
ByBlock
100
AcDbLine
 10
28.91499999999997
 20
31.00000000000183
 30
0.0
 11
28.91499999999997
 21
38.00000000000182
 31
0.0
1001
AcDbBlockRepETag
1070
     1
1071
      106
1005
442
  0
LINE
  5
443
330
3D4
100
AcDbEntity
  8
frame
  6
ByBlock
100
AcDbLine
 10
41.0
 20
38.00000000000182
 30
0.0
 11
41.0
 21
31.00000000000183
 31
0.0
1001
AcDbBlockRepETag
1070
     1
1071
      107
1005
443
  0
LINE
  5
444
330
3D4
100
AcDbEntity
  8
frame
  6
ByBlock
100
AcDbLine
 10
41.08500000000003
 20
38.00000000000182
 30
0.0
 11
41.08500000000003
 21
31.00000000000183
 31
0.0
1001
AcDbBlockRepETag
1070
     1
1071
      108
1005
444
  0
LINE
  5
445
330
3D4
100
AcDbEntity
  8
frame
  6
ByBlock
100
AcDbLine
 10
40.91499999999996
 20
38.00000000000182
 30
0.0
 11
40.91499999999996
 21
31.00000000000183
 31
0.0
1001
AcDbBlockRepETag
1070
     1
1071
      109
1005
445
  0
LINE
  5
446
330
3D4
100
AcDbEntity
  8
frame
  6
ByBlock
100
AcDbLine
 10
48.0
 20
38.00000000000182
 30
0.0
 11
48.0
 21
31.00000000000183
 31
0.0
1001
AcDbBlockRepETag
1070
     1
1071
      110
1005
446
  0
LINE
  5
447
330
3D4
100
AcDbEntity
  8
frame
  6
ByBlock
100
AcDbLine
 10
48.08500000000003
 20
38.00000000000182
 30
0.0
 11
48.08500000000003
 21
31.00000000000183
 31
0.0
1001
AcDbBlockRepETag
1070
     1
1071
      111
1005
447
  0
LINE
  5
448
330
3D4
100
AcDbEntity
  8
frame
  6
ByBlock
100
AcDbLine
 10
47.91499999999996
 20
38.00000000000182
 30
0.0
 11
47.91499999999996
 21
31.00000000000183
 31
0.0
1001
AcDbBlockRepETag
1070
     1
1071
      112
1005
448
  0
LINE
  5
449
330
3D4
100
AcDbEntity
  8
frame
  6
ByBlock
100
AcDbLine
 10
51.0
 20
38.00000000000182
 30
0.0
 11
51.0
 21
31.00000000000183
 31
0.0
1001
AcDbBlockRepETag
1070
     1
1071
      113
1005
449
  0
LINE
  5
44A
330
3D4
100
AcDbEntity
  8
frame
  6
ByBlock
100
AcDbLine
 10
51.08500000000002
 20
38.00000000000182
 30
0.0
 11
51.08500000000002
 21
31.00000000000183
 31
0.0
1001
AcDbBlockRepETag
1070
     1
1071
      114
1005
44A
  0
LINE
  5
44B
330
3D4
100
AcDbEntity
  8
frame
  6
ByBlock
100
AcDbLine
 10
50.91499999999996
 20
38.00000000000182
 30
0.0
 11
50.91499999999996
 21
31.00000000000183
 31
0.0
1001
AcDbBlockRepETag
1070
     1
1071
      115
1005
44B
  0
LINE
  5
44C
330
3D4
100
AcDbEntity
  8
frame
  6
ByBlock
100
AcDbLine
 10
105.5
 20
38.00000000000182
 30
0.0
 11
105.5
 21
10.00000000000182
 31
0.0
1001
AcDbBlockRepETag
1070
     1
1071
      116
1005
44C
  0
LINE
  5
44D
330
3D4
100
AcDbEntity
  8
frame
  6
ByBlock
100
AcDbLine
 10
105.4149999999999
 20
38.00000000000182
 30
0.0
 11
105.4149999999999
 21
10.00000000000182
 31
0.0
1001
AcDbBlockRepETag
1070
     1
1071
      117
1005
44D
  0
LINE
  5
44E
330
3D4
100
AcDbEntity
  8
frame
  6
ByBlock
100
AcDbLine
 10
105.585
 20
38.00000000000182
 30
0.0
 11
105.585
 21
10.00000000000182
 31
0.0
1001
AcDbBlockRepETag
1070
     1
1071
      118
1005
44E
  0
LINE
  5
44F
330
3D4
100
AcDbEntity
  8
frame
  6
ByBlock
100
AcDbLine
 10
102.5
 20
38.00000000000182
 30
0.0
 11
102.5
 21
10.00000000000182
 31
0.0
1001
AcDbBlockRepETag
1070
     1
1071
      119
1005
44F
  0
LINE
  5
450
330
3D4
100
AcDbEntity
  8
frame
  6
ByBlock
100
AcDbLine
 10
102.585
 20
38.00000000000182
 30
0.0
 11
102.585
 21
10.00000000000182
 31
0.0
1001
AcDbBlockRepETag
1070
     1
1071
      120
1005
450
  0
LINE
  5
451
330
3D4
100
AcDbEntity
  8
frame
  6
ByBlock
100
AcDbLine
 10
102.4149999999999
 20
38.00000000000182
 30
0.0
 11
102.4149999999999
 21
10.00000000000182
 31
0.0
1001
AcDbBlockRepETag
1070
     1
1071
      121
1005
451
  0
LWPOLYLINE
  5
452
330
3D4
100
AcDbEntity
  8
frame
  6
ByBlock
100
AcDbPolyline
 90
        4
 70
     1
 43
0.0
 10
39.99690127353097
 20
20.30329643996265
 10
44.81342572509128
 20
25.1198208915248
 42
0.9999999999997582
 10
43.1737578266884
 20
26.75948878992676
 10
38.35723337512718
 20
21.94296433836826
 42
1.000000000000484
1001
AcDbBlockRepETag
1070
     1
1071
      122
1005
452
  0
LWPOLYLINE
  5
453
330
3D4
100
AcDbEntity
  8
frame
  6
ByBlock
100
AcDbPolyline
 90
        4
 70
     1
 43
0.0
 10
39.93679719713055
 20
20.36340051636398
 10
44.75332164868995
 20
25.17992496792613
 42
1.0
 10
43.23386190308883
 20
26.69938471352543
 10
38.41733745152851
 20
21.88286026196692
 42
1.0
1001
AcDbBlockRepETag
1070
     1
1071
      123
1005
453
  0
LWPOLYLINE
  5
454
330
3D4
100
AcDbEntity
  8
frame
  6
ByBlock
100
AcDbPolyline
 90
        4
 70
     1
 43
0.0
 10
40.0570053499323
 20
20.24319236356132
 10
44.87352980149171
 20
25.05971681512347
 42
1.0
 10
43.11365375028707
 20
26.81959286632809
 10
38.29712929872676
 20
22.00306841476959
 42
1.0
1001
AcDbBlockRepETag
1070
     1
1071
      124
1005
454
  0
LWPOLYLINE
  5
455
330
3D4
100
AcDbEntity
  8
frame
  6
ByBlock
100
AcDbPolyline
 90
        6
 70
     1
 43
0.0
 10
23.65793040508288
 20
22.87921870190257
 42
0.5040414943243567
 10
23.86582274333614
 20
23.16016907249468
 10
22.88017841010152
 20
26.38406642074915
 42
0.7399610750323026
 10
22.46439373359499
 20
26.38406642074915
 10
21.47874940036127
 20
23.16016907249468
 42
0.5040414943247417
 10
21.68664173861271
 20
22.87921870190257
1001
AcDbBlockRepETag
1070
     1
1071
      125
1005
455
  0
LWPOLYLINE
  5
456
330
3D4
100
AcDbEntity
  8
frame
  6
ByBlock
100
AcDbPolyline
 90
        6
 70
     1
 43
0.0
 10
23.65793040508288
 20
22.79421870190163
 42
0.504041494324358
 10
23.94710864759327
 20
23.18502066739529
 10
22.96146431435773
 20
26.40891801565158
 42
0.7399610750322862
 10
22.38310782933786
 20
26.40891801565158
 10
21.39746349610414
 20
23.18502066739529
 42
0.5040414943247422
 10
21.68664173861271
 20
22.79421870190163
1001
AcDbBlockRepETag
1070
     1
1071
      126
1005
456
  0
LWPOLYLINE
  5
457
330
3D4
100
AcDbEntity
  8
frame
  6
ByBlock
100
AcDbPolyline
 90
        6
 70
     1
 43
0.0
 10
23.65793040508288
 20
22.9642187019017
 42
0.5040414943243489
 10
23.78453683907901
 20
23.13531747759225
 10
22.79889250584438
 20
26.35921482584854
 42
0.7399610750322957
 10
22.54567963785212
 20
26.35921482584854
 10
21.56003530461749
 20
23.13531747759225
 42
0.5040414943247367
 10
21.68664173861362
 20
22.9642187019017
1001
AcDbBlockRepETag
1070
     1
1071
      127
1005
457
  0
LWPOLYLINE
  5
458
330
3D4
100
AcDbEntity
  8
frame
  6
ByBlock
100
AcDbPolyline
 90
       26
 70
     1
 43
0.0
 10
24.23597017697921
 20
21.94947136993869
 10
24.94491088760697
 20
19.63063079022686
 42
-0.5040414943260745
 10
24.66772110327111
 20
19.25603029610465
 10
24.26648897039922
 20
19.25603029610465
 42
0.4142135623730951
 10
24.12156143416723
 20
19.11110275987266
 10
24.12156143416723
 20
18.53139261494471
 10
28.46938752112419
 20
18.53139261494471
 10
28.46938752112419
 20
19.11110275987266
 42
0.4142135623730951
 10
28.3244599848922
 20
19.25603029610465
 10
27.82810683450316
 20
19.25603029610465
 42
-0.3297505471416469
 10
27.48161960408106
 20
19.5124173596123
 10
24.72424215320916
 20
28.53139261494471
 10
22.36314958463299
 20
28.53139261494471
 10
19.60577213376018
 20
19.5124173596123
 42
-0.3297505471416475
 10
19.25928490333898
 20
19.25603029610465
 10
18.90417012981925
 20
19.25603029610465
 42
0.4142135623730951
 10
18.75924259358817
 20
19.11110275987266
 10
18.75924259358817
 20
18.53139261494471
 10
21.07808317329727
 20
18.53139261494471
 10
21.07808317329727
 20
19.11110275987266
 42
0.4142135623730951
 10
20.93315563706619
 20
19.25603029610465
 10
20.57892187825655
 20
19.25603029610465
 42
-0.5040414943243619
 10
20.37102954000329
 20
19.53698066669676
 10
21.12427904504603
 20
22.00074878263877
 42
-0.329750547139216
 10
21.33217138329928
 20
22.15458102074263
 10
23.95878039264244
 20
22.15458102074263
 42
-0.3297505471401503
1001
AcDbBlockRepETag
1070
     1
1071
      128
1005
458
  0
LWPOLYLINE
  5
459
330
3D4
100
AcDbEntity
  8
frame
  6
ByBlock
100
AcDbPolyline
 90
       26
 70
     1
 43
0.0
 10
24.15468427272208
 20
21.92461977503626
 10
24.86362498334984
 20
19.60577919532625
 42
-0.5040414943260704
 10
24.66772110327111
 20
19.3410302961056
 10
24.26648897039922
 20
19.3410302961056
 42
0.4142135623730974
 10
24.0365614341672
 20
19.11110275987266
 10
24.0365614341672
 20
18.44639261494558
 10
28.55438752112423
 20
18.44639261494558
 10
28.55438752112423
 20
19.11110275987266
 42
0.4142135623730974
 10
28.3244599848922
 20
19.3410302961056
 10
27.82810683450316
 20
19.34103029610378
 42
-0.3297505471416459
 10
27.56290550833819
 20
19.53726895451291
 10
24.78713884458648
 20
28.61639261494565
 10
22.30025289325567
 20
28.61639261494565
 10
19.52448622950305
 20
19.53726895451291
 42
-0.3297505471416504
 10
19.25928490333898
 20
19.3410302961056
 10
18.90417012981925
 20
19.3410302961056
 42
0.4142135623730973
 10
18.67424259358813
 20
19.11110275987266
 10
18.67424259358813
 20
18.44639261494558
 10
21.16308317329731
 20
18.44639261494558
 10
21.16308317329731
 20
19.11110275987266
 42
0.4142135623730973
 10
20.93315563706619
 20
19.3410302961056
 10
20.57892187825655
 20
19.3410302961056
 42
-0.5040414943243603
 10
20.45231544425951
 20
19.51212907179615
 10
21.20556494930315
 20
21.97589718773816
 42
-0.3297505471392114
 10
21.33217138329928
 20
22.06958102074168
 10
23.95878039264244
 20
22.0695810207435
 42
-0.3297505471401487
1001
AcDbBlockRepETag
1070
     1
1071
      129
1005
459
  0
LWPOLYLINE
  5
45A
330
3D4
100
AcDbEntity
  8
frame
  6
ByBlock
100
AcDbPolyline
 90
       26
 70
     1
 43
0.0
 10
24.31725608123634
 20
21.9743229648393
 10
25.02619679186409
 20
19.65548238512929
 42
-0.504041494326073
 10
24.66772110327111
 20
19.17103029610553
 10
24.26648897039922
 20
19.17103029610553
 42
0.4142135623730869
 10
24.20656143416727
 20
19.11110275987266
 10
24.20656143416727
 20
18.61639261494565
 10
28.38438752112415
 20
18.61639261494565
 10
28.38438752112415
 20
19.11110275987266
 42
0.4142135623730869
 10
28.3244599848922
 20
19.17103029610553
 10
27.82810683450316
 20
19.17103029610371
 42
-0.3297505471416466
 10
27.40033369982393
 20
19.48756576471169
 10
24.66134546183184
 20
28.44639261494558
 10
22.42604627601031
 20
28.44639261494558
 10
19.68705803801731
 20
19.48756576471169
 42
-0.3297505471416456
 10
19.25928490333898
 20
19.17103029610553
 10
18.90417012981925
 20
19.17103029610553
 42
0.4142135623730869
 10
18.8442425935882
 20
19.11110275987266
 10
18.8442425935882
 20
18.61639261494565
 10
20.99308317329724
 20
18.61639261494565
 10
20.99308317329724
 20
19.11110275987266
 42
0.4142135623730869
 10
20.93315563706619
 20
19.17103029610553
 10
20.57892187825564
 20
19.17103029610553
 42
-0.5040414943243603
 10
20.28974363574616
 20
19.56183226159737
 10
21.0429931407898
 20
22.02560037753938
 42
-0.3297505471392168
 10
21.33217138329928
 20
22.23958102074175
 10
23.95878039264244
 20
22.23958102074357
 42
-0.3297505471401506
1001
AcDbBlockRepETag
1070
     1
1071
      130
1005
45A
  0
LWPOLYLINE
  5
45B
330
3D4
100
AcDbEntity
  8
frame
  6
ByBlock
100
AcDbPolyline
 90
       26
 70
     1
 43
0.0
 10
35.93296628726421
 20
26.29672794011822
 10
35.8606918689502
 20
28.53139261494471
 10
31.87518462257322
 20
28.53139261494471
 10
27.88967737619624
 20
28.53139261494471
 10
27.81740295788131
 20
26.29672794011822
 42
0.8721984941219423
 10
28.52513359009208
 20
26.17622796726755
 10
28.8149313892036
 20
27.09686812119617
 42
-0.3274643887701543
 10
29.78261458521411
 20
27.80675493378658
 10
29.99112665155826
 20
27.80675493378658
 42
-0.4142135623730951
 10
30.49837302837023
 20
27.29950855697462
 10
30.49837302836841
 20
19.61834913668463
 42
-0.4142135623730951
 10
30.13605418779025
 20
19.25603029610465
 10
29.84619911532718
 20
19.25603029610465
 42
0.4142135623730951
 10
29.70127157909519
 20
19.11110275987266
 10
29.70127157909519
 20
18.53139261494471
 10
31.87518462257322
 20
18.53139261494471
 10
34.04909766605124
 20
18.53139261494471
 10
34.04909766605124
 20
19.11110275987266
 42
0.4142135623730951
 10
33.90417012982016
 20
19.25603029610465
 10
33.61431505735618
 20
19.25603029610465
 42
-0.4142135623730951
 10
33.25199621677621
 20
19.61834913668463
 10
33.25199621677621
 20
27.29950855697462
 42
-0.4142135623730951
 10
33.75924259358817
 20
27.80675493378658
 10
33.96775465993233
 20
27.80675493378658
 42
-0.3274643887701542
 10
34.93543785594285
 20
27.09686812119617
 10
35.22523565505435
 20
26.17622796726755
 42
0.872198494121949
1001
AcDbBlockRepETag
1070
     1
1071
      131
1005
45B
  0
LWPOLYLINE
  5
45C
330
3D4
100
AcDbEntity
  8
frame
  6
ByBlock
100
AcDbPolyline
 90
       26
 70
     1
 43
0.0
 10
36.01792186580043
 20
26.29947560740402
 10
35.94298720965799
 20
28.61639261494565
 10
31.87518462257322
 20
28.61639261494565
 10
27.80738203548754
 20
28.61639261494565
 10
27.73244737934419
 20
26.29947560740402
 42
0.8721984941219334
 10
28.60621161787186
 20
26.15070634092262
 10
28.89600941698336
 20
27.07134649485124
 42
-0.3274643887701552
 10
29.78261458521411
 20
27.72175493378564
 10
29.99112665155826
 20
27.72175493378564
 42
-0.414213562373094
 10
30.41337302837019
 20
27.29950855697462
 10
30.41337302836928
 20
19.61834913668463
 42
-0.4142135623730934
 10
30.13605418779025
 20
19.3410302961056
 10
29.84619911532718
 20
19.3410302961056
 42
0.4142135623730974
 10
29.61627157909516
 20
19.11110275987266
 10
29.61627157909516
 20
18.44639261494558
 10
31.87518462257322
 20
18.44639261494558
 10
34.13409766605127
 20
18.44639261494558
 10
34.13409766605127
 20
19.11110275987266
 42
0.4142135623730973
 10
33.90417012982016
 20
19.3410302961056
 10
33.61431505735618
 20
19.34103029610378
 42
-0.4142135623730934
 10
33.33699621677624
 20
19.61834913668463
 10
33.33699621677624
 20
27.29950855697462
 42
-0.414213562373094
 10
33.75924259358817
 20
27.72175493378564
 10
33.96775465993233
 20
27.72175493378564
 42
-0.3274643887701549
 10
34.85435982816307
 20
27.07134649485124
 10
35.14415762727367
 20
26.15070634092262
 42
0.8721984941219462
1001
AcDbBlockRepETag
1070
     1
1071
      132
1005
45C
  0
LWPOLYLINE
  5
45D
330
3D4
100
AcDbEntity
  8
frame
  6
ByBlock
100
AcDbPolyline
 90
       26
 70
     1
 43
0.0
 10
35.848010708728
 20
26.29398027283242
 10
35.7783965282424
 20
28.44639261494558
 10
31.87518462257322
 20
28.44639261494558
 10
27.97197271690402
 20
28.44639261494558
 10
27.90235853641752
 20
26.29398027283424
 42
0.8721984941219337
 10
28.44405556231232
 20
26.20174959361248
 10
28.73385336142383
 20
27.1223897475411
 42
-0.327464388770155
 10
29.78261458521411
 20
27.89175493378571
 10
29.99112665155826
 20
27.89175493378571
 42
-0.4142135623730959
 10
30.58337302837026
 20
27.29950855697462
 10
30.58337302836844
 20
19.61834913668463
 42
-0.4142135623730962
 10
30.13605418779025
 20
19.17103029610553
 10
29.84619911532718
 20
19.17103029610553
 42
0.4142135623730869
 10
29.78627157909523
 20
19.11110275987266
 10
29.78627157909523
 20
18.61639261494565
 10
31.87518462257322
 20
18.61639261494565
 10
33.9640976660512
 20
18.61639261494565
 10
33.9640976660512
 20
19.11110275987266
 42
0.4142135623730869
 10
33.90417012982016
 20
19.17103029610553
 10
33.61431505735618
 20
19.17103029610371
 42
-0.414213562373096
 10
33.16699621677617
 20
19.61834913668463
 10
33.16699621677617
 20
27.29950855697462
 42
-0.4142135623730959
 10
33.75924259358817
 20
27.89175493378571
 10
33.96775465993233
 20
27.89175493378571
 42
-0.3274643887701536
 10
35.01651588372352
 20
27.1223897475411
 10
35.30631368283412
 20
26.20174959361248
 42
0.8721984941219799
1001
AcDbBlockRepETag
1070
     1
1071
      133
1005
45D
  0
LWPOLYLINE
  5
45E
330
3D4
100
AcDbEntity
  8
frame
  6
ByBlock
100
AcDbPolyline
 90
       40
 70
     1
 43
0.0
 10
58.61431505735618
 20
19.25603029610465
 42
-0.4142135623730951
 10
58.75924259358817
 20
19.11110275987266
 10
58.75924259358817
 20
18.53139261494471
 10
54.70127157909519
 20
18.53139261494471
 10
54.70127157909519
 20
19.11110275987266
 42
-0.4142135623730951
 10
54.84619911532718
 20
19.25603029610465
 10
55.13605418779116
 20
19.25603029610465
 42
0.4142135623730951
 10
55.49837302837023
 20
19.61834913668463
 10
55.49837302837023
 20
27.59605675325474
 42
0.8769764629942649
 10
55.07099784874207
 20
27.65232176305835
 10
52.62705224928414
 20
18.53139261494471
 10
51.93153233427985
 20
18.53139261494471
 10
49.47647284567938
 20
27.69379936200676
 42
0.8769764629925763
 10
49.04909766605214
 20
27.63753435220133
 10
49.04909766605214
 20
19.47342160045264
 42
0.4142135623730951
 10
49.26648897039921
 20
19.25603029610465
 10
49.4838802747472
 20
19.25603029610465
 42
-0.4142135623730951
 10
49.62880781097918
 20
19.11110275987266
 10
49.62880781097918
 20
18.53139261494471
 10
47.59982230373225
 20
18.53139261494471
 10
47.59982230373225
 20
19.11110275987266
 42
-0.4142135623730951
 10
47.74474983996425
 20
19.25603029610465
 10
48.10706868054421
 20
19.25603029610465
 42
0.4142135623730951
 10
48.3244599848922
 20
19.47342160045264
 10
48.3244599848922
 20
27.5893636294386
 42
0.4142135623730951
 10
48.10706868054421
 20
27.80675493378658
 10
47.74474983996425
 20
27.80675493378658
 42
-0.4142135623730951
 10
47.59982230373225
 20
27.95168247001857
 10
47.59982230373225
 20
28.53139261494471
 10
51.80272085445722
 20
28.53139261494471
 10
52.96954857338005
 20
24.1767322842461
 42
0.7673269879785562
 10
53.38951632394036
 20
24.1767322842461
 10
54.55634404286321
 20
28.53139261494471
 10
58.75924259358817
 20
28.53139261494471
 10
58.75924259358817
 20
27.95168247001857
 42
-0.4142135623730951
 10
58.61431505735618
 20
27.80675493378658
 10
58.3244599848922
 20
27.80675493378658
 42
0.4142135623730951
 10
57.96214114431222
 20
27.44443609320661
 10
57.96214114431222
 20
19.61834913668463
 42
0.4142135623730951
 10
58.3244599848922
 20
19.25603029610465
1001
AcDbBlockRepETag
1070
     1
1071
      134
1005
45E
  0
LWPOLYLINE
  5
45F
330
3D4
100
AcDbEntity
  8
frame
  6
ByBlock
100
AcDbPolyline
 90
       40
 70
     1
 43
0.0
 10
58.61431505735618
 20
19.3410302961056
 42
-0.4142135623730974
 10
58.84424259358819
 20
19.11110275987266
 10
58.84424259358819
 20
18.44639261494558
 10
54.61627157909514
 20
18.44639261494558
 10
54.61627157909514
 20
19.11110275987266
 42
-0.4142135623730974
 10
54.84619911532718
 20
19.3410302961056
 10
55.13605418779116
 20
19.3410302961056
 42
0.4142135623730934
 10
55.41337302837018
 20
19.61834913668463
 10
55.41337302837018
 20
27.59605675325474
 42
0.8769764629942653
 10
55.15310154397685
 20
27.63032214422492
 10
52.69227504326227
 20
18.44639261494558
 10
51.86630954030171
 20
18.44639261494558
 10
49.39436915044461
 20
27.67179974317333
 42
0.8769764629924258
 10
49.13409766605218
 20
27.63753435220133
 10
49.13409766605218
 20
19.47342160045264
 42
0.4142135623730835
 10
49.26648897039921
 20
19.3410302961056
 10
49.4838802747472
 20
19.3410302961056
 42
-0.4142135623730974
 10
49.71380781097924
 20
19.11110275987266
 10
49.71380781097924
 20
18.44639261494558
 10
47.51482230373222
 20
18.44639261494558
 10
47.51482230373222
 20
19.11110275987266
 42
-0.4142135623730974
 10
47.74474983996425
 20
19.3410302961056
 10
48.10706868054421
 20
19.3410302961056
 42
0.4142135623730913
 10
48.23945998489215
 20
19.47342160045264
 10
48.23945998489215
 20
27.5893636294386
 42
0.4142135623730913
 10
48.10706868054421
 20
27.72175493378564
 10
47.74474983996425
 20
27.72175493378564
 42
-0.4142135623730974
 10
47.51482230373222
 20
27.95168247001857
 10
47.51482230373222
 20
28.61639261494565
 10
51.86794364843535
 20
28.61639261494565
 10
53.05165226861482
 20
24.19873190307953
 42
0.767326987978615
 10
53.3074126287056
 20
24.19873190307953
 10
54.49112124888507
 20
28.61639261494565
 10
58.84424259358819
 20
28.61639261494565
 10
58.84424259358819
 20
27.95168247001857
 42
-0.4142135623730974
 10
58.61431505735618
 20
27.72175493378564
 10
58.3244599848922
 20
27.72175493378564
 42
0.4142135623730896
 10
58.04714114431225
 20
27.44443609320661
 10
58.04714114431225
 20
19.61834913668463
 42
0.4142135623730895
 10
58.3244599848922
 20
19.3410302961056
1001
AcDbBlockRepETag
1070
     1
1071
      135
1005
45F
  0
LWPOLYLINE
  5
460
330
3D4
100
AcDbEntity
  8
frame
  6
ByBlock
100
AcDbPolyline
 90
       40
 70
     1
 43
0.0
 10
58.61431505735618
 20
19.17103029610553
 42
-0.4142135623730869
 10
58.67424259358813
 20
19.11110275987266
 10
58.67424259358813
 20
18.61639261494565
 10
54.78627157909523
 20
18.61639261494565
 10
54.78627157909523
 20
19.11110275987266
 42
-0.4142135623730869
 10
54.84619911532718
 20
19.17103029610553
 10
55.13605418779116
 20
19.17103029610553
 42
0.4142135623730962
 10
55.58337302837025
 20
19.61834913668463
 10
55.58337302837025
 20
27.59605675325474
 42
0.8769764629943033
 10
54.98889415350731
 20
27.67432138189179
 10
52.561829455306
 20
18.61639261494565
 10
51.99675512825797
 20
18.61639261494565
 10
49.55857654091414
 20
27.71579898084019
 42
0.8769764629925827
 10
48.96409766605211
 20
27.63753435220133
 10
48.96409766605211
 20
19.47342160045264
 42
0.4142135623731002
 10
49.26648897039921
 20
19.17103029610553
 10
49.4838802747472
 20
19.17103029610553
 42
-0.4142135623730869
 10
49.54380781097915
 20
19.11110275987266
 10
49.54380781097915
 20
18.61639261494565
 10
47.68482230373229
 20
18.61639261494565
 10
47.68482230373229
 20
19.11110275987266
 42
-0.4142135623730869
 10
47.74474983996425
 20
19.17103029610553
 10
48.10706868054421
 20
19.17103029610553
 42
0.4142135623730966
 10
48.40945998489225
 20
19.47342160045264
 10
48.40945998489225
 20
27.5893636294386
 42
0.4142135623730966
 10
48.10706868054421
 20
27.89175493378571
 10
47.74474983996425
 20
27.89175493378571
 42
-0.4142135623730869
 10
47.68482230373229
 20
27.95168247001857
 10
47.68482230373229
 20
28.44639261494558
 10
51.73749806047908
 20
28.44639261494558
 10
52.88744487814528
 20
24.15473266541268
 42
0.7673269879785485
 10
53.47162001917514
 20
24.15473266541268
 10
54.62156683684135
 20
28.44639261494558
 10
58.67424259358813
 20
28.44639261494558
 10
58.67424259358813
 20
27.95168247001857
 42
-0.4142135623730869
 10
58.61431505735618
 20
27.89175493378571
 10
58.3244599848922
 20
27.89175493378571
 42
0.4142135623730962
 10
57.87714114431219
 20
27.44443609320661
 10
57.87714114431219
 20
19.61834913668463
 42
0.4142135623730985
 10
58.3244599848922
 20
19.17103029610553
1001
AcDbBlockRepETag
1070
     1
1071
      136
1005
460
  0
LINE
  5
461
330
3D4
100
AcDbEntity
  8
frame
  6
ByBlock
100
AcDbLine
 10
105.0
 20
0.0
 30
0.0
 11
104.9999999999991
 21
10.0
 31
0.0
1001
AcDbBlockRepETag
1070
     1
1071
      137
1005
461
  0
LINE
  5
462
330
3D4
100
AcDbEntity
  8
frame
  6
ByBlock
100
AcDbLine
 10
105.1599999999998
 20
0.0
 30
0.0
 11
105.1599999999989
 21
10.0
 31
0.0
1001
AcDbBlockRepETag
1070
     1
1071
      138
1005
462
  0
LINE
  5
463
330
3D4
100
AcDbEntity
  8
frame
  6
ByBlock
100
AcDbLine
 10
104.8400000000001
 20
0.0
 30
0.0
 11
104.8399999999992
 21
10.0
 31
0.0
1001
AcDbBlockRepETag
1070
     1
1071
      139
1005
463
  0
LINE
  5
464
330
3D4
100
AcDbEntity
  8
frame
  6
ByBlock
100
AcDbLine
 10
210.0
 20
148.5
 30
0.0
 11
196.9999999999991
 21
148.5
 31
0.0
1001
AcDbBlockRepETag
1070
     1
1071
      140
1005
464
  0
LINE
  5
465
330
3D4
100
AcDbEntity
  8
frame
  6
ByBlock
100
AcDbLine
 10
210.0
 20
148.3400000000001
 30
0.0
 11
196.9999999999991
 21
148.3400000000001
 31
0.0
1001
AcDbBlockRepETag
1070
     1
1071
      141
1005
465
  0
LINE
  5
466
330
3D4
100
AcDbEntity
  8
frame
  6
ByBlock
100
AcDbLine
 10
210.0
 20
148.6599999999998
 30
0.0
 11
196.9999999999991
 21
148.6599999999998
 31
0.0
1001
AcDbBlockRepETag
1070
     1
1071
      142
1005
466
  0
LINE
  5
467
330
3D4
100
AcDbEntity
  8
frame
  6
ByBlock
100
AcDbLine
 10
105.0
 20
297.0
 30
0.0
 11
105.0
 21
287.0
 31
0.0
1001
AcDbBlockRepETag
1070
     1
1071
      143
1005
467
  0
LINE
  5
468
330
3D4
100
AcDbEntity
  8
frame
  6
ByBlock
100
AcDbLine
 10
105.1599999999998
 20
297.0
 30
0.0
 11
105.1599999999998
 21
287.0
 31
0.0
1001
AcDbBlockRepETag
1070
     1
1071
      144
1005
468
  0
LINE
  5
469
330
3D4
100
AcDbEntity
  8
frame
  6
ByBlock
100
AcDbLine
 10
104.8400000000001
 20
297.0
 30
0.0
 11
104.8400000000001
 21
287.0
 31
0.0
1001
AcDbBlockRepETag
1070
     1
1071
      145
1005
469
  0
LINE
  5
46A
330
3D4
100
AcDbEntity
  8
frame
  6
ByBlock
100
AcDbLine
 10
0.0
 20
148.5
 30
0.0
 11
12.99999999999909
 21
148.5
 31
0.0
1001
AcDbBlockRepETag
1070
     1
1071
      146
1005
46A
  0
LINE
  5
46B
330
3D4
100
AcDbEntity
  8
frame
  6
ByBlock
100
AcDbLine
 10
0.0
 20
148.3400000000001
 30
0.0
 11
12.99999999999909
 21
148.3400000000001
 31
0.0
1001
AcDbBlockRepETag
1070
     1
1071
      147
1005
46B
  0
LINE
  5
46C
330
3D4
100
AcDbEntity
  8
frame
  6
ByBlock
100
AcDbLine
 10
0.0
 20
148.6599999999998
 30
0.0
 11
12.99999999999909
 21
148.6599999999998
 31
0.0
1001
AcDbBlockRepETag
1070
     1
1071
      148
1005
46C
  0
ATTDEF
  5
46D
330
3D4
100
AcDbEntity
  8
frame
  6
ByBlock
100
AcDbText
 10
16.5
 20
275.0000000000018
 30
0.0
 40
3.0
  1

 41
0.9
  7
ATOM
 72
     1
 11
16.5
 21
276.5000000000018
 31
0.0
100
AcDbAttributeDefinition
  3
改番?
  2
改番
 70
     0
 74
     2
1001
AcDbBlockRepETag
1070
     1
1071
      202
1005
0
1001
AcDbAttr
1070
     0
1070
     1
  0
ATTDEF
  5
46E
330
3D4
100
AcDbEntity
  8
frame
  6
ByBlock
100
AcDbText
 10
68.5
 20
275.0000000000018
 30
0.0
 40
3.0
  1

 41
0.9
  7
ATOM
 72
     1
 11
68.5
 21
276.5000000000018
 31
0.0
100
AcDbAttributeDefinition
  3
改正理由?
  2
改　　　　正　　　　理　　　　由
 70
     0
 74
     2
1001
AcDbBlockRepETag
1070
     1
1071
      203
1005
0
1001
AcDbAttr
1070
     0
1070
     1
  0
ATTDEF
  5
46F
330
3D4
100
AcDbEntity
  8
frame
  6
ByBlock
100
AcDbText
 10
124.5
 20
275.0000000000018
 30
0.0
 40
3.0
  1

 41
0.9
  7
ATOM
 72
     1
 11
124.5
 21
276.5000000000018
 31
0.0
100
AcDbAttributeDefinition
  3
改正承認?
  2
改正承認
 70
     0
 74
     2
1001
AcDbBlockRepETag
1070
     1
1071
      201
1005
0
1001
AcDbAttr
1070
     0
1070
     1
  0
ATTDEF
  5
470
330
3D4
100
AcDbEntity
  8
frame
  6
ByBlock
100
AcDbText
 10
144.5
 20
275.0000000000018
 30
0.0
 40
3.0
  1

 41
0.9
  7
ATOM
 72
     1
 11
144.5
 21
276.5000000000018
 31
0.0
100
AcDbAttributeDefinition
  3
改正承認日?
  2
改正承認日
 70
     0
 74
     2
1001
AcDbBlockRepETag
1070
     1
1071
      200
1005
0
1001
AcDbAttr
1070
     0
1070
     1
  0
ATTDEF
  5
471
330
3D4
100
AcDbEntity
  8
frame
  6
ByBlock
100
AcDbText
 10
164.5
 20
275.0000000000018
 30
0.0
 40
3.0
  1

 41
0.9
  7
ATOM
 72
     1
 11
164.5
 21
276.5000000000018
 31
0.0
100
AcDbAttributeDefinition
  3
改正担当?
  2
改正担当
 70
     0
 74
     2
1001
AcDbBlockRepETag
1070
     1
1071
      199
1005
0
1001
AcDbAttr
1070
     0
1070
     1
  0
ATTDEF
  5
472
330
3D4
100
AcDbEntity
  8
frame
  6
ByBlock
100
AcDbText
 10
184.5
 20
275.0000000000018
 30
0.0
 40
3.0
  1

 41
0.9
  7
ATOM
 72
     1
 11
184.5
 21
276.5000000000018
 31
0.0
100
AcDbAttributeDefinition
  3
改正日?
  2
改正日
 70
     0
 74
     2
1001
AcDbBlockRepETag
1070
     1
1071
      198
1005
0
1001
AcDbAttr
1070
     0
1070
     1
  0
CIRCLE
  5
473
330
3D4
100
AcDbEntity
  8
frame
100
AcDbCircle
 10
16.69857561378921
 20
34.3352633367922
 30
0.0
 40
1.123977615884085
1001
AcDbBlockRepETag
1070
     1
1071
      161
1005
473
  0
CIRCLE
  5
474
330
3D4
100
AcDbEntity
  8
frame
100
AcDbCircle
 10
16.69857561378921
 20
34.3352633367922
 30
0.0
 40
1.208977615884085
1001
AcDbBlockRepETag
1070
     1
1071
      162
1005
474
  0
CIRCLE
  5
475
330
3D4
100
AcDbEntity
  8
frame
100
AcDbCircle
 10
16.69857561378921
 20
34.3352633367922
 30
0.0
 40
1.038977615884085
1001
AcDbBlockRepETag
1070
     1
1071
      163
1005
475
  0
CIRCLE
  5
476
330
3D4
100
AcDbEntity
  8
frame
100
AcDbCircle
 10
16.69857561378921
 20
34.3352633367922
 30
0.0
 40
2.310728085513118
1001
AcDbBlockRepETag
1070
     1
1071
      164
1005
476
  0
CIRCLE
  5
477
330
3D4
100
AcDbEntity
  8
frame
100
AcDbCircle
 10
16.69857561378921
 20
34.3352633367922
 30
0.0
 40
2.395728085513118
1001
AcDbBlockRepETag
1070
     1
1071
      165
1005
477
  0
CIRCLE
  5
478
330
3D4
100
AcDbEntity
  8
frame
100
AcDbCircle
 10
16.69857561378921
 20
34.3352633367922
 30
0.0
 40
2.225728085513118
1001
AcDbBlockRepETag
1070
     1
1071
      166
1005
478
  0
CIRCLE
  5
479
330
3D4
100
AcDbEntity
  8
frame
100
AcDbCircle
 10
41.60561818906808
 20
23.63139261494507
 30
0.0
 40
5.269566433505018
1001
AcDbBlockRepETag
1070
     1
1071
      167
1005
479
  0
CIRCLE
  5
47A
330
3D4
100
AcDbEntity
  8
frame
100
AcDbCircle
 10
41.60561818906808
 20
23.63139261494507
 30
0.0
 40
5.354566433505018
1001
AcDbBlockRepETag
1070
     1
1071
      168
1005
47A
  0
CIRCLE
  5
47B
330
3D4
100
AcDbEntity
  8
frame
100
AcDbCircle
 10
41.60561818906808
 20
23.63139261494507
 30
0.0
 40
5.184566433505018
1001
AcDbBlockRepETag
1070
     1
1071
      169
1005
47B
  0
LINE
  5
47C
330
3D4
100
AcDbEntity
  8
frame
100
AcDbLine
 10
19.99421302496466
 20
34.3352633367922
 30
0.0
 11
21.99421302496467
 21
34.3352633367922
 31
0.0
1001
AcDbBlockRepETag
1070
     1
1071
      170
1005
47C
  0
LINE
  5
47D
330
3D4
100
AcDbEntity
  8
frame
100
AcDbLine
 10
22.49421302496466
 20
34.3352633367922
 30
0.0
 11
22.99421302496467
 21
34.3352633367922
 31
0.0
1001
AcDbBlockRepETag
1070
     1
1071
      171
1005
47D
  0
LINE
  5
47E
330
3D4
100
AcDbEntity
  8
frame
100
AcDbLine
 10
23.49421302496466
 20
34.3352633367922
 30
0.0
 11
25.19999999999982
 21
34.3352633367922
 31
0.0
1001
AcDbBlockRepETag
1070
     1
1071
      172
1005
47E
  0
LINE
  5
47F
330
3D4
100
AcDbEntity
  8
frame
100
AcDbLine
 10
13.80000000000018
 20
34.3352633367922
 30
0.0
 11
14.9985756137894
 21
34.3352633367922
 31
0.0
1001
AcDbBlockRepETag
1070
     1
1071
      173
1005
47F
  0
LINE
  5
480
330
3D4
100
AcDbEntity
  8
frame
100
AcDbLine
 10
15.4985756137894
 20
34.3352633367922
 30
0.0
 11
15.9985756137894
 21
34.3352633367922
 31
0.0
1001
AcDbBlockRepETag
1070
     1
1071
      174
1005
480
  0
LINE
  5
481
330
3D4
100
AcDbEntity
  8
frame
100
AcDbLine
 10
16.4985756137894
 20
34.3352633367922
 30
0.0
 11
19.59715122757825
 21
34.3352633367922
 31
0.0
1001
AcDbBlockRepETag
1070
     1
1071
      175
1005
481
  0
LINE
  5
482
330
3D4
100
AcDbEntity
  8
frame
100
AcDbLine
 10
16.69857561378921
 20
37.23383895058032
 30
0.0
 11
16.69857561378921
 21
36.03526333679111
 31
0.0
1001
AcDbBlockRepETag
1070
     1
1071
      176
1005
482
  0
LINE
  5
483
330
3D4
100
AcDbEntity
  8
frame
100
AcDbLine
 10
16.69857561378921
 20
35.53526333679111
 30
0.0
 11
16.69857561378921
 21
35.0352633367911
 31
0.0
1001
AcDbBlockRepETag
1070
     1
1071
      177
1005
483
  0
LINE
  5
484
330
3D4
100
AcDbEntity
  8
frame
100
AcDbLine
 10
16.69857561378921
 20
34.53526333679111
 30
0.0
 11
16.69857561378921
 21
31.43668772300225
 31
0.0
1001
AcDbBlockRepETag
1070
     1
1071
      178
1005
484
  0
ATTDEF
  5
485
330
3D4
100
AcDbEntity
  8
frame
  6
ByBlock
100
AcDbText
 10
76.75
 20
32.75000000000182
 30
0.0
 40
3.5
  1

 41
0.9
  7
ATOM
 72
     1
 11
76.75
 21
34.50000000000182
 31
0.0
100
AcDbAttributeDefinition
  3
名称?
  2
名称
 70
     0
 74
     2
1001
AcDbBlockRepETag
1070
     1
1071
      159
1005
0
1001
AcDbAttr
1070
     0
1070
     1
  0
ATTDEF
  5
486
330
3D4
100
AcDbEntity
  8
frame
  6
ByBlock
100
AcDbText
 10
35.0
 20
32.78589838486369
 30
0.0
 40
3.5
  1

 41
0.9
  7
ATOM
 72
     1
 11
35.0
 21
34.53589838486369
 31
0.0
100
AcDbAttributeDefinition
  3
尺度?
  2
尺度
 70
     0
 74
     2
1001
AcDbBlockRepETag
1070
     1
1071
      160
1005
0
1001
AcDbAttr
1070
     0
1070
     1
  0
ATTDEF
  5
487
330
3D4
100
AcDbEntity
  8
frame
  6
ByBlock
100
AcDbText
 10
112.25
 20
32.75000000000182
 30
0.0
 40
3.5
  1

 41
0.9
  7
ATOM
 72
     1
 11
112.25
 21
34.50000000000182
 31
0.0
100
AcDbAttributeDefinition
  3
承認?
  2
承認
 70
     0
 74
     2
1001
AcDbBlockRepETag
1070
     1
1071
      180
1005
0
1001
AcDbAttr
1070
     0
1070
     1
  0
ATTDEF
  5
488
330
3D4
100
AcDbEntity
  8
frame
  6
ByBlock
100
AcDbText
 10
112.25
 20
25.75000000000182
 30
0.0
 40
3.5
  1

 41
0.9
  7
ATOM
 72
     1
 11
112.25
 21
27.50000000000182
 31
0.0
100
AcDbAttributeDefinition
  3
検図?
  2
検図
 70
     0
 74
     2
1001
AcDbBlockRepETag
1070
     1
1071
      179
1005
0
1001
AcDbAttr
1070
     0
1070
     1
  0
ATTDEF
  5
489
330
3D4
100
AcDbEntity
  8
frame
  6
ByBlock
100
AcDbText
 10
112.25
 20
18.75000000000182
 30
0.0
 40
3.5
  1

 41
0.9
  7
ATOM
 72
     1
 11
112.25
 21
20.50000000000182
 31
0.0
100
AcDbAttributeDefinition
  3
設計?
  2
設計
 70
     0
 74
     2
1001
AcDbBlockRepETag
1070
     1
1071
      158
1005
0
1001
AcDbAttr
1070
     0
1070
     1
  0
ATTDEF
  5
48A
330
3D4
100
AcDbEntity
  8
frame
  6
ByBlock
100
AcDbText
 10
112.25
 20
11.75000000000182
 30
0.0
 40
3.5
  1

 41
0.9
  7
ATOM
 72
     1
 11
112.25
 21
13.50000000000182
 31
0.0
100
AcDbAttributeDefinition
  3
作図?
  2
作図
 70
     0
 74
     2
1001
AcDbBlockRepETag
1070
     1
1071
      157
1005
0
1001
AcDbAttr
1070
     0
1070
     1
  0
ATTDEF
  5
48B
330
3D4
100
AcDbEntity
  8
frame
  6
ByBlock
100
AcDbText
 10
130.0
 20
32.75000000000182
 30
0.0
 40
3.5
  1

 41
0.8
  7
ATOM
 72
     1
 11
130.0
 21
34.50000000000182
 31
0.0
100
AcDbAttributeDefinition
  3
承認日?
  2
承認日
 70
     0
 74
     2
1001
AcDbBlockRepETag
1070
     1
1071
      153
1005
0
1001
AcDbAttr
1070
     0
1070
     1
  0
ATTDEF
  5
48C
330
3D4
100
AcDbEntity
  8
frame
  6
ByBlock
100
AcDbText
 10
130.0
 20
25.75000000000182
 30
0.0
 40
3.5
  1

 41
0.8
  7
ATOM
 72
     1
 11
130.0
 21
27.50000000000182
 31
0.0
100
AcDbAttributeDefinition
  3
検図日?
  2
検図日
 70
     0
 74
     2
1001
AcDbBlockRepETag
1070
     1
1071
      154
1005
0
1001
AcDbAttr
1070
     0
1070
     1
  0
LINE
  5
48D
330
3D4
100
AcDbEntity
  8
frame
  6
ByBlock
100
AcDbLine
 10
12.99999999999909
 20
273.0000000000018
 30
0.0
 11
197.0
 21
273.0000000000018
 31
0.0
1001
AcDbBlockRepETag
1070
     1
1071
      192
1005
48D
  0
LINE
  5
48E
330
3D4
100
AcDbEntity
  8
frame
  6
ByBlock
100
AcDbLine
 10
157.0
 20
280.0000000000018
 30
0.0
 11
157.0
 21
273.0000000000018
 31
0.0
1001
AcDbBlockRepETag
1070
     1
1071
      193
1005
48E
  0
LINE
  5
48F
330
3D4
100
AcDbEntity
  8
frame
  6
ByBlock
100
AcDbLine
 10
132.0
 20
280.0000000000018
 30
0.0
 11
132.0
 21
273.0000000000018
 31
0.0
1001
AcDbBlockRepETag
1070
     1
1071
      194
1005
48F
  0
LINE
  5
490
330
3D4
100
AcDbEntity
  8
frame
  6
ByBlock
100
AcDbLine
 10
117.0
 20
280.0000000000018
 30
0.0
 11
117.0
 21
273.0000000000018
 31
0.0
1001
AcDbBlockRepETag
1070
     1
1071
      195
1005
490
  0
LINE
  5
491
330
3D4
100
AcDbEntity
  8
frame
  6
ByBlock
100
AcDbLine
 10
20.0
 20
280.0000000000018
 30
0.0
 11
20.0
 21
273.0000000000018
 31
0.0
1001
AcDbBlockRepETag
1070
     1
1071
      196
1005
491
  0
LINE
  5
492
330
3D4
100
AcDbEntity
  8
frame
  6
ByBlock
100
AcDbLine
 10
172.0
 20
280.0000000000018
 30
0.0
 11
172.0
 21
273.0000000000018
 31
0.0
1001
AcDbBlockRepETag
1070
     1
1071
      197
1005
492
  0
ATTDEF
  5
493
330
3D4
100
AcDbEntity
  8
frame
  6
ByBlock
100
AcDbText
 10
130.0
 20
18.75000000000182
 30
0.0
 40
3.5
  1

 41
0.8
  7
ATOM
 72
     1
 11
130.0
 21
20.50000000000182
 31
0.0
100
AcDbAttributeDefinition
  3
設計日?
  2
設計日
 70
     0
 74
     2
1001
AcDbBlockRepETag
1070
     1
1071
      155
1005
0
1001
AcDbAttr
1070
     0
1070
     1
  0
ATTDEF
  5
494
330
3D4
100
AcDbEntity
  8
frame
  6
ByBlock
100
AcDbText
 10
130.0
 20
11.75000000000182
 30
0.0
 40
3.5
  1

 41
0.8
  7
ATOM
 72
     1
 11
130.0
 21
13.50000000000182
 31
0.0
100
AcDbAttributeDefinition
  3
作図日?
  2
作図日
 70
     0
 74
     2
1001
AcDbBlockRepETag
1070
     1
1071
      156
1005
0
1001
AcDbAttr
1070
     0
1070
     1
  0
ATTDEF
  5
495
330
3D4
100
AcDbEntity
  8
frame
  6
ByBlock
100
AcDbText
 10
170.5
 20
32.75000000000182
 30
0.0
 40
3.5
  1

 41
0.9
  7
ATOM
 72
     1
 11
170.5
 21
34.50000000000182
 31
0.0
100
AcDbAttributeDefinition
  3
品名?
  2
品名
 70
     0
 74
     2
1001
AcDbBlockRepETag
1070
     1
1071
      149
1005
0
1001
AcDbAttr
1070
     0
1070
     1
  0
ATTDEF
  5
496
330
3D4
100
AcDbEntity
  8
frame
  6
ByBlock
100
AcDbText
 10
170.5
 20
25.75000000000182
 30
0.0
 40
3.5
  1

 41
0.9
  7
ATOM
 72
     1
 11
170.5
 21
27.50000000000182
 31
0.0
100
AcDbAttributeDefinition
  3
品番?
  2
品番
 70
     0
 74
     2
1001
AcDbBlockRepETag
1070
     1
1071
      150
1005
0
1001
AcDbAttr
1070
     0
1070
     1
  0
ATTDEF
  5
497
330
3D4
100
AcDbEntity
  8
frame
  6
ByBlock
100
AcDbText
 10
170.5
 20
18.75000000000182
 30
0.0
 40
3.5
  1

 41
0.9
  7
ATOM
 72
     1
 11
170.5
 21
20.50000000000182
 31
0.0
100
AcDbAttributeDefinition
  3
図名?
  2
図名
 70
     0
 74
     2
1001
AcDbBlockRepETag
1070
     1
1071
      151
1005
0
1001
AcDbAttr
1070
     0
1070
     1
  0
ATTDEF
  5
498
330
3D4
100
AcDbEntity
  8
frame
  6
ByBlock
100
AcDbText
 10
165.25
 20
11.75000000000182
 30
0.0
 40
3.5
  1

 41
0.9
  7
ATOM
 72
     1
 11
165.25
 21
13.50000000000182
 31
0.0
100
AcDbAttributeDefinition
  3
図番?
  2
図番
 70
     0
 74
     2
1001
AcDbBlockRepETag
1070
     1
1071
      152
1005
0
1001
AcDbAttr
1070
     0
1070
     1
  0
LINE
  5
499
330
3D4
100
AcDbEntity
  8
frame
  6
ByBlock
100
AcDbLine
 10
155.0
 20
52.00000000000182
 30
0.0
 11
155.0
 21
45.00000000000182
 31
0.0
1001
AcDbBlockRepETag
1070
     1
1071
      204
1005
499
  0
LINE
  5
49A
330
3D4
100
AcDbEntity
  8
frame
  6
ByBlock
100
AcDbLine
 10
105.0
 20
52.00000000000182
 30
0.0
 11
105.0
 21
45.00000000000182
 31
0.0
1001
AcDbBlockRepETag
1070
     1
1071
      205
1005
49A
  0
LINE
  5
49B
330
3D4
100
AcDbEntity
  8
frame
  6
ByBlock
100
AcDbLine
 10
98.0
 20
52.00000000000182
 30
0.0
 11
98.0
 21
45.00000000000182
 31
0.0
1001
AcDbBlockRepETag
1070
     1
1071
      206
1005
49B
  0
LINE
  5
49C
330
3D4
100
AcDbEntity
  8
frame
  6
ByBlock
100
AcDbLine
 10
70.0
 20
52.00000000000182
 30
0.0
 11
70.0
 21
45.00000000000182
 31
0.0
1001
AcDbBlockRepETag
1070
     1
1071
       11
1005
49C
  0
LINE
  5
49D
330
3D4
100
AcDbEntity
  8
frame
  6
ByBlock
100
AcDbLine
 10
20.0
 20
52.00000000000182
 30
0.0
 11
20.0
 21
45.00000000000182
 31
0.0
1001
AcDbBlockRepETag
1070
     1
1071
      207
1005
49D
  0
LINE
  5
49E
330
3D4
100
AcDbEntity
  8
frame
  6
ByBlock
100
AcDbLine
 10
12.99999999999909
 20
52.00000000000182
 30
0.0
 11
197.0
 21
52.00000000000182
 31
0.0
1001
AcDbBlockRepETag
1070
     1
1071
      208
1005
49E
  0
ATTDEF
  5
49F
102
{ACAD_XDICTIONARY
360
4A0
102
}
330
3D4
100
AcDbEntity
  8
frame
  6
ByBlock
100
AcDbText
 10
16.5
 20
47.00000000000182
 30
0.0
 40
3.0
  1

 41
0.9
  7
ATOM
 72
     1
 11
16.5
 21
48.50000000000182
 31
0.0
100
AcDbAttributeDefinition
  3
部番?
  2
部番
 70
     0
 74
     2
1001
AcDbBlockRepETag
1070
     1
1071
      213
1005
0
1001
AcadAnnotative
1000
AnnotativeData
1002
{
1070
     1
1070
     0
1002
}
1001
AcDbAttr
1070
     0
1070
     1
  0
ATTDEF
  5
4A3
102
{ACAD_XDICTIONARY
360
4A4
102
}
330
3D4
100
AcDbEntity
  8
frame
  6
ByBlock
100
AcDbText
 10
45.0
 20
47.00000000000182
 30
0.0
 40
3.0
  1

 41
0.9
  7
ATOM
 72
     1
 11
45.0
 21
48.50000000000182
 31
0.0
100
AcDbAttributeDefinition
  3
部品名?
  2
部　　　　品　　　　名
 70
     0
 74
     2
1001
AcDbBlockRepETag
1070
     1
1071
      211
1005
0
1001
AcadAnnotative
1000
AnnotativeData
1002
{
1070
     1
1070
     0
1002
}
1001
AcDbAttr
1070
     0
1070
     1
  0
ATTDEF
  5
4A7
102
{ACAD_XDICTIONARY
360
4A8
102
}
330
3D4
100
AcDbEntity
  8
frame
  6
ByBlock
100
AcDbText
 10
84.0
 20
47.00000000000182
 30
0.0
 40
3.0
  1

 41
0.9
  7
ATOM
 72
     1
 11
84.0
 21
48.50000000000182
 31
0.0
100
AcDbAttributeDefinition
  3
材質?
  2
材　　質
 70
     0
 74
     2
1001
AcDbBlockRepETag
1070
     1
1071
      210
1005
0
1001
AcadAnnotative
1000
AnnotativeData
1002
{
1070
     1
1070
     0
1002
}
1001
AcDbAttr
1070
     0
1070
     1
  0
ATTDEF
  5
4AB
102
{ACAD_XDICTIONARY
360
4AC
102
}
330
3D4
100
AcDbEntity
  8
frame
  6
ByBlock
100
AcDbText
 10
101.5
 20
47.00000000000182
 30
0.0
 40
3.0
  1

 41
0.9
  7
ATOM
 72
     1
 11
101.5
 21
48.50000000000182
 31
0.0
100
AcDbAttributeDefinition
  3
数量?
  2
数量
 70
     0
 74
     2
1001
AcDbBlockRepETag
1070
     1
1071
      212
1005
0
1001
AcadAnnotative
1000
AnnotativeData
1002
{
1070
     1
1070
     0
1002
}
1001
AcDbAttr
1070
     0
1070
     1
  0
ATTDEF
  5
4AF
102
{ACAD_XDICTIONARY
360
4B0
102
}
330
3D4
100
AcDbEntity
  8
frame
  6
ByBlock
100
AcDbText
 10
130.0
 20
47.00000000000182
 30
0.0
 40
3.0
  1

 41
0.9
  7
ATOM
 72
     1
 11
130.0
 21
48.50000000000182
 31
0.0
100
AcDbAttributeDefinition
  3
表面処理?
  2
表　　面　　処　　理
 70
     0
 74
     2
1001
AcDbBlockRepETag
1070
     1
1071
      209
1005
0
1001
AcadAnnotative
1000
AnnotativeData
1002
{
1070
     1
1070
     0
1002
}
1001
AcDbAttr
1070
     0
1070
     1
  0
ATTDEF
  5
4B3
102
{ACAD_XDICTIONARY
360
4B4
102
}
330
3D4
100
AcDbEntity
  8
frame
  6
ByBlock
100
AcDbText
 10
176.0
 20
47.00000000000182
 30
0.0
 40
3.0
  1

 41
0.9
  7
ATOM
 72
     1
 11
176.0
 21
48.50000000000182
 31
0.0
100
AcDbAttributeDefinition
  3
備考?
  2
備　　　考
 70
     0
 74
     2
1001
AcDbBlockRepETag
1070
     1
1071
      181
1005
0
1001
AcadAnnotative
1000
AnnotativeData
1002
{
1070
     1
1070
     0
1002
}
1001
AcDbAttr
1070
     0
1070
     1
  0
ENDBLK
  5
4B7
330
3D4
100
AcDbEntity
  8
0
100
AcDbBlockEnd
  0
ENDSEC
  0
SECTION
  2
ENTITIES
  0
LINE
  5
AD
330
6C
100
AcDbEntity
  8
0
100
AcDbLine
 10
213.1591606702866
 20
255.125011096512
 30
0.0
 11
226.9591606702868
 21
255.125011096512
 31
0.0
  0
LINE
  5
AE
330
6C
100
AcDbEntity
  8
0
100
AcDbLine
 10
212.1591606702884
 20
254.1250110965115
 30
0.0
 11
212.1591606702884
 21
179.1250110965115
 31
0.0
  0
LINE
  5
AF
330
6C
100
AcDbEntity
  8
0
100
AcDbLine
 10
270.1591606702884
 20
254.1250110965115
 30
0.0
 11
270.1591606702884
 21
179.1250110965115
 31
0.0
  0
LINE
  5
B0
330
6C
100
AcDbEntity
  8
0
100
AcDbLine
 10
215.1591606702875
 20
180.1250110965111
 30
0.0
 11
218.1591606702875
 21
180.1250110965111
 31
0.0
  0
LINE
  5
B1
330
6C
100
AcDbEntity
  8
0
100
AcDbLine
 10
221.1591606702875
 20
180.1250110965111
 30
0.0
 11
261.1591606702875
 21
180.1250110965111
 31
0.0
  0
LINE
  5
B2
330
6C
100
AcDbEntity
  8
0
100
AcDbLine
 10
213.1591606702866
 20
178.1250110965111
 30
0.0
 11
214.1591606702866
 21
178.1250110965111
 31
0.0
  0
ARC
  5
B3
330
6C
100
AcDbEntity
  8
0
100
AcDbCircle
 10
214.1591606702866
 20
179.1250110965115
 30
0.0
 40
1.000000000000003
100
AcDbArc
 50
270.0
 51
0.0
  0
ARC
  5
B4
330
6C
100
AcDbEntity
  8
0
100
AcDbCircle
 10
213.1591606702866
 20
179.1250110965115
 30
0.0
 40
1.000000000000003
100
AcDbArc
 50
180.0
 51
270.0
  0
LINE
  5
B5
330
6C
100
AcDbEntity
  8
0
100
AcDbLine
 10
221.1591606702875
 20
252.1250110965111
 30
0.0
 11
225.3591606702873
 21
252.1250110965111
 31
0.0
  0
LINE
  5
B6
330
6C
100
AcDbEntity
  8
0
100
AcDbLine
 10
218.1591606702875
 20
249.1250110965111
 30
0.0
 11
218.1591606702875
 21
238.6250110965111
 31
0.0
  0
LINE
  5
B7
330
6C
100
AcDbEntity
  8
0
100
AcDbLine
 10
221.1591606702875
 20
186.1250110965116
 30
0.0
 11
240.5591606702881
 21
186.1250110965116
 31
0.0
  0
ARC
  5
B8
330
6C
100
AcDbEntity
  8
0
100
AcDbCircle
 10
213.1591606702866
 20
254.1250110965115
 30
0.0
 40
1.000000000000003
100
AcDbArc
 50
90.0
 51
180.0
  0
ARC
  5
B9
330
6C
100
AcDbEntity
  8
0
100
AcDbCircle
 10
269.1591606702875
 20
254.1250110965115
 30
0.0
 40
1.000000000000003
100
AcDbArc
 50
0.0
 51
90.0
  0
ARC
  5
BA
330
6C
100
AcDbEntity
  8
0
100
AcDbCircle
 10
221.1591606702875
 20
249.1250110965111
 30
0.0
 40
3.000000000000013
100
AcDbArc
 50
90.0
 51
180.0
  0
ARC
  5
BB
330
6C
100
AcDbEntity
  8
0
100
AcDbCircle
 10
261.1591606702875
 20
249.1250110965111
 30
0.0
 40
3.000000000000013
100
AcDbArc
 50
0.0
 51
90.0
  0
LINE
  5
BC
330
6C
100
AcDbEntity
  8
0
100
AcDbLine
 10
227.9591606702868
 20
254.1250110965115
 30
0.0
 11
227.9591606702868
 21
250.1250110965116
 31
0.0
1001
GENIUS_GENODEF_13
1002
{
1000
HIER
1070
     0
1002
}
1002
{
1000
MANEDIT
1070
     0
1002
}
1002
{
1000
NOSEL
1070
     0
1002
}
1002
{
1000
BEHIND
1070
     0
1002
}
1002
{
1000
OTHER
1070
     0
1002
}
1002
{
1000
REACTOR
1002
}
1001
GENIUS_GENOBJ-N-CEN_13
1002
{
1000
OWNER
1000
GEN
1002
}
  0
LINE
  5
BF
330
6C
100
AcDbEntity
  8
0
100
AcDbLine
 10
254.3591606702873
 20
254.1250110965115
 30
0.0
 11
254.3591606702873
 21
250.1250110965116
 31
0.0
1001
GENIUS_GENODEF_13
1002
{
1000
HIER
1070
     0
1002
}
1002
{
1000
MANEDIT
1070
     0
1002
}
1002
{
1000
NOSEL
1070
     0
1002
}
1002
{
1000
BEHIND
1070
     0
1002
}
1002
{
1000
OTHER
1070
     0
1002
}
1002
{
1000
REACTOR
1002
}
1001
GENIUS_GENOBJ-N-CEN_13
1002
{
1000
OWNER
1000
GEN
1002
}
  0
LINE
  5
C0
330
6C
100
AcDbEntity
  8
0
100
AcDbLine
 10
226.3591606702874
 20
249.1250110965111
 30
0.0
 11
226.9591606702868
 21
249.1250110965111
 31
0.0
  0
LINE
  5
C1
330
6C
100
AcDbEntity
  8
0
100
AcDbLine
 10
225.3591606702873
 20
252.1250110965111
 30
0.0
 11
225.3591606702873
 21
250.1250110965116
 31
0.0
1001
GENIUS_GENODEF_13
1002
{
1000
HIER
1070
     0
1002
}
1002
{
1000
MANEDIT
1070
     0
1002
}
1002
{
1000
NOSEL
1070
     0
1002
}
1002
{
1000
BEHIND
1070
     0
1002
}
1002
{
1000
OTHER
1070
     0
1002
}
1002
{
1000
REACTOR
1002
}
1001
GENIUS_GENOBJ-N-CEN_13
1002
{
1000
OWNER
1000
GEN
1002
}
  0
LINE
  5
C2
330
6C
100
AcDbEntity
  8
0
100
AcDbLine
 10
256.9591606702877
 20
252.1250110965111
 30
0.0
 11
256.9591606702877
 21
250.1250110965116
 31
0.0
1001
GENIUS_GENODEF_13
1002
{
1000
HIER
1070
     0
1002
}
1002
{
1000
MANEDIT
1070
     0
1002
}
1002
{
1000
NOSEL
1070
     0
1002
}
1002
{
1000
BEHIND
1070
     0
1002
}
1002
{
1000
OTHER
1070
     0
1002
}
1002
{
1000
REACTOR
1002
}
1001
GENIUS_GENOBJ-N-CEN_13
1002
{
1000
OWNER
1000
GEN
1002
}
  0
LINE
  5
C3
330
6C
100
AcDbEntity
  8
0
100
AcDbLine
 10
256.9591606702877
 20
252.1250110965111
 30
0.0
 11
261.1591606702875
 21
252.1250110965111
 31
0.0
  0
LINE
  5
C4
330
6C
100
AcDbEntity
  8
0
100
AcDbLine
 10
255.3591606702864
 20
255.125011096512
 30
0.0
 11
269.1591606702875
 21
255.125011096512
 31
0.0
  0
LINE
  5
C5
330
6C
100
AcDbEntity
  8
0
100
AcDbLine
 10
255.3591606702864
 20
249.1250110965111
 30
0.0
 11
255.9591606702877
 21
249.1250110965111
 31
0.0
  0
ARC
  5
C6
330
6C
100
AcDbEntity
  8
0
100
AcDbCircle
 10
255.3591606702864
 20
250.1250110965116
 30
0.0
 40
1.000000000000003
100
AcDbArc
 50
180.0
 51
270.0
  0
ARC
  5
C7
330
6C
100
AcDbEntity
  8
0
100
AcDbCircle
 10
255.9591606702877
 20
250.1250110965116
 30
0.0
 40
1.000000000000003
100
AcDbArc
 50
270.0
 51
0.0
  0
ARC
  5
C8
330
6C
100
AcDbEntity
  8
0
100
AcDbCircle
 10
255.3591606702864
 20
254.1250110965115
 30
0.0
 40
1.000000000000003
100
AcDbArc
 50
90.0
 51
180.0
  0
ARC
  5
C9
330
6C
100
AcDbEntity
  8
0
100
AcDbCircle
 10
226.9591606702868
 20
254.1250110965115
 30
0.0
 40
1.000000000000003
100
AcDbArc
 50
0.0
 51
90.0
1001
GENIUS_GENODEF_13
1002
{
1000
HIER
1070
     0
1002
}
1002
{
1000
MANEDIT
1070
     0
1002
}
1002
{
1000
NOSEL
1070
     0
1002
}
1002
{
1000
BEHIND
1070
     0
1002
}
1002
{
1000
OTHER
1070
     0
1002
}
1002
{
1000
REACTOR
1002
}
1001
GENIUS_GENOBJ-N-CEN_13
1002
{
1000
OWNER
1000
GEN
1002
}
  0
ARC
  5
CA
330
6C
100
AcDbEntity
  8
0
100
AcDbCircle
 10
226.3591606702874
 20
250.1250110965116
 30
0.0
 40
1.000000000000003
100
AcDbArc
 50
180.0
 51
270.0
  0
ARC
  5
CB
330
6C
100
AcDbEntity
  8
0
100
AcDbCircle
 10
226.9591606702868
 20
250.1250110965116
 30
0.0
 40
1.000000000000003
100
AcDbArc
 50
270.0
 51
0.0
  0
LINE
  5
CC
330
6C
100
AcDbEntity
  8
0
100
AcDbLine
 10
241.1591606702875
 20
185.5250110965112
 30
0.0
 11
240.5591606702881
 21
186.1250110965116
 31
0.0
  0
LINE
  5
CD
330
6C
100
AcDbEntity
  8
0
100
AcDbLine
 10
241.759160670287
 20
186.1250110965116
 30
0.0
 11
261.1591606702875
 21
186.1250110965116
 31
0.0
  0
LINE
  5
CE
330
6C
100
AcDbEntity
  8
0
100
AcDbLine
 10
241.1591606702875
 20
185.5250110965112
 30
0.0
 11
241.759160670287
 21
186.1250110965116
 31
0.0
  0
LINE
  5
CF
330
6C
100
AcDbEntity
  8
0
100
AcDbLine
 10
218.1591606702875
 20
237.6250110965116
 30
0.0
 11
218.1591606702875
 21
224.6250110965116
 31
0.0
  0
LINE
  5
D0
330
6C
100
AcDbEntity
  8
0
100
AcDbLine
 10
218.1591606702875
 20
223.6250110965116
 30
0.0
 11
218.1591606702875
 21
189.1250110965111
 31
0.0
  0
ARC
  5
D1
330
6C
100
AcDbEntity
  8
0
100
AcDbCircle
 10
221.1591606702875
 20
189.1250110965111
 30
0.0
 40
3.000000000000013
100
AcDbArc
 50
180.0
 51
270.0
  0
LINE
  5
D2
330
6C
100
AcDbEntity
  8
0
100
AcDbLine
 10
264.1591606702884
 20
249.1250110965111
 30
0.0
 11
264.1591606702884
 21
238.6250110965111
 31
0.0
  0
LINE
  5
D3
330
6C
100
AcDbEntity
  8
0
100
AcDbLine
 10
264.1591606702884
 20
237.6250110965116
 30
0.0
 11
264.1591606702884
 21
224.6250110965116
 31
0.0
  0
LINE
  5
D4
330
6C
100
AcDbEntity
  8
0
100
AcDbLine
 10
264.1591606702884
 20
223.6250110965116
 30
0.0
 11
264.1591606702884
 21
189.1250110965115
 31
0.0
  0
ARC
  5
D5
330
6C
100
AcDbEntity
  8
0
100
AcDbCircle
 10
261.1591606702875
 20
189.1250110965115
 30
0.0
 40
3.000000000000013
100
AcDbArc
 50
270.0
 51
0.0
  0
LINE
  5
D6
330
6C
100
AcDbEntity
  8
0
100
AcDbLine
 10
218.5591606702872
 20
238.2250110965119
 30
0.0
 11
218.5591606702872
 21
238.0250110965117
 31
0.0
  0
ARC
  5
D7
330
6C
100
AcDbEntity
  8
0
100
AcDbCircle
 10
218.1591606702875
 20
238.0250110965117
 30
0.0
 40
0.4000000000000018
100
AcDbArc
 50
270.0
 51
0.0
  0
LINE
  5
D8
330
6C
100
AcDbEntity
  8
0
100
AcDbLine
 10
218.5591606702872
 20
224.2250110965115
 30
0.0
 11
218.5591606702872
 21
224.0250110965112
 31
0.0
  0
ARC
  5
D9
330
6C
100
AcDbEntity
  8
0
100
AcDbCircle
 10
218.1591606702875
 20
224.0250110965112
 30
0.0
 40
0.4000000000000018
100
AcDbArc
 50
270.0
 51
0.0
  0
ARC
  5
DA
330
6C
100
AcDbEntity
  8
0
100
AcDbCircle
 10
218.1591606702875
 20
224.2250110965115
 30
0.0
 40
0.4000000000000018
100
AcDbArc
 50
0.0
 51
90.0
  0
LINE
  5
DB
330
6C
100
AcDbEntity
  8
0
100
AcDbLine
 10
263.759160670287
 20
238.2250110965119
 30
0.0
 11
263.759160670287
 21
238.0250110965117
 31
0.0
  0
ARC
  5
DC
330
6C
100
AcDbEntity
  8
0
100
AcDbCircle
 10
264.1591606702884
 20
238.2250110965119
 30
0.0
 40
0.4000000000000018
100
AcDbArc
 50
90.0
 51
180.0
  0
ARC
  5
DD
330
6C
100
AcDbEntity
  8
0
100
AcDbCircle
 10
264.1591606702884
 20
238.0250110965117
 30
0.0
 40
0.4000000000000018
100
AcDbArc
 50
180.0
 51
270.0
  0
LINE
  5
DE
330
6C
100
AcDbEntity
  8
0
100
AcDbLine
 10
263.759160670287
 20
224.2250110965115
 30
0.0
 11
263.759160670287
 21
224.0250110965112
 31
0.0
  0
ARC
  5
DF
330
6C
100
AcDbEntity
  8
0
100
AcDbCircle
 10
264.1591606702884
 20
224.2250110965115
 30
0.0
 40
0.4000000000000018
100
AcDbArc
 50
90.0
 51
180.0
  0
LINE
  5
E0
330
6C
100
AcDbEntity
  8
0
100
AcDbLine
 10
218.1591606702875
 20
238.6250110965111
 30
0.0
 11
218.1591606702875
 21
238.6250110965111
 31
0.0
  0
ARC
  5
E1
330
6C
100
AcDbEntity
  8
0
100
AcDbCircle
 10
218.1591606702875
 20
238.2250110965119
 30
0.0
 40
0.4000000000000018
100
AcDbArc
 50
0.0
 51
90.0
  0
LINE
  5
E2
330
6C
100
AcDbEntity
  8
0
100
AcDbLine
 10
218.1591606702875
 20
237.6250110965116
 30
0.0
 11
218.1591606702875
 21
237.6250110965116
 31
0.0
  0
LINE
  5
E3
330
6C
100
AcDbEntity
  8
0
100
AcDbLine
 10
218.1591606702875
 20
224.6250110965116
 30
0.0
 11
218.1591606702875
 21
224.6250110965116
 31
0.0
  0
LINE
  5
E4
330
6C
100
AcDbEntity
  8
0
100
AcDbLine
 10
218.1591606702875
 20
223.6250110965116
 30
0.0
 11
218.1591606702875
 21
223.6250110965116
 31
0.0
  0
LINE
  5
E5
330
6C
100
AcDbEntity
  8
0
100
AcDbLine
 10
264.1591606702884
 20
238.6250110965111
 30
0.0
 11
264.1591606702884
 21
238.6250110965111
 31
0.0
  0
LINE
  5
E6
330
6C
100
AcDbEntity
  8
0
100
AcDbLine
 10
264.1591606702884
 20
237.6250110965116
 30
0.0
 11
264.1591606702884
 21
237.6250110965116
 31
0.0
  0
LINE
  5
E7
330
6C
100
AcDbEntity
  8
0
100
AcDbLine
 10
264.1591606702884
 20
224.6250110965116
 30
0.0
 11
264.1591606702884
 21
224.6250110965116
 31
0.0
  0
LINE
  5
E8
330
6C
100
AcDbEntity
  8
0
100
AcDbLine
 10
264.1591606702884
 20
223.6250110965116
 30
0.0
 11
264.1591606702884
 21
223.6250110965116
 31
0.0
  0
ARC
  5
E9
330
6C
100
AcDbEntity
  8
0
100
AcDbCircle
 10
264.1591606702884
 20
224.0250110965112
 30
0.0
 40
0.4000000000000018
100
AcDbArc
 50
180.0
 51
270.0
  0
LINE
  5
EA
330
6C
100
AcDbEntity
  8
0
100
AcDbLine
 10
215.1591606702875
 20
180.1250110965111
 30
0.0
 11
215.1591606702875
 21
179.1250110965115
 31
0.0
  0
LINE
  5
EB
330
6C
100
AcDbEntity
  8
0
100
AcDbLine
 10
270.1591606702884
 20
179.1250110965115
 30
0.0
 11
270.1591606702884
 21
179.1250110965115
 31
0.0
  0
LINE
  5
EC
330
6C
100
AcDbEntity
  8
center
 48
0.5
100
AcDbLine
 10
241.1591606702875
 20
175.7223097390579
 30
0.0
 11
241.1591606702875
 21
263.9192927216304
 31
0.0
  0
ARC
  5
F0
330
6C
100
AcDbEntity
  8
0
100
AcDbCircle
 10
269.1591606702875
 20
179.1250110965115
 30
0.0
 40
1.000000000000003
100
AcDbArc
 50
270.0
 51
0.0
  0
LINE
  5
F1
330
6C
100
AcDbEntity
  8
0
100
AcDbLine
 10
267.1591606702875
 20
180.1250110965111
 30
0.0
 11
267.1591606702875
 21
179.1250110965115
 31
0.0
  0
LINE
  5
F2
330
6C
100
AcDbEntity
  8
0
100
AcDbLine
 10
269.1591606702875
 20
178.1250110965111
 30
0.0
 11
268.1591606702875
 21
178.1250110965111
 31
0.0
  0
ARC
  5
F3
330
6C
100
AcDbEntity
  8
0
100
AcDbCircle
 10
268.1591606702875
 20
179.1250110965115
 30
0.0
 40
1.000000000000003
100
AcDbArc
 50
180.0
 51
270.0
  0
LINE
  5
F4
330
6C
100
AcDbEntity
  8
0
100
AcDbLine
 10
263.1591606702875
 20
178.1250110965111
 30
0.0
 11
262.1591606702875
 21
178.1250110965111
 31
0.0
  0
ARC
  5
F5
330
6C
100
AcDbEntity
  8
0
100
AcDbCircle
 10
262.1591606702875
 20
179.1250110965115
 30
0.0
 40
1.000000000000003
100
AcDbArc
 50
180.0
 51
270.0
  0
LINE
  5
F6
330
6C
100
AcDbEntity
  8
0
100
AcDbLine
 10
261.1591606702875
 20
180.1250110965111
 30
0.0
 11
261.1591606702875
 21
179.1250110965115
 31
0.0
  0
LINE
  5
F7
330
6C
100
AcDbEntity
  8
0
100
AcDbLine
 10
264.1591606702884
 20
180.1250110965111
 30
0.0
 11
264.1591606702884
 21
179.1250110965115
 31
0.0
  0
ARC
  5
F8
330
6C
100
AcDbEntity
  8
0
100
AcDbCircle
 10
263.1591606702875
 20
179.1250110965115
 30
0.0
 40
1.000000000000003
100
AcDbArc
 50
270.0
 51
0.0
  0
LINE
  5
F9
330
6C
100
AcDbEntity
  8
0
100
AcDbLine
 10
267.1591606702875
 20
180.1250110965111
 30
0.0
 11
264.1591606702884
 21
180.1250110965111
 31
0.0
  0
LINE
  5
FA
330
6C
100
AcDbEntity
  8
0
100
AcDbLine
 10
219.1591606702866
 20
178.1250110965111
 30
0.0
 11
220.1591606702866
 21
178.1250110965111
 31
0.0
  0
ARC
  5
FB
330
6C
100
AcDbEntity
  8
0
100
AcDbCircle
 10
220.1591606702866
 20
179.1250110965115
 30
0.0
 40
1.000000000000003
100
AcDbArc
 50
270.0
 51
0.0
  0
LINE
  5
FC
330
6C
100
AcDbEntity
  8
0
100
AcDbLine
 10
221.1591606702875
 20
180.1250110965111
 30
0.0
 11
221.1591606702875
 21
179.1250110965115
 31
0.0
  0
LINE
  5
FD
330
6C
100
AcDbEntity
  8
0
100
AcDbLine
 10
218.1591606702875
 20
180.1250110965111
 30
0.0
 11
218.1591606702875
 21
179.1250110965115
 31
0.0
  0
ARC
  5
FE
330
6C
100
AcDbEntity
  8
0
100
AcDbCircle
 10
219.1591606702866
 20
179.1250110965115
 30
0.0
 40
1.000000000000003
100
AcDbArc
 50
180.0
 51
270.0
  0
ENDSEC
  0
SECTION
  2
OBJECTS
  0
DICTIONARY
  5
C
330
0
100
AcDbDictionary
281
     1
  3
ACAD_CIP_PREVIOUS_PRODUCT_INFO
350
556
  3
ACAD_COLOR
350
63
  3
ACAD_GROUP
350
D
  3
ACAD_LAYOUT
350
62
  3
ACAD_MATERIAL
350
10
  3
ACAD_MLEADERSTYLE
350
66
  3
ACAD_MLINESTYLE
350
5F
  3
ACAD_PLOTSETTINGS
350
61
  3
ACAD_PLOTSTYLENAME
350
E
  3
ACAD_SCALELIST
350
42
  3
ACAD_TABLESTYLE
350
64
  3
ACAD_VISUALSTYLE
350
29
  3
ACDB_RECOMPOSE_DATA
350
5A5
  3
AcDbVariableDictionary
350
549
  3
DWGPROPS
350
5A6
  0
DICTIONARY
  5
557
330
54
100
AcDbDictionary
280
     1
281
     1
  3
ADSK_XREC_LAYER_RECONCILED
360
558
  0
DICTIONARY
  5
A9
330
A8
100
AcDbDictionary
280
     1
281
     1
  3
ADSK_XREC_LAYER_RECONCILED
360
AA
  0
DICTIONARY
  5
EE
330
ED
100
AcDbDictionary
280
     1
281
     1
  3
ADSK_XREC_LAYER_RECONCILED
360
EF
  0
DICTIONARY
  5
104
330
103
100
AcDbDictionary
280
     1
281
     1
  3
ADSK_XREC_LAYER_RECONCILED
360
105
  0
DICTIONARY
  5
170
330
16F
100
AcDbDictionary
280
     1
281
     1
  3
ADSK_XREC_LAYER_RECONCILED
360
171
  0
DICTIONARY
  5
174
330
173
100
AcDbDictionary
280
     1
281
     1
  3
ADSK_XREC_LAYER_RECONCILED
360
175
  0
DICTIONARY
  5
3D2
330
3D1
100
AcDbDictionary
280
     1
281
     1
  3
ADSK_XREC_LAYER_RECONCILED
360
3D3
  0
DICTIONARY
  5
33C
330
6C
100
AcDbDictionary
280
     1
281
     1
  3
ACAD_SORTENTS
360
4D8
  0
DICTIONARY
  5
33D
330
68
100
AcDbDictionary
280
     1
281
     1
  3
ACAD_SORTENTS
360
3CE
  0
DICTIONARY
  5
3D5
330
3D4
100
AcDbDictionary
280
     1
281
     1
  3
ACAD_SORTENTS
360
4D6
  0
DICTIONARY
  5
4A0
330
49F
100
AcDbDictionary
280
     1
281
     1
  3
AcDbContextDataManager
360
4A1
  0
DICTIONARY
  5
4A4
330
4A3
100
AcDbDictionary
280
     1
281
     1
  3
AcDbContextDataManager
360
4A5
  0
DICTIONARY
  5
4A8
330
4A7
100
AcDbDictionary
280
     1
281
     1
  3
AcDbContextDataManager
360
4A9
  0
DICTIONARY
  5
4AC
330
4AB
100
AcDbDictionary
280
     1
281
     1
  3
AcDbContextDataManager
360
4AD
  0
DICTIONARY
  5
4B0
330
4AF
100
AcDbDictionary
280
     1
281
     1
  3
AcDbContextDataManager
360
4B1
  0
DICTIONARY
  5
4B4
330
4B3
100
AcDbDictionary
280
     1
281
     1
  3
AcDbContextDataManager
360
4B5
  0
XRECORD
  5
556
102
{ACAD_REACTORS
330
C
102
}
330
C
100
AcDbXrecord
280
     1
300
ACD
300
2012
300
ACD_F_S
  0
DICTIONARY
  5
63
102
{ACAD_REACTORS
330
C
102
}
330
C
100
AcDbDictionary
281
     1
  0
DICTIONARY
  5
D
102
{ACAD_REACTORS
330
C
102
}
330
C
100
AcDbDictionary
281
     1
  0
DICTIONARY
  5
62
102
{ACAD_REACTORS
330
C
102
}
330
C
100
AcDbDictionary
281
     1
  3
Model
350
6F
  3
レイアウト1
350
6B
  3
レイアウト2
350
73
  0
DICTIONARY
  5
10
102
{ACAD_REACTORS
330
C
102
}
330
C
100
AcDbDictionary
281
     1
  3
ByBlock
350
19
  3
ByLayer
350
11
  3
Global
350
21
  0
DICTIONARY
  5
66
102
{ACAD_REACTORS
330
C
102
}
330
C
100
AcDbDictionary
281
     1
  3
Standard
350
67
  0
DICTIONARY
  5
5F
102
{ACAD_REACTORS
330
C
102
}
330
C
100
AcDbDictionary
281
     1
  3
Standard
350
60
  0
DICTIONARY
  5
61
102
{ACAD_REACTORS
330
C
102
}
330
C
100
AcDbDictionary
281
     1
  0
ACDBDICTIONARYWDFLT
  5
E
102
{ACAD_REACTORS
330
C
102
}
330
C
100
AcDbDictionary
281
     1
  3
invisible
350
93
  3
Normal
350
F
  3
Style 1
350
94
100
AcDbDictionaryWithDefault
340
F
  0
DICTIONARY
  5
42
102
{ACAD_REACTORS
330
C
102
}
330
C
100
AcDbDictionary
281
     1
  3
*A1
350
95
  3
*A10
350
9D
  3
*A11
350
9E
  3
*A12
350
9F
  3
*A13
350
A0
  3
*A14
350
A1
  3
*A15
350
A2
  3
*A16
350
A3
  3
*A17
350
A4
  3
*A18
350
A5
  3
*A2
350
A6
  3
*A3
350
96
  3
*A4
350
97
  3
*A5
350
98
  3
*A6
350
99
  3
*A7
350
9A
  3
*A8
350
9B
  3
*A9
350
9C
  3
A0
350
43
  3
A1
350
44
  3
A2
350
45
  3
A3
350
46
  3
A4
350
47
  3
A5
350
48
  3
A6
350
49
  3
A7
350
4A
  3
A8
350
4B
  3
A9
350
4C
  3
B0
350
4D
  3
B1
350
4E
  3
B2
350
4F
  3
B3
350
50
  3
B4
350
51
  3
B5
350
52
  3
B6
350
53
  0
DICTIONARY
  5
64
102
{ACAD_REACTORS
330
C
102
}
330
C
100
AcDbDictionary
281
     1
  3
Standard
350
65
  0
DICTIONARY
  5
29
102
{ACAD_REACTORS
330
C
102
}
330
C
100
AcDbDictionary
281
     1
  3
2dWireframe
350
2F
  3
Basic
350
2E
  3
Brighten
350
35
  3
ColorChange
350
39
  3
Conceptual
350
32
  3
Dim
350
34
  3
EdgeColorOff
350
41
  3
Facepattern
350
38
  3
Flat
350
2A
  3
FlatWithEdges
350
2B
  3
Gouraud
350
2C
  3
GouraudWithEdges
350
2D
  3
Hidden
350
31
  3
JitterOff
350
3F
  3
Linepattern
350
37
  3
OverhangOff
350
40
  3
Realistic
350
33
  3
Shaded
350
3E
  3
Shaded with edges
350
3D
  3
Shades of Gray
350
3A
  3
Sketchy
350
3B
  3
Thicken
350
36
  3
Wireframe
350
30
  3
X-Ray
350
3C
  0
XRECORD
  5
5A5
102
{ACAD_REACTORS
330
C
102
}
330
C
100
AcDbXrecord
280
     1
 90
        1
330
65
  0
DICTIONARY
  5
549
102
{ACAD_REACTORS
330
C
102
}
330
C
100
AcDbDictionary
281
     1
  3
ANNOALLVISIBLE
350
54C
  3
CANNOSCALE
350
54D
  3
CMLEADERSTYLE
350
54B
  3
CTABLESTYLE
350
54A
  3
DIMASSOC
350
5A1
  3
HIDETEXT
350
59F
  3
INDEXCTL
350
59E
  3
LAYEREVAL
350
54E
  3
LAYERNOTIFY
350
54F
  3
LIGHTINGUNITS
350
55A
  3
MSLTSCALE
350
559
  3
SORTENTS
350
59D
  3
XCLIPFRAME
350
5A0
  0
XRECORD
  5
5A6
102
{ACAD_REACTORS
330
C
102
}
330
C
100
AcDbXrecord
280
     1
  1
DWGPROPS COOKIE
  2

  3

  4

  6

  7

  8
0035sekine
  9

300
=
301
=
302
=
303
=
304
=
305
=
306
=
307
=
308
=
309
=
 40
0.001527037037037
 41
2455947.407273646
 42
2457584.453735475
  1

 90
        0
  0
XRECORD
  5
558
102
{ACAD_REACTORS
330
557
102
}
330
557
100
AcDbXrecord
280
     1
290
     1
  0
XRECORD
  5
AA
102
{ACAD_REACTORS
330
A9
102
}
330
A9
100
AcDbXrecord
280
     1
290
     1
  0
XRECORD
  5
EF
102
{ACAD_REACTORS
330
EE
102
}
330
EE
100
AcDbXrecord
280
     1
290
     1
  0
XRECORD
  5
105
102
{ACAD_REACTORS
330
104
102
}
330
104
100
AcDbXrecord
280
     1
290
     1
  0
XRECORD
  5
171
102
{ACAD_REACTORS
330
170
102
}
330
170
100
AcDbXrecord
280
     1
290
     1
  0
XRECORD
  5
175
102
{ACAD_REACTORS
330
174
102
}
330
174
100
AcDbXrecord
280
     1
290
     1
  0
XRECORD
  5
3D3
102
{ACAD_REACTORS
330
3D2
102
}
330
3D2
100
AcDbXrecord
280
     1
290
     1
  0
SORTENTSTABLE
  5
4D8
102
{ACAD_REACTORS
330
33C
102
}
330
33C
100
AcDbSortentsTable
330
6C
  0
SORTENTSTABLE
  5
3CE
102
{ACAD_REACTORS
330
33D
102
}
330
33D
100
AcDbSortentsTable
330
68
  0
SORTENTSTABLE
  5
4D6
102
{ACAD_REACTORS
330
3D5
102
}
330
3D5
100
AcDbSortentsTable
330
3D4
  0
DICTIONARY
  5
4A1
102
{ACAD_REACTORS
330
4A0
102
}
330
4A0
100
AcDbDictionary
281
     1
  3
ACDB_ANNOTATIONSCALES
350
4A2
  0
DICTIONARY
  5
4A5
102
{ACAD_REACTORS
330
4A4
102
}
330
4A4
100
AcDbDictionary
281
     1
  3
ACDB_ANNOTATIONSCALES
350
4A6
  0
DICTIONARY
  5
4A9
102
{ACAD_REACTORS
330
4A8
102
}
330
4A8
100
AcDbDictionary
281
     1
  3
ACDB_ANNOTATIONSCALES
350
4AA
  0
DICTIONARY
  5
4AD
102
{ACAD_REACTORS
330
4AC
102
}
330
4AC
100
AcDbDictionary
281
     1
  3
ACDB_ANNOTATIONSCALES
350
4AE
  0
DICTIONARY
  5
4B1
102
{ACAD_REACTORS
330
4B0
102
}
330
4B0
100
AcDbDictionary
281
     1
  3
ACDB_ANNOTATIONSCALES
350
4B2
  0
DICTIONARY
  5
4B5
102
{ACAD_REACTORS
330
4B4
102
}
330
4B4
100
AcDbDictionary
281
     1
  3
ACDB_ANNOTATIONSCALES
350
4B6
  0
LAYOUT
  5
6F
102
{ACAD_XDICTIONARY
360
5DA
102
}
102
{ACAD_REACTORS
330
62
102
}
330
62
100
AcDbPlotSettings
  1

  2
Adobe PDF
  4
A4
  6

 40
3.174999952316283
 41
3.174999952316283
 42
3.175003051757812
 43
3.17498779296875
 44
209.9733276367186
 45
297.0318298339844
 46
-3.188337683677673
 47
-3.159078955650328
 48
0.0
 49
0.0
140
0.0
141
0.0
142
1.0
143
3.070021872932576
 70
 11954
 72
     1
 73
     0
 74
     0
  7
monochrome.stb
 75
     0
147
0.3257305782791606
148
-3.161334839754431
149
-44.06226185079979
100
AcDbLayout
  1
Model
 70
     1
 71
     0
 10
0.0
 20
0.0
 11
12.0
 21
9.0
 12
0.0
 22
0.0
 32
0.0
 14
0.0
 24
0.0
 34
0.0
 15
0.0
 25
0.0
 35
0.0
146
0.0
 13
0.0
 23
0.0
 33
0.0
 16
1.0
 26
0.0
 36
0.0
 17
0.0
 27
1.0
 37
0.0
 76
     0
330
6C
331
57
1001
ACAD_PSEXT
1000
Adobe PDF
1000
Adobe PDF Converter
1000
My Documents
1000

1070
     0
  0
LAYOUT
  5
6B
102
{ACAD_XDICTIONARY
360
5D8
102
}
102
{ACAD_REACTORS
330
62
102
}
330
62
100
AcDbPlotSettings
  1

  2
\\asrv0030\DocuCentre 230 - 本社９階　開発部
  4

  6

 40
0.0
 41
0.0
 42
0.0
 43
0.0
 44
0.0
 45
0.0
 46
0.0
 47
0.0
 48
0.0
 49
0.0
140
0.0
141
0.0
142
1.0
143
1.0
 70
   688
 72
     0
 73
     0
 74
     5
  7

 75
    16
147
1.0
148
0.0
149
0.0
100
AcDbLayout
  1
レイアウト1
 70
     1
 71
     1
 10
0.0
 20
0.0
 11
12.0
 21
9.0
 12
0.0
 22
0.0
 32
0.0
 14
1.000000000000000E+20
 24
1.000000000000000E+20
 34
1.000000000000000E+20
 15
-1.000000000000000E+20
 25
-1.000000000000000E+20
 35
-1.000000000000000E+20
146
0.0
 13
0.0
 23
0.0
 33
0.0
 16
1.0
 26
0.0
 36
0.0
 17
0.0
 27
1.0
 37
0.0
 76
     0
330
68
  0
LAYOUT
  5
73
102
{ACAD_XDICTIONARY
360
5DC
102
}
102
{ACAD_REACTORS
330
62
102
}
330
62
100
AcDbPlotSettings
  1

  2
\\asrv0030\DocuCentre 230 - 本社９階　開発部
  4

  6

 40
0.0
 41
0.0
 42
0.0
 43
0.0
 44
0.0
 45
0.0
 46
0.0
 47
0.0
 48
0.0
 49
0.0
140
0.0
141
0.0
142
1.0
143
1.0
 70
   688
 72
     0
 73
     0
 74
     5
  7

 75
    16
147
1.0
148
0.0
149
0.0
100
AcDbLayout
  1
レイアウト2
 70
     1
 71
     2
 10
0.0
 20
0.0
 11
12.0
 21
9.0
 12
0.0
 22
0.0
 32
0.0
 14
0.0
 24
0.0
 34
0.0
 15
0.0
 25
0.0
 35
0.0
146
0.0
 13
0.0
 23
0.0
 33
0.0
 16
1.0
 26
0.0
 36
0.0
 17
0.0
 27
1.0
 37
0.0
 76
     0
330
70
  0
MATERIAL
  5
19
102
{ACAD_XDICTIONARY
360
1A
102
}
102
{ACAD_REACTORS
330
10
102
}
330
10
100
AcDbMaterial
  1
ByBlock
 72
     0
 43
0.0208333333333333
 43
0.0
 43
0.0
 43
0.0
 43
0.0
 43
0.0208333333333333
 43
0.0
 43
0.0
 43
0.0
 43
0.0
 43
1.0
 43
0.0
 43
0.0
 43
0.0
 43
0.0
 43
1.0
 77
     0
 47
0.0208333333333333
 47
0.0
 47
0.0
 47
0.0
 47
0.0
 47
0.0208333333333333
 47
0.0
 47
0.0
 47
0.0
 47
0.0
 47
1.0
 47
0.0
 47
0.0
 47
0.0
 47
0.0
 47
1.0
171
     0
 49
0.0208333333333333
 49
0.0
 49
0.0
 49
0.0
 49
0.0
 49
0.0208333333333333
 49
0.0
 49
0.0
 49
0.0
 49
0.0
 49
1.0
 49
0.0
 49
0.0
 49
0.0
 49
0.0
 49
1.0
175
     0
142
0.0208333333333333
142
0.0
142
0.0
142
0.0
142
0.0
142
0.0208333333333333
142
0.0
142
0.0
142
0.0
142
0.0
142
1.0
142
0.0
142
0.0
142
0.0
142
0.0
142
1.0
179
     0
144
0.0208333333333333
144
0.0
144
0.0
144
0.0
144
0.0
144
0.0208333333333333
144
0.0
144
0.0
144
0.0
144
0.0
144
1.0
144
0.0
144
0.0
144
0.0
144
0.0
144
1.0
147
0.0208333333333333
147
0.0
147
0.0
147
0.0
147
0.0
147
0.0208333333333333
147
0.0
147
0.0
147
0.0
147
0.0
147
1.0
147
0.0
147
0.0
147
0.0
147
0.0
147
1.0
  0
MATERIAL
  5
11
102
{ACAD_XDICTIONARY
360
12
102
}
102
{ACAD_REACTORS
330
10
102
}
330
10
100
AcDbMaterial
  1
ByLayer
 72
     0
 43
0.0208333333333333
 43
0.0
 43
0.0
 43
0.0
 43
0.0
 43
0.0208333333333333
 43
0.0
 43
0.0
 43
0.0
 43
0.0
 43
1.0
 43
0.0
 43
0.0
 43
0.0
 43
0.0
 43
1.0
 77
     0
 47
0.0208333333333333
 47
0.0
 47
0.0
 47
0.0
 47
0.0
 47
0.0208333333333333
 47
0.0
 47
0.0
 47
0.0
 47
0.0
 47
1.0
 47
0.0
 47
0.0
 47
0.0
 47
0.0
 47
1.0
171
     0
 49
0.0208333333333333
 49
0.0
 49
0.0
 49
0.0
 49
0.0
 49
0.0208333333333333
 49
0.0
 49
0.0
 49
0.0
 49
0.0
 49
1.0
 49
0.0
 49
0.0
 49
0.0
 49
0.0
 49
1.0
175
     0
142
0.0208333333333333
142
0.0
142
0.0
142
0.0
142
0.0
142
0.0208333333333333
142
0.0
142
0.0
142
0.0
142
0.0
142
1.0
142
0.0
142
0.0
142
0.0
142
0.0
142
1.0
179
     0
144
0.0208333333333333
144
0.0
144
0.0
144
0.0
144
0.0
144
0.0208333333333333
144
0.0
144
0.0
144
0.0
144
0.0
144
1.0
144
0.0
144
0.0
144
0.0
144
0.0
144
1.0
147
0.0208333333333333
147
0.0
147
0.0
147
0.0
147
0.0
147
0.0208333333333333
147
0.0
147
0.0
147
0.0
147
0.0
147
1.0
147
0.0
147
0.0
147
0.0
147
0.0
147
1.0
  0
MATERIAL
  5
21
102
{ACAD_XDICTIONARY
360
22
102
}
102
{ACAD_REACTORS
330
10
102
}
330
10
100
AcDbMaterial
  1
Global
 72
     0
 43
0.0208333333333333
 43
0.0
 43
0.0
 43
0.0
 43
0.0
 43
0.0208333333333333
 43
0.0
 43
0.0
 43
0.0
 43
0.0
 43
1.0
 43
0.0
 43
0.0
 43
0.0
 43
0.0
 43
1.0
 77
     0
 47
0.0208333333333333
 47
0.0
 47
0.0
 47
0.0
 47
0.0
 47
0.0208333333333333
 47
0.0
 47
0.0
 47
0.0
 47
0.0
 47
1.0
 47
0.0
 47
0.0
 47
0.0
 47
0.0
 47
1.0
171
     0
 49
0.0208333333333333
 49
0.0
 49
0.0
 49
0.0
 49
0.0
 49
0.0208333333333333
 49
0.0
 49
0.0
 49
0.0
 49
0.0
 49
1.0
 49
0.0
 49
0.0
 49
0.0
 49
0.0
 49
1.0
175
     0
142
0.0208333333333333
142
0.0
142
0.0
142
0.0
142
0.0
142
0.0208333333333333
142
0.0
142
0.0
142
0.0
142
0.0
142
1.0
142
0.0
142
0.0
142
0.0
142
0.0
142
1.0
179
     0
144
0.0208333333333333
144
0.0
144
0.0
144
0.0
144
0.0
144
0.0208333333333333
144
0.0
144
0.0
144
0.0
144
0.0
144
1.0
144
0.0
144
0.0
144
0.0
144
0.0
144
1.0
147
0.0208333333333333
147
0.0
147
0.0
147
0.0
147
0.0
147
0.0208333333333333
147
0.0
147
0.0
147
0.0
147
0.0
147
1.0
147
0.0
147
0.0
147
0.0
147
0.0
147
1.0
  0
MLEADERSTYLE
  5
67
102
{ACAD_XDICTIONARY
360
5A3
102
}
102
{ACAD_REACTORS
330
66
102
}
330
66
100
AcDbMLeaderStyle
170
     2
171
     1
172
     0
 90
        2
 40
0.0
 41
0.0
173
     1
 91
-1056964608
340
5B
 92
       -2
290
     1
 42
0.09
291
     1
 43
0.36
  3
Standard
 44
0.18
300

342
55
174
     1
178
     6
175
     1
176
     0
 93
-1056964608
 45
0.18
292
     0
297
     0
 46
0.18
 94
-1056964608
 47
1.0
 49
1.0
140
1.0
293
     1
141
0.0
294
     1
177
     0
142
1.0
295
     0
296
     0
143
0.125
1001
ACAD_MLEADERVER
1070
     2
  0
MLINESTYLE
  5
60
102
{ACAD_REACTORS
330
5F
102
}
330
5F
100
AcDbMlineStyle
  2
STANDARD
 70
     0
  3

 62
   256
 51
90.0
 52
90.0
 71
     2
 49
0.5
 62
   256
  6
BYLAYER
 49
-0.5
 62
   256
  6
BYLAYER
  0
ACDBPLACEHOLDER
  5
93
102
{ACAD_REACTORS
330
E
102
}
330
E
  0
ACDBPLACEHOLDER
  5
F
102
{ACAD_REACTORS
330
E
102
}
330
E
  0
ACDBPLACEHOLDER
  5
94
102
{ACAD_REACTORS
330
E
102
}
330
E
  0
SCALE
  5
95
102
{ACAD_REACTORS
330
42
102
}
330
42
100
AcDbScale
 70
     0
300
3:1
140
3.0
141
1.0
290
     0
  0
SCALE
  5
9D
102
{ACAD_REACTORS
330
42
102
}
330
42
100
AcDbScale
 70
     0
300
3/16" = 1'-0"
140
0.1875
141
12.0
290
     0
  0
SCALE
  5
9E
102
{ACAD_REACTORS
330
42
102
}
330
42
100
AcDbScale
 70
     0
300
1/4" = 1'-0"
140
0.25
141
12.0
290
     0
  0
SCALE
  5
9F
102
{ACAD_REACTORS
330
42
102
}
330
42
100
AcDbScale
 70
     0
300
3/8" = 1'-0"
140
0.375
141
12.0
290
     0
  0
SCALE
  5
A0
102
{ACAD_REACTORS
330
42
102
}
330
42
100
AcDbScale
 70
     0
300
1/2" = 1'-0"
140
0.5
141
12.0
290
     0
  0
SCALE
  5
A1
102
{ACAD_REACTORS
330
42
102
}
330
42
100
AcDbScale
 70
     0
300
3/4" = 1'-0"
140
0.75
141
12.0
290
     0
  0
SCALE
  5
A2
102
{ACAD_REACTORS
330
42
102
}
330
42
100
AcDbScale
 70
     0
300
1" = 1'-0"
140
1.0
141
12.0
290
     0
  0
SCALE
  5
A3
102
{ACAD_REACTORS
330
42
102
}
330
42
100
AcDbScale
 70
     0
300
1-1/2" = 1'-0"
140
1.5
141
12.0
290
     0
  0
SCALE
  5
A4
102
{ACAD_REACTORS
330
42
102
}
330
42
100
AcDbScale
 70
     0
300
3" = 1'-0"
140
3.0
141
12.0
290
     0
  0
SCALE
  5
A5
102
{ACAD_REACTORS
330
42
102
}
330
42
100
AcDbScale
 70
     0
300
6" = 1'-0"
140
6.0
141
12.0
290
     0
  0
SCALE
  5
A6
102
{ACAD_REACTORS
330
42
102
}
330
42
100
AcDbScale
 70
     0
300
1'-0" = 1'-0"
140
12.0
141
12.0
290
     0
  0
SCALE
  5
96
102
{ACAD_REACTORS
330
42
102
}
330
42
100
AcDbScale
 70
     0
300
5:1
140
5.0
141
1.0
290
     0
  0
SCALE
  5
97
102
{ACAD_REACTORS
330
42
102
}
330
42
100
AcDbScale
 70
     0
300
1/128" = 1'-0"
140
0.0078125
141
12.0
290
     0
  0
SCALE
  5
98
102
{ACAD_REACTORS
330
42
102
}
330
42
100
AcDbScale
 70
     0
300
1/64" = 1'-0"
140
0.015625
141
12.0
290
     0
  0
SCALE
  5
99
102
{ACAD_REACTORS
330
42
102
}
330
42
100
AcDbScale
 70
     0
300
1/32" = 1'-0"
140
0.03125
141
12.0
290
     0
  0
SCALE
  5
9A
102
{ACAD_REACTORS
330
42
102
}
330
42
100
AcDbScale
 70
     0
300
1/16" = 1'-0"
140
0.0625
141
12.0
290
     0
  0
SCALE
  5
9B
102
{ACAD_REACTORS
330
42
102
}
330
42
100
AcDbScale
 70
     0
300
3/32" = 1'-0"
140
0.09375
141
12.0
290
     0
  0
SCALE
  5
9C
102
{ACAD_REACTORS
330
42
102
}
330
42
100
AcDbScale
 70
     0
300
1/8" = 1'-0"
140
0.125
141
12.0
290
     0
  0
SCALE
  5
43
102
{ACAD_REACTORS
330
42
102
}
330
42
100
AcDbScale
 70
     0
300
1:1
140
1.0
141
1.0
290
     1
  0
SCALE
  5
44
102
{ACAD_REACTORS
330
42
102
}
330
42
100
AcDbScale
 70
     0
300
1:2
140
1.0
141
2.0
290
     0
  0
SCALE
  5
45
102
{ACAD_REACTORS
330
42
102
}
330
42
100
AcDbScale
 70
     0
300
1:4
140
1.0
141
4.0
290
     0
  0
SCALE
  5
46
102
{ACAD_REACTORS
330
42
102
}
330
42
100
AcDbScale
 70
     0
300
1:5
140
1.0
141
5.0
290
     0
  0
SCALE
  5
47
102
{ACAD_REACTORS
330
42
102
}
330
42
100
AcDbScale
 70
     0
300
1:8
140
1.0
141
8.0
290
     0
  0
SCALE
  5
48
102
{ACAD_REACTORS
330
42
102
}
330
42
100
AcDbScale
 70
     0
300
1:10
140
1.0
141
10.0
290
     0
  0
SCALE
  5
49
102
{ACAD_REACTORS
330
42
102
}
330
42
100
AcDbScale
 70
     0
300
1:16
140
1.0
141
16.0
290
     0
  0
SCALE
  5
4A
102
{ACAD_REACTORS
330
42
102
}
330
42
100
AcDbScale
 70
     0
300
1:20
140
1.0
141
20.0
290
     0
  0
SCALE
  5
4B
102
{ACAD_REACTORS
330
42
102
}
330
42
100
AcDbScale
 70
     0
300
1:30
140
1.0
141
30.0
290
     0
  0
SCALE
  5
4C
102
{ACAD_REACTORS
330
42
102
}
330
42
100
AcDbScale
 70
     0
300
1:40
140
1.0
141
40.0
290
     0
  0
SCALE
  5
4D
102
{ACAD_REACTORS
330
42
102
}
330
42
100
AcDbScale
 70
     0
300
1:50
140
1.0
141
50.0
290
     0
  0
SCALE
  5
4E
102
{ACAD_REACTORS
330
42
102
}
330
42
100
AcDbScale
 70
     0
300
1:100
140
1.0
141
100.0
290
     0
  0
SCALE
  5
4F
102
{ACAD_REACTORS
330
42
102
}
330
42
100
AcDbScale
 70
     0
300
2:1
140
2.0
141
1.0
290
     0
  0
SCALE
  5
50
102
{ACAD_REACTORS
330
42
102
}
330
42
100
AcDbScale
 70
     0
300
4:1
140
4.0
141
1.0
290
     0
  0
SCALE
  5
51
102
{ACAD_REACTORS
330
42
102
}
330
42
100
AcDbScale
 70
     0
300
8:1
140
8.0
141
1.0
290
     0
  0
SCALE
  5
52
102
{ACAD_REACTORS
330
42
102
}
330
42
100
AcDbScale
 70
     0
300
10:1
140
10.0
141
1.0
290
     0
  0
SCALE
  5
53
102
{ACAD_REACTORS
330
42
102
}
330
42
100
AcDbScale
 70
     0
300
100:1
140
100.0
141
1.0
290
     0
  0
TABLESTYLE
  5
65
102
{ACAD_XDICTIONARY
360
55C
102
}
102
{ACAD_REACTORS
330
64
102
}
330
64
100
AcDbTableStyle
  3
Standard
 70
     0
 71
     3
 40
1.5
 41
1.5
280
     0
281
     0
  7
Standard
140
4.5
170
     2
 62
     0
 63
     7
283
     0
274
    -2
284
     1
 64
     0
275
    -2
285
     1
 65
     0
276
    -2
286
     1
 66
     0
277
    -2
287
     1
 67
     0
278
    -2
288
     1
 68
     0
279
    -2
289
     1
 69
     0
  7
Standard
140
6.0
170
     5
 62
     0
 63
     7
283
     0
274
    -2
284
     1
 64
     0
275
    -2
285
     1
 65
     0
276
    -2
286
     1
 66
     0
277
    -2
287
     1
 67
     0
278
    -2
288
     1
 68
     0
279
    -2
289
     1
 69
     0
  7
Standard
140
4.5
170
     5
 62
     0
 63
     7
283
     0
274
    -2
284
     1
 64
     0
275
    -2
285
     1
 65
     0
276
    -2
286
     1
 66
     0
277
    -2
287
     1
 67
     0
278
    -2
288
     1
 68
     0
279
    -2
289
     1
 69
     0
  0
VISUALSTYLE
  5
2F
102
{ACAD_XDICTIONARY
360
5B1
102
}
102
{ACAD_REACTORS
330
29
102
}
330
29
100
AcDbVisualStyle
  2

 70
     4
 71
     0
 72
     2
 73
     0
 90
        0
 40
-0.6
 41
-30.0
 62
     5
 63
     7
 74
     1
 91
        4
 64
     7
 65
   257
 75
     1
175
     1
 42
1.0
 92
        0
 66
   257
 43
1.0
 76
     1
 77
     6
 78
     2
 67
     7
 79
     5
170
     0
171
     0
290
     0
174
     0
 93
        1
 44
0.0
173
     0
291
     0
 45
0.0
1001
ACAD
1000
AcDbSavedByObjectVersion
1070
     0
  0
VISUALSTYLE
  5
2E
102
{ACAD_XDICTIONARY
360
5AF
102
}
102
{ACAD_REACTORS
330
29
102
}
330
29
100
AcDbVisualStyle
  2

 70
     7
 71
     1
 72
     0
 73
     1
 90
        0
 40
-0.6
 41
-30.0
 62
     5
 63
     7
 74
     0
 91
        4
 64
     7
 65
   257
 75
     1
175
     1
 42
1.0
 92
        8
 66
     7
 43
1.0
 76
     1
 77
     6
 78
     2
 67
     7
 79
     5
170
     0
171
     0
290
     0
174
     0
 93
        1
 44
0.0
173
     0
291
     1
 45
0.0
1001
ACAD
1000
AcDbSavedByObjectVersion
1070
     0
  0
VISUALSTYLE
  5
35
102
{ACAD_XDICTIONARY
360
5BD
102
}
102
{ACAD_REACTORS
330
29
102
}
330
29
100
AcDbVisualStyle
  2

 70
    12
 71
     2
 72
     2
 73
     0
 90
        0
 40
-0.6
 41
-30.0
 62
     5
 63
     7
 74
     1
 91
        4
 64
     7
 65
   257
 75
     1
175
     1
 42
1.0
 92
        8
 66
     7
 43
1.0
 76
     1
 77
     6
 78
     2
 67
     7
 79
     5
170
     0
171
     0
290
     0
174
     0
 93
        1
 44
50.0
173
     0
291
     1
 45
0.0
1001
ACAD
1000
AcDbSavedByObjectVersion
1070
     0
  0
VISUALSTYLE
  5
39
102
{ACAD_XDICTIONARY
360
5C5
102
}
102
{ACAD_REACTORS
330
29
102
}
330
29
100
AcDbVisualStyle
  2

 70
    16
 71
     2
 72
     2
 73
     3
 90
        0
 40
-0.6
 41
-30.0
 62
     5
 63
     8
 74
     1
 91
        4
 64
     7
 65
   257
 75
     1
175
     1
 42
1.0
 92
        8
 66
     8
 43
1.0
 76
     1
 77
     6
 78
     2
 67
     7
 79
     5
170
     0
171
     0
290
     0
174
     0
 93
        1
 44
0.0
173
     0
291
     1
 45
0.0
1001
ACAD
1000
AcDbSavedByObjectVersion
1070
     0
  0
VISUALSTYLE
  5
32
102
{ACAD_XDICTIONARY
360
5B7
102
}
102
{ACAD_REACTORS
330
29
102
}
330
29
100
AcDbVisualStyle
  2

 70
     9
 71
     3
 72
     2
 73
     0
 90
        0
 40
-0.6
 41
-30.0
 62
     5
 63
     7
 74
     2
 91
        2
 64
     7
 65
   257
 75
     1
175
     1
 42
179.0
 92
        8
 66
     7
 43
1.0
 76
     1
 77
     6
 78
     2
 67
     7
 79
     3
170
     0
171
     0
290
     0
174
     0
 93
        1
 44
0.0
173
     0
291
     0
 45
0.0
1001
ACAD
1000
AcDbSavedByObjectVersion
1070
     0
  0
VISUALSTYLE
  5
34
102
{ACAD_XDICTIONARY
360
5BB
102
}
102
{ACAD_REACTORS
330
29
102
}
330
29
100
AcDbVisualStyle
  2

 70
    11
 71
     2
 72
     2
 73
     0
 90
        0
 40
-0.6
 41
-30.0
 62
     5
 63
     7
 74
     1
 91
        4
 64
     7
 65
   257
 75
     1
175
     1
 42
1.0
 92
        8
 66
     7
 43
1.0
 76
     1
 77
     6
 78
     2
 67
     7
 79
     5
170
     0
171
     0
290
     0
174
     0
 93
        1
 44
-50.0
173
     0
291
     1
 45
0.0
1001
ACAD
1000
AcDbSavedByObjectVersion
1070
     0
  0
VISUALSTYLE
  5
41
102
{ACAD_XDICTIONARY
360
5D5
102
}
102
{ACAD_REACTORS
330
29
102
}
330
29
100
AcDbVisualStyle
  2

 70
    22
 71
     2
 72
     2
 73
     0
 90
        0
 40
-0.6
 41
-30.0
 62
     5
 63
     7
 74
     1
 91
        4
 64
     7
 65
   257
 75
     1
175
     1
 42
1.0
 92
        8
 66
     7
 43
1.0
 76
     1
 77
     6
 78
     2
 67
     7
 79
     5
170
     0
171
     0
290
     0
174
     0
 93
        1
 44
0.0
173
     0
291
     1
 45
0.0
1001
ACAD
1000
AcDbSavedByObjectVersion
1070
     0
  0
VISUALSTYLE
  5
38
102
{ACAD_XDICTIONARY
360
5C3
102
}
102
{ACAD_REACTORS
330
29
102
}
330
29
100
AcDbVisualStyle
  2

 70
    15
 71
     2
 72
     2
 73
     0
 90
        0
 40
-0.6
 41
-30.0
 62
     5
 63
     7
 74
     1
 91
        4
 64
     7
 65
   257
 75
     1
175
     1
 42
1.0
 92
        8
 66
     7
 43
1.0
 76
     1
 77
     6
 78
     2
 67
     7
 79
     5
170
     0
171
     0
290
     0
174
     0
 93
        1
 44
0.0
173
     0
291
     1
 45
0.0
1001
ACAD
1000
AcDbSavedByObjectVersion
1070
     0
  0
VISUALSTYLE
  5
2A
102
{ACAD_XDICTIONARY
360
5A7
102
}
102
{ACAD_REACTORS
330
29
102
}
330
29
100
AcDbVisualStyle
  2

 70
     0
 71
     2
 72
     1
 73
     1
 90
        2
 40
-0.6
 41
30.0
 62
     5
 63
     7
 74
     0
 91
        0
 64
     7
 65
   257
 75
     1
175
     1
 42
1.0
 92
        8
 66
     7
 43
1.0
 76
     1
 77
     6
 78
     2
 67
     7
 79
     5
170
     0
171
     0
290
     0
174
     0
 93
       13
 44
0.0
173
     0
291
     1
 45
0.0
1001
ACAD
1000
AcDbSavedByObjectVersion
1070
     0
  0
VISUALSTYLE
  5
2B
102
{ACAD_XDICTIONARY
360
5A9
102
}
102
{ACAD_REACTORS
330
29
102
}
330
29
100
AcDbVisualStyle
  2

 70
     1
 71
     2
 72
     1
 73
     1
 90
        2
 40
-0.6
 41
30.0
 62
     5
 63
     7
 74
     1
 91
        0
 64
     7
 65
   257
 75
     1
175
     1
 42
1.0
 92
        0
 66
   257
 43
1.0
 76
     1
 77
     6
 78
     2
 67
     7
 79
     5
170
     0
171
     0
290
     0
174
     0
 93
       13
 44
0.0
173
     0
291
     1
 45
0.0
1001
ACAD
1000
AcDbSavedByObjectVersion
1070
     0
  0
VISUALSTYLE
  5
2C
102
{ACAD_XDICTIONARY
360
5AB
102
}
102
{ACAD_REACTORS
330
29
102
}
330
29
100
AcDbVisualStyle
  2

 70
     2
 71
     2
 72
     2
 73
     1
 90
        2
 40
-0.6
 41
30.0
 62
     5
 63
     7
 74
     0
 91
        0
 64
     7
 65
   257
 75
     1
175
     1
 42
1.0
 92
        0
 66
     7
 43
1.0
 76
     1
 77
     6
 78
     2
 67
     7
 79
     5
170
     0
171
     0
290
     0
174
     0
 93
       13
 44
0.0
173
     0
291
     1
 45
0.0
1001
ACAD
1000
AcDbSavedByObjectVersion
1070
     0
  0
VISUALSTYLE
  5
2D
102
{ACAD_XDICTIONARY
360
5AD
102
}
102
{ACAD_REACTORS
330
29
102
}
330
29
100
AcDbVisualStyle
  2

 70
     3
 71
     2
 72
     2
 73
     1
 90
        2
 40
-0.6
 41
30.0
 62
     5
 63
     7
 74
     1
 91
        0
 64
     7
 65
   257
 75
     1
175
     1
 42
1.0
 92
        0
 66
   257
 43
1.0
 76
     1
 77
     6
 78
     2
 67
     7
 79
     5
170
     0
171
     0
290
     0
174
     0
 93
       13
 44
0.0
173
     0
291
     1
 45
0.0
1001
ACAD
1000
AcDbSavedByObjectVersion
1070
     0
  0
VISUALSTYLE
  5
31
102
{ACAD_XDICTIONARY
360
5B5
102
}
102
{ACAD_REACTORS
330
29
102
}
330
29
100
AcDbVisualStyle
  2

 70
     6
 71
     1
 72
     2
 73
     2
 90
        0
 40
-0.6
 41
-30.0
 62
     5
 63
     7
 74
     2
 91
        2
 64
     7
 65
   257
 75
     2
175
     1
 42
40.0
 92
        0
 66
   257
 43
1.0
 76
     1
 77
     6
 78
     2
 67
     7
 79
     3
170
     0
171
     0
290
     0
174
     0
 93
        1
 44
0.0
173
     0
291
     0
 45
0.0
1001
ACAD
1000
AcDbSavedByObjectVersion
1070
     0
  0
VISUALSTYLE
  5
3F
102
{ACAD_XDICTIONARY
360
5D1
102
}
102
{ACAD_REACTORS
330
29
102
}
330
29
100
AcDbVisualStyle
  2

 70
    20
 71
     2
 72
     2
 73
     0
 90
        0
 40
-0.6
 41
-30.0
 62
     5
 63
     7
 74
     1
 91
        4
 64
     7
 65
   257
 75
     1
175
     1
 42
1.0
 92
       10
 66
     7
 43
1.0
 76
     1
 77
     6
 78
     2
 67
     7
 79
     5
170
     0
171
     0
290
     0
174
     0
 93
        1
 44
0.0
173
     0
291
     1
 45
0.0
1001
ACAD
1000
AcDbSavedByObjectVersion
1070
     0
  0
VISUALSTYLE
  5
37
102
{ACAD_XDICTIONARY
360
5C1
102
}
102
{ACAD_REACTORS
330
29
102
}
330
29
100
AcDbVisualStyle
  2

 70
    14
 71
     2
 72
     2
 73
     0
 90
        0
 40
-0.6
 41
-30.0
 62
     5
 63
     7
 74
     1
 91
        4
 64
     7
 65
   257
 75
     7
175
     7
 42
1.0
 92
        8
 66
     7
 43
1.0
 76
     1
 77
     6
 78
     2
 67
     7
 79
     5
170
     0
171
     0
290
     0
174
     0
 93
        1
 44
0.0
173
     0
291
     1
 45
0.0
1001
ACAD
1000
AcDbSavedByObjectVersion
1070
     0
  0
VISUALSTYLE
  5
40
102
{ACAD_XDICTIONARY
360
5D3
102
}
102
{ACAD_REACTORS
330
29
102
}
330
29
100
AcDbVisualStyle
  2

 70
    21
 71
     2
 72
     2
 73
     0
 90
        0
 40
-0.6
 41
-30.0
 62
     5
 63
     7
 74
     1
 91
        4
 64
     7
 65
   257
 75
     1
175
     1
 42
1.0
 92
        9
 66
     7
 43
1.0
 76
     1
 77
     6
 78
     2
 67
     7
 79
     5
170
     0
171
     0
290
     0
174
     0
 93
        1
 44
0.0
173
     0
291
     1
 45
0.0
1001
ACAD
1000
AcDbSavedByObjectVersion
1070
     0
  0
VISUALSTYLE
  5
33
102
{ACAD_XDICTIONARY
360
5B9
102
}
102
{ACAD_REACTORS
330
29
102
}
330
29
100
AcDbVisualStyle
  2

 70
     8
 71
     2
 72
     3
 73
     0
 90
        2
 40
-0.6
 41
30.0
 62
     5
 63
     7
 74
     0
 91
        0
 64
     7
 65
   257
 75
     1
175
     1
 42
1.0
 92
        8
 66
   257
 43
1.0
 76
     1
 77
     6
 78
     2
 67
     7
 79
     3
170
     0
171
     0
290
     0
174
     0
 93
       13
 44
0.0
173
     0
291
     0
 45
0.0
1001
ACAD
1000
AcDbSavedByObjectVersion
1070
     0
  0
VISUALSTYLE
  5
3E
102
{ACAD_XDICTIONARY
360
5CF
102
}
102
{ACAD_REACTORS
330
29
102
}
330
29
100
AcDbVisualStyle
  2

 70
    27
 71
     2
 72
     2
 73
     1
 90
        2
 40
-0.6
 41
30.0
 62
     5
 63
     7
 74
     0
 91
        4
 64
     7
 65
   257
 75
     1
175
     1
 42
1.0
 92
        8
 66
   257
 43
1.0
 76
     1
 77
     6
 78
     2
 67
     8
 79
     3
170
     0
171
     0
290
     0
174
     0
 93
        5
 44
0.0
173
     0
291
     0
 45
0.0
1001
ACAD
1000
AcDbSavedByObjectVersion
1070
     0
  0
VISUALSTYLE
  5
3D
102
{ACAD_XDICTIONARY
360
5CD
102
}
102
{ACAD_REACTORS
330
29
102
}
330
29
100
AcDbVisualStyle
  2

 70
    26
 71
     2
 72
     2
 73
     1
 90
        2
 40
-0.6
 41
30.0
 62
     5
 63
     7
 74
     1
 91
       10
 64
     7
 65
   257
 75
     2
175
     1
 42
1.0
 92
        8
 66
   257
 43
1.0
 76
     1
 77
     6
 78
     2
 67
     7
 79
     3
170
     0
171
     0
290
     0
174
     0
 93
        5
 44
0.0
173
     0
291
     0
 45
0.0
1001
ACAD
1000
AcDbSavedByObjectVersion
1070
     0
  0
VISUALSTYLE
  5
3A
102
{ACAD_XDICTIONARY
360
5C7
102
}
102
{ACAD_REACTORS
330
29
102
}
330
29
100
AcDbVisualStyle
  2

 70
    23
 71
     2
 72
     2
 73
     3
 90
        0
 40
-0.6
 41
-30.0
 62
     5
 63
     7
 74
     2
 91
        2
 64
     7
 65
     7
 75
     1
175
     1
 42
40.0
 92
        8
 66
     7
 43
1.0
 76
     1
 77
     6
 78
     2
 67
     7
 79
     3
170
     0
171
     0
290
     0
174
     0
 93
        1
 44
0.0
173
     0
291
     0
 45
0.0
1001
ACAD
1000
AcDbSavedByObjectVersion
1070
     0
  0
VISUALSTYLE
  5
3B
102
{ACAD_XDICTIONARY
360
5C9
102
}
102
{ACAD_REACTORS
330
29
102
}
330
29
100
AcDbVisualStyle
  2

 70
    24
 71
     1
 72
     2
 73
     2
 90
        0
 40
-0.6
 41
-30.0
 62
     5
 63
     7
 74
     2
 91
        2
 64
     7
 65
     7
 75
     1
175
     1
 42
40.0
 92
       11
 66
     7
 43
1.0
 76
     1
 77
     6
 78
     2
 67
     7
 79
     6
170
     0
171
     0
290
     0
174
     0
 93
        1
 44
0.0
173
     0
291
     0
 45
0.0
1001
ACAD
1000
AcDbSavedByObjectVersion
1070
     0
  0
VISUALSTYLE
  5
36
102
{ACAD_XDICTIONARY
360
5BF
102
}
102
{ACAD_REACTORS
330
29
102
}
330
29
100
AcDbVisualStyle
  2

 70
    13
 71
     2
 72
     2
 73
     0
 90
        0
 40
-0.6
 41
-30.0
 62
     5
 63
     7
 74
     1
 91
        4
 64
     7
 65
   257
 75
     1
175
     1
 42
1.0
 92
       12
 66
     7
 43
1.0
 76
     1
 77
     6
 78
     2
 67
     7
 79
     5
170
     0
171
     0
290
     0
174
     0
 93
        1
 44
0.0
173
     0
291
     1
 45
0.0
1001
ACAD
1000
AcDbSavedByObjectVersion
1070
     0
  0
VISUALSTYLE
  5
30
102
{ACAD_XDICTIONARY
360
5B3
102
}
102
{ACAD_REACTORS
330
29
102
}
330
29
100
AcDbVisualStyle
  2

 70
     5
 71
     0
 72
     2
 73
     0
 90
        0
 40
-0.6
 41
-30.0
 62
     5
 63
     7
 74
     1
 91
        4
 64
     7
 65
   257
 75
     1
175
     1
 42
1.0
 92
        0
 66
   257
 43
1.0
 76
     1
 77
     6
 78
     2
 67
     7
 79
     3
170
     0
171
     0
290
     0
174
     0
 93
        1
 44
0.0
173
     0
291
     0
 45
0.0
1001
ACAD
1000
AcDbSavedByObjectVersion
1070
     0
  0
VISUALSTYLE
  5
3C
102
{ACAD_XDICTIONARY
360
5CB
102
}
102
{ACAD_REACTORS
330
29
102
}
330
29
100
AcDbVisualStyle
  2

 70
    25
 71
     2
 72
     2
 73
     1
 90
        1
 40
0.5
 41
-30.0
 62
     5
 63
     7
 74
     1
 91
        0
 64
     7
 65
   257
 75
     1
175
     1
 42
1.0
 92
        8
 66
     7
 43
1.0
 76
     1
 77
     6
 78
     2
 67
     7
 79
     3
170
     0
171
     0
290
     0
174
     0
 93
       13
 44
0.0
173
     0
291
     0
 45
0.0
1001
ACAD
1000
AcDbSavedByObjectVersion
1070
     0
  0
DICTIONARYVAR
  5
54C
102
{ACAD_REACTORS
330
549
102
}
330
549
100
DictionaryVariables
280
     0
  1
0
  0
DICTIONARYVAR
  5
54D
102
{ACAD_REACTORS
330
549
102
}
330
549
100
DictionaryVariables
280
     0
  1
1:1
  0
DICTIONARYVAR
  5
54B
102
{ACAD_REACTORS
330
549
102
}
330
549
100
DictionaryVariables
280
     0
  1
STANDARD
  0
DICTIONARYVAR
  5
54A
102
{ACAD_REACTORS
330
549
102
}
330
549
100
DictionaryVariables
280
     0
  1
STANDARD
  0
DICTIONARYVAR
  5
5A1
102
{ACAD_REACTORS
330
549
102
}
330
549
100
DictionaryVariables
280
     0
  1
2
  0
DICTIONARYVAR
  5
59F
102
{ACAD_REACTORS
330
549
102
}
330
549
100
DictionaryVariables
280
     0
  1
1
  0
DICTIONARYVAR
  5
59E
102
{ACAD_REACTORS
330
549
102
}
330
549
100
DictionaryVariables
280
     0
  1
0
  0
DICTIONARYVAR
  5
54E
102
{ACAD_REACTORS
330
549
102
}
330
549
100
DictionaryVariables
280
     0
  1
1
  0
DICTIONARYVAR
  5
54F
102
{ACAD_REACTORS
330
549
102
}
330
549
100
DictionaryVariables
280
     0
  1
15
  0
DICTIONARYVAR
  5
55A
102
{ACAD_REACTORS
330
549
102
}
330
549
100
DictionaryVariables
280
     0
  1
2
  0
DICTIONARYVAR
  5
559
102
{ACAD_REACTORS
330
549
102
}
330
549
100
DictionaryVariables
280
     0
  1
1
  0
DICTIONARYVAR
  5
59D
102
{ACAD_REACTORS
330
549
102
}
330
549
100
DictionaryVariables
280
     0
  1
127
  0
DICTIONARYVAR
  5
5A0
102
{ACAD_REACTORS
330
549
102
}
330
549
100
DictionaryVariables
280
     0
  1
0
  0
DICTIONARY
  5
4A2
102
{ACAD_REACTORS
330
4A1
102
}
330
4A1
100
AcDbDictionary
281
     1
  0
DICTIONARY
  5
4A6
102
{ACAD_REACTORS
330
4A5
102
}
330
4A5
100
AcDbDictionary
281
     1
  0
DICTIONARY
  5
4AA
102
{ACAD_REACTORS
330
4A9
102
}
330
4A9
100
AcDbDictionary
281
     1
  0
DICTIONARY
  5
4AE
102
{ACAD_REACTORS
330
4AD
102
}
330
4AD
100
AcDbDictionary
281
     1
  0
DICTIONARY
  5
4B2
102
{ACAD_REACTORS
330
4B1
102
}
330
4B1
100
AcDbDictionary
281
     1
  0
DICTIONARY
  5
4B6
102
{ACAD_REACTORS
330
4B5
102
}
330
4B5
100
AcDbDictionary
281
     1
  0
DICTIONARY
  5
5DA
330
6F
100
AcDbDictionary
280
     1
281
     1
  3
ACAD_XREC_ROUNDTRIP
360
5DB
  0
DICTIONARY
  5
5D8
330
6B
100
AcDbDictionary
280
     1
281
     1
  3
ACAD_XREC_ROUNDTRIP
360
5D9
  0
DICTIONARY
  5
5DC
330
73
100
AcDbDictionary
280
     1
281
     1
  3
ACAD_XREC_ROUNDTRIP
360
5DD
  0
DICTIONARY
  5
1A
330
19
100
AcDbDictionary
280
     1
281
     1
  3
ACAD_XREC_ROUNDTRIP
360
562
  3
BUMPTILE
360
1C
  3
DIFFUSETILE
360
1B
  3
OPACITYTILE
360
1F
  3
REFLECTIONTILE
360
1E
  3
REFRACTIONTILE
360
20
  3
SPECULARTILE
360
1D
  0
DICTIONARY
  5
12
330
11
100
AcDbDictionary
280
     1
281
     1
  3
ACAD_XREC_ROUNDTRIP
360
561
  3
BUMPTILE
360
14
  3
DIFFUSETILE
360
13
  3
OPACITYTILE
360
17
  3
REFLECTIONTILE
360
16
  3
REFRACTIONTILE
360
18
  3
SPECULARTILE
360
15
  0
DICTIONARY
  5
22
330
21
100
AcDbDictionary
280
     1
281
     1
  3
ACAD_XREC_ROUNDTRIP
360
563
  3
BUMPTILE
360
24
  3
DIFFUSETILE
360
23
  3
OPACITYTILE
360
27
  3
REFLECTIONTILE
360
26
  3
REFRACTIONTILE
360
28
  3
SPECULARTILE
360
25
  0
DICTIONARY
  5
5A3
330
67
100
AcDbDictionary
280
     1
281
     1
  3
ACAD_XREC_ROUNDTRIP
360
5A4
  0
DICTIONARY
  5
55C
330
65
100
AcDbDictionary
280
     1
281
     1
  3
ACAD_ROUNDTRIP_2008_TABLESTYLE_CELLSTYLEMAP
360
5A2
  3
ACAD_XREC_ROUNDTRIP
360
5D7
  0
DICTIONARY
  5
5B1
330
2F
100
AcDbDictionary
280
     1
281
     1
  3
ACAD_XREC_ROUNDTRIP
360
5B2
  0
DICTIONARY
  5
5AF
330
2E
100
AcDbDictionary
280
     1
281
     1
  3
ACAD_XREC_ROUNDTRIP
360
5B0
  0
DICTIONARY
  5
5BD
330
35
100
AcDbDictionary
280
     1
281
     1
  3
ACAD_XREC_ROUNDTRIP
360
5BE
  0
DICTIONARY
  5
5C5
330
39
100
AcDbDictionary
280
     1
281
     1
  3
ACAD_XREC_ROUNDTRIP
360
5C6
  0
DICTIONARY
  5
5B7
330
32
100
AcDbDictionary
280
     1
281
     1
  3
ACAD_XREC_ROUNDTRIP
360
5B8
  0
DICTIONARY
  5
5BB
330
34
100
AcDbDictionary
280
     1
281
     1
  3
ACAD_XREC_ROUNDTRIP
360
5BC
  0
DICTIONARY
  5
5D5
330
41
100
AcDbDictionary
280
     1
281
     1
  3
ACAD_XREC_ROUNDTRIP
360
5D6
  0
DICTIONARY
  5
5C3
330
38
100
AcDbDictionary
280
     1
281
     1
  3
ACAD_XREC_ROUNDTRIP
360
5C4
  0
DICTIONARY
  5
5A7
330
2A
100
AcDbDictionary
280
     1
281
     1
  3
ACAD_XREC_ROUNDTRIP
360
5A8
  0
DICTIONARY
  5
5A9
330
2B
100
AcDbDictionary
280
     1
281
     1
  3
ACAD_XREC_ROUNDTRIP
360
5AA
  0
DICTIONARY
  5
5AB
330
2C
100
AcDbDictionary
280
     1
281
     1
  3
ACAD_XREC_ROUNDTRIP
360
5AC
  0
DICTIONARY
  5
5AD
330
2D
100
AcDbDictionary
280
     1
281
     1
  3
ACAD_XREC_ROUNDTRIP
360
5AE
  0
DICTIONARY
  5
5B5
330
31
100
AcDbDictionary
280
     1
281
     1
  3
ACAD_XREC_ROUNDTRIP
360
5B6
  0
DICTIONARY
  5
5D1
330
3F
100
AcDbDictionary
280
     1
281
     1
  3
ACAD_XREC_ROUNDTRIP
360
5D2
  0
DICTIONARY
  5
5C1
330
37
100
AcDbDictionary
280
     1
281
     1
  3
ACAD_XREC_ROUNDTRIP
360
5C2
  0
DICTIONARY
  5
5D3
330
40
100
AcDbDictionary
280
     1
281
     1
  3
ACAD_XREC_ROUNDTRIP
360
5D4
  0
DICTIONARY
  5
5B9
330
33
100
AcDbDictionary
280
     1
281
     1
  3
ACAD_XREC_ROUNDTRIP
360
5BA
  0
DICTIONARY
  5
5CF
330
3E
100
AcDbDictionary
280
     1
281
     1
  3
ACAD_XREC_ROUNDTRIP
360
5D0
  0
DICTIONARY
  5
5CD
330
3D
100
AcDbDictionary
280
     1
281
     1
  3
ACAD_XREC_ROUNDTRIP
360
5CE
  0
DICTIONARY
  5
5C7
330
3A
100
AcDbDictionary
280
     1
281
     1
  3
ACAD_XREC_ROUNDTRIP
360
5C8
  0
DICTIONARY
  5
5C9
330
3B
100
AcDbDictionary
280
     1
281
     1
  3
ACAD_XREC_ROUNDTRIP
360
5CA
  0
DICTIONARY
  5
5BF
330
36
100
AcDbDictionary
280
     1
281
     1
  3
ACAD_XREC_ROUNDTRIP
360
5C0
  0
DICTIONARY
  5
5B3
330
30
100
AcDbDictionary
280
     1
281
     1
  3
ACAD_XREC_ROUNDTRIP
360
5B4
  0
DICTIONARY
  5
5CB
330
3C
100
AcDbDictionary
280
     1
281
     1
  3
ACAD_XREC_ROUNDTRIP
360
5CC
  0
XRECORD
  5
5DB
102
{ACAD_REACTORS
330
5DA
102
}
330
5DA
100
AcDbXrecord
280
     1
102
SHADEPLOT
 70
     0
102
SHADEPLOTRESLEVEL
 70
     2
102
SHADEPLOTCUSTOMDPI
 70
   300
  0
XRECORD
  5
5D9
102
{ACAD_REACTORS
330
5D8
102
}
330
5D8
100
AcDbXrecord
280
     1
102
SHADEPLOT
 70
     0
102
SHADEPLOTRESLEVEL
 70
     2
102
SHADEPLOTCUSTOMDPI
 70
   300
  0
XRECORD
  5
5DD
102
{ACAD_REACTORS
330
5DC
102
}
330
5DC
100
AcDbXrecord
280
     1
102
SHADEPLOT
 70
     0
102
SHADEPLOTRESLEVEL
 70
     2
102
SHADEPLOTCUSTOMDPI
 70
   300
  0
XRECORD
  5
562
102
{ACAD_REACTORS
330
1A
102
}
330
1A
100
AcDbXrecord
280
     1
102
MATERIAL
148
0.0
149
0.0
149
0.0
 93
        0
 94
      127
282
     0
 72
     0
 77
     0
171
     0
175
     0
179
     0
273
     0
  0
XRECORD
  5
1C
102
{ACAD_REACTORS
330
1A
102
}
330
1A
100
AcDbXrecord
280
     1
270
     1
271
     1
  0
XRECORD
  5
1B
102
{ACAD_REACTORS
330
1A
102
}
330
1A
100
AcDbXrecord
280
     1
270
     1
271
     1
  0
XRECORD
  5
1F
102
{ACAD_REACTORS
330
1A
102
}
330
1A
100
AcDbXrecord
280
     1
270
     1
271
     1
  0
XRECORD
  5
1E
102
{ACAD_REACTORS
330
1A
102
}
330
1A
100
AcDbXrecord
280
     1
270
     1
271
     1
  0
XRECORD
  5
20
102
{ACAD_REACTORS
330
1A
102
}
330
1A
100
AcDbXrecord
280
     1
270
     1
271
     1
  0
XRECORD
  5
1D
102
{ACAD_REACTORS
330
1A
102
}
330
1A
100
AcDbXrecord
280
     1
270
     1
271
     1
  0
XRECORD
  5
561
102
{ACAD_REACTORS
330
12
102
}
330
12
100
AcDbXrecord
280
     1
102
MATERIAL
148
0.0
149
0.0
149
0.0
 93
        0
 94
      127
282
     0
 72
     0
 77
     0
171
     0
175
     0
179
     0
273
     0
  0
XRECORD
  5
14
102
{ACAD_REACTORS
330
12
102
}
330
12
100
AcDbXrecord
280
     1
270
     1
271
     1
  0
XRECORD
  5
13
102
{ACAD_REACTORS
330
12
102
}
330
12
100
AcDbXrecord
280
     1
270
     1
271
     1
  0
XRECORD
  5
17
102
{ACAD_REACTORS
330
12
102
}
330
12
100
AcDbXrecord
280
     1
270
     1
271
     1
  0
XRECORD
  5
16
102
{ACAD_REACTORS
330
12
102
}
330
12
100
AcDbXrecord
280
     1
270
     1
271
     1
  0
XRECORD
  5
18
102
{ACAD_REACTORS
330
12
102
}
330
12
100
AcDbXrecord
280
     1
270
     1
271
     1
  0
XRECORD
  5
15
102
{ACAD_REACTORS
330
12
102
}
330
12
100
AcDbXrecord
280
     1
270
     1
271
     1
  0
XRECORD
  5
563
102
{ACAD_REACTORS
330
22
102
}
330
22
100
AcDbXrecord
280
     1
102
MATERIAL
148
0.0
149
0.0
149
0.0
 93
        0
 94
      127
282
     0
 72
     0
 77
     0
171
     0
175
     0
179
     0
273
     0
  0
XRECORD
  5
24
102
{ACAD_REACTORS
330
22
102
}
330
22
100
AcDbXrecord
280
     1
270
     1
271
     1
  0
XRECORD
  5
23
102
{ACAD_REACTORS
330
22
102
}
330
22
100
AcDbXrecord
280
     1
270
     1
271
     1
  0
XRECORD
  5
27
102
{ACAD_REACTORS
330
22
102
}
330
22
100
AcDbXrecord
280
     1
270
     1
271
     1
  0
XRECORD
  5
26
102
{ACAD_REACTORS
330
22
102
}
330
22
100
AcDbXrecord
280
     1
270
     1
271
     1
  0
XRECORD
  5
28
102
{ACAD_REACTORS
330
22
102
}
330
22
100
AcDbXrecord
280
     1
270
     1
271
     1
  0
XRECORD
  5
25
102
{ACAD_REACTORS
330
22
102
}
330
22
100
AcDbXrecord
280
     1
270
     1
271
     1
  0
XRECORD
  5
5A4
102
{ACAD_REACTORS
330
5A3
102
}
330
5A3
100
AcDbXrecord
280
     1
102
ACAD_ROUNDTRIP_2012_MLEADER_STYLE
298
     1
  0
CELLSTYLEMAP
  5
5A2
102
{ACAD_REACTORS
330
55C
102
}
330
55C
100
AcDbCellStyleMap
 90
        3
300
CELLSTYLE
  1
TABLEFORMAT_BEGIN
 90
        5
170
     1
 91
        0
 92
    32768
 62
   257
 93
        1
300
CONTENTFORMAT
  1
CONTENTFORMAT_BEGIN
 90
        0
 91
        0
 92
      512
 93
        0
300

 40
0.0
140
1.0
 94
        5
 62
     0
340
55
144
6.0
309
CONTENTFORMAT_END
171
     1
301
MARGIN
  1
CELLMARGIN_BEGIN
 40
1.5
 40
1.5
 40
1.5
 40
1.5
 40
0.18
 40
0.18
309
CELLMARGIN_END
 94
        6
 95
        1
302
GRIDFORMAT
  1
GRIDFORMAT_BEGIN
 90
        0
 91
        1
 62
     0
 92
       -2
340
0
 93
        0
 40
1.125
309
GRIDFORMAT_END
 95
        2
302
GRIDFORMAT
  1
GRIDFORMAT_BEGIN
 90
        0
 91
        1
 62
     0
 92
       -2
340
0
 93
        0
 40
1.125
309
GRIDFORMAT_END
 95
        4
302
GRIDFORMAT
  1
GRIDFORMAT_BEGIN
 90
        0
 91
        1
 62
     0
 92
       -2
340
0
 93
        0
 40
1.125
309
GRIDFORMAT_END
 95
        8
302
GRIDFORMAT
  1
GRIDFORMAT_BEGIN
 90
        0
 91
        1
 62
     0
 92
       -2
340
0
 93
        0
 40
1.125
309
GRIDFORMAT_END
 95
       16
302
GRIDFORMAT
  1
GRIDFORMAT_BEGIN
 90
        0
 91
        1
 62
     0
 92
       -2
340
0
 93
        0
 40
1.125
309
GRIDFORMAT_END
 95
       32
302
GRIDFORMAT
  1
GRIDFORMAT_BEGIN
 90
        0
 91
        1
 62
     0
 92
       -2
340
0
 93
        0
 40
1.125
309
GRIDFORMAT_END
309
TABLEFORMAT_END
  1
CELLSTYLE_BEGIN
 90
        1
 91
        1
300
_TITLE
309
CELLSTYLE_END
300
CELLSTYLE
  1
TABLEFORMAT_BEGIN
 90
        5
170
     1
 91
        0
 92
        0
 62
   257
 93
        1
300
CONTENTFORMAT
  1
CONTENTFORMAT_BEGIN
 90
        0
 91
        0
 92
      512
 93
        0
300

 40
0.0
140
1.0
 94
        5
 62
     0
340
55
144
4.5
309
CONTENTFORMAT_END
171
     1
301
MARGIN
  1
CELLMARGIN_BEGIN
 40
1.5
 40
1.5
 40
1.5
 40
1.5
 40
0.18
 40
0.18
309
CELLMARGIN_END
 94
        6
 95
        1
302
GRIDFORMAT
  1
GRIDFORMAT_BEGIN
 90
        0
 91
        1
 62
     0
 92
       -2
340
0
 93
        0
 40
1.125
309
GRIDFORMAT_END
 95
        2
302
GRIDFORMAT
  1
GRIDFORMAT_BEGIN
 90
        0
 91
        1
 62
     0
 92
       -2
340
0
 93
        0
 40
1.125
309
GRIDFORMAT_END
 95
        4
302
GRIDFORMAT
  1
GRIDFORMAT_BEGIN
 90
        0
 91
        1
 62
     0
 92
       -2
340
0
 93
        0
 40
1.125
309
GRIDFORMAT_END
 95
        8
302
GRIDFORMAT
  1
GRIDFORMAT_BEGIN
 90
        0
 91
        1
 62
     0
 92
       -2
340
0
 93
        0
 40
1.125
309
GRIDFORMAT_END
 95
       16
302
GRIDFORMAT
  1
GRIDFORMAT_BEGIN
 90
        0
 91
        1
 62
     0
 92
       -2
340
0
 93
        0
 40
1.125
309
GRIDFORMAT_END
 95
       32
302
GRIDFORMAT
  1
GRIDFORMAT_BEGIN
 90
        0
 91
        1
 62
     0
 92
       -2
340
0
 93
        0
 40
1.125
309
GRIDFORMAT_END
309
TABLEFORMAT_END
  1
CELLSTYLE_BEGIN
 90
        2
 91
        1
300
_HEADER
309
CELLSTYLE_END
300
CELLSTYLE
  1
TABLEFORMAT_BEGIN
 90
        5
170
     1
 91
        0
 92
        0
 62
   257
 93
        1
300
CONTENTFORMAT
  1
CONTENTFORMAT_BEGIN
 90
        0
 91
        0
 92
      512
 93
        0
300

 40
0.0
140
1.0
 94
        2
 62
     0
340
55
144
4.5
309
CONTENTFORMAT_END
171
     1
301
MARGIN
  1
CELLMARGIN_BEGIN
 40
1.5
 40
1.5
 40
1.5
 40
1.5
 40
0.18
 40
0.18
309
CELLMARGIN_END
 94
        6
 95
        1
302
GRIDFORMAT
  1
GRIDFORMAT_BEGIN
 90
        0
 91
        1
 62
     0
 92
       -2
340
0
 93
        0
 40
1.125
309
GRIDFORMAT_END
 95
        2
302
GRIDFORMAT
  1
GRIDFORMAT_BEGIN
 90
        0
 91
        1
 62
     0
 92
       -2
340
0
 93
        0
 40
1.125
309
GRIDFORMAT_END
 95
        4
302
GRIDFORMAT
  1
GRIDFORMAT_BEGIN
 90
        0
 91
        1
 62
     0
 92
       -2
340
0
 93
        0
 40
1.125
309
GRIDFORMAT_END
 95
        8
302
GRIDFORMAT
  1
GRIDFORMAT_BEGIN
 90
        0
 91
        1
 62
     0
 92
       -2
340
0
 93
        0
 40
1.125
309
GRIDFORMAT_END
 95
       16
302
GRIDFORMAT
  1
GRIDFORMAT_BEGIN
 90
        0
 91
        1
 62
     0
 92
       -2
340
0
 93
        0
 40
1.125
309
GRIDFORMAT_END
 95
       32
302
GRIDFORMAT
  1
GRIDFORMAT_BEGIN
 90
        0
 91
        1
 62
     0
 92
       -2
340
0
 93
        0
 40
1.125
309
GRIDFORMAT_END
309
TABLEFORMAT_END
  1
CELLSTYLE_BEGIN
 90
        3
 91
        2
300
_DATA
309
CELLSTYLE_END
  0
XRECORD
  5
5D7
102
{ACAD_REACTORS
330
55C
102
}
330
55C
100
AcDbXrecord
280
     1
102
ACAD_ROUNDTRIP_PRE2007_TABLESTYLE
 90
      512
 91
        0
  1

 92
      512
 93
        0
  2

 94
      512
 95
        0
  3

  0
XRECORD
  5
5B2
102
{ACAD_REACTORS
330
5B1
102
}
330
5B1
100
AcDbXrecord
280
     1
102
RTVSPropertyOp0
 70
     1
102
RTVSPropertyOp1
 70
     1
102
RTVSPropertyOp2
 70
     1
102
RTVSPropertyOp3
 70
     1
102
RTVSPropertyOp4
 70
     1
102
RTVSPropertyOp5
 70
     1
102
RTVSPropertyOp6
 70
     1
102
RTVSPropertyOp7
 70
     1
102
RTVSPropertyOp8
 70
     1
102
RTVSPropertyOp9
 70
     1
102
RTVSPropertyOp10
 70
     1
102
RTVSPropertyOp11
 70
     1
102
RTVSPropertyOp12
 70
     1
102
RTVSPropertyOp13
 70
     1
102
RTVSPropertyOp14
 70
     1
102
RTVSPropertyOp15
 70
     1
102
RTVSPropertyOp16
 70
     1
102
RTVSPropertyOp17
 70
     1
102
RTVSPropertyOp18
 70
     1
102
RTVSPropertyOp19
 70
     1
102
RTVSPropertyOp20
 70
     1
102
RTVSPropertyOp21
 70
     1
102
RTVSPropertyOp22
 70
     1
102
RTVSPropertyOp23
 70
     1
102
RTVSPropertyOp24
 70
     1
102
RTVSPropertyOp25
 70
     1
102
RTVSPropertyOp26
 70
     1
102
RTVSPropertyOp27
 70
     1
102
RTVSPropertyOp28
 70
     1
102
RTVSPropertyOp29
 70
     1
102
RTVSPropertyOp30
 70
     1
102
RTVSPropertyOp31
 70
     1
102
RTVSPropertyOp32
 70
     1
  0
XRECORD
  5
5B0
102
{ACAD_REACTORS
330
5AF
102
}
330
5AF
100
AcDbXrecord
280
     1
102
RTVSPropertyOp0
 70
     1
102
RTVSPropertyOp1
 70
     1
102
RTVSPropertyOp2
 70
     1
102
RTVSPropertyOp3
 70
     1
102
RTVSPropertyOp4
 70
     1
102
RTVSPropertyOp5
 70
     1
102
RTVSPropertyOp6
 70
     1
102
RTVSPropertyOp7
 70
     1
102
RTVSPropertyOp8
 70
     1
102
RTVSPropertyOp9
 70
     1
102
RTVSPropertyOp10
 70
     1
102
RTVSPropertyOp11
 70
     1
102
RTVSPropertyOp12
 70
     1
102
RTVSPropertyOp13
 70
     1
102
RTVSPropertyOp14
 70
     1
102
RTVSPropertyOp15
 70
     1
102
RTVSPropertyOp16
 70
     1
102
RTVSPropertyOp17
 70
     1
102
RTVSPropertyOp18
 70
     1
102
RTVSPropertyOp19
 70
     1
102
RTVSPropertyOp20
 70
     1
102
RTVSPropertyOp21
 70
     1
102
RTVSPropertyOp22
 70
     1
102
RTVSPropertyOp23
 70
     1
102
RTVSPropertyOp24
 70
     1
102
RTVSPropertyOp25
 70
     1
102
RTVSPropertyOp26
 70
     1
102
RTVSPropertyOp27
 70
     1
102
RTVSPropertyOp28
 70
     1
102
RTVSPropertyOp29
 70
     1
102
RTVSPropertyOp30
 70
     1
102
RTVSPropertyOp31
 70
     1
102
RTVSPropertyOp32
 70
     1
  0
XRECORD
  5
5BE
102
{ACAD_REACTORS
330
5BD
102
}
330
5BD
100
AcDbXrecord
280
     1
102
RTVSPropertyOp0
 70
     1
102
RTVSPropertyOp1
 70
     1
102
RTVSPropertyOp2
 70
     1
102
RTVSPropertyOp3
 70
     1
102
RTVSPropertyOp4
 70
     1
102
RTVSPropertyOp5
 70
     1
102
RTVSPropertyOp6
 70
     1
102
RTVSPropertyOp7
 70
     1
102
RTVSPropertyOp8
 70
     1
102
RTVSPropertyOp9
 70
     1
102
RTVSPropertyOp10
 70
     1
102
RTVSPropertyOp11
 70
     1
102
RTVSPropertyOp12
 70
     1
102
RTVSPropertyOp13
 70
     1
102
RTVSPropertyOp14
 70
     1
102
RTVSPropertyOp15
 70
     1
102
RTVSPropertyOp16
 70
     1
102
RTVSPropertyOp17
 70
     1
102
RTVSPropertyOp18
 70
     1
102
RTVSPropertyOp19
 70
     1
102
RTVSPropertyOp20
 70
     1
102
RTVSPropertyOp21
 70
     1
102
RTVSPropertyOp22
 70
     1
102
RTVSPropertyOp23
 70
     1
102
RTVSPropertyOp24
 70
     1
102
RTVSPropertyOp25
 70
     1
102
RTVSPropertyOp26
 70
     1
102
RTVSPropertyOp27
 70
     1
102
RTVSPropertyOp28
 70
     1
102
RTVSPropertyOp29
 70
     1
102
RTVSPropertyOp30
 70
     1
102
RTVSPropertyOp31
 70
     1
102
RTVSPropertyOp32
 70
     1
  0
XRECORD
  5
5C6
102
{ACAD_REACTORS
330
5C5
102
}
330
5C5
100
AcDbXrecord
280
     1
102
RTVSPropertyOp0
 70
     1
102
RTVSPropertyOp1
 70
     1
102
RTVSPropertyOp2
 70
     1
102
RTVSPropertyOp3
 70
     1
102
RTVSPropertyOp4
 70
     1
102
RTVSPropertyOp5
 70
     1
102
RTVSPropertyOp6
 70
     1
102
RTVSPropertyOp7
 70
     1
102
RTVSPropertyOp8
 70
     1
102
RTVSPropertyOp9
 70
     1
102
RTVSPropertyOp10
 70
     1
102
RTVSPropertyOp11
 70
     1
102
RTVSPropertyOp12
 70
     1
102
RTVSPropertyOp13
 70
     1
102
RTVSPropertyOp14
 70
     1
102
RTVSPropertyOp15
 70
     1
102
RTVSPropertyOp16
 70
     1
102
RTVSPropertyOp17
 70
     1
102
RTVSPropertyOp18
 70
     1
102
RTVSPropertyOp19
 70
     1
102
RTVSPropertyOp20
 70
     1
102
RTVSPropertyOp21
 70
     1
102
RTVSPropertyOp22
 70
     1
102
RTVSPropertyOp23
 70
     1
102
RTVSPropertyOp24
 70
     1
102
RTVSPropertyOp25
 70
     1
102
RTVSPropertyOp26
 70
     1
102
RTVSPropertyOp27
 70
     1
102
RTVSPropertyOp28
 70
     1
102
RTVSPropertyOp29
 70
     1
102
RTVSPropertyOp30
 70
     1
102
RTVSPropertyOp31
 70
     1
102
RTVSPropertyOp32
 70
     1
  0
XRECORD
  5
5B8
102
{ACAD_REACTORS
330
5B7
102
}
330
5B7
100
AcDbXrecord
280
     1
102
RTVSPropertyOp0
 70
     1
102
RTVSPropertyOp1
 70
     1
102
RTVSPropertyOp2
 70
     1
102
RTVSPropertyOp3
 70
     1
102
RTVSPropertyOp4
 70
     1
102
RTVSPropertyOp5
 70
     1
102
RTVSPropertyOp6
 70
     1
102
RTVSPropertyOp7
 70
     1
102
RTVSPropertyOp8
 70
     1
102
RTVSPropertyOp9
 70
     1
102
RTVSPropertyOp10
 70
     1
102
RTVSPropertyOp11
 70
     1
102
RTVSPropertyOp12
 70
     1
102
RTVSPropertyOp13
 70
     1
102
RTVSPropertyOp14
 70
     1
102
RTVSPropertyOp15
 70
     1
102
RTVSPropertyOp16
 70
     1
102
RTVSPropertyOp17
 70
     1
102
RTVSPropertyOp18
 70
     1
102
RTVSPropertyOp19
 70
     1
102
RTVSPropertyOp20
 70
     1
102
RTVSPropertyOp21
 70
     1
102
RTVSPropertyOp22
 70
     1
102
RTVSPropertyOp23
 70
     1
102
RTVSPropertyOp24
 70
     1
102
RTVSPropertyOp25
 70
     1
102
RTVSPropertyOp26
 70
     1
102
RTVSPropertyOp27
 70
     1
102
RTVSPropertyOp28
 70
     1
102
RTVSPropertyOp29
 70
     1
102
RTVSPropertyOp30
 70
     1
102
RTVSPropertyOp31
 70
     1
102
RTVSPropertyOp32
 70
     1
  0
XRECORD
  5
5BC
102
{ACAD_REACTORS
330
5BB
102
}
330
5BB
100
AcDbXrecord
280
     1
102
RTVSPropertyOp0
 70
     1
102
RTVSPropertyOp1
 70
     1
102
RTVSPropertyOp2
 70
     1
102
RTVSPropertyOp3
 70
     1
102
RTVSPropertyOp4
 70
     1
102
RTVSPropertyOp5
 70
     1
102
RTVSPropertyOp6
 70
     1
102
RTVSPropertyOp7
 70
     1
102
RTVSPropertyOp8
 70
     1
102
RTVSPropertyOp9
 70
     1
102
RTVSPropertyOp10
 70
     1
102
RTVSPropertyOp11
 70
     1
102
RTVSPropertyOp12
 70
     1
102
RTVSPropertyOp13
 70
     1
102
RTVSPropertyOp14
 70
     1
102
RTVSPropertyOp15
 70
     1
102
RTVSPropertyOp16
 70
     1
102
RTVSPropertyOp17
 70
     1
102
RTVSPropertyOp18
 70
     1
102
RTVSPropertyOp19
 70
     1
102
RTVSPropertyOp20
 70
     1
102
RTVSPropertyOp21
 70
     1
102
RTVSPropertyOp22
 70
     1
102
RTVSPropertyOp23
 70
     1
102
RTVSPropertyOp24
 70
     1
102
RTVSPropertyOp25
 70
     1
102
RTVSPropertyOp26
 70
     1
102
RTVSPropertyOp27
 70
     1
102
RTVSPropertyOp28
 70
     1
102
RTVSPropertyOp29
 70
     1
102
RTVSPropertyOp30
 70
     1
102
RTVSPropertyOp31
 70
     1
102
RTVSPropertyOp32
 70
     1
  0
XRECORD
  5
5D6
102
{ACAD_REACTORS
330
5D5
102
}
330
5D5
100
AcDbXrecord
280
     1
102
RTVSPropertyOp0
 70
     0
102
RTVSPropertyOp1
 70
     0
102
RTVSPropertyOp2
 70
     0
102
RTVSPropertyOp3
 70
     0
102
RTVSPropertyOp4
 70
     0
102
RTVSPropertyOp5
 70
     0
102
RTVSPropertyOp6
 70
     0
102
RTVSPropertyOp7
 70
     0
102
RTVSPropertyOp8
 70
     0
102
RTVSPropertyOp9
 70
     0
102
RTVSPropertyOp10
 70
     0
102
RTVSPropertyOp11
 70
     0
102
RTVSPropertyOp12
 70
     0
102
RTVSPropertyOp13
 70
     0
102
RTVSPropertyOp14
 70
     2
102
RTVSPropertyOp15
 70
     0
102
RTVSPropertyOp16
 70
     0
102
RTVSPropertyOp17
 70
     0
102
RTVSPropertyOp18
 70
     0
102
RTVSPropertyOp19
 70
     0
102
RTVSPropertyOp20
 70
     0
102
RTVSPropertyOp21
 70
     0
102
RTVSPropertyOp22
 70
     0
102
RTVSPropertyOp23
 70
     0
102
RTVSPropertyOp24
 70
     0
102
RTVSPropertyOp25
 70
     0
102
RTVSPropertyOp26
 70
     0
102
RTVSPropertyOp27
 70
     0
102
RTVSPropertyOp28
 70
     1
102
RTVSPropertyOp29
 70
     1
102
RTVSPropertyOp30
 70
     1
102
RTVSPropertyOp31
 70
     1
102
RTVSPropertyOp32
 70
     1
  0
XRECORD
  5
5C4
102
{ACAD_REACTORS
330
5C3
102
}
330
5C3
100
AcDbXrecord
280
     1
102
RTVSPropertyOp0
 70
     1
102
RTVSPropertyOp1
 70
     1
102
RTVSPropertyOp2
 70
     1
102
RTVSPropertyOp3
 70
     1
102
RTVSPropertyOp4
 70
     1
102
RTVSPropertyOp5
 70
     1
102
RTVSPropertyOp6
 70
     1
102
RTVSPropertyOp7
 70
     1
102
RTVSPropertyOp8
 70
     1
102
RTVSPropertyOp9
 70
     1
102
RTVSPropertyOp10
 70
     1
102
RTVSPropertyOp11
 70
     1
102
RTVSPropertyOp12
 70
     1
102
RTVSPropertyOp13
 70
     1
102
RTVSPropertyOp14
 70
     1
102
RTVSPropertyOp15
 70
     1
102
RTVSPropertyOp16
 70
     1
102
RTVSPropertyOp17
 70
     1
102
RTVSPropertyOp18
 70
     1
102
RTVSPropertyOp19
 70
     1
102
RTVSPropertyOp20
 70
     1
102
RTVSPropertyOp21
 70
     1
102
RTVSPropertyOp22
 70
     1
102
RTVSPropertyOp23
 70
     1
102
RTVSPropertyOp24
 70
     1
102
RTVSPropertyOp25
 70
     1
102
RTVSPropertyOp26
 70
     1
102
RTVSPropertyOp27
 70
     1
102
RTVSPropertyOp28
 70
     1
102
RTVSPropertyOp29
 70
     1
102
RTVSPropertyOp30
 70
     1
102
RTVSPropertyOp31
 70
     1
102
RTVSPropertyOp32
 70
     1
  0
XRECORD
  5
5A8
102
{ACAD_REACTORS
330
5A7
102
}
330
5A7
100
AcDbXrecord
280
     1
102
RTVSPropertyOp0
 70
     1
102
RTVSPropertyOp1
 70
     1
102
RTVSPropertyOp2
 70
     1
102
RTVSPropertyOp3
 70
     1
102
RTVSPropertyOp4
 70
     1
102
RTVSPropertyOp5
 70
     1
102
RTVSPropertyOp6
 70
     1
102
RTVSPropertyOp7
 70
     1
102
RTVSPropertyOp8
 70
     1
102
RTVSPropertyOp9
 70
     1
102
RTVSPropertyOp10
 70
     1
102
RTVSPropertyOp11
 70
     1
102
RTVSPropertyOp12
 70
     1
102
RTVSPropertyOp13
 70
     1
102
RTVSPropertyOp14
 70
     1
102
RTVSPropertyOp15
 70
     1
102
RTVSPropertyOp16
 70
     1
102
RTVSPropertyOp17
 70
     1
102
RTVSPropertyOp18
 70
     1
102
RTVSPropertyOp19
 70
     1
102
RTVSPropertyOp20
 70
     1
102
RTVSPropertyOp21
 70
     1
102
RTVSPropertyOp22
 70
     1
102
RTVSPropertyOp23
 70
     1
102
RTVSPropertyOp24
 70
     1
102
RTVSPropertyOp25
 70
     1
102
RTVSPropertyOp26
 70
     1
102
RTVSPropertyOp27
 70
     1
102
RTVSPropertyOp28
 70
     1
102
RTVSPropertyOp29
 70
     1
102
RTVSPropertyOp30
 70
     1
102
RTVSPropertyOp31
 70
     1
102
RTVSPropertyOp32
 70
     1
  0
XRECORD
  5
5AA
102
{ACAD_REACTORS
330
5A9
102
}
330
5A9
100
AcDbXrecord
280
     1
102
RTVSPropertyOp0
 70
     1
102
RTVSPropertyOp1
 70
     1
102
RTVSPropertyOp2
 70
     1
102
RTVSPropertyOp3
 70
     1
102
RTVSPropertyOp4
 70
     1
102
RTVSPropertyOp5
 70
     1
102
RTVSPropertyOp6
 70
     1
102
RTVSPropertyOp7
 70
     1
102
RTVSPropertyOp8
 70
     1
102
RTVSPropertyOp9
 70
     1
102
RTVSPropertyOp10
 70
     1
102
RTVSPropertyOp11
 70
     1
102
RTVSPropertyOp12
 70
     1
102
RTVSPropertyOp13
 70
     1
102
RTVSPropertyOp14
 70
     1
102
RTVSPropertyOp15
 70
     1
102
RTVSPropertyOp16
 70
     1
102
RTVSPropertyOp17
 70
     1
102
RTVSPropertyOp18
 70
     1
102
RTVSPropertyOp19
 70
     1
102
RTVSPropertyOp20
 70
     1
102
RTVSPropertyOp21
 70
     1
102
RTVSPropertyOp22
 70
     1
102
RTVSPropertyOp23
 70
     1
102
RTVSPropertyOp24
 70
     1
102
RTVSPropertyOp25
 70
     1
102
RTVSPropertyOp26
 70
     1
102
RTVSPropertyOp27
 70
     1
102
RTVSPropertyOp28
 70
     1
102
RTVSPropertyOp29
 70
     1
102
RTVSPropertyOp30
 70
     1
102
RTVSPropertyOp31
 70
     1
102
RTVSPropertyOp32
 70
     1
  0
XRECORD
  5
5AC
102
{ACAD_REACTORS
330
5AB
102
}
330
5AB
100
AcDbXrecord
280
     1
102
RTVSPropertyOp0
 70
     1
102
RTVSPropertyOp1
 70
     1
102
RTVSPropertyOp2
 70
     1
102
RTVSPropertyOp3
 70
     1
102
RTVSPropertyOp4
 70
     1
102
RTVSPropertyOp5
 70
     1
102
RTVSPropertyOp6
 70
     1
102
RTVSPropertyOp7
 70
     1
102
RTVSPropertyOp8
 70
     1
102
RTVSPropertyOp9
 70
     1
102
RTVSPropertyOp10
 70
     1
102
RTVSPropertyOp11
 70
     1
102
RTVSPropertyOp12
 70
     1
102
RTVSPropertyOp13
 70
     1
102
RTVSPropertyOp14
 70
     1
102
RTVSPropertyOp15
 70
     1
102
RTVSPropertyOp16
 70
     1
102
RTVSPropertyOp17
 70
     1
102
RTVSPropertyOp18
 70
     1
102
RTVSPropertyOp19
 70
     1
102
RTVSPropertyOp20
 70
     1
102
RTVSPropertyOp21
 70
     1
102
RTVSPropertyOp22
 70
     1
102
RTVSPropertyOp23
 70
     1
102
RTVSPropertyOp24
 70
     1
102
RTVSPropertyOp25
 70
     1
102
RTVSPropertyOp26
 70
     1
102
RTVSPropertyOp27
 70
     1
102
RTVSPropertyOp28
 70
     1
102
RTVSPropertyOp29
 70
     1
102
RTVSPropertyOp30
 70
     1
102
RTVSPropertyOp31
 70
     1
102
RTVSPropertyOp32
 70
     1
  0
XRECORD
  5
5AE
102
{ACAD_REACTORS
330
5AD
102
}
330
5AD
100
AcDbXrecord
280
     1
102
RTVSPropertyOp0
 70
     1
102
RTVSPropertyOp1
 70
     1
102
RTVSPropertyOp2
 70
     1
102
RTVSPropertyOp3
 70
     1
102
RTVSPropertyOp4
 70
     1
102
RTVSPropertyOp5
 70
     1
102
RTVSPropertyOp6
 70
     1
102
RTVSPropertyOp7
 70
     1
102
RTVSPropertyOp8
 70
     1
102
RTVSPropertyOp9
 70
     1
102
RTVSPropertyOp10
 70
     1
102
RTVSPropertyOp11
 70
     1
102
RTVSPropertyOp12
 70
     1
102
RTVSPropertyOp13
 70
     1
102
RTVSPropertyOp14
 70
     1
102
RTVSPropertyOp15
 70
     1
102
RTVSPropertyOp16
 70
     1
102
RTVSPropertyOp17
 70
     1
102
RTVSPropertyOp18
 70
     1
102
RTVSPropertyOp19
 70
     1
102
RTVSPropertyOp20
 70
     1
102
RTVSPropertyOp21
 70
     1
102
RTVSPropertyOp22
 70
     1
102
RTVSPropertyOp23
 70
     1
102
RTVSPropertyOp24
 70
     1
102
RTVSPropertyOp25
 70
     1
102
RTVSPropertyOp26
 70
     1
102
RTVSPropertyOp27
 70
     1
102
RTVSPropertyOp28
 70
     1
102
RTVSPropertyOp29
 70
     1
102
RTVSPropertyOp30
 70
     1
102
RTVSPropertyOp31
 70
     1
102
RTVSPropertyOp32
 70
     1
  0
XRECORD
  5
5B6
102
{ACAD_REACTORS
330
5B5
102
}
330
5B5
100
AcDbXrecord
280
     1
102
RTVSPropertyOp0
 70
     1
102
RTVSPropertyOp1
 70
     1
102
RTVSPropertyOp2
 70
     1
102
RTVSPropertyOp3
 70
     1
102
RTVSPropertyOp4
 70
     1
102
RTVSPropertyOp5
 70
     1
102
RTVSPropertyOp6
 70
     1
102
RTVSPropertyOp7
 70
     1
102
RTVSPropertyOp8
 70
     1
102
RTVSPropertyOp9
 70
     1
102
RTVSPropertyOp10
 70
     1
102
RTVSPropertyOp11
 70
     1
102
RTVSPropertyOp12
 70
     1
102
RTVSPropertyOp13
 70
     1
102
RTVSPropertyOp14
 70
     1
102
RTVSPropertyOp15
 70
     1
102
RTVSPropertyOp16
 70
     1
102
RTVSPropertyOp17
 70
     1
102
RTVSPropertyOp18
 70
     1
102
RTVSPropertyOp19
 70
     1
102
RTVSPropertyOp20
 70
     1
102
RTVSPropertyOp21
 70
     1
102
RTVSPropertyOp22
 70
     1
102
RTVSPropertyOp23
 70
     1
102
RTVSPropertyOp24
 70
     1
102
RTVSPropertyOp25
 70
     1
102
RTVSPropertyOp26
 70
     1
102
RTVSPropertyOp27
 70
     1
102
RTVSPropertyOp28
 70
     1
102
RTVSPropertyOp29
 70
     1
102
RTVSPropertyOp30
 70
     1
102
RTVSPropertyOp31
 70
     1
102
RTVSPropertyOp32
 70
     1
  0
XRECORD
  5
5D2
102
{ACAD_REACTORS
330
5D1
102
}
330
5D1
100
AcDbXrecord
280
     1
102
RTVSPropertyOp0
 70
     0
102
RTVSPropertyOp1
 70
     0
102
RTVSPropertyOp2
 70
     0
102
RTVSPropertyOp3
 70
     0
102
RTVSPropertyOp4
 70
     0
102
RTVSPropertyOp5
 70
     0
102
RTVSPropertyOp6
 70
     0
102
RTVSPropertyOp7
 70
     0
102
RTVSPropertyOp8
 70
     0
102
RTVSPropertyOp9
 70
     0
102
RTVSPropertyOp10
 70
     0
102
RTVSPropertyOp11
 70
     0
102
RTVSPropertyOp12
 70
     0
102
RTVSPropertyOp13
 70
     0
102
RTVSPropertyOp14
 70
     2
102
RTVSPropertyOp15
 70
     0
102
RTVSPropertyOp16
 70
     0
102
RTVSPropertyOp17
 70
     0
102
RTVSPropertyOp18
 70
     0
102
RTVSPropertyOp19
 70
     0
102
RTVSPropertyOp20
 70
     0
102
RTVSPropertyOp21
 70
     0
102
RTVSPropertyOp22
 70
     0
102
RTVSPropertyOp23
 70
     0
102
RTVSPropertyOp24
 70
     0
102
RTVSPropertyOp25
 70
     0
102
RTVSPropertyOp26
 70
     0
102
RTVSPropertyOp27
 70
     0
102
RTVSPropertyOp28
 70
     1
102
RTVSPropertyOp29
 70
     1
102
RTVSPropertyOp30
 70
     1
102
RTVSPropertyOp31
 70
     1
102
RTVSPropertyOp32
 70
     1
  0
XRECORD
  5
5C2
102
{ACAD_REACTORS
330
5C1
102
}
330
5C1
100
AcDbXrecord
280
     1
102
RTVSPropertyOp0
 70
     1
102
RTVSPropertyOp1
 70
     1
102
RTVSPropertyOp2
 70
     1
102
RTVSPropertyOp3
 70
     1
102
RTVSPropertyOp4
 70
     1
102
RTVSPropertyOp5
 70
     1
102
RTVSPropertyOp6
 70
     1
102
RTVSPropertyOp7
 70
     1
102
RTVSPropertyOp8
 70
     1
102
RTVSPropertyOp9
 70
     1
102
RTVSPropertyOp10
 70
     1
102
RTVSPropertyOp11
 70
     1
102
RTVSPropertyOp12
 70
     1
102
RTVSPropertyOp13
 70
     1
102
RTVSPropertyOp14
 70
     1
102
RTVSPropertyOp15
 70
     1
102
RTVSPropertyOp16
 70
     1
102
RTVSPropertyOp17
 70
     1
102
RTVSPropertyOp18
 70
     1
102
RTVSPropertyOp19
 70
     1
102
RTVSPropertyOp20
 70
     1
102
RTVSPropertyOp21
 70
     1
102
RTVSPropertyOp22
 70
     1
102
RTVSPropertyOp23
 70
     1
102
RTVSPropertyOp24
 70
     1
102
RTVSPropertyOp25
 70
     1
102
RTVSPropertyOp26
 70
     1
102
RTVSPropertyOp27
 70
     1
102
RTVSPropertyOp28
 70
     1
102
RTVSPropertyOp29
 70
     1
102
RTVSPropertyOp30
 70
     1
102
RTVSPropertyOp31
 70
     1
102
RTVSPropertyOp32
 70
     1
  0
XRECORD
  5
5D4
102
{ACAD_REACTORS
330
5D3
102
}
330
5D3
100
AcDbXrecord
280
     1
102
RTVSPropertyOp0
 70
     0
102
RTVSPropertyOp1
 70
     0
102
RTVSPropertyOp2
 70
     0
102
RTVSPropertyOp3
 70
     0
102
RTVSPropertyOp4
 70
     0
102
RTVSPropertyOp5
 70
     0
102
RTVSPropertyOp6
 70
     0
102
RTVSPropertyOp7
 70
     0
102
RTVSPropertyOp8
 70
     0
102
RTVSPropertyOp9
 70
     0
102
RTVSPropertyOp10
 70
     0
102
RTVSPropertyOp11
 70
     0
102
RTVSPropertyOp12
 70
     0
102
RTVSPropertyOp13
 70
     0
102
RTVSPropertyOp14
 70
     2
102
RTVSPropertyOp15
 70
     0
102
RTVSPropertyOp16
 70
     0
102
RTVSPropertyOp17
 70
     0
102
RTVSPropertyOp18
 70
     0
102
RTVSPropertyOp19
 70
     0
102
RTVSPropertyOp20
 70
     0
102
RTVSPropertyOp21
 70
     0
102
RTVSPropertyOp22
 70
     0
102
RTVSPropertyOp23
 70
     0
102
RTVSPropertyOp24
 70
     0
102
RTVSPropertyOp25
 70
     0
102
RTVSPropertyOp26
 70
     0
102
RTVSPropertyOp27
 70
     0
102
RTVSPropertyOp28
 70
     1
102
RTVSPropertyOp29
 70
     1
102
RTVSPropertyOp30
 70
     1
102
RTVSPropertyOp31
 70
     1
102
RTVSPropertyOp32
 70
     1
  0
XRECORD
  5
5BA
102
{ACAD_REACTORS
330
5B9
102
}
330
5B9
100
AcDbXrecord
280
     1
102
RTVSPropertyOp0
 70
     1
102
RTVSPropertyOp1
 70
     1
102
RTVSPropertyOp2
 70
     1
102
RTVSPropertyOp3
 70
     1
102
RTVSPropertyOp4
 70
     1
102
RTVSPropertyOp5
 70
     1
102
RTVSPropertyOp6
 70
     1
102
RTVSPropertyOp7
 70
     1
102
RTVSPropertyOp8
 70
     1
102
RTVSPropertyOp9
 70
     1
102
RTVSPropertyOp10
 70
     1
102
RTVSPropertyOp11
 70
     1
102
RTVSPropertyOp12
 70
     1
102
RTVSPropertyOp13
 70
     1
102
RTVSPropertyOp14
 70
     1
102
RTVSPropertyOp15
 70
     1
102
RTVSPropertyOp16
 70
     1
102
RTVSPropertyOp17
 70
     1
102
RTVSPropertyOp18
 70
     1
102
RTVSPropertyOp19
 70
     1
102
RTVSPropertyOp20
 70
     1
102
RTVSPropertyOp21
 70
     1
102
RTVSPropertyOp22
 70
     1
102
RTVSPropertyOp23
 70
     1
102
RTVSPropertyOp24
 70
     1
102
RTVSPropertyOp25
 70
     1
102
RTVSPropertyOp26
 70
     1
102
RTVSPropertyOp27
 70
     1
102
RTVSPropertyOp28
 70
     1
102
RTVSPropertyOp29
 70
     1
102
RTVSPropertyOp30
 70
     1
102
RTVSPropertyOp31
 70
     1
102
RTVSPropertyOp32
 70
     1
  0
XRECORD
  5
5D0
102
{ACAD_REACTORS
330
5CF
102
}
330
5CF
100
AcDbXrecord
280
     1
102
RTVSPropertyOp0
 70
     1
102
RTVSPropertyOp1
 70
     1
102
RTVSPropertyOp2
 70
     1
102
RTVSPropertyOp3
 70
     1
102
RTVSPropertyOp4
 70
     1
102
RTVSPropertyOp5
 70
     1
102
RTVSPropertyOp6
 70
     1
102
RTVSPropertyOp7
 70
     1
102
RTVSPropertyOp8
 70
     1
102
RTVSPropertyOp9
 70
     1
102
RTVSPropertyOp10
 70
     1
102
RTVSPropertyOp11
 70
     1
102
RTVSPropertyOp12
 70
     1
102
RTVSPropertyOp13
 70
     1
102
RTVSPropertyOp14
 70
     1
102
RTVSPropertyOp15
 70
     1
102
RTVSPropertyOp16
 70
     1
102
RTVSPropertyOp17
 70
     1
102
RTVSPropertyOp18
 70
     1
102
RTVSPropertyOp19
 70
     1
102
RTVSPropertyOp20
 70
     1
102
RTVSPropertyOp21
 70
     1
102
RTVSPropertyOp22
 70
     1
102
RTVSPropertyOp23
 70
     1
102
RTVSPropertyOp24
 70
     1
102
RTVSPropertyOp25
 70
     1
102
RTVSPropertyOp26
 70
     1
102
RTVSPropertyOp27
 70
     1
102
RTVSPropertyOp28
 70
     1
102
RTVSPropertyOp29
 70
     1
102
RTVSPropertyOp30
 70
     1
102
RTVSPropertyOp31
 70
     1
102
RTVSPropertyOp32
 70
     1
  0
XRECORD
  5
5CE
102
{ACAD_REACTORS
330
5CD
102
}
330
5CD
100
AcDbXrecord
280
     1
102
RTVSPropertyOp0
 70
     1
102
RTVSPropertyOp1
 70
     1
102
RTVSPropertyOp2
 70
     1
102
RTVSPropertyOp3
 70
     1
102
RTVSPropertyOp4
 70
     1
102
RTVSPropertyOp5
 70
     1
102
RTVSPropertyOp6
 70
     1
102
RTVSPropertyOp7
 70
     1
102
RTVSPropertyOp8
 70
     1
102
RTVSPropertyOp9
 70
     1
102
RTVSPropertyOp10
 70
     1
102
RTVSPropertyOp11
 70
     1
102
RTVSPropertyOp12
 70
     1
102
RTVSPropertyOp13
 70
     1
102
RTVSPropertyOp14
 70
     1
102
RTVSPropertyOp15
 70
     1
102
RTVSPropertyOp16
 70
     1
102
RTVSPropertyOp17
 70
     1
102
RTVSPropertyOp18
 70
     1
102
RTVSPropertyOp19
 70
     1
102
RTVSPropertyOp20
 70
     1
102
RTVSPropertyOp21
 70
     1
102
RTVSPropertyOp22
 70
     1
102
RTVSPropertyOp23
 70
     1
102
RTVSPropertyOp24
 70
     1
102
RTVSPropertyOp25
 70
     1
102
RTVSPropertyOp26
 70
     1
102
RTVSPropertyOp27
 70
     1
102
RTVSPropertyOp28
 70
     1
102
RTVSPropertyOp29
 70
     1
102
RTVSPropertyOp30
 70
     1
102
RTVSPropertyOp31
 70
     1
102
RTVSPropertyOp32
 70
     1
  0
XRECORD
  5
5C8
102
{ACAD_REACTORS
330
5C7
102
}
330
5C7
100
AcDbXrecord
280
     1
102
RTVSPropertyOp0
 70
     1
102
RTVSPropertyOp1
 70
     1
102
RTVSPropertyOp2
 70
     1
102
RTVSPropertyOp3
 70
     1
102
RTVSPropertyOp4
 70
     1
102
RTVSPropertyOp5
 70
     1
102
RTVSPropertyOp6
 70
     1
102
RTVSPropertyOp7
 70
     1
102
RTVSPropertyOp8
 70
     1
102
RTVSPropertyOp9
 70
     1
102
RTVSPropertyOp10
 70
     1
102
RTVSPropertyOp11
 70
     1
102
RTVSPropertyOp12
 70
     1
102
RTVSPropertyOp13
 70
     1
102
RTVSPropertyOp14
 70
     1
102
RTVSPropertyOp15
 70
     1
102
RTVSPropertyOp16
 70
     1
102
RTVSPropertyOp17
 70
     1
102
RTVSPropertyOp18
 70
     1
102
RTVSPropertyOp19
 70
     1
102
RTVSPropertyOp20
 70
     1
102
RTVSPropertyOp21
 70
     1
102
RTVSPropertyOp22
 70
     1
102
RTVSPropertyOp23
 70
     1
102
RTVSPropertyOp24
 70
     1
102
RTVSPropertyOp25
 70
     1
102
RTVSPropertyOp26
 70
     1
102
RTVSPropertyOp27
 70
     1
102
RTVSPropertyOp28
 70
     1
102
RTVSPropertyOp29
 70
     1
102
RTVSPropertyOp30
 70
     1
102
RTVSPropertyOp31
 70
     1
102
RTVSPropertyOp32
 70
     1
  0
XRECORD
  5
5CA
102
{ACAD_REACTORS
330
5C9
102
}
330
5C9
100
AcDbXrecord
280
     1
102
RTVSPropertyOp0
 70
     1
102
RTVSPropertyOp1
 70
     1
102
RTVSPropertyOp2
 70
     1
102
RTVSPropertyOp3
 70
     1
102
RTVSPropertyOp4
 70
     1
102
RTVSPropertyOp5
 70
     1
102
RTVSPropertyOp6
 70
     1
102
RTVSPropertyOp7
 70
     1
102
RTVSPropertyOp8
 70
     1
102
RTVSPropertyOp9
 70
     1
102
RTVSPropertyOp10
 70
     1
102
RTVSPropertyOp11
 70
     1
102
RTVSPropertyOp12
 70
     1
102
RTVSPropertyOp13
 70
     1
102
RTVSPropertyOp14
 70
     1
102
RTVSPropertyOp15
 70
     1
102
RTVSPropertyOp16
 70
     1
102
RTVSPropertyOp17
 70
     1
102
RTVSPropertyOp18
 70
     1
102
RTVSPropertyOp19
 70
     1
102
RTVSPropertyOp20
 70
     1
102
RTVSPropertyOp21
 70
     1
102
RTVSPropertyOp22
 70
     1
102
RTVSPropertyOp23
 70
     1
102
RTVSPropertyOp24
 70
     1
102
RTVSPropertyOp25
 70
     1
102
RTVSPropertyOp26
 70
     1
102
RTVSPropertyOp27
 70
     1
102
RTVSPropertyOp28
 70
     1
102
RTVSPropertyOp29
 70
     1
102
RTVSPropertyOp30
 70
     1
102
RTVSPropertyOp31
 70
     1
102
RTVSPropertyOp32
 70
     1
  0
XRECORD
  5
5C0
102
{ACAD_REACTORS
330
5BF
102
}
330
5BF
100
AcDbXrecord
280
     1
102
RTVSPropertyOp0
 70
     1
102
RTVSPropertyOp1
 70
     1
102
RTVSPropertyOp2
 70
     1
102
RTVSPropertyOp3
 70
     1
102
RTVSPropertyOp4
 70
     1
102
RTVSPropertyOp5
 70
     1
102
RTVSPropertyOp6
 70
     1
102
RTVSPropertyOp7
 70
     1
102
RTVSPropertyOp8
 70
     1
102
RTVSPropertyOp9
 70
     1
102
RTVSPropertyOp10
 70
     1
102
RTVSPropertyOp11
 70
     1
102
RTVSPropertyOp12
 70
     1
102
RTVSPropertyOp13
 70
     1
102
RTVSPropertyOp14
 70
     1
102
RTVSPropertyOp15
 70
     1
102
RTVSPropertyOp16
 70
     1
102
RTVSPropertyOp17
 70
     1
102
RTVSPropertyOp18
 70
     1
102
RTVSPropertyOp19
 70
     1
102
RTVSPropertyOp20
 70
     1
102
RTVSPropertyOp21
 70
     1
102
RTVSPropertyOp22
 70
     1
102
RTVSPropertyOp23
 70
     1
102
RTVSPropertyOp24
 70
     1
102
RTVSPropertyOp25
 70
     1
102
RTVSPropertyOp26
 70
     1
102
RTVSPropertyOp27
 70
     1
102
RTVSPropertyOp28
 70
     1
102
RTVSPropertyOp29
 70
     1
102
RTVSPropertyOp30
 70
     1
102
RTVSPropertyOp31
 70
     1
102
RTVSPropertyOp32
 70
     1
  0
XRECORD
  5
5B4
102
{ACAD_REACTORS
330
5B3
102
}
330
5B3
100
AcDbXrecord
280
     1
102
RTVSPropertyOp0
 70
     1
102
RTVSPropertyOp1
 70
     1
102
RTVSPropertyOp2
 70
     1
102
RTVSPropertyOp3
 70
     1
102
RTVSPropertyOp4
 70
     1
102
RTVSPropertyOp5
 70
     1
102
RTVSPropertyOp6
 70
     1
102
RTVSPropertyOp7
 70
     1
102
RTVSPropertyOp8
 70
     1
102
RTVSPropertyOp9
 70
     1
102
RTVSPropertyOp10
 70
     1
102
RTVSPropertyOp11
 70
     1
102
RTVSPropertyOp12
 70
     1
102
RTVSPropertyOp13
 70
     1
102
RTVSPropertyOp14
 70
     1
102
RTVSPropertyOp15
 70
     1
102
RTVSPropertyOp16
 70
     1
102
RTVSPropertyOp17
 70
     1
102
RTVSPropertyOp18
 70
     1
102
RTVSPropertyOp19
 70
     1
102
RTVSPropertyOp20
 70
     1
102
RTVSPropertyOp21
 70
     1
102
RTVSPropertyOp22
 70
     1
102
RTVSPropertyOp23
 70
     1
102
RTVSPropertyOp24
 70
     1
102
RTVSPropertyOp25
 70
     1
102
RTVSPropertyOp26
 70
     1
102
RTVSPropertyOp27
 70
     1
102
RTVSPropertyOp28
 70
     1
102
RTVSPropertyOp29
 70
     1
102
RTVSPropertyOp30
 70
     1
102
RTVSPropertyOp31
 70
     1
102
RTVSPropertyOp32
 70
     1
  0
XRECORD
  5
5CC
102
{ACAD_REACTORS
330
5CB
102
}
330
5CB
100
AcDbXrecord
280
     1
102
RTVSPropertyOp0
 70
     1
102
RTVSPropertyOp1
 70
     1
102
RTVSPropertyOp2
 70
     1
102
RTVSPropertyOp3
 70
     1
102
RTVSPropertyOp4
 70
     1
102
RTVSPropertyOp5
 70
     1
102
RTVSPropertyOp6
 70
     1
102
RTVSPropertyOp7
 70
     1
102
RTVSPropertyOp8
 70
     1
102
RTVSPropertyOp9
 70
     1
102
RTVSPropertyOp10
 70
     1
102
RTVSPropertyOp11
 70
     1
102
RTVSPropertyOp12
 70
     1
102
RTVSPropertyOp13
 70
     1
102
RTVSPropertyOp14
 70
     1
102
RTVSPropertyOp15
 70
     1
102
RTVSPropertyOp16
 70
     1
102
RTVSPropertyOp17
 70
     1
102
RTVSPropertyOp18
 70
     1
102
RTVSPropertyOp19
 70
     1
102
RTVSPropertyOp20
 70
     1
102
RTVSPropertyOp21
 70
     1
102
RTVSPropertyOp22
 70
     1
102
RTVSPropertyOp23
 70
     1
102
RTVSPropertyOp24
 70
     1
102
RTVSPropertyOp25
 70
     1
102
RTVSPropertyOp26
 70
     1
102
RTVSPropertyOp27
 70
     1
102
RTVSPropertyOp28
 70
     1
102
RTVSPropertyOp29
 70
     1
102
RTVSPropertyOp30
 70
     1
102
RTVSPropertyOp31
 70
     1
102
RTVSPropertyOp32
 70
     1
  0
ENDSEC
  0
EOF
