  0
SECTION
  2
HEADER
  9
$ACADVER
  1
AC1015
  9
$ACADMAINTVER
 70
    20
  9
$DWGCODEPAGE
  3
ANSI_932
  9
$INSBASE
 10
0.0
 20
0.0
 30
0.0
  9
$EXTMIN
 10
-68.86777177622296
 20
161.2563240511933
 30
0.0
  9
$EXTMAX
 10
351.132228223777
 20
458.2563240511933
 30
0.0
  9
$LIMMIN
 10
133.1814069679376
 20
52.64446415850091
  9
$LIMMAX
 10
343.1547346046564
 20
349.6551147932665
  9
$ORTHOMODE
 70
     0
  9
$REGENMODE
 70
     1
  9
$FILLMODE
 70
     1
  9
$QTEXTMODE
 70
     0
  9
$MIRRTEXT
 70
     0
  9
$LTSCALE
 40
1.0
  9
$ATTMODE
 70
     1
  9
$TEXTSIZE
 40
3.0
  9
$TRACEWID
 40
1.0
  9
$TEXTSTYLE
  7
ATOM
  9
$CLAYER
  8
frame
  9
$CELTYPE
  6
ByLayer
  9
$CECOLOR
 62
   256
  9
$CELTSCALE
 40
1.0
  9
$DISPSILH
 70
     0
  9
$DIMSCALE
 40
0.0
  9
$DIMASZ
 40
2.0
  9
$DIMEXO
 40
2.0
  9
$DIMDLI
 40
7.0
  9
$DIMRND
 40
0.0
  9
$DIMDLE
 40
0.0
  9
$DIMEXE
 40
1.0
  9
$DIMTP
 40
0.1
  9
$DIMTM
 40
0.1
  9
$DIMTXT
 40
3.0
  9
$DIMCEN
 40
-2.5
  9
$DIMTSZ
 40
0.0
  9
$DIMTOL
 70
     0
  9
$DIMLIM
 70
     0
  9
$DIMTIH
 70
     0
  9
$DIMTOH
 70
     0
  9
$DIMSE1
 70
     0
  9
$DIMSE2
 70
     0
  9
$DIMTAD
 70
     1
  9
$DIMZIN
 70
     8
  9
$DIMBLK
  1
Open30
  9
$DIMASO
 70
     1
  9
$DIMSHO
 70
     1
  9
$DIMPOST
  1

  9
$DIMAPOST
  1

  9
$DIMALT
 70
     0
  9
$DIMALTD
 70
     3
  9
$DIMALTF
 40
0.03937007874016
  9
$DIMLFAC
 40
1.0
  9
$DIMTOFL
 70
     1
  9
$DIMTVP
 40
0.0
  9
$DIMTIX
 70
     0
  9
$DIMSOXD
 70
     0
  9
$DIMSAH
 70
     0
  9
$DIMBLK1
  1

  9
$DIMBLK2
  1

  9
$DIMSTYLE
  2
ATOM
  9
$DIMCLRD
 70
     0
  9
$DIMCLRE
 70
     0
  9
$DIMCLRT
 70
     3
  9
$DIMTFAC
 40
0.5
  9
$DIMGAP
 40
0.625
  9
$DIMJUST
 70
     0
  9
$DIMSD1
 70
     0
  9
$DIMSD2
 70
     0
  9
$DIMTOLJ
 70
     0
  9
$DIMTZIN
 70
     8
  9
$DIMALTZ
 70
     0
  9
$DIMALTTZ
 70
     0
  9
$DIMUPT
 70
     0
  9
$DIMDEC
 70
     2
  9
$DIMTDEC
 70
     2
  9
$DIMALTU
 70
     2
  9
$DIMALTTD
 70
     3
  9
$DIMTXSTY
  7
ATOM
  9
$DIMAUNIT
 70
     0
  9
$DIMADEC
 70
     0
  9
$DIMALTRND
 40
0.0
  9
$DIMAZIN
 70
     0
  9
$DIMDSEP
 70
    46
  9
$DIMATFIT
 70
     0
  9
$DIMFRAC
 70
     2
  9
$DIMLDRBLK
  1
Open30
  9
$DIMLUNIT
 70
     2
  9
$DIMLWD
 70
    -2
  9
$DIMLWE
 70
    -2
  9
$DIMTMOVE
 70
     1
  9
$LUNITS
 70
     2
  9
$LUPREC
 70
     4
  9
$SKETCHINC
 40
1.0
  9
$FILLETRAD
 40
0.0
  9
$AUNITS
 70
     0
  9
$AUPREC
 70
     0
  9
$MENU
  1
.
  9
$ELEVATION
 40
0.0
  9
$PELEVATION
 40
0.0
  9
$THICKNESS
 40
0.0
  9
$LIMCHECK
 70
     0
  9
$CHAMFERA
 40
0.0
  9
$CHAMFERB
 40
0.0
  9
$CHAMFERC
 40
0.0
  9
$CHAMFERD
 40
0.0
  9
$SKPOLY
 70
     0
  9
$TDCREATE
 40
2457044.373732778
  9
$TDUCREATE
 40
2457043.998732778
  9
$TDUPDATE
 40
2457638.674966852
  9
$TDUUPDATE
 40
2457638.299966852
  9
$TDINDWG
 40
0.0017143750
  9
$TDUSRTIMER
 40
0.0017143750
  9
$USRTIMER
 70
     1
  9
$ANGBASE
 50
0.0
  9
$ANGDIR
 70
     0
  9
$PDMODE
 70
     0
  9
$PDSIZE
 40
0.0
  9
$PLINEWID
 40
0.0
  9
$SPLFRAME
 70
     0
  9
$SPLINETYPE
 70
     6
  9
$SPLINESEGS
 70
     8
  9
$HANDSEED
  5
97C
  9
$SURFTAB1
 70
     6
  9
$SURFTAB2
 70
     6
  9
$SURFTYPE
 70
     6
  9
$SURFU
 70
     6
  9
$SURFV
 70
     6
  9
$UCSBASE
  2

  9
$UCSNAME
  2

  9
$UCSORG
 10
0.0
 20
0.0
 30
0.0
  9
$UCSXDIR
 10
1.0
 20
0.0
 30
0.0
  9
$UCSYDIR
 10
0.0
 20
1.0
 30
0.0
  9
$UCSORTHOREF
  2

  9
$UCSORTHOVIEW
 70
     0
  9
$UCSORGTOP
 10
0.0
 20
0.0
 30
0.0
  9
$UCSORGBOTTOM
 10
0.0
 20
0.0
 30
0.0
  9
$UCSORGLEFT
 10
0.0
 20
0.0
 30
0.0
  9
$UCSORGRIGHT
 10
0.0
 20
0.0
 30
0.0
  9
$UCSORGFRONT
 10
0.0
 20
0.0
 30
0.0
  9
$UCSORGBACK
 10
0.0
 20
0.0
 30
0.0
  9
$PUCSBASE
  2

  9
$PUCSNAME
  2

  9
$PUCSORG
 10
0.0
 20
0.0
 30
0.0
  9
$PUCSXDIR
 10
1.0
 20
0.0
 30
0.0
  9
$PUCSYDIR
 10
0.0
 20
1.0
 30
0.0
  9
$PUCSORTHOREF
  2

  9
$PUCSORTHOVIEW
 70
     0
  9
$PUCSORGTOP
 10
0.0
 20
0.0
 30
0.0
  9
$PUCSORGBOTTOM
 10
0.0
 20
0.0
 30
0.0
  9
$PUCSORGLEFT
 10
0.0
 20
0.0
 30
0.0
  9
$PUCSORGRIGHT
 10
0.0
 20
0.0
 30
0.0
  9
$PUCSORGFRONT
 10
0.0
 20
0.0
 30
0.0
  9
$PUCSORGBACK
 10
0.0
 20
0.0
 30
0.0
  9
$USERI1
 70
     0
  9
$USERI2
 70
     0
  9
$USERI3
 70
     0
  9
$USERI4
 70
     0
  9
$USERI5
 70
     0
  9
$USERR1
 40
0.0
  9
$USERR2
 40
0.0
  9
$USERR3
 40
0.0
  9
$USERR4
 40
0.0
  9
$USERR5
 40
0.0
  9
$WORLDVIEW
 70
     1
  9
$SHADEDGE
 70
     3
  9
$SHADEDIF
 70
    70
  9
$TILEMODE
 70
     1
  9
$MAXACTVP
 70
    64
  9
$PINSBASE
 10
0.0
 20
0.0
 30
0.0
  9
$PLIMCHECK
 70
     0
  9
$PEXTMIN
 10
1.000000000000000E+20
 20
1.000000000000000E+20
 30
1.000000000000000E+20
  9
$PEXTMAX
 10
-1.000000000000000E+20
 20
-1.000000000000000E+20
 30
-1.000000000000000E+20
  9
$PLIMMIN
 10
0.0
 20
0.0
  9
$PLIMMAX
 10
12.0
 20
9.0
  9
$UNITMODE
 70
     0
  9
$VISRETAIN
 70
     1
  9
$PLINEGEN
 70
     0
  9
$PSLTSCALE
 70
     1
  9
$TREEDEPTH
 70
  3020
  9
$CMLSTYLE
  2
Standard
  9
$CMLJUST
 70
     0
  9
$CMLSCALE
 40
10.0
  9
$PROXYGRAPHICS
 70
     1
  9
$MEASUREMENT
 70
     1
  9
$CELWEIGHT
370
    -1
  9
$ENDCAPS
280
     0
  9
$JOINSTYLE
280
     0
  9
$LWDISPLAY
290
     0
  9
$INSUNITS
 70
     4
  9
$HYPERLINKBASE
  1

  9
$STYLESHEET
  1

  9
$XEDIT
290
     1
  9
$CEPSNTYPE
380
     0
  9
$PSTYLEMODE
290
     0
  9
$FINGERPRINTGUID
  2
{AEB8CF08-6DF8-4D86-BB99-F5B539321DAF}
  9
$VERSIONGUID
  2
{0075D481-8481-491C-84F6-DD41CE21B924}
  9
$EXTNAMES
290
     1
  9
$PSVPSCALE
 40
0.0
  9
$OLESTARTUP
290
     0
  0
ENDSEC
  0
SECTION
  2
CLASSES
  0
CLASS
  1
ACDBDICTIONARYWDFLT
  2
AcDbDictionaryWithDefault
  3
ObjectDBX Classes
 90
        0
280
     0
281
     0
  0
CLASS
  1
MATERIAL
  2
AcDbMaterial
  3
ObjectDBX Classes
 90
     1153
280
     0
281
     0
  0
CLASS
  1
VISUALSTYLE
  2
AcDbVisualStyle
  3
ObjectDBX Classes
 90
     4095
280
     0
281
     0
  0
CLASS
  1
SCALE
  2
AcDbScale
  3
ObjectDBX Classes
 90
     1153
280
     0
281
     0
  0
CLASS
  1
TABLESTYLE
  2
AcDbTableStyle
  3
ObjectDBX Classes
 90
     4095
280
     0
281
     0
  0
CLASS
  1
MLEADERSTYLE
  2
AcDbMLeaderStyle
  3
ACDB_MLEADERSTYLE_CLASS
 90
     4095
280
     0
281
     0
  0
CLASS
  1
DIMASSOC
  2
AcDbDimAssoc
  3
"AcDbDimAssoc|Product Desc:     AcDim ARX App For Dimension|Company:          Autodesk, Inc.|WEB Address:      www.autodesk.com"
 90
        0
280
     0
281
     0
  0
CLASS
  1
SORTENTSTABLE
  2
AcDbSortentsTable
  3
ObjectDBX Classes
 90
        0
280
     0
281
     0
  0
CLASS
  1
ACDB_TEXTOBJECTCONTEXTDATA_CLASS
  2
AcDbTextObjectContextData
  3
ObjectDBX Classes
 90
     1153
280
     0
281
     0
  0
CLASS
  1
ACDB_MTEXTATTRIBUTEOBJECTCONTEXTDATA_CLASS
  2
AcDbMTextAttributeObjectContextData
  3
ObjectDBX Classes
 90
     1153
280
     0
281
     0
  0
CLASS
  1
ACDB_MTEXTOBJECTCONTEXTDATA_CLASS
  2
AcDbMTextObjectContextData
  3
ObjectDBX Classes
 90
    33921
280
     0
281
     0
  0
CLASS
  1
DICTIONARYVAR
  2
AcDbDictionaryVar
  3
ObjectDBX Classes
 90
        0
280
     0
281
     0
  0
CLASS
  1
CELLSTYLEMAP
  2
AcDbCellStyleMap
  3
ObjectDBX Classes
 90
     1152
280
     0
281
     0
  0
CLASS
  1
ACDBPLACEHOLDER
  2
AcDbPlaceHolder
  3
ObjectDBX Classes
 90
        0
280
     0
281
     0
  0
CLASS
  1
LAYOUT
  2
AcDbLayout
  3
ObjectDBX Classes
 90
        0
280
     0
281
     0
  0
ENDSEC
  0
SECTION
  2
TABLES
  0
TABLE
  2
VPORT
  5
8
330
0
100
AcDbSymbolTable
 70
     1
  0
VPORT
  5
57
330
8
100
AcDbSymbolTableRecord
100
AcDbViewportTableRecord
  2
*Active
 70
     0
 10
0.0
 20
0.0
 11
1.0
 21
1.0
 12
254.8977893246275
 22
324.9205919028884
 13
0.0
 23
0.0
 14
10.0
 24
10.0
 15
10.0
 25
10.0
 16
0.0
 26
0.0
 36
1.0
 17
0.0
 27
0.0
 37
0.0
 40
309.5133870154418
 41
2.026347305389221
 42
50.0
 43
0.0
 44
0.0
 50
0.0
 51
0.0
 71
     0
 72
  1000
 73
     1
 74
     1
 75
     0
 76
     0
 77
     0
 78
     0
281
     0
 65
     1
110
0.0
120
0.0
130
0.0
111
1.0
121
0.0
131
0.0
112
0.0
122
1.0
132
0.0
 79
     0
146
0.0
1001
ACAD_NAV_VCDISPLAY
1070
     3
  0
ENDTAB
  0
TABLE
  2
LTYPE
  5
5
330
0
100
AcDbSymbolTable
 70
     3
  0
LTYPE
  5
5B
330
5
100
AcDbSymbolTableRecord
100
AcDbLinetypeTableRecord
  2
ByBlock
 70
     0
  3

 72
    65
 73
     0
 40
0.0
  0
LTYPE
  5
5C
330
5
100
AcDbSymbolTableRecord
100
AcDbLinetypeTableRecord
  2
ByLayer
 70
     0
  3

 72
    65
 73
     0
 40
0.0
  0
LTYPE
  5
5D
330
5
100
AcDbSymbolTableRecord
100
AcDbLinetypeTableRecord
  2
Continuous
 70
     0
  3
Solid line
 72
    65
 73
     0
 40
0.0
  0
LTYPE
  5
78
330
5
100
AcDbSymbolTableRecord
100
AcDbLinetypeTableRecord
  2
JIS_08_15
 70
     0
  3
1SASEN15 ____ _ ____ _ ____ _ ____ _ ____
 72
    65
 73
     4
 40
17.25
 49
15.0
 74
     0
 49
-0.75
 74
     0
 49
0.75
 74
     0
 49
-0.75
 74
     0
  0
LTYPE
  5
79
330
5
100
AcDbSymbolTableRecord
100
AcDbLinetypeTableRecord
  2
JIS_09_15
 70
     0
  3
2SASEN15 ___ _ _ ___ _ _ ___ _ _ ___ _ _ ___
 72
    65
 73
     6
 40
18.9
 49
15.0
 74
     0
 49
-0.9
 74
     0
 49
0.6
 74
     0
 49
-0.9
 74
     0
 49
0.6
 74
     0
 49
-0.9
 74
     0
  0
ENDTAB
  0
TABLE
  2
LAYER
  5
2
102
{ACAD_XDICTIONARY
360
8C9
102
}
330
0
100
AcDbSymbolTable
 70
    10
  0
LAYER
  5
54
102
{ACAD_XDICTIONARY
360
8BA
102
}
330
2
100
AcDbSymbolTableRecord
100
AcDbLayerTableRecord
  2
0
 70
     0
 62
     7
  6
Continuous
370
    35
390
87
1001
AcAecLayerStandard
1000

1000

  0
LAYER
  5
75
330
2
100
AcDbSymbolTableRecord
100
AcDbLayerTableRecord
  2
Defpoints
 70
     0
 62
     7
  6
Continuous
290
     0
370
    -3
390
87
1001
AcAecLayerStandard
1000

1000

  0
LAYER
  5
9B
102
{ACAD_XDICTIONARY
360
9C
102
}
330
2
100
AcDbSymbolTableRecord
100
AcDbLayerTableRecord
  2
viewports
 70
     0
 62
     5
  6
Continuous
290
     0
370
    18
390
87
1001
AcAecLayerStandard
1000

1000

  0
LAYER
  5
A1
102
{ACAD_XDICTIONARY
360
A2
102
}
330
2
100
AcDbSymbolTableRecord
100
AcDbLayerTableRecord
  2
center
 70
     0
 62
     2
  6
JIS_08_15
370
    18
390
87
1001
AcAecLayerStandard
1000

1000

  0
LAYER
  5
A5
102
{ACAD_XDICTIONARY
360
A6
102
}
330
2
100
AcDbSymbolTableRecord
100
AcDbLayerTableRecord
  2
phantom
 70
     0
 62
     6
  6
JIS_09_15
370
    18
390
87
1001
AcAecLayerStandard
1000

1000

  0
LAYER
  5
D7
102
{ACAD_XDICTIONARY
360
D8
102
}
330
2
100
AcDbSymbolTableRecord
100
AcDbLayerTableRecord
  2
dim
 70
     0
 62
     2
  6
Continuous
370
    18
390
87
1001
AcAecLayerStandard
1000

1000

  0
LAYER
  5
1C5
102
{ACAD_XDICTIONARY
360
1C6
102
}
330
2
100
AcDbSymbolTableRecord
100
AcDbLayerTableRecord
  2
text
 70
     0
 62
     3
  6
Continuous
370
    18
390
87
1001
AcAecLayerStandard
1000

1000

  0
LAYER
  5
431
102
{ACAD_XDICTIONARY
360
432
102
}
330
2
100
AcDbSymbolTableRecord
100
AcDbLayerTableRecord
  2
frame
 70
     0
 62
     4
  6
Continuous
370
    18
390
87
1001
AcAecLayerStandard
1000

1000

  0
LAYER
  5
938
102
{ACAD_XDICTIONARY
360
939
102
}
330
2
100
AcDbSymbolTableRecord
100
AcDbLayerTableRecord
  2
frame @ 1
 70
     0
 62
     4
  6
Continuous
370
    18
390
87
1001
AcAecLayerStandard
1000

1000

1001
AcadAnnotativeDecomposition
1000
AnnotativeData
1002
{
1070
     1
1070
     1
1002
}
  0
ENDTAB
  0
TABLE
  2
STYLE
  5
3
330
0
100
AcDbSymbolTable
 70
     4
  0
STYLE
  5
55
330
3
100
AcDbSymbolTableRecord
100
AcDbTextStyleTableRecord
  2
Standard
 70
     0
 40
0.0
 41
1.0
 50
0.0
 71
     0
 42
2.5
  3
txt
  4

  0
STYLE
  5
5A
330
3
100
AcDbSymbolTableRecord
100
AcDbTextStyleTableRecord
  2
Annotative
 70
     0
 40
0.0
 41
1.0
 50
0.0
 71
     0
 42
0.2
  3
txt
  4

1001
AcadAnnotative
1000
AnnotativeData
1002
{
1070
     1
1070
     1
1002
}
  0
STYLE
  5
76
330
3
100
AcDbSymbolTableRecord
100
AcDbTextStyleTableRecord
  2
ATOM
 70
     0
 40
0.0
 41
0.9
 50
0.0
 71
     0
 42
3.0
  3
txt.shx
  4
extfont.shx
1001
AcadAnnotative
1000
AnnotativeData
1002
{
1070
     1
1070
     1
1002
}
  0
STYLE
  5
77
330
3
100
AcDbSymbolTableRecord
100
AcDbTextStyleTableRecord
  2
ATOM_KANJI
 70
     0
 40
3.0
 41
0.9
 50
0.0
 71
     0
 42
3.0
  3
txt.shx
  4
extfont.shx
1001
AcadAnnotative
1000
AnnotativeData
1002
{
1070
     1
1070
     1
1002
}
  0
ENDTAB
  0
TABLE
  2
VIEW
  5
6
330
0
100
AcDbSymbolTable
 70
     0
  0
ENDTAB
  0
TABLE
  2
UCS
  5
7
330
0
100
AcDbSymbolTable
 70
     0
  0
ENDTAB
  0
TABLE
  2
APPID
  5
9
330
0
100
AcDbSymbolTable
 70
    14
  0
APPID
  5
56
330
9
100
AcDbSymbolTableRecord
100
AcDbRegAppTableRecord
  2
ACAD
 70
     0
  0
APPID
  5
5E
330
9
100
AcDbSymbolTableRecord
100
AcDbRegAppTableRecord
  2
AcadAnnotative
 70
     0
  0
APPID
  5
74
330
9
100
AcDbSymbolTableRecord
100
AcDbRegAppTableRecord
  2
ACAD_PSEXT
 70
     0
  0
APPID
  5
83
330
9
100
AcDbSymbolTableRecord
100
AcDbRegAppTableRecord
  2
ACAD_DSTYLE_DIMBREAK
 70
     0
  0
APPID
  5
84
330
9
100
AcDbSymbolTableRecord
100
AcDbRegAppTableRecord
  2
ACAD_DSTYLE_DIMJAG
 70
     0
  0
APPID
  5
85
330
9
100
AcDbSymbolTableRecord
100
AcDbRegAppTableRecord
  2
ACAD_DSTYLE_DIMTALN
 70
     0
  0
APPID
  5
9E
330
9
100
AcDbSymbolTableRecord
100
AcDbRegAppTableRecord
  2
AcAecLayerStandard
 70
     0
  0
APPID
  5
1FD
330
9
100
AcDbSymbolTableRecord
100
AcDbRegAppTableRecord
  2
ACAD_DSTYLE_DIMRADIAL_EXTENSION
 70
     0
  0
APPID
  5
438
330
9
100
AcDbSymbolTableRecord
100
AcDbRegAppTableRecord
  2
AcDbBlockRepETag
 70
     0
  0
APPID
  5
5E9
330
9
100
AcDbSymbolTableRecord
100
AcDbRegAppTableRecord
  2
AcDbDynamicBlockGUID
 70
     0
  0
APPID
  5
8C0
330
9
100
AcDbSymbolTableRecord
100
AcDbRegAppTableRecord
  2
ACAD_NAV_VCDISPLAY
 70
     0
  0
APPID
  5
8C6
330
9
100
AcDbSymbolTableRecord
100
AcDbRegAppTableRecord
  2
AcadAnnotativeDecomposition
 70
     0
  0
APPID
  5
906
330
9
100
AcDbSymbolTableRecord
100
AcDbRegAppTableRecord
  2
ACAD_MLEADERVER
 70
     0
  0
APPID
  5
909
330
9
100
AcDbSymbolTableRecord
100
AcDbRegAppTableRecord
  2
AcDbAttr
 70
     0
  0
ENDTAB
  0
TABLE
  2
DIMSTYLE
  5
A
330
0
100
AcDbSymbolTable
 70
     3
100
AcDbDimStyleTable
 71
     1
340
7B
  0
DIMSTYLE
105
58
330
A
100
AcDbSymbolTableRecord
100
AcDbDimStyleTableRecord
  2
Standard
 70
     0
340
55
  0
DIMSTYLE
105
59
330
A
100
AcDbSymbolTableRecord
100
AcDbDimStyleTableRecord
  2
Annotative
 70
     0
340
55
1001
AcadAnnotative
1000
AnnotativeData
1002
{
1070
     1
1070
     1
1002
}
  0
DIMSTYLE
105
7B
330
A
100
AcDbSymbolTableRecord
100
AcDbDimStyleTableRecord
  2
ATOM
 70
     0
 40
0.0
 41
2.0
 42
2.0
 43
7.0
 44
1.0
 47
0.1
 48
0.1
 73
     0
 74
     0
 77
     1
 78
     8
140
3.0
141
-2.5
143
0.03937007874016
146
0.5
147
0.625
171
     3
172
     1
178
     3
271
     2
272
     2
274
     3
276
     2
279
     1
283
     0
284
     8
289
     0
340
76
341
7D
342
7D
1001
ACAD_DSTYLE_DIMBREAK
1070
   391
1040
3.75
1001
AcadAnnotative
1000
AnnotativeData
1002
{
1070
     1
1070
     1
1002
}
1001
ACAD_DSTYLE_DIMJAG
1070
   388
1040
1.5
1001
ACAD_DSTYLE_DIMTALN
1070
   392
1070
     0
  0
ENDTAB
  0
TABLE
  2
BLOCK_RECORD
  5
1
330
0
100
AcDbSymbolTable
 70
    18
  0
BLOCK_RECORD
  5
6C
102
{ACAD_XDICTIONARY
360
12D
102
}
330
1
100
AcDbSymbolTableRecord
100
AcDbBlockTableRecord
  2
*Model_Space
340
6F
  0
BLOCK_RECORD
  5
68
330
1
100
AcDbSymbolTableRecord
100
AcDbBlockTableRecord
  2
*Paper_Space
340
6B
  0
BLOCK_RECORD
  5
70
330
1
100
AcDbSymbolTableRecord
100
AcDbBlockTableRecord
  2
*Paper_Space0
340
73
  0
BLOCK_RECORD
  5
7D
330
1
100
AcDbSymbolTableRecord
100
AcDbBlockTableRecord
  2
_Open30
340
0
310
2800000020000000200000000100080000000000000400000000000000000000000000000000000000000000000080000080000000808000800000008000800080800000C0C0C000C0DCC000F0CAA6000020400000206000002080000020A0000020C0000020E00000400000004020000040400000406000004080000040A0
310
000040C0000040E00000600000006020000060400000606000006080000060A0000060C0000060E00000800000008020000080400000806000008080000080A0000080C0000080E00000A0000000A0200000A0400000A0600000A0800000A0A00000A0C00000A0E00000C0000000C0200000C0400000C0600000C0800000C0
310
A00000C0C00000C0E00000E0000000E0200000E0400000E0600000E0800000E0A00000E0C00000E0E00040000000400020004000400040006000400080004000A0004000C0004000E00040200000402020004020400040206000402080004020A0004020C0004020E000404000004040200040404000404060004040800040
310
40A0004040C0004040E00040600000406020004060400040606000406080004060A0004060C0004060E00040800000408020004080400040806000408080004080A0004080C0004080E00040A0000040A0200040A0400040A0600040A0800040A0A00040A0C00040A0E00040C0000040C0200040C0400040C0600040C08000
310
40C0A00040C0C00040C0E00040E0000040E0200040E0400040E0600040E0800040E0A00040E0C00040E0E00080000000800020008000400080006000800080008000A0008000C0008000E00080200000802020008020400080206000802080008020A0008020C0008020E00080400000804020008040400080406000804080
310
008040A0008040C0008040E00080600000806020008060400080606000806080008060A0008060C0008060E00080800000808020008080400080806000808080008080A0008080C0008080E00080A0000080A0200080A0400080A0600080A0800080A0A00080A0C00080A0E00080C0000080C0200080C0400080C0600080C0
310
800080C0A00080C0C00080C0E00080E0000080E0200080E0400080E0600080E0800080E0A00080E0C00080E0E000C0000000C0002000C0004000C0006000C0008000C000A000C000C000C000E000C0200000C0202000C0204000C0206000C0208000C020A000C020C000C020E000C0400000C0402000C0404000C0406000C0
310
408000C040A000C040C000C040E000C0600000C0602000C0604000C0606000C0608000C060A000C060C000C060E000C0800000C0802000C0804000C0806000C0808000C080A000C080C000C080E000C0A00000C0A02000C0A04000C0A06000C0A08000C0A0A000C0A0C000C0A0E000C0C00000C0C02000C0C04000C0C06000
310
C0C08000C0C0A000F0FBFF00A4A0A000808080000000FF0000FF000000FFFF00FF000000FF00FF00FFFF0000FFFFFF0000000000000000000000000000000000000000000000000000000000000000000000000000000000000000000000000000000000000000000000000000000000000000000000000000000000000000
310
00000000000000000000000000000000000000000000000000000000000000000000000000000000000000000000000000000000000000000000000000000000000000000000000000000000000000000000000000000000000000000000000000000000000000000000000000000000000000000000000000000000000000
310
000000000000000000000000000000000000000000000000000000000000000000000000000000000000000000000000000000FFFF0000000000000000000000000000000000000000000000000000000000000000FFFFFFFF0000000000000000000000000000000000000000000000000000000000000000FFFFFFFF0000
310
000000000000000000000000000000000000000000000000000000000000FFFFFF0000000000000000000000000000000000000000000000000000000000000000FFFFFFFF0000000000000000000000000000000000000000000000000000000000000000FFFFFF0000000000000000000000000000000000000000000000
310
000000000000000000FFFFFFFF0000000000000000000000000000000000000000000000000000000000000000FFFFFFFF00000000FFFFFFFFFFFFFFFFFFFFFFFFFFFFFFFFFFFFFFFFFFFFFFFFFFFFFFFFFFFF00000000000000000000000000000000000000000000000000FFFFFFFF000000000000000000000000000000
310
000000000000000000FFFFFFFF000000000000000000000000000000000000000000000000FFFFFFFF000000000000000000000000000000000000000000000000FFFFFFFF000000000000000000000000000000000000000000000000FFFFFFFF000000000000000000000000000000000000000000000000FFFFFFFF0000
310
0000000000000000000000000000000000000000000000FFFFFF0000000000000000000000000000000000000000000000000000000000000000000000000000000000000000000000000000000000000000000000000000000000000000000000000000000000000000000000000000000000000000000000000000000000
310
00000000000000000000000000000000000000000000000000000000000000000000000000000000000000000000000000000000000000000000000000000000000000000000000000000000000000000000000000000000000000000000000000000000000000000000000000000000000000000000000000000000000000
310
0000000000000000000000000000000000000000000000000000000000000000000000000000000000000000000000000000000000000000
102
{BLKREFS
331
82F
331
830
331
83B
331
83C
331
843
331
844
331
84D
331
84E
331
858
331
859
331
861
331
862
331
86E
331
86F
331
87B
331
87C
331
886
331
887
331
88E
331
88F
331
896
331
89C
331
8A1
331
8A7
102
}
  0
BLOCK_RECORD
  5
106
330
1
100
AcDbSymbolTableRecord
100
AcDbBlockTableRecord
  2
*D2
340
0
  0
BLOCK_RECORD
  5
227
330
1
100
AcDbSymbolTableRecord
100
AcDbBlockTableRecord
  2
*D3
340
0
  0
BLOCK_RECORD
  5
235
330
1
100
AcDbSymbolTableRecord
100
AcDbBlockTableRecord
  2
*D4
340
0
  0
BLOCK_RECORD
  5
246
330
1
100
AcDbSymbolTableRecord
100
AcDbBlockTableRecord
  2
*D5
340
0
  0
BLOCK_RECORD
  5
254
330
1
100
AcDbSymbolTableRecord
100
AcDbBlockTableRecord
  2
*D6
340
0
  0
BLOCK_RECORD
  5
262
330
1
100
AcDbSymbolTableRecord
100
AcDbBlockTableRecord
  2
*D7
340
0
  0
BLOCK_RECORD
  5
270
330
1
100
AcDbSymbolTableRecord
100
AcDbBlockTableRecord
  2
*D8
340
0
  0
BLOCK_RECORD
  5
27E
330
1
100
AcDbSymbolTableRecord
100
AcDbBlockTableRecord
  2
*D9
340
0
  0
BLOCK_RECORD
  5
28C
330
1
100
AcDbSymbolTableRecord
100
AcDbBlockTableRecord
  2
*D10
340
0
  0
BLOCK_RECORD
  5
29A
330
1
100
AcDbSymbolTableRecord
100
AcDbBlockTableRecord
  2
*D11
340
0
  0
BLOCK_RECORD
  5
2AB
330
1
100
AcDbSymbolTableRecord
100
AcDbBlockTableRecord
  2
*D12
340
0
  0
BLOCK_RECORD
  5
2B3
330
1
100
AcDbSymbolTableRecord
100
AcDbBlockTableRecord
  2
*D13
340
0
  0
BLOCK_RECORD
  5
2BC
330
1
100
AcDbSymbolTableRecord
100
AcDbBlockTableRecord
  2
*D14
340
0
  0
BLOCK_RECORD
  5
2C4
330
1
100
AcDbSymbolTableRecord
100
AcDbBlockTableRecord
  2
*D15
340
0
  0
BLOCK_RECORD
  5
434
102
{ACAD_XDICTIONARY
360
435
102
}
330
1
100
AcDbSymbolTableRecord
100
AcDbBlockTableRecord
  2
ATOM_A3_zuwaku
340
0
310
2800000020000000200000000100080000000000000400000000000000000000000000000000000000000000000080000080000000808000800000008000800080800000C0C0C000C0DCC000F0CAA6000020400000206000002080000020A0000020C0000020E00000400000004020000040400000406000004080000040A0
310
000040C0000040E00000600000006020000060400000606000006080000060A0000060C0000060E00000800000008020000080400000806000008080000080A0000080C0000080E00000A0000000A0200000A0400000A0600000A0800000A0A00000A0C00000A0E00000C0000000C0200000C0400000C0600000C0800000C0
310
A00000C0C00000C0E00000E0000000E0200000E0400000E0600000E0800000E0A00000E0C00000E0E00040000000400020004000400040006000400080004000A0004000C0004000E00040200000402020004020400040206000402080004020A0004020C0004020E000404000004040200040404000404060004040800040
310
40A0004040C0004040E00040600000406020004060400040606000406080004060A0004060C0004060E00040800000408020004080400040806000408080004080A0004080C0004080E00040A0000040A0200040A0400040A0600040A0800040A0A00040A0C00040A0E00040C0000040C0200040C0400040C0600040C08000
310
40C0A00040C0C00040C0E00040E0000040E0200040E0400040E0600040E0800040E0A00040E0C00040E0E00080000000800020008000400080006000800080008000A0008000C0008000E00080200000802020008020400080206000802080008020A0008020C0008020E00080400000804020008040400080406000804080
310
008040A0008040C0008040E00080600000806020008060400080606000806080008060A0008060C0008060E00080800000808020008080400080806000808080008080A0008080C0008080E00080A0000080A0200080A0400080A0600080A0800080A0A00080A0C00080A0E00080C0000080C0200080C0400080C0600080C0
310
800080C0A00080C0C00080C0E00080E0000080E0200080E0400080E0600080E0800080E0A00080E0C00080E0E000C0000000C0002000C0004000C0006000C0008000C000A000C000C000C000E000C0200000C0202000C0204000C0206000C0208000C020A000C020C000C020E000C0400000C0402000C0404000C0406000C0
310
408000C040A000C040C000C040E000C0600000C0602000C0604000C0606000C0608000C060A000C060C000C060E000C0800000C0802000C0804000C0806000C0808000C080A000C080C000C080E000C0A00000C0A02000C0A04000C0A06000C0A08000C0A0A000C0A0C000C0A0E000C0C00000C0C02000C0C04000C0C06000
310
C0C08000C0C0A000F0FBFF00A4A0A000808080000000FF0000FF000000FFFF00FF000000FF00FF00FFFF0000FFFFFF00FFFFFFFFFFFFFFFFFFFFFFFFFFFFFFFFFFFFFFFFFFFFFFFFFFFFFFFFFFFFFFFFFFFFFFFFFFFFFFFFFFFFFFFFFFFFFFFFFFFFFFFFFFFFFFFFFFFFFFFFFFFFFFFFFFFFFFFFFFFFFFFFFFFFFFFFFFFFFF
310
FFFFFFFFFFFFFFFFFFFFFFFFFFFFFFFFFFFFFFFFFFFFFFFFFFFFFFFFFFFFFFFFFFFFFFFFFFFFFFFFFFFFFFFFFFFFFFFFFFFFFFFFFFFFFFFFFFFFFFFFFFFFFFFFFFFFFFFFFFFFFFFFFFFFFFFFFFFFFFFFFFFFFFFFFFFFFFFFFFFFFFFFFFFFFFFFFFFFFFFFFFFFFFFFFFFFFFFFFFFFFFFFFFFFFEFEFEFEFEFEFEFEFEFEFEFEFE
310
FEFEFEFEFEFEFEFEFEFEFEFEFEFEFEFEFEFFFFFEFEFFFFFFFFFFFFFFFFFFFFFFFFFFFEFEFEFEFEFEFEFEFEFEFEFEFEFEFEFFFFFEFEFFFFFFFFFFFFFFFFFFFFFFFFFFFEFEFEFEFEFEFEFEFEFEFEFEFEFEFEFFFFFEFEFFFFFFFFFFFFFFFFFFFFFFFFFFFEFEFEFEFEFEFEFEFEFEFEFEFEFEFEFFFFFEFEFFFFFFFFFFFFFFFFFFFF
310
FFFFFFFFFFFFFFFFFFFFFFFFFFFFFFFFFEFEFFFFFEFEFFFFFFFFFFFFFFFFFFFFFFFFFFFFFFFFFFFFFFFFFFFFFFFFFFFFFEFEFFFFFEFEFFFFFFFFFFFFFFFFFFFFFFFFFFFFFFFFFFFFFFFFFFFFFFFFFFFFFEFEFFFFFEFEFFFFFFFFFFFFFFFFFFFFFFFFFFFFFFFFFFFFFFFFFFFFFFFFFFFFFEFEFFFFFEFEFFFFFFFFFFFFFFFFFF
310
FFFFFFFFFFFFFFFFFFFFFFFFFFFFFFFFFFFEFEFFFFFEFEFFFFFFFFFFFFFFFFFFFFFFFFFFFFFFFFFFFFFFFFFFFFFFFFFFFFFEFEFFFFFEFEFFFFFFFFFFFFFFFFFFFFFFFFFFFFFFFFFFFFFFFFFFFFFFFFFFFFFEFEFFFFFEFEFFFFFFFFFFFFFFFFFFFFFFFFFFFFFFFFFFFFFFFFFFFFFFFFFFFFFEFEFFFFFEFEFFFFFFFFFFFFFFFF
310
FFFFFFFFFFFFFFFFFFFFFFFFFFFFFFFFFFFFFEFEFFFFFEFEFFFFFFFFFFFFFFFFFFFFFFFFFFFFFFFFFFFFFFFFFFFFFFFFFFFFFEFEFFFFFEFEFFFFFFFFFFFFFFFFFFFFFFFFFFFFFFFFFFFFFFFFFFFFFFFFFFFFFEFEFFFFFEFEFFFFFFFFFFFFFFFFFFFFFFFFFFFFFFFFFFFFFFFFFFFFFFFFFFFFFEFEFFFFFEFEFFFFFFFFFFFFFF
310
FFFFFFFFFFFFFFFFFFFFFFFFFFFFFFFFFFFFFFFEFEFFFFFEFEFFFFFFFFFFFFFFFFFFFFFFFFFFFFFFFFFFFFFFFFFFFFFFFFFFFFFEFEFFFFFEFEFFFFFFFFFFFFFFFFFFFFFFFFFFFEFEFEFEFEFEFEFEFEFEFEFEFEFEFEFFFFFEFEFEFEFEFEFEFEFEFEFEFEFEFEFEFEFEFEFEFEFEFEFEFEFEFEFEFEFEFEFFFFFFFFFFFFFFFFFFFF
310
FFFFFFFFFFFFFFFFFFFFFFFFFFFFFFFFFFFFFFFFFFFFFFFFFFFFFFFFFFFFFFFFFFFFFFFFFFFFFFFFFFFFFFFFFFFFFFFFFFFFFFFFFFFFFFFFFFFFFFFFFFFFFFFFFFFFFFFFFFFFFFFFFFFFFFFFFFFFFFFFFFFFFFFFFFFFFFFFFFFFFFFFFFFFFFFFFFFFFFFFFFFFFFFFFFFFFFFFFFFFFFFFFFFFFFFFFFFFFFFFFFFFFFFFFFFFFF
310
FFFFFFFFFFFFFFFFFFFFFFFFFFFFFFFFFFFFFFFFFFFFFFFFFFFFFFFFFFFFFFFFFFFFFFFFFFFFFFFFFFFFFFFFFFFFFFFFFFFFFFFFFFFFFFFF
1001
AcDbDynamicBlockGUID
1000
{8B172018-922D-451E-856A-6CD22E88F27B}
1001
AcDbBlockRepETag
1070
     1
1071
      200
1001
ACAD
1000
DesignCenter Data
1002
{
1070
     1
1070
     4
1002
}
  0
BLOCK_RECORD
  5
679
330
1
100
AcDbSymbolTableRecord
100
AcDbBlockTableRecord
  2
*E3117
340
0
  0
ENDTAB
  0
ENDSEC
  0
SECTION
  2
BLOCKS
  0
BLOCK
  5
6D
330
6C
100
AcDbEntity
  8
0
100
AcDbBlockBegin
  2
*Model_Space
 70
     0
 10
0.0
 20
0.0
 30
0.0
  3
*Model_Space
  1

  0
ENDBLK
  5
6E
330
6C
100
AcDbEntity
  8
0
100
AcDbBlockEnd
  0
BLOCK
  5
69
330
68
100
AcDbEntity
 67
     1
  8
0
100
AcDbBlockBegin
  2
*Paper_Space
 70
     0
 10
0.0
 20
0.0
 30
0.0
  3
*Paper_Space
  1

  0
ENDBLK
  5
6A
330
68
100
AcDbEntity
 67
     1
  8
0
100
AcDbBlockEnd
  0
BLOCK
  5
71
330
70
100
AcDbEntity
 67
     1
  8
0
100
AcDbBlockBegin
  2
*Paper_Space0
 70
     0
 10
0.0
 20
0.0
 30
0.0
  3
*Paper_Space0
  1

  0
ENDBLK
  5
72
330
70
100
AcDbEntity
 67
     1
  8
0
100
AcDbBlockEnd
  0
BLOCK
  5
7E
330
7D
100
AcDbEntity
  8
0
100
AcDbBlockBegin
  2
_Open30
 70
     0
 10
0.0
 20
0.0
 30
0.0
  3
_Open30
  1

  0
LINE
  5
7F
330
7D
100
AcDbEntity
  8
0
  6
ByBlock
 62
     0
370
    -2
100
AcDbLine
 10
-1.0
 20
0.26794919
 30
0.0
 11
0.0
 21
0.0
 31
0.0
  0
LINE
  5
80
330
7D
100
AcDbEntity
  8
0
  6
ByBlock
 62
     0
370
    -2
100
AcDbLine
 10
0.0
 20
0.0
 30
0.0
 11
-1.0
 21
-0.26794919
 31
0.0
  0
LINE
  5
81
330
7D
100
AcDbEntity
  8
0
  6
ByBlock
 62
     0
370
    -2
100
AcDbLine
 10
0.0
 20
0.0
 30
0.0
 11
-1.0
 21
0.0
 31
0.0
  0
ENDBLK
  5
82
330
7D
100
AcDbEntity
  8
0
100
AcDbBlockEnd
  0
BLOCK
  5
107
330
106
100
AcDbEntity
  8
0
100
AcDbBlockBegin
  2
*D2
 70
     1
 10
0.0
 20
0.0
 30
0.0
  3
*D2
  1

  0
LINE
  5
82C
330
106
100
AcDbEntity
  8
dim
 62
     0
370
    -2
100
AcDbLine
 10
8.34818115130929
 20
323.9078868006871
 30
0.0
 11
8.34818115130929
 21
335.457543548426
 31
0.0
  0
LINE
  5
82D
330
106
100
AcDbEntity
  8
dim
 62
     0
370
    -2
100
AcDbLine
 10
80.34817965868398
 20
323.9078868006871
 30
0.0
 11
80.34817965868398
 21
335.457543548426
 31
0.0
  0
LINE
  5
82E
330
106
100
AcDbEntity
  8
dim
 62
     0
370
    -2
100
AcDbLine
 10
9.348181130578383
 20
334.9575435587915
 30
0.0
 11
79.3481796794149
 21
334.9575435587915
 31
0.0
  0
INSERT
  5
82F
330
106
100
AcDbEntity
  8
dim
 62
     0
370
    -2
100
AcDbBlockReference
  2
_Open30
 10
8.34818115130929
 20
334.9575435587915
 30
0.0
 41
0.9999999792690925
 42
0.9999999792690925
 43
0.9999999792690925
 50
180.0
  0
INSERT
  5
830
330
106
100
AcDbEntity
  8
dim
 62
     0
370
    -2
100
AcDbBlockReference
  2
_Open30
 10
80.34817965868398
 20
334.9575435587915
 30
0.0
 41
0.9999999792690925
 42
0.9999999792690925
 43
0.9999999792690925
  0
MTEXT
  5
831
330
106
100
AcDbEntity
  8
dim
 62
     3
100
AcDbMText
 10
44.34818040499663
 20
336.7700435212167
 30
0.0
 40
2.999999937807277
 41
0.0
 71
     5
 72
     1
  1
36
  7
ATOM
 73
     1
 44
1.0
1001
ACAD
1000
MTEXTBEGIN
1070
    73
1070
     1
1070
    44
1040
1.0
1070
    74
1070
     0
1000
MTEXTEND
  0
POINT
  5
832
330
106
100
AcDbEntity
  8
Defpoints
 62
     0
100
AcDbPoint
 10
8.34818115130929
 20
322.9078868214181
 30
0.0
  0
POINT
  5
833
330
106
100
AcDbEntity
  8
Defpoints
 62
     0
100
AcDbPoint
 10
80.34817965868398
 20
322.9078868214181
 30
0.0
  0
POINT
  5
834
330
106
100
AcDbEntity
  8
Defpoints
 62
     0
100
AcDbPoint
 10
80.34817965868398
 20
334.9575435587915
 30
0.0
  0
ENDBLK
  5
108
330
106
100
AcDbEntity
  8
0
100
AcDbBlockEnd
  0
BLOCK
  5
228
330
227
100
AcDbEntity
  8
0
100
AcDbBlockBegin
  2
*D3
 70
     1
 10
0.0
 20
0.0
 30
0.0
  3
*D3
  1

  0
LINE
  5
835
330
227
100
AcDbEntity
  8
dim
 62
     0
370
    -2
100
AcDbLine
 10
266.9029842489258
 20
307.5162472005491
 30
0.0
 11
266.9029842489258
 21
291.5781023723677
 31
0.0
  0
LINE
  5
836
330
227
100
AcDbEntity
  8
dim
 62
     0
370
    -2
100
AcDbLine
 10
272.902984035914
 20
314.5119353252827
 30
0.0
 11
272.902984035914
 21
291.5781023723677
 31
0.0
  0
LINE
  5
837
330
227
100
AcDbEntity
  8
dim
 62
     0
370
    -2
100
AcDbLine
 10
264.4029843376817
 20
292.8281023279897
 30
0.0
 11
261.9029844264375
 21
292.8281023279897
 31
0.0
  0
LINE
  5
838
330
227
100
AcDbEntity
  8
dim
 62
     0
370
    -2
100
AcDbLine
 10
275.4029839471581
 20
292.8281023279897
 30
0.0
 11
277.9029838584023
 21
292.8281023279897
 31
0.0
  0
MTEXT
  5
839
330
227
100
AcDbEntity
  8
dim
 62
     3
100
AcDbMText
 10
280.5389113021338
 20
295.4843522336867
 30
0.0
 40
3.749999866866226
 41
0.0
 71
     5
 72
     1
  1
1.2
  7
ATOM
 73
     1
 44
1.0
1001
ACAD
1000
MTEXTBEGIN
1070
    73
1070
     1
1070
    44
1040
1.0
1070
    74
1070
     0
1000
MTEXTEND
  0
LINE
  5
83A
330
227
100
AcDbEntity
  8
dim
 62
     0
370
    -2
100
AcDbLine
 10
266.9029842489258
 20
292.8281023279897
 30
0.0
 11
272.902984035914
 21
292.8281023279897
 31
0.0
  0
INSERT
  5
83B
330
227
100
AcDbEntity
  8
dim
 62
     0
370
    -2
100
AcDbBlockReference
  2
_Open30
 10
266.9029842489258
 20
292.8281023279897
 30
0.0
 41
2.499999911244151
 42
2.499999911244151
 43
2.499999911244151
  0
INSERT
  5
83C
330
227
100
AcDbEntity
  8
dim
 62
     0
370
    -2
100
AcDbBlockReference
  2
_Open30
 10
272.902984035914
 20
292.8281023279897
 30
0.0
 41
2.499999911244151
 42
2.499999911244151
 43
2.499999911244151
 50
180.0
  0
POINT
  5
83D
330
227
100
AcDbEntity
  8
Defpoints
 62
     0
100
AcDbPoint
 10
266.9029842489258
 20
308.7662471561712
 30
0.0
  0
POINT
  5
83E
330
227
100
AcDbEntity
  8
Defpoints
 62
     0
100
AcDbPoint
 10
272.902984035914
 20
315.7619352809047
 30
0.0
  0
POINT
  5
83F
330
227
100
AcDbEntity
  8
Defpoints
 62
     0
100
AcDbPoint
 10
272.902984035914
 20
292.8281023279897
 30
0.0
  0
ENDBLK
  5
229
330
227
100
AcDbEntity
  8
0
100
AcDbBlockEnd
  0
BLOCK
  5
236
330
235
100
AcDbEntity
  8
0
100
AcDbBlockBegin
  2
*D4
 70
     1
 10
0.0
 20
0.0
 30
0.0
  3
*D4
  1

  0
LINE
  5
840
330
235
100
AcDbEntity
  8
dim
 62
     0
370
    -2
100
AcDbLine
 10
273.9029840004113
 20
341.7662459845956
 30
0.0
 11
314.3939769727526
 21
341.7662459845956
 31
0.0
  0
LINE
  5
841
330
235
100
AcDbEntity
  8
dim
 62
     0
370
    -2
100
AcDbLine
 10
275.9029839294071
 20
306.7662472271773
 30
0.0
 11
314.3939769727526
 21
306.7662472271773
 31
0.0
  0
LINE
  5
842
330
235
100
AcDbEntity
  8
dim
 62
     0
370
    -2
100
AcDbLine
 10
313.1439770171305
 20
339.2662460733514
 30
0.0
 11
313.1439770171305
 21
309.2662471384214
 31
0.0
  0
INSERT
  5
843
330
235
100
AcDbEntity
  8
dim
 62
     0
370
    -2
100
AcDbBlockReference
  2
_Open30
 10
313.1439770171305
 20
341.7662459845956
 30
0.0
 41
2.499999911244151
 42
2.499999911244151
 43
2.499999911244151
 50
90.0
  0
INSERT
  5
844
330
235
100
AcDbEntity
  8
dim
 62
     0
370
    -2
100
AcDbBlockReference
  2
_Open30
 10
313.1439770171305
 20
306.7662472271773
 30
0.0
 41
2.499999911244151
 42
2.499999911244151
 43
2.499999911244151
 50
270.0
  0
MTEXT
  5
845
330
235
100
AcDbEntity
  8
dim
 62
     3
100
AcDbMText
 10
310.4877271114335
 20
324.2662466058864
 30
0.0
 40
3.749999866866226
 41
0.0
 71
     5
 72
     1
  1
7
  7
ATOM
 11
0.0000000000000001
 21
1.0
 31
0.0
 73
     1
 44
1.0
1001
ACAD
1000
MTEXTBEGIN
1070
    73
1070
     1
1070
    44
1040
1.0
1070
    74
1070
     0
1000
MTEXTEND
  0
POINT
  5
846
330
235
100
AcDbEntity
  8
Defpoints
 62
     0
100
AcDbPoint
 10
271.4029840891671
 20
341.7662459845956
 30
0.0
  0
POINT
  5
847
330
235
100
AcDbEntity
  8
Defpoints
 62
     0
100
AcDbPoint
 10
273.4029840181629
 20
306.7662472271773
 30
0.0
  0
POINT
  5
848
330
235
100
AcDbEntity
  8
Defpoints
 62
     0
100
AcDbPoint
 10
313.1439770171305
 20
306.7662472271773
 30
0.0
  0
ENDBLK
  5
237
330
235
100
AcDbEntity
  8
0
100
AcDbBlockEnd
  0
BLOCK
  5
247
330
246
100
AcDbEntity
  8
0
100
AcDbBlockBegin
  2
*D5
 70
     1
 10
0.0
 20
0.0
 30
0.0
  3
*D5
  1

  0
LINE
  5
849
330
246
100
AcDbEntity
  8
dim
 62
     0
370
    -2
100
AcDbLine
 10
272.4029840536681
 20
341.7662459845965
 30
0.0
 11
301.2870130664524
 21
341.7662459845965
 31
0.0
  0
LINE
  5
84A
330
246
100
AcDbEntity
  8
dim
 62
     0
370
    -2
100
AcDbLine
 10
270.6529841157939
 20
324.2662466058868
 30
0.0
 11
301.2870130664524
 21
324.2662466058868
 31
0.0
  0
LINE
  5
84B
330
246
100
AcDbEntity
  8
dim
 62
     0
370
    -2
100
AcDbLine
 10
300.0370131108302
 20
339.2662460733523
 30
0.0
 11
300.0370131108302
 21
326.766246517131
 31
0.0
  0
MTEXT
  5
84C
330
246
100
AcDbEntity
  8
dim
 62
     3
100
AcDbMText
 10
296.5995132328692
 20
333.0162462952412
 30
0.0
 40
3.749999866866226
 41
0.0
 71
     5
 72
     1
  1
3.5
  7
ATOM
 11
0.0000000000000001
 21
1.0
 31
0.0
 73
     1
 44
1.0
1001
ACAD
1000
MTEXTBEGIN
1070
    73
1070
     1
1070
    44
1040
1.0
1070
    74
1070
     0
1000
MTEXTEND
  0
INSERT
  5
84D
330
246
100
AcDbEntity
  8
dim
 62
     0
370
    -2
100
AcDbBlockReference
  2
_Open30
 10
300.0370131108302
 20
341.7662459845965
 30
0.0
 41
2.499999911244151
 42
2.499999911244151
 43
2.499999911244151
 50
90.0
  0
INSERT
  5
84E
330
246
100
AcDbEntity
  8
dim
 62
     0
370
    -2
100
AcDbBlockReference
  2
_Open30
 10
300.0370131108302
 20
324.2662466058868
 30
0.0
 41
2.499999911244151
 42
2.499999911244151
 43
2.499999911244151
 50
270.0
  0
POINT
  5
84F
330
246
100
AcDbEntity
  8
Defpoints
 62
     0
100
AcDbPoint
 10
271.1529840980461
 20
341.7662459845965
 30
0.0
  0
POINT
  5
850
330
246
100
AcDbEntity
  8
Defpoints
 62
     0
100
AcDbPoint
 10
269.4029841601718
 20
324.2662466058868
 30
0.0
  0
POINT
  5
851
330
246
100
AcDbEntity
  8
Defpoints
 62
     0
100
AcDbPoint
 10
300.0370131108302
 20
324.2662466058868
 30
0.0
  0
ENDBLK
  5
248
330
246
100
AcDbEntity
  8
0
100
AcDbBlockEnd
  0
BLOCK
  5
255
330
254
100
AcDbEntity
  8
0
100
AcDbBlockBegin
  2
*D6
 70
     1
 10
0.0
 20
0.0
 30
0.0
  3
*D6
  1

  0
LINE
  5
852
330
254
100
AcDbEntity
  8
dim
 62
     0
370
    -2
100
AcDbLine
 10
270.6529841157939
 20
324.2662466058868
 30
0.0
 11
301.2870130664524
 21
324.2662466058868
 31
0.0
  0
LINE
  5
853
330
254
100
AcDbEntity
  8
dim
 62
     0
370
    -2
100
AcDbLine
 10
270.6529841157939
 20
319.2662467834002
 30
0.0
 11
301.2870130664524
 21
319.2662467834002
 31
0.0
  0
LINE
  5
854
330
254
100
AcDbEntity
  8
dim
 62
     0
370
    -2
100
AcDbLine
 10
300.0370131108302
 20
326.766246517131
 30
0.0
 11
300.0370131108302
 21
329.2662464283751
 31
0.0
  0
LINE
  5
855
330
254
100
AcDbEntity
  8
dim
 62
     0
370
    -2
100
AcDbLine
 10
300.0370131108302
 20
316.7662468721561
 30
0.0
 11
300.0370131108302
 21
314.2662469609119
 31
0.0
  0
MTEXT
  5
856
330
254
100
AcDbEntity
  8
dim
 62
     3
100
AcDbMText
 10
296.5995132328692
 20
323.0162466502656
 30
0.0
 40
3.749999866866226
 41
0.0
 71
     5
 72
     1
  1
1
  7
ATOM
 11
0.0000000000000001
 21
1.0
 31
0.0
 73
     1
 44
1.0
1001
ACAD
1000
MTEXTBEGIN
1070
    73
1070
     1
1070
    44
1040
1.0
1070
    74
1070
     0
1000
MTEXTEND
  0
LINE
  5
857
330
254
100
AcDbEntity
  8
dim
 62
     0
370
    -2
100
AcDbLine
 10
300.0370131108302
 20
324.2662466058868
 30
0.0
 11
300.0370131108302
 21
319.2662467834002
 31
0.0
  0
INSERT
  5
858
330
254
100
AcDbEntity
  8
dim
 62
     0
370
    -2
100
AcDbBlockReference
  2
_Open30
 10
300.0370131108302
 20
324.2662466058868
 30
0.0
 41
2.499999911244151
 42
2.499999911244151
 43
2.499999911244151
 50
270.0
  0
INSERT
  5
859
330
254
100
AcDbEntity
  8
dim
 62
     0
370
    -2
100
AcDbBlockReference
  2
_Open30
 10
300.0370131108302
 20
319.2662467834002
 30
0.0
 41
2.499999911244151
 42
2.499999911244151
 43
2.499999911244151
 50
90.0
  0
POINT
  5
85A
330
254
100
AcDbEntity
  8
Defpoints
 62
     0
100
AcDbPoint
 10
269.4029841601718
 20
324.2662466058868
 30
0.0
  0
POINT
  5
85B
330
254
100
AcDbEntity
  8
Defpoints
 62
     0
100
AcDbPoint
 10
269.4029841601718
 20
319.2662467834002
 30
0.0
  0
POINT
  5
85C
330
254
100
AcDbEntity
  8
Defpoints
 62
     0
100
AcDbPoint
 10
300.0370131108302
 20
319.2662467834002
 30
0.0
  0
ENDBLK
  5
256
330
254
100
AcDbEntity
  8
0
100
AcDbBlockEnd
  0
BLOCK
  5
263
330
262
100
AcDbEntity
  8
0
100
AcDbBlockBegin
  2
*D7
 70
     1
 10
0.0
 20
0.0
 30
0.0
  3
*D7
  1

  0
LINE
  5
85D
330
262
100
AcDbEntity
  8
dim
 62
     0
370
    -2
100
AcDbLine
 10
270.6529841157939
 20
319.2662467833998
 30
0.0
 11
301.2870130664514
 21
319.2662467833998
 31
0.0
  0
LINE
  5
85E
330
262
100
AcDbEntity
  8
dim
 62
     0
370
    -2
100
AcDbLine
 10
269.9029841424184
 20
306.7662472271754
 30
0.0
 11
301.2870130664514
 21
306.7662472271754
 31
0.0
  0
LINE
  5
85F
330
262
100
AcDbEntity
  8
dim
 62
     0
370
    -2
100
AcDbLine
 10
300.0370131108293
 20
316.7662468721556
 30
0.0
 11
300.0370131108293
 21
309.2662471384196
 31
0.0
  0
MTEXT
  5
860
330
262
100
AcDbEntity
  8
dim
 62
     3
100
AcDbMText
 10
296.5995132328688
 20
313.0162470052878
 30
0.0
 40
3.749999866866226
 41
0.0
 71
     5
 72
     1
  1
2.5
  7
ATOM
 11
0.0000000000000001
 21
1.0
 31
0.0
 73
     1
 44
1.0
1001
ACAD
1000
MTEXTBEGIN
1070
    73
1070
     1
1070
    44
1040
1.0
1070
    74
1070
     0
1000
MTEXTEND
  0
INSERT
  5
861
330
262
100
AcDbEntity
  8
dim
 62
     0
370
    -2
100
AcDbBlockReference
  2
_Open30
 10
300.0370131108293
 20
319.2662467833998
 30
0.0
 41
2.499999911244151
 42
2.499999911244151
 43
2.499999911244151
 50
90.0
  0
INSERT
  5
862
330
262
100
AcDbEntity
  8
dim
 62
     0
370
    -2
100
AcDbBlockReference
  2
_Open30
 10
300.0370131108293
 20
306.7662472271754
 30
0.0
 41
2.499999911244151
 42
2.499999911244151
 43
2.499999911244151
 50
270.0
  0
POINT
  5
863
330
262
100
AcDbEntity
  8
Defpoints
 62
     0
100
AcDbPoint
 10
269.4029841601718
 20
319.2662467833998
 30
0.0
  0
POINT
  5
864
330
262
100
AcDbEntity
  8
Defpoints
 62
     0
100
AcDbPoint
 10
268.6529841867964
 20
306.7662472271754
 30
0.0
  0
POINT
  5
865
330
262
100
AcDbEntity
  8
Defpoints
 62
     0
100
AcDbPoint
 10
300.0370131108293
 20
306.7662472271754
 30
0.0
  0
ENDBLK
  5
264
330
262
100
AcDbEntity
  8
0
100
AcDbBlockEnd
  0
BLOCK
  5
271
330
270
100
AcDbEntity
  8
0
100
AcDbBlockBegin
  2
*D8
 70
     1
 10
0.0
 20
0.0
 30
0.0
  3
*D8
  1

  0
LINE
  5
866
330
270
100
AcDbEntity
  8
dim
 62
     0
370
    -2
100
AcDbLine
 10
194.4029868228399
 20
316.7662468720796
 30
0.0
 11
194.4029868228399
 21
295.6411217687324
 31
0.0
  0
LINE
  5
867
330
270
100
AcDbEntity
  8
dim
 62
     0
370
    -2
100
AcDbLine
 10
199.4029866453283
 20
316.7662468721019
 30
0.0
 11
199.4029866453283
 21
295.6411217687324
 31
0.0
  0
LINE
  5
868
330
270
100
AcDbEntity
  8
dim
 62
     0
370
    -2
100
AcDbLine
 10
191.9029869115957
 20
296.8911217243544
 30
0.0
 11
189.4029870003516
 21
296.8911217243544
 31
0.0
  0
LINE
  5
869
330
270
100
AcDbEntity
  8
dim
 62
     0
370
    -2
100
AcDbLine
 10
201.9029865565725
 20
296.8911217243544
 30
0.0
 11
204.4029864678167
 21
296.8911217243544
 31
0.0
  0
LINE
  5
86A
330
270
100
AcDbEntity
  8
dim
 62
     0
370
    -2
100
AcDbLine
 10
208.7976409175616
 20
296.8911217243544
 30
0.0
 11
199.4029866453283
 21
296.8911217243544
 31
0.0
  0
MTEXT
  5
86B
330
270
100
AcDbEntity
  8
dim
 62
     3
100
AcDbMText
 10
207.4538909652679
 20
299.5473716300514
 30
0.0
 40
3.749999866866226
 41
0.0
 71
     5
 72
     1
  1
1
  7
ATOM
 73
     1
 44
1.0
1001
ACAD
1000
MTEXTBEGIN
1070
    73
1070
     1
1070
    44
1040
1.0
1070
    74
1070
     0
1000
MTEXTEND
  0
LINE
  5
86C
330
270
100
AcDbEntity
  8
dim
 62
     0
370
    -2
100
AcDbLine
 10
194.4029868228399
 20
296.8911217243544
 30
0.0
 11
199.4029866453283
 21
296.8911217243544
 31
0.0
  0
LINE
  5
86D
330
270
100
AcDbEntity
  8
dim
 62
     0
370
    -2
100
AcDbLine
 10
194.4029868228399
 20
296.8911217243544
 30
0.0
 11
199.4029866453283
 21
296.8911217243544
 31
0.0
  0
INSERT
  5
86E
330
270
100
AcDbEntity
  8
dim
 62
     0
370
    -2
100
AcDbBlockReference
  2
_Open30
 10
194.4029868228399
 20
296.8911217243544
 30
0.0
 41
2.499999911244151
 42
2.499999911244151
 43
2.499999911244151
  0
INSERT
  5
86F
330
270
100
AcDbEntity
  8
dim
 62
     0
370
    -2
100
AcDbBlockReference
  2
_Open30
 10
199.4029866453283
 20
296.8911217243544
 30
0.0
 41
2.499999911244151
 42
2.499999911244151
 43
2.499999911244151
 50
180.0
  0
POINT
  5
870
330
270
100
AcDbEntity
  8
Defpoints
 62
     0
100
AcDbPoint
 10
194.4029868228399
 20
319.2662467833238
 30
0.0
  0
POINT
  5
871
330
270
100
AcDbEntity
  8
Defpoints
 62
     0
100
AcDbPoint
 10
199.4029866453283
 20
319.2662467833462
 30
0.0
  0
POINT
  5
872
330
270
100
AcDbEntity
  8
Defpoints
 62
     0
100
AcDbPoint
 10
199.4029866453283
 20
296.8911217243544
 30
0.0
  0
ENDBLK
  5
272
330
270
100
AcDbEntity
  8
0
100
AcDbBlockEnd
  0
BLOCK
  5
27F
330
27E
100
AcDbEntity
  8
0
100
AcDbBlockBegin
  2
*D9
 70
     1
 10
0.0
 20
0.0
 30
0.0
  3
*D9
  1

  0
LINE
  5
873
330
27E
100
AcDbEntity
  8
dim
 62
     0
370
    -2
100
AcDbLine
 10
194.40298682284
 20
321.7662466945717
 30
0.0
 11
186.6581365823572
 21
321.7662466945717
 31
0.0
  0
LINE
  5
874
330
27E
100
AcDbEntity
  8
dim
 62
     0
370
    -2
100
AcDbLine
 10
191.9029869116108
 20
319.2662467833388
 30
0.0
 11
186.6581365823572
 21
319.2662467833388
 31
0.0
  0
LINE
  5
875
330
27E
100
AcDbEntity
  8
dim
 62
     0
370
    -2
100
AcDbLine
 10
187.9081365379793
 20
324.2662466058159
 30
0.0
 11
187.9081365379793
 21
326.76624651706
 31
0.0
  0
LINE
  5
876
330
27E
100
AcDbEntity
  8
dim
 62
     0
370
    -2
100
AcDbLine
 10
187.9081365379793
 20
316.7662468720946
 30
0.0
 11
187.9081365379793
 21
314.2662469608505
 31
0.0
  0
LINE
  5
877
330
27E
100
AcDbEntity
  8
dim
 62
     0
370
    -2
100
AcDbLine
 10
187.9081365379793
 20
306.2040959957267
 30
0.0
 11
187.9081365379793
 21
319.2662467833388
 31
0.0
  0
MTEXT
  5
878
330
27E
100
AcDbEntity
  8
dim
 62
     3
100
AcDbMText
 10
185.2518866322824
 20
310.0790958581551
 30
0.0
 40
3.749999866866226
 41
0.0
 71
     5
 72
     1
  1
0.5
  7
ATOM
 11
0.0000000000000001
 21
1.0
 31
0.0
 73
     1
 44
1.0
1001
ACAD
1000
MTEXTBEGIN
1070
    73
1070
     1
1070
    44
1040
1.0
1070
    74
1070
     0
1000
MTEXTEND
  0
LINE
  5
879
330
27E
100
AcDbEntity
  8
dim
 62
     0
370
    -2
100
AcDbLine
 10
187.9081365379793
 20
321.7662466945717
 30
0.0
 11
187.9081365379793
 21
319.2662467833388
 31
0.0
  0
LINE
  5
87A
330
27E
100
AcDbEntity
  8
dim
 62
     0
370
    -2
100
AcDbLine
 10
187.9081365379793
 20
321.7662466945717
 30
0.0
 11
187.9081365379793
 21
319.2662467833388
 31
0.0
  0
INSERT
  5
87B
330
27E
100
AcDbEntity
  8
dim
 62
     0
370
    -2
100
AcDbBlockReference
  2
_Open30
 10
187.9081365379793
 20
321.7662466945717
 30
0.0
 41
2.499999911244151
 42
2.499999911244151
 43
2.499999911244151
 50
270.0
  0
INSERT
  5
87C
330
27E
100
AcDbEntity
  8
dim
 62
     0
370
    -2
100
AcDbBlockReference
  2
_Open30
 10
187.9081365379793
 20
319.2662467833388
 30
0.0
 41
2.499999911244151
 42
2.499999911244151
 43
2.499999911244151
 50
90.0
  0
POINT
  5
87D
330
27E
100
AcDbEntity
  8
Defpoints
 62
     0
100
AcDbPoint
 10
196.9029867340841
 20
321.7662466945717
 30
0.0
  0
POINT
  5
87E
330
27E
100
AcDbEntity
  8
Defpoints
 62
     0
100
AcDbPoint
 10
194.4029868228549
 20
319.2662467833388
 30
0.0
  0
POINT
  5
87F
330
27E
100
AcDbEntity
  8
Defpoints
 62
     0
100
AcDbPoint
 10
187.9081365379793
 20
319.2662467833388
 30
0.0
  0
ENDBLK
  5
280
330
27E
100
AcDbEntity
  8
0
100
AcDbBlockEnd
  0
BLOCK
  5
28D
330
28C
100
AcDbEntity
  8
0
100
AcDbBlockBegin
  2
*D10
 70
     1
 10
0.0
 20
0.0
 30
0.0
  3
*D10
  1

  0
LINE
  5
880
330
28C
100
AcDbEntity
  8
dim
 62
     0
370
    -2
100
AcDbLine
 10
269.4029841601718
 20
341.2662460023479
 30
0.0
 11
269.4029841601718
 21
358.4474274014697
 31
0.0
  0
LINE
  5
881
330
28C
100
AcDbEntity
  8
dim
 62
     0
370
    -2
100
AcDbLine
 10
272.902984035914
 20
341.2662460023475
 30
0.0
 11
272.902984035914
 21
358.4474274014697
 31
0.0
  0
LINE
  5
882
330
28C
100
AcDbEntity
  8
dim
 62
     0
370
    -2
100
AcDbLine
 10
266.9029842489277
 20
355.9474274902254
 30
0.0
 11
264.4029843376836
 21
355.9474274902254
 31
0.0
  0
LINE
  5
883
330
28C
100
AcDbEntity
  8
dim
 62
     0
370
    -2
100
AcDbLine
 10
275.4029839471581
 20
355.9474274902254
 30
0.0
 11
277.9029838584023
 21
355.9474274902254
 31
0.0
  0
MTEXT
  5
884
330
28C
100
AcDbEntity
  8
dim
 62
     3
100
AcDbMText
 10
264.4029843376834
 20
359.3849273681862
 30
0.0
 40
3.749999866866226
 41
0.0
 71
     5
 72
     1
  1
0.7
  7
ATOM
 73
     1
 44
1.0
1001
ACAD
1000
MTEXTBEGIN
1070
    73
1070
     1
1070
    44
1040
1.0
1070
    74
1070
     0
1000
MTEXTEND
  0
LINE
  5
885
330
28C
100
AcDbEntity
  8
dim
 62
     0
370
    -2
100
AcDbLine
 10
269.4029841601718
 20
355.9474274902254
 30
0.0
 11
272.902984035914
 21
355.9474274902254
 31
0.0
  0
INSERT
  5
886
330
28C
100
AcDbEntity
  8
dim
 62
     0
370
    -2
100
AcDbBlockReference
  2
_Open30
 10
269.4029841601718
 20
355.9474274902254
 30
0.0
 41
2.499999911244151
 42
2.499999911244151
 43
2.499999911244151
  0
INSERT
  5
887
330
28C
100
AcDbEntity
  8
dim
 62
     0
370
    -2
100
AcDbBlockReference
  2
_Open30
 10
272.902984035914
 20
355.9474274902254
 30
0.0
 41
2.499999911244151
 42
2.499999911244151
 43
2.499999911244151
 50
180.0
  0
POINT
  5
888
330
28C
100
AcDbEntity
  8
Defpoints
 62
     0
100
AcDbPoint
 10
269.4029841601718
 20
340.0162460467259
 30
0.0
  0
POINT
  5
889
330
28C
100
AcDbEntity
  8
Defpoints
 62
     0
100
AcDbPoint
 10
272.902984035914
 20
340.0162460467254
 30
0.0
  0
POINT
  5
88A
330
28C
100
AcDbEntity
  8
Defpoints
 62
     0
100
AcDbPoint
 10
272.902984035914
 20
355.9474274902254
 30
0.0
  0
ENDBLK
  5
28E
330
28C
100
AcDbEntity
  8
0
100
AcDbBlockEnd
  0
BLOCK
  5
29B
330
29A
100
AcDbEntity
  8
0
100
AcDbBlockBegin
  2
*D11
 70
     1
 10
0.0
 20
0.0
 30
0.0
  3
*D11
  1

  0
LINE
  5
88B
330
29A
100
AcDbEntity
  8
dim
 62
     0
370
    -2
100
AcDbLine
 10
181.9029872666265
 20
325.5162465615089
 30
0.0
 11
181.9029872666265
 21
337.0640296772699
 31
0.0
  0
LINE
  5
88C
330
29A
100
AcDbEntity
  8
dim
 62
     0
370
    -2
100
AcDbLine
 10
196.9029867340914
 20
330.5043393609484
 30
0.0
 11
196.9029867340914
 21
337.0640296772699
 31
0.0
  0
LINE
  5
88D
330
29A
100
AcDbEntity
  8
dim
 62
     0
370
    -2
100
AcDbLine
 10
184.4029871778706
 20
335.8140297216478
 30
0.0
 11
194.4029868228473
 21
335.8140297216478
 31
0.0
  0
INSERT
  5
88E
330
29A
100
AcDbEntity
  8
dim
 62
     0
370
    -2
100
AcDbBlockReference
  2
_Open30
 10
181.9029872666265
 20
335.8140297216478
 30
0.0
 41
2.499999911244151
 42
2.499999911244151
 43
2.499999911244151
 50
180.0
  0
INSERT
  5
88F
330
29A
100
AcDbEntity
  8
dim
 62
     0
370
    -2
100
AcDbBlockReference
  2
_Open30
 10
196.9029867340914
 20
335.8140297216478
 30
0.0
 41
2.499999911244151
 42
2.499999911244151
 43
2.499999911244151
  0
MTEXT
  5
890
330
29A
100
AcDbEntity
  8
dim
 62
     3
100
AcDbMText
 10
189.4029870003589
 20
339.2515295996085
 30
0.0
 40
3.749999866866226
 41
0.0
 71
     5
 72
     1
  1
3
  7
ATOM
 73
     1
 44
1.0
1001
ACAD
1000
MTEXTBEGIN
1070
    73
1070
     1
1070
    44
1040
1.0
1070
    74
1070
     0
1000
MTEXTEND
  0
POINT
  5
891
330
29A
100
AcDbEntity
  8
Defpoints
 62
     0
100
AcDbPoint
 10
181.9029872666265
 20
324.2662466058868
 30
0.0
  0
POINT
  5
892
330
29A
100
AcDbEntity
  8
Defpoints
 62
     0
100
AcDbPoint
 10
196.9029867340914
 20
329.2543394053264
 30
0.0
  0
POINT
  5
893
330
29A
100
AcDbEntity
  8
Defpoints
 62
     0
100
AcDbPoint
 10
196.9029867340914
 20
335.8140297216478
 30
0.0
  0
ENDBLK
  5
29C
330
29A
100
AcDbEntity
  8
0
100
AcDbBlockEnd
  0
BLOCK
  5
2AC
330
2AB
100
AcDbEntity
  8
0
100
AcDbBlockBegin
  2
*D12
 70
     1
 10
0.0
 20
0.0
 30
0.0
  3
*D12
  1

  0
LINE
  5
894
330
2AB
100
AcDbEntity
  8
dim
 62
     0
370
    -2
100
AcDbLine
 10
286.7011680283598
 20
303.0212627145251
 30
0.0
 11
273.9016048043447
 21
308.9951050381809
 31
0.0
  0
MTEXT
  5
895
330
2AB
100
AcDbEntity
  8
dim
 62
     3
100
AcDbMText
 10
282.5442742131392
 20
307.8582051548287
 30
0.0
 40
3.749999866866226
 41
0.0
 71
     5
 72
     1
  1
R2.7
  7
ATOM
 11
0.9061638002427894
 21
-0.4229269051852178
 31
0.0
 73
     1
 44
1.0
1001
ACAD
1000
MTEXTBEGIN
1070
    73
1070
     1
1070
    44
1040
1.0
1070
    74
1070
     0
1000
MTEXTEND
  0
INSERT
  5
896
330
2AB
100
AcDbEntity
  8
dim
 62
     0
370
    -2
100
AcDbBlockReference
  2
_Open30
 10
271.6361953841651
 20
310.0524222636067
 30
0.0
 41
2.499999911244151
 42
2.499999911244151
 43
2.499999911244151
 50
154.9804863516775
  0
POINT
  5
897
330
2AB
100
AcDbEntity
  8
Defpoints
 62
     0
100
AcDbPoint
 10
271.6361953841651
 20
310.0524222636067
 30
0.0
  0
POINT
  5
898
330
2AB
100
AcDbEntity
  8
Defpoints
 62
     0
100
AcDbPoint
 10
259.4029845151954
 20
315.761935280906
 30
0.0
  0
ENDBLK
  5
2AD
330
2AB
100
AcDbEntity
  8
0
100
AcDbBlockEnd
  0
BLOCK
  5
2B4
330
2B3
100
AcDbEntity
  8
0
100
AcDbBlockBegin
  2
*D13
 70
     1
 10
0.0
 20
0.0
 30
0.0
  3
*D13
  1

  0
LINE
  5
899
330
2B3
100
AcDbEntity
  8
dim
 62
     0
370
    -2
100
AcDbLine
 10
249.2142742407586
 20
300.0873278980745
 30
0.0
 11
264.753773932133
 21
306.8254904979257
 31
0.0
  0
MTEXT
  5
89A
330
2B3
100
AcDbEntity
  8
dim
 62
     3
100
AcDbMText
 10
254.7929066583232
 20
305.367463570844
 30
0.0
 40
3.749999866866226
 41
0.0
 71
     5
 72
     1
  1
R0.35
  7
ATOM
 11
0.917461268963127
 21
0.397825112269913
 31
0.0
 73
     1
 44
1.0
1001
ACAD
1000
MTEXTBEGIN
1070
    73
1070
     1
1070
    44
1040
1.0
1070
    74
1070
     0
1000
MTEXTEND
  0
LINE
  5
89B
330
2B3
100
AcDbEntity
  8
dim
 62
     0
370
    -2
100
AcDbLine
 10
268.6529841867965
 20
308.5162471650475
 30
0.0
 11
267.0474270231107
 21
307.8200532432911
 31
0.0
  0
INSERT
  5
89C
330
2B3
100
AcDbEntity
  8
dim
 62
     0
370
    -2
100
AcDbBlockReference
  2
_Open30
 10
267.0474270231107
 20
307.8200532432911
 30
0.0
 41
2.499999911244151
 42
2.499999911244151
 43
2.499999911244151
 50
23.44228596737851
  0
POINT
  5
89D
330
2B3
100
AcDbEntity
  8
Defpoints
 62
     0
100
AcDbPoint
 10
267.0474270231107
 20
307.8200532432911
 30
0.0
  0
POINT
  5
89E
330
2B3
100
AcDbEntity
  8
Defpoints
 62
     0
100
AcDbPoint
 10
268.6529841867965
 20
308.5162471650475
 30
0.0
  0
ENDBLK
  5
2B5
330
2B3
100
AcDbEntity
  8
0
100
AcDbBlockEnd
  0
BLOCK
  5
2BD
330
2BC
100
AcDbEntity
  8
0
100
AcDbBlockBegin
  2
*D14
 70
     1
 10
0.0
 20
0.0
 30
0.0
  3
*D14
  1

  0
LINE
  5
89F
330
2BC
100
AcDbEntity
  8
dim
 62
     0
370
    -2
100
AcDbLine
 10
216.9032277730391
 20
333.9262740780436
 30
0.0
 11
266.2994970443888
 21
312.8143751134662
 31
0.0
  0
MTEXT
  5
8A0
330
2BC
100
AcDbEntity
  8
dim
 62
     3
100
AcDbMText
 10
221.2107172830091
 20
334.9399623837282
 30
0.0
 40
3.749999866866226
 41
0.0
 71
     5
 72
     1
  1
R2
  7
ATOM
 11
0.9195350365380823
 21
-0.3930080362777679
 31
0.0
 73
     1
 44
1.0
1001
ACAD
1000
MTEXTBEGIN
1070
    73
1070
     1
1070
    44
1040
1.0
1070
    74
1070
     0
1000
MTEXTEND
  0
INSERT
  5
8A1
330
2BC
100
AcDbEntity
  8
dim
 62
     0
370
    -2
100
AcDbBlockReference
  2
_Open30
 10
268.5983345541199
 20
311.8318550576535
 30
0.0
 41
2.499999911244151
 42
2.499999911244151
 43
2.499999911244151
 50
336.8582018349223
  0
POINT
  5
8A2
330
2BC
100
AcDbEntity
  8
Defpoints
 62
     0
100
AcDbPoint
 10
268.5983345541199
 20
311.8318550576535
 30
0.0
  0
POINT
  5
8A3
330
2BC
100
AcDbEntity
  8
Defpoints
 62
     0
100
AcDbPoint
 10
259.4029845151944
 20
315.7619352809046
 30
0.0
  0
ENDBLK
  5
2BE
330
2BC
100
AcDbEntity
  8
0
100
AcDbBlockEnd
  0
BLOCK
  5
2C5
330
2C4
100
AcDbEntity
  8
0
100
AcDbBlockBegin
  2
*D15
 70
     1
 10
0.0
 20
0.0
 30
0.0
  3
*D15
  1

  0
LINE
  5
8A4
330
2C4
100
AcDbEntity
  8
dim
 62
     0
370
    -2
100
AcDbLine
 10
286.271624539405
 20
354.8599934031086
 30
0.0
 11
274.1856317381997
 21
342.9937528910734
 31
0.0
  0
MTEXT
  5
8A5
330
2C4
100
AcDbEntity
  8
dim
 62
     3
100
AcDbMText
 10
279.2815349820445
 20
351.6757163496421
 30
0.0
 40
3.749999866866226
 41
0.0
 71
     5
 72
     1
  1
R0.35
  7
ATOM
 11
0.7135641759578676
 21
0.7005898706016022
 31
0.0
 73
     1
 44
1.0
1001
ACAD
1000
MTEXTBEGIN
1070
    73
1070
     1
1070
    44
1040
1.0
1070
    74
1070
     0
1000
MTEXTEND
  0
LINE
  5
8A6
330
2C4
100
AcDbEntity
  8
dim
 62
     0
370
    -2
100
AcDbLine
 10
271.1529840980452
 20
340.0162460467254
 30
0.0
 11
272.401721361638
 21
341.2422782767507
 31
0.0
  0
INSERT
  5
8A7
330
2C4
100
AcDbEntity
  8
dim
 62
     0
370
    -2
100
AcDbBlockReference
  2
_Open30
 10
272.401721361638
 20
341.2422782767507
 30
0.0
 41
2.499999911244151
 42
2.499999911244151
 43
2.499999911244151
 50
224.4743485799977
  0
POINT
  5
8A8
330
2C4
100
AcDbEntity
  8
Defpoints
 62
     0
100
AcDbPoint
 10
272.401721361638
 20
341.2422782767507
 30
0.0
  0
POINT
  5
8A9
330
2C4
100
AcDbEntity
  8
Defpoints
 62
     0
100
AcDbPoint
 10
271.1529840980452
 20
340.0162460467254
 30
0.0
  0
ENDBLK
  5
2C6
330
2C4
100
AcDbEntity
  8
0
100
AcDbBlockEnd
  0
BLOCK
  5
436
330
434
100
AcDbEntity
  8
0
100
AcDbBlockBegin
  2
ATOM_A3_zuwaku
 70
     2
 10
0.0
 20
0.0
 30
0.0
  3
ATOM_A3_zuwaku
  1

  0
LINE
  5
437
330
434
100
AcDbEntity
  8
frame
  6
ByBlock
100
AcDbLine
 10
329.0
 20
38.00000000000364
 30
0.0
 11
329.0
 21
10.00000000000364
 31
0.0
1001
AcDbBlockRepETag
1070
     1
1071
        0
1005
437
  0
LINE
  5
439
330
434
100
AcDbEntity
  8
frame
  6
ByBlock
100
AcDbLine
 10
354.0
 20
38.00000000000364
 30
0.0
 11
354.0
 21
10.0
 31
0.0
1001
AcDbBlockRepETag
1070
     1
1071
        1
1005
439
  0
LINE
  5
43A
330
434
100
AcDbEntity
  8
frame
  6
ByBlock
100
AcDbLine
 10
354.085
 20
38.00000000000364
 30
0.0
 11
354.085
 21
10.0
 31
0.0
1001
AcDbBlockRepETag
1070
     1
1071
        2
1005
43A
  0
LINE
  5
43B
330
434
100
AcDbEntity
  8
frame
  6
ByBlock
100
AcDbLine
 10
353.915
 20
38.00000000000364
 30
0.0
 11
353.915
 21
10.0
 31
0.0
1001
AcDbBlockRepETag
1070
     1
1071
        3
1005
43B
  0
LINE
  5
43C
330
434
100
AcDbEntity
  8
frame
  6
ByBlock
100
AcDbLine
 10
351.0
 20
38.00000000000364
 30
0.0
 11
351.0
 21
10.0
 31
0.0
1001
AcDbBlockRepETag
1070
     1
1071
        4
1005
43C
  0
LINE
  5
43D
330
434
100
AcDbEntity
  8
frame
  6
ByBlock
100
AcDbLine
 10
351.085
 20
38.00000000000364
 30
0.0
 11
351.085
 21
10.0
 31
0.0
1001
AcDbBlockRepETag
1070
     1
1071
        5
1005
43D
  0
LINE
  5
43E
330
434
100
AcDbEntity
  8
frame
  6
ByBlock
100
AcDbLine
 10
351.1700000000001
 20
38.00000000000364
 30
0.0
 11
351.1700000000001
 21
10.0
 31
0.0
1001
AcDbBlockRepETag
1070
     1
1071
        6
1005
43E
  0
LINE
  5
43F
330
434
100
AcDbEntity
  8
frame
  6
ByBlock
100
AcDbLine
 10
396.5
 20
10.00000000000364
 30
0.0
 11
396.5
 21
17.00000000000364
 31
0.0
1001
AcDbBlockRepETag
1070
     1
1071
        7
1005
43F
  0
LINE
  5
440
330
434
100
AcDbEntity
  8
frame
  6
ByBlock
100
AcDbLine
 10
365.0
 20
52.00000000000365
 30
0.0
 11
365.0
 21
45.00000000000365
 31
0.0
1001
AcDbBlockRepETag
1070
     1
1071
        8
1005
440
  0
LINE
  5
441
330
434
100
AcDbEntity
  8
frame
  6
ByBlock
100
AcDbLine
 10
315.0
 20
52.00000000000365
 30
0.0
 11
315.0
 21
45.00000000000365
 31
0.0
1001
AcDbBlockRepETag
1070
     1
1071
        9
1005
441
  0
LINE
  5
442
330
434
100
AcDbEntity
  8
frame
  6
ByBlock
100
AcDbLine
 10
308.0
 20
52.00000000000365
 30
0.0
 11
308.0
 21
45.00000000000365
 31
0.0
1001
AcDbBlockRepETag
1070
     1
1071
       10
1005
442
  0
LINE
  5
443
330
434
100
AcDbEntity
  8
frame
  6
ByBlock
100
AcDbLine
 10
280.0
 20
52.00000000000365
 30
0.0
 11
280.0
 21
45.00000000000365
 31
0.0
1001
AcDbBlockRepETag
1070
     1
1071
       11
1005
443
  0
LINE
  5
444
330
434
100
AcDbEntity
  8
frame
  6
ByBlock
100
AcDbLine
 10
230.0
 20
52.00000000000365
 30
0.0
 11
230.0
 21
45.00000000000365
 31
0.0
1001
AcDbBlockRepETag
1070
     1
1071
       12
1005
444
  0
LINE
  5
445
330
434
100
AcDbEntity
  8
frame
  6
ByBlock
100
AcDbLine
 10
222.9999999999991
 20
52.00000000000365
 30
0.0
 11
407.0
 21
52.00000000000365
 31
0.0
1001
AcDbBlockRepETag
1070
     1
1071
       13
1005
445
  0
TEXT
  5
446
330
434
100
AcDbEntity
  8
frame
  6
ByBlock
100
AcDbText
 10
225.5592425935882
 20
11.75000000000182
 30
0.0
 40
5.0
  1
アトムリビンテック株式会社
 41
0.6
  7
ATOM
 72
     1
 11
248.7592425935882
 21
14.25000000000182
 31
0.0
100
AcDbText
 73
     2
1001
AcDbBlockRepETag
1070
     1
1071
       14
1005
446
  0
TEXT
  5
447
330
434
100
AcDbEntity
  8
frame
  6
ByBlock
100
AcDbText
 10
275.5
 20
21.5
 30
0.0
 40
4.0
  1
開　発　部
 41
0.9
  7
ATOM
 11
275.5
 21
23.5
 31
0.0
100
AcDbText
 73
     2
1001
AcDbBlockRepETag
1070
     1
1071
       15
1005
447
  0
TEXT
  5
448
330
434
100
AcDbEntity
  8
frame
  6
ByBlock
100
AcDbText
 10
275.5
 20
17.0
 30
0.0
 40
3.0
  1
〒110-8680
 41
0.7
  7
ATOM
 11
275.5
 21
18.5
 31
0.0
100
AcDbText
 73
     2
1001
AcDbBlockRepETag
1070
     1
1071
       16
1005
448
  0
TEXT
  5
449
330
434
100
AcDbEntity
  8
frame
  6
ByBlock
100
AcDbText
 10
275.5
 20
12.5
 30
0.0
 40
3.0
  1
東京都 台東区 入谷 1-27-4
 41
0.65
  7
ATOM
 11
275.5
 21
14.0
 31
0.0
100
AcDbText
 73
     2
1001
AcDbBlockRepETag
1070
     1
1071
       17
1005
449
  0
TEXT
  5
44A
102
{ACAD_XDICTIONARY
360
44B
102
}
330
434
100
AcDbEntity
  8
frame @ 1
  6
ByBlock
100
AcDbText
 10
223.62
 20
40.00000000000363
 30
0.0
 40
3.0
  1
部番
 41
0.9
  7
ATOM
 72
     1
 11
226.5
 21
41.50000000000363
 31
0.0
100
AcDbText
 73
     2
1001
AcDbBlockRepETag
1070
     1
1071
       18
1005
44A
1001
AcadAnnotative
1000
AnnotativeData
1002
{
1070
     1
1070
     0
1002
}
  0
TEXT
  5
44F
102
{ACAD_XDICTIONARY
360
450
102
}
330
434
100
AcDbEntity
  8
frame @ 1
  6
ByBlock
100
AcDbText
 10
237.63
 20
40.00000000000363
 30
0.0
 40
3.0
  1
部　　　　品　　　　名
 41
0.9
  7
ATOM
 72
     1
 11
255.0
 21
41.50000000000363
 31
0.0
100
AcDbText
 73
     2
1001
AcDbBlockRepETag
1070
     1
1071
       19
1005
44F
1001
AcadAnnotative
1000
AnnotativeData
1002
{
1070
     1
1070
     0
1002
}
  0
TEXT
  5
454
102
{ACAD_XDICTIONARY
360
455
102
}
330
434
100
AcDbEntity
  8
frame @ 1
  6
ByBlock
100
AcDbText
 10
287.88
 20
40.00000000000363
 30
0.0
 40
3.0
  1
材　　質
 41
0.9
  7
ATOM
 72
     1
 11
294.0
 21
41.50000000000363
 31
0.0
100
AcDbText
 73
     2
1001
AcDbBlockRepETag
1070
     1
1071
       20
1005
454
1001
AcadAnnotative
1000
AnnotativeData
1002
{
1070
     1
1070
     0
1002
}
  0
TEXT
  5
459
102
{ACAD_XDICTIONARY
360
45A
102
}
330
434
100
AcDbEntity
  8
frame @ 1
  6
ByBlock
100
AcDbText
 10
308.62
 20
40.00000000000363
 30
0.0
 40
3.0
  1
数量
 41
0.9
  7
ATOM
 72
     1
 11
311.5
 21
41.50000000000363
 31
0.0
100
AcDbText
 73
     2
1001
AcDbBlockRepETag
1070
     1
1071
       21
1005
459
1001
AcadAnnotative
1000
AnnotativeData
1002
{
1070
     1
1070
     0
1002
}
  0
TEXT
  5
45E
102
{ACAD_XDICTIONARY
360
45F
102
}
330
434
100
AcDbEntity
  8
frame @ 1
  6
ByBlock
100
AcDbText
 10
324.16
 20
40.00000000000363
 30
0.0
 40
3.0
  1
表　　面　　処　　理
 41
0.9
  7
ATOM
 72
     1
 11
340.0
 21
41.50000000000363
 31
0.0
100
AcDbText
 73
     2
1001
AcDbBlockRepETag
1070
     1
1071
       22
1005
45E
1001
AcadAnnotative
1000
AnnotativeData
1002
{
1070
     1
1070
     0
1002
}
  0
TEXT
  5
463
102
{ACAD_XDICTIONARY
360
464
102
}
330
434
100
AcDbEntity
  8
frame @ 1
  6
ByBlock
100
AcDbText
 10
378.26
 20
40.00000000000363
 30
0.0
 40
3.0
  1
備　　　考
 41
0.9
  7
ATOM
 72
     1
 11
386.0
 21
41.50000000000363
 31
0.0
100
AcDbText
 73
     2
1001
AcDbBlockRepETag
1070
     1
1071
       23
1005
463
1001
AcadAnnotative
1000
AnnotativeData
1002
{
1070
     1
1070
     0
1002
}
  0
TEXT
  5
468
102
{ACAD_XDICTIONARY
360
469
102
}
330
434
100
AcDbEntity
  8
frame @ 1
  6
ByBlock
100
AcDbText
 10
390.18
 20
282.0000000000018
 30
0.0
 40
3.0
  1
改正日
 41
0.9
  7
ATOM
 72
     1
 11
394.5
 21
283.5000000000018
 31
0.0
100
AcDbText
 73
     2
1001
AcDbBlockRepETag
1070
     1
1071
       24
1005
468
1001
AcadAnnotative
1000
AnnotativeData
1002
{
1070
     1
1070
     0
1002
}
  0
TEXT
  5
46D
102
{ACAD_XDICTIONARY
360
46E
102
}
330
434
100
AcDbEntity
  8
frame @ 1
  6
ByBlock
100
AcDbText
 10
368.47
 20
282.0000000000018
 30
0.0
 40
3.0
  1
改正担当
 41
0.9
  7
ATOM
 72
     1
 11
374.5
 21
283.5000000000018
 31
0.0
100
AcDbText
 73
     2
1001
AcDbBlockRepETag
1070
     1
1071
       25
1005
46D
1001
AcadAnnotative
1000
AnnotativeData
1002
{
1070
     1
1070
     0
1002
}
  0
TEXT
  5
472
102
{ACAD_XDICTIONARY
360
473
102
}
330
434
100
AcDbEntity
  8
frame @ 1
  6
ByBlock
100
AcDbText
 10
346.94
 20
282.0000000000036
 30
0.0
 40
3.0
  1
改正承認日
 41
0.9
  7
ATOM
 72
     1
 11
354.5
 21
283.5000000000036
 31
0.0
100
AcDbText
 73
     2
1001
AcDbBlockRepETag
1070
     1
1071
       26
1005
472
1001
AcadAnnotative
1000
AnnotativeData
1002
{
1070
     1
1070
     0
1002
}
  0
TEXT
  5
477
102
{ACAD_XDICTIONARY
360
478
102
}
330
434
100
AcDbEntity
  8
frame @ 1
  6
ByBlock
100
AcDbText
 10
328.38
 20
282.0000000000018
 30
0.0
 40
3.0
  1
改正承認
 41
0.9
  7
ATOM
 72
     1
 11
334.5
 21
283.5000000000018
 31
0.0
100
AcDbText
 73
     2
1001
AcDbBlockRepETag
1070
     1
1071
       27
1005
477
1001
AcadAnnotative
1000
AnnotativeData
1002
{
1070
     1
1070
     0
1002
}
  0
TEXT
  5
47C
102
{ACAD_XDICTIONARY
360
47D
102
}
330
434
100
AcDbEntity
  8
frame @ 1
  6
ByBlock
100
AcDbText
 10
253.03
 20
282.0000000000018
 30
0.0
 40
3.0
  1
改　　　　正　　　　理　　　　由
 41
0.9
  7
ATOM
 72
     1
 11
278.5
 21
283.5000000000018
 31
0.0
100
AcDbText
 73
     2
1001
AcDbBlockRepETag
1070
     1
1071
       28
1005
47C
1001
AcadAnnotative
1000
AnnotativeData
1002
{
1070
     1
1070
     0
1002
}
  0
TEXT
  5
481
102
{ACAD_XDICTIONARY
360
482
102
}
330
434
100
AcDbEntity
  8
frame @ 1
  6
ByBlock
100
AcDbText
 10
223.62
 20
282.0000000000018
 30
0.0
 40
3.0
  1
改番
 41
0.9
  7
ATOM
 72
     1
 11
226.5
 21
283.5000000000018
 31
0.0
100
AcDbText
 73
     2
1001
AcDbBlockRepETag
1070
     1
1071
       29
1005
481
1001
AcadAnnotative
1000
AnnotativeData
1002
{
1070
     1
1070
     0
1002
}
  0
TEXT
  5
486
102
{ACAD_XDICTIONARY
360
487
102
}
330
434
100
AcDbEntity
  8
frame @ 1
  6
ByBlock
100
AcDbText
 10
258.6333333333333
 20
35.00000000000364
 30
0.0
 40
2.5
  1
名
 41
0.8
  7
ATOM
 72
     1
 11
259.5
 21
36.25000000000364
 31
0.0
100
AcDbText
 73
     2
1001
AcDbBlockRepETag
1070
     1
1071
       30
1005
486
1001
AcadAnnotative
1000
AnnotativeData
1002
{
1070
     1
1070
     0
1002
}
  0
TEXT
  5
48B
102
{ACAD_XDICTIONARY
360
48C
102
}
330
434
100
AcDbEntity
  8
frame @ 1
  6
ByBlock
100
AcDbText
 10
258.5666666666667
 20
31.50000000000364
 30
0.0
 40
2.5
  1
称
 41
0.8
  7
ATOM
 72
     1
 11
259.5
 21
32.75000000000364
 31
0.0
100
AcDbText
 73
     2
1001
AcDbBlockRepETag
1070
     1
1071
       31
1005
48B
1001
AcadAnnotative
1000
AnnotativeData
1002
{
1070
     1
1070
     0
1002
}
  0
TEXT
  5
490
102
{ACAD_XDICTIONARY
360
491
102
}
330
434
100
AcDbEntity
  8
frame @ 1
  6
ByBlock
100
AcDbText
 10
236.5666666666667
 20
35.00000000000364
 30
0.0
 40
2.5
  1
尺
 41
0.8
  7
ATOM
 72
     1
 11
237.5
 21
36.25000000000364
 31
0.0
100
AcDbText
 73
     2
1001
AcDbBlockRepETag
1070
     1
1071
       32
1005
490
1001
AcadAnnotative
1000
AnnotativeData
1002
{
1070
     1
1070
     0
1002
}
  0
TEXT
  5
495
102
{ACAD_XDICTIONARY
360
496
102
}
330
434
100
AcDbEntity
  8
frame @ 1
  6
ByBlock
100
AcDbText
 10
236.5666666666667
 20
31.50000000000364
 30
0.0
 40
2.5
  1
度
 41
0.8
  7
ATOM
 72
     1
 11
237.5
 21
32.75000000000364
 31
0.0
100
AcDbText
 73
     2
1001
AcDbBlockRepETag
1070
     1
1071
       33
1005
495
1001
AcadAnnotative
1000
AnnotativeData
1002
{
1070
     1
1070
     0
1002
}
  0
TEXT
  5
49A
102
{ACAD_XDICTIONARY
360
49B
102
}
330
434
100
AcDbEntity
  8
frame @ 1
  6
ByBlock
100
AcDbText
 10
313.0666666666666
 20
35.00000000000364
 30
0.0
 40
2.5
  1
承
 41
0.8
  7
ATOM
 72
     1
 11
314.0
 21
36.25000000000364
 31
0.0
100
AcDbText
 73
     2
1001
AcDbBlockRepETag
1070
     1
1071
       34
1005
49A
1001
AcadAnnotative
1000
AnnotativeData
1002
{
1070
     1
1070
     0
1002
}
  0
TEXT
  5
49F
102
{ACAD_XDICTIONARY
360
4A0
102
}
330
434
100
AcDbEntity
  8
frame @ 1
  6
ByBlock
100
AcDbText
 10
313.0666666666666
 20
31.50000000000364
 30
0.0
 40
2.5
  1
認
 41
0.8
  7
ATOM
 72
     1
 11
314.0
 21
32.75000000000364
 31
0.0
100
AcDbText
 73
     2
1001
AcDbBlockRepETag
1070
     1
1071
       35
1005
49F
1001
AcadAnnotative
1000
AnnotativeData
1002
{
1070
     1
1070
     0
1002
}
  0
TEXT
  5
4A4
102
{ACAD_XDICTIONARY
360
4A5
102
}
330
434
100
AcDbEntity
  8
frame @ 1
  6
ByBlock
100
AcDbText
 10
313.0666666666666
 20
28.00000000000364
 30
0.0
 40
2.5
  1
検
 41
0.8
  7
ATOM
 72
     1
 11
314.0
 21
29.25000000000364
 31
0.0
100
AcDbText
 73
     2
1001
AcDbBlockRepETag
1070
     1
1071
       36
1005
4A4
1001
AcadAnnotative
1000
AnnotativeData
1002
{
1070
     1
1070
     0
1002
}
  0
TEXT
  5
4A9
102
{ACAD_XDICTIONARY
360
4AA
102
}
330
434
100
AcDbEntity
  8
frame @ 1
  6
ByBlock
100
AcDbText
 10
313.0666666666666
 20
24.50000000000364
 30
0.0
 40
2.5
  1
図
 41
0.8
  7
ATOM
 72
     1
 11
314.0
 21
25.75000000000364
 31
0.0
100
AcDbText
 73
     2
1001
AcDbBlockRepETag
1070
     1
1071
       37
1005
4A9
1001
AcadAnnotative
1000
AnnotativeData
1002
{
1070
     1
1070
     0
1002
}
  0
TEXT
  5
4AE
102
{ACAD_XDICTIONARY
360
4AF
102
}
330
434
100
AcDbEntity
  8
frame @ 1
  6
ByBlock
100
AcDbText
 10
313.0666666666666
 20
21.00000000000364
 30
0.0
 40
2.5
  1
設
 41
0.8
  7
ATOM
 72
     1
 11
314.0
 21
22.25000000000364
 31
0.0
100
AcDbText
 73
     2
1001
AcDbBlockRepETag
1070
     1
1071
       38
1005
4AE
1001
AcadAnnotative
1000
AnnotativeData
1002
{
1070
     1
1070
     0
1002
}
  0
TEXT
  5
4B3
102
{ACAD_XDICTIONARY
360
4B4
102
}
330
434
100
AcDbEntity
  8
frame @ 1
  6
ByBlock
100
AcDbText
 10
313.0666666666666
 20
17.50000000000364
 30
0.0
 40
2.5
  1
計
 41
0.8
  7
ATOM
 72
     1
 11
314.0
 21
18.75000000000364
 31
0.0
100
AcDbText
 73
     2
1001
AcDbBlockRepETag
1070
     1
1071
       39
1005
4B3
1001
AcadAnnotative
1000
AnnotativeData
1002
{
1070
     1
1070
     0
1002
}
  0
TEXT
  5
4B8
102
{ACAD_XDICTIONARY
360
4B9
102
}
330
434
100
AcDbEntity
  8
frame @ 1
  6
ByBlock
100
AcDbText
 10
313.0666666666666
 20
14.00000000000364
 30
0.0
 40
2.5
  1
作
 41
0.8
  7
ATOM
 72
     1
 11
314.0
 21
15.25000000000364
 31
0.0
100
AcDbText
 73
     2
1001
AcDbBlockRepETag
1070
     1
1071
       40
1005
4B8
1001
AcadAnnotative
1000
AnnotativeData
1002
{
1070
     1
1070
     0
1002
}
  0
TEXT
  5
4BD
102
{ACAD_XDICTIONARY
360
4BE
102
}
330
434
100
AcDbEntity
  8
frame @ 1
  6
ByBlock
100
AcDbText
 10
313.0666666666666
 20
10.50000000000363
 30
0.0
 40
2.5
  1
図
 41
0.8
  7
ATOM
 72
     1
 11
314.0
 21
11.75000000000363
 31
0.0
100
AcDbText
 73
     2
1001
AcDbBlockRepETag
1070
     1
1071
       41
1005
4BD
1001
AcadAnnotative
1000
AnnotativeData
1002
{
1070
     1
1070
     0
1002
}
  0
TEXT
  5
4C2
102
{ACAD_XDICTIONARY
360
4C3
102
}
330
434
100
AcDbEntity
  8
frame @ 1
  6
ByBlock
100
AcDbText
 10
351.5666666666667
 20
35.00000000000364
 30
0.0
 40
2.5
  1
品
 41
0.8
  7
ATOM
 72
     1
 11
352.5
 21
36.25000000000364
 31
0.0
100
AcDbText
 73
     2
1001
AcDbBlockRepETag
1070
     1
1071
       42
1005
4C2
1001
AcadAnnotative
1000
AnnotativeData
1002
{
1070
     1
1070
     0
1002
}
  0
TEXT
  5
4C7
102
{ACAD_XDICTIONARY
360
4C8
102
}
330
434
100
AcDbEntity
  8
frame @ 1
  6
ByBlock
100
AcDbText
 10
351.6333333333333
 20
31.50000000000364
 30
0.0
 40
2.5
  1
名
 41
0.8
  7
ATOM
 72
     1
 11
352.5
 21
32.75000000000364
 31
0.0
100
AcDbText
 73
     2
1001
AcDbBlockRepETag
1070
     1
1071
       43
1005
4C7
1001
AcadAnnotative
1000
AnnotativeData
1002
{
1070
     1
1070
     0
1002
}
  0
TEXT
  5
4CC
102
{ACAD_XDICTIONARY
360
4CD
102
}
330
434
100
AcDbEntity
  8
frame @ 1
  6
ByBlock
100
AcDbText
 10
351.5666666666667
 20
28.00000000000364
 30
0.0
 40
2.5
  1
品
 41
0.8
  7
ATOM
 72
     1
 11
352.5
 21
29.25000000000364
 31
0.0
100
AcDbText
 73
     2
1001
AcDbBlockRepETag
1070
     1
1071
       44
1005
4CC
1001
AcadAnnotative
1000
AnnotativeData
1002
{
1070
     1
1070
     0
1002
}
  0
TEXT
  5
4D1
102
{ACAD_XDICTIONARY
360
4D2
102
}
330
434
100
AcDbEntity
  8
frame @ 1
  6
ByBlock
100
AcDbText
 10
351.5666666666667
 20
24.50000000000364
 30
0.0
 40
2.5
  1
番
 41
0.8
  7
ATOM
 72
     1
 11
352.5
 21
25.75000000000364
 31
0.0
100
AcDbText
 73
     2
1001
AcDbBlockRepETag
1070
     1
1071
       45
1005
4D1
1001
AcadAnnotative
1000
AnnotativeData
1002
{
1070
     1
1070
     0
1002
}
  0
TEXT
  5
4D6
102
{ACAD_XDICTIONARY
360
4D7
102
}
330
434
100
AcDbEntity
  8
frame @ 1
  6
ByBlock
100
AcDbText
 10
351.5666666666667
 20
21.00000000000364
 30
0.0
 40
2.5
  1
図
 41
0.8
  7
ATOM
 72
     1
 11
352.5
 21
22.25000000000364
 31
0.0
100
AcDbText
 73
     2
1001
AcDbBlockRepETag
1070
     1
1071
       46
1005
4D6
1001
AcadAnnotative
1000
AnnotativeData
1002
{
1070
     1
1070
     0
1002
}
  0
TEXT
  5
4DB
102
{ACAD_XDICTIONARY
360
4DC
102
}
330
434
100
AcDbEntity
  8
frame @ 1
  6
ByBlock
100
AcDbText
 10
351.6333333333333
 20
17.50000000000364
 30
0.0
 40
2.5
  1
名
 41
0.8
  7
ATOM
 72
     1
 11
352.5
 21
18.75000000000364
 31
0.0
100
AcDbText
 73
     2
1001
AcDbBlockRepETag
1070
     1
1071
       47
1005
4DB
1001
AcadAnnotative
1000
AnnotativeData
1002
{
1070
     1
1070
     0
1002
}
  0
TEXT
  5
4E0
102
{ACAD_XDICTIONARY
360
4E1
102
}
330
434
100
AcDbEntity
  8
frame @ 1
  6
ByBlock
100
AcDbText
 10
351.5666666666667
 20
14.00000000000364
 30
0.0
 40
2.5
  1
図
 41
0.8
  7
ATOM
 72
     1
 11
352.5
 21
15.25000000000364
 31
0.0
100
AcDbText
 73
     2
1001
AcDbBlockRepETag
1070
     1
1071
       48
1005
4E0
1001
AcadAnnotative
1000
AnnotativeData
1002
{
1070
     1
1070
     0
1002
}
  0
TEXT
  5
4E5
102
{ACAD_XDICTIONARY
360
4E6
102
}
330
434
100
AcDbEntity
  8
frame @ 1
  6
ByBlock
100
AcDbText
 10
351.5666666666667
 20
10.50000000000363
 30
0.0
 40
2.5
  1
番
 41
0.8
  7
ATOM
 72
     1
 11
352.5
 21
11.75000000000363
 31
0.0
100
AcDbText
 73
     2
1001
AcDbBlockRepETag
1070
     1
1071
       49
1005
4E5
1001
AcadAnnotative
1000
AnnotativeData
1002
{
1070
     1
1070
     0
1002
}
  0
TEXT
  5
4EA
102
{ACAD_XDICTIONARY
360
4EB
102
}
330
434
100
AcDbEntity
  8
frame @ 1
  6
ByBlock
100
AcDbText
 10
251.875
 20
32.75000000000364
 30
0.0
 40
3.5
  1
A3
 41
0.9
  7
ATOM
 72
     1
 11
254.5
 21
34.50000000000364
 31
0.0
100
AcDbText
 73
     2
1001
AcDbBlockRepETag
1070
     1
1071
       50
1005
4EA
1001
AcadAnnotative
1000
AnnotativeData
1002
{
1070
     1
1070
     0
1002
}
  0
LWPOLYLINE
  5
4EF
330
434
100
AcDbEntity
  8
frame
  6
ByBlock
100
AcDbPolyline
 90
        4
 70
     1
 43
0.0
 10
406.9999999999991
 20
287.0
 10
12.99999999999909
 20
287.0
 10
12.99999999999909
 20
10.0
 10
406.9999999999991
 20
10.0
1001
AcDbBlockRepETag
1070
     1
1071
       51
1005
4EF
  0
LWPOLYLINE
  5
4F0
330
434
100
AcDbEntity
  8
frame
  6
ByBlock
100
AcDbPolyline
 90
        4
 70
     1
 43
0.0
 10
407.1599999999987
 20
287.1600000000017
 10
12.83999999999923
 20
287.1600000000017
 10
12.83999999999923
 20
9.840000000000143
 10
407.1599999999987
 20
9.840000000000143
1001
AcDbBlockRepETag
1070
     1
1071
       52
1005
4F0
  0
LWPOLYLINE
  5
4F1
330
434
100
AcDbEntity
  8
frame
  6
ByBlock
100
AcDbPolyline
 90
        4
 70
     1
 43
0.0
 10
406.8399999999991
 20
286.8400000000002
 10
13.15999999999894
 20
286.8400000000002
 10
13.15999999999894
 20
10.16000000000167
 10
406.8399999999991
 20
10.16000000000167
1001
AcDbBlockRepETag
1070
     1
1071
       53
1005
4F1
  0
LWPOLYLINE
  5
4F2
330
434
100
AcDbEntity
  8
frame
  6
ByBlock
390
86
100
AcDbPolyline
 90
        4
 70
     1
 43
0.0
 10
0.0
 20
0.0
 10
420.0
 20
0.0
 10
420.0
 20
297.0
 10
0.0
 20
297.0
1001
AcDbBlockRepETag
1070
     1
1071
       54
1005
4F2
  0
LINE
  5
4F3
330
434
100
AcDbEntity
  8
frame
  6
ByBlock
100
AcDbLine
 10
230.0
 20
287.0000000000036
 30
0.0
 11
230.0
 21
280.0000000000036
 31
0.0
1001
AcDbBlockRepETag
1070
     1
1071
       55
1005
4F3
  0
LINE
  5
4F4
330
434
100
AcDbEntity
  8
frame
  6
ByBlock
100
AcDbLine
 10
230.085
 20
287.0000000000036
 30
0.0
 11
230.085
 21
280.0000000000036
 31
0.0
1001
AcDbBlockRepETag
1070
     1
1071
       56
1005
4F4
  0
LINE
  5
4F5
330
434
100
AcDbEntity
  8
frame
  6
ByBlock
100
AcDbLine
 10
229.915
 20
287.0000000000036
 30
0.0
 11
229.915
 21
280.0000000000036
 31
0.0
1001
AcDbBlockRepETag
1070
     1
1071
       57
1005
4F5
  0
LINE
  5
4F6
330
434
100
AcDbEntity
  8
frame
  6
ByBlock
100
AcDbLine
 10
327.0
 20
287.0000000000036
 30
0.0
 11
327.0
 21
280.0000000000036
 31
0.0
1001
AcDbBlockRepETag
1070
     1
1071
       58
1005
4F6
  0
LINE
  5
4F7
330
434
100
AcDbEntity
  8
frame
  6
ByBlock
100
AcDbLine
 10
327.085
 20
287.0000000000036
 30
0.0
 11
327.085
 21
280.0000000000036
 31
0.0
1001
AcDbBlockRepETag
1070
     1
1071
       59
1005
4F7
  0
LINE
  5
4F8
330
434
100
AcDbEntity
  8
frame
  6
ByBlock
100
AcDbLine
 10
326.915
 20
287.0000000000036
 30
0.0
 11
326.915
 21
280.0000000000036
 31
0.0
1001
AcDbBlockRepETag
1070
     1
1071
       60
1005
4F8
  0
LINE
  5
4F9
330
434
100
AcDbEntity
  8
frame
  6
ByBlock
100
AcDbLine
 10
342.0
 20
287.0000000000036
 30
0.0
 11
342.0
 21
280.0000000000036
 31
0.0
1001
AcDbBlockRepETag
1070
     1
1071
       61
1005
4F9
  0
LINE
  5
4FA
330
434
100
AcDbEntity
  8
frame
  6
ByBlock
100
AcDbLine
 10
342.0850000000001
 20
287.0000000000036
 30
0.0
 11
342.0850000000001
 21
280.0000000000036
 31
0.0
1001
AcDbBlockRepETag
1070
     1
1071
       62
1005
4FA
  0
LINE
  5
4FB
330
434
100
AcDbEntity
  8
frame
  6
ByBlock
100
AcDbLine
 10
341.915
 20
287.0000000000036
 30
0.0
 11
341.915
 21
280.0000000000036
 31
0.0
1001
AcDbBlockRepETag
1070
     1
1071
       63
1005
4FB
  0
LINE
  5
4FC
330
434
100
AcDbEntity
  8
frame
  6
ByBlock
100
AcDbLine
 10
367.0
 20
287.0000000000036
 30
0.0
 11
367.0
 21
280.0000000000036
 31
0.0
1001
AcDbBlockRepETag
1070
     1
1071
       64
1005
4FC
  0
LINE
  5
4FD
330
434
100
AcDbEntity
  8
frame
  6
ByBlock
100
AcDbLine
 10
367.0850000000001
 20
287.0000000000036
 30
0.0
 11
367.0850000000001
 21
280.0000000000036
 31
0.0
1001
AcDbBlockRepETag
1070
     1
1071
       65
1005
4FD
  0
LINE
  5
4FE
330
434
100
AcDbEntity
  8
frame
  6
ByBlock
100
AcDbLine
 10
366.915
 20
287.0000000000036
 30
0.0
 11
366.915
 21
280.0000000000036
 31
0.0
1001
AcDbBlockRepETag
1070
     1
1071
       66
1005
4FE
  0
LINE
  5
4FF
330
434
100
AcDbEntity
  8
frame
  6
ByBlock
100
AcDbLine
 10
382.0
 20
287.0000000000036
 30
0.0
 11
382.0
 21
280.0000000000036
 31
0.0
1001
AcDbBlockRepETag
1070
     1
1071
       67
1005
4FF
  0
LINE
  5
500
330
434
100
AcDbEntity
  8
frame
  6
ByBlock
100
AcDbLine
 10
382.085
 20
287.0000000000036
 30
0.0
 11
382.085
 21
280.0000000000036
 31
0.0
1001
AcDbBlockRepETag
1070
     1
1071
       68
1005
500
  0
LINE
  5
501
330
434
100
AcDbEntity
  8
frame
  6
ByBlock
100
AcDbLine
 10
381.915
 20
287.0000000000036
 30
0.0
 11
381.915
 21
280.0000000000036
 31
0.0
1001
AcDbBlockRepETag
1070
     1
1071
       69
1005
501
  0
LINE
  5
502
330
434
100
AcDbEntity
  8
frame
  6
ByBlock
100
AcDbLine
 10
230.0
 20
45.00000000000365
 30
0.0
 11
230.0
 21
38.00000000000364
 31
0.0
1001
AcDbBlockRepETag
1070
     1
1071
       70
1005
502
  0
LINE
  5
503
330
434
100
AcDbEntity
  8
frame
  6
ByBlock
100
AcDbLine
 10
230.085
 20
45.00000000000365
 30
0.0
 11
230.085
 21
38.00000000000364
 31
0.0
1001
AcDbBlockRepETag
1070
     1
1071
       71
1005
503
  0
LINE
  5
504
330
434
100
AcDbEntity
  8
frame
  6
ByBlock
100
AcDbLine
 10
229.915
 20
45.00000000000365
 30
0.0
 11
229.915
 21
38.00000000000364
 31
0.0
1001
AcDbBlockRepETag
1070
     1
1071
       72
1005
504
  0
LINE
  5
505
330
434
100
AcDbEntity
  8
frame
  6
ByBlock
100
AcDbLine
 10
280.0
 20
38.00000000000364
 30
0.0
 11
280.0
 21
45.00000000000365
 31
0.0
1001
AcDbBlockRepETag
1070
     1
1071
       73
1005
505
  0
LINE
  5
506
330
434
100
AcDbEntity
  8
frame
  6
ByBlock
100
AcDbLine
 10
280.085
 20
38.00000000000364
 30
0.0
 11
280.085
 21
45.00000000000365
 31
0.0
1001
AcDbBlockRepETag
1070
     1
1071
       74
1005
506
  0
LINE
  5
507
330
434
100
AcDbEntity
  8
frame
  6
ByBlock
100
AcDbLine
 10
279.915
 20
38.00000000000364
 30
0.0
 11
279.915
 21
45.00000000000365
 31
0.0
1001
AcDbBlockRepETag
1070
     1
1071
       75
1005
507
  0
LINE
  5
508
330
434
100
AcDbEntity
  8
frame
  6
ByBlock
100
AcDbLine
 10
308.0
 20
45.00000000000365
 30
0.0
 11
308.0
 21
38.00000000000364
 31
0.0
1001
AcDbBlockRepETag
1070
     1
1071
       76
1005
508
  0
LINE
  5
509
330
434
100
AcDbEntity
  8
frame
  6
ByBlock
100
AcDbLine
 10
308.085
 20
45.00000000000365
 30
0.0
 11
308.085
 21
38.00000000000364
 31
0.0
1001
AcDbBlockRepETag
1070
     1
1071
       77
1005
509
  0
LINE
  5
50A
330
434
100
AcDbEntity
  8
frame
  6
ByBlock
100
AcDbLine
 10
307.915
 20
45.00000000000365
 30
0.0
 11
307.915
 21
38.00000000000364
 31
0.0
1001
AcDbBlockRepETag
1070
     1
1071
       78
1005
50A
  0
LINE
  5
50B
330
434
100
AcDbEntity
  8
frame
  6
ByBlock
100
AcDbLine
 10
315.0
 20
45.00000000000365
 30
0.0
 11
315.0
 21
38.00000000000364
 31
0.0
1001
AcDbBlockRepETag
1070
     1
1071
       79
1005
50B
  0
LINE
  5
50C
330
434
100
AcDbEntity
  8
frame
  6
ByBlock
100
AcDbLine
 10
315.0850000000001
 20
45.00000000000365
 30
0.0
 11
315.0850000000001
 21
38.00000000000364
 31
0.0
1001
AcDbBlockRepETag
1070
     1
1071
       80
1005
50C
  0
LINE
  5
50D
330
434
100
AcDbEntity
  8
frame
  6
ByBlock
100
AcDbLine
 10
314.915
 20
45.00000000000365
 30
0.0
 11
314.915
 21
38.00000000000364
 31
0.0
1001
AcDbBlockRepETag
1070
     1
1071
       81
1005
50D
  0
LINE
  5
50E
330
434
100
AcDbEntity
  8
frame
  6
ByBlock
100
AcDbLine
 10
365.0
 20
45.00000000000365
 30
0.0
 11
365.0
 21
38.00000000000364
 31
0.0
1001
AcDbBlockRepETag
1070
     1
1071
       82
1005
50E
  0
LINE
  5
50F
330
434
100
AcDbEntity
  8
frame
  6
ByBlock
100
AcDbLine
 10
365.0850000000001
 20
45.00000000000365
 30
0.0
 11
365.0850000000001
 21
38.00000000000364
 31
0.0
1001
AcDbBlockRepETag
1070
     1
1071
       83
1005
50F
  0
LINE
  5
510
330
434
100
AcDbEntity
  8
frame
  6
ByBlock
100
AcDbLine
 10
364.915
 20
45.00000000000365
 30
0.0
 11
364.915
 21
38.00000000000364
 31
0.0
1001
AcDbBlockRepETag
1070
     1
1071
       84
1005
510
  0
LINE
  5
511
330
434
100
AcDbEntity
  8
frame
  6
ByBlock
100
AcDbLine
 10
222.9999999999991
 20
38.00000000000364
 30
0.0
 11
407.0
 21
38.00000000000364
 31
0.0
1001
AcDbBlockRepETag
1070
     1
1071
       85
1005
511
  0
LINE
  5
512
330
434
100
AcDbEntity
  8
frame
  6
ByBlock
100
AcDbLine
 10
222.9999999999991
 20
37.91500000000269
 30
0.0
 11
407.0
 21
37.91500000000269
 31
0.0
1001
AcDbBlockRepETag
1070
     1
1071
       86
1005
512
  0
LINE
  5
513
330
434
100
AcDbEntity
  8
frame
  6
ByBlock
100
AcDbLine
 10
222.9999999999991
 20
38.08500000000277
 30
0.0
 11
407.0
 21
38.08500000000277
 31
0.0
1001
AcDbBlockRepETag
1070
     1
1071
       87
1005
513
  0
LINE
  5
514
330
434
100
AcDbEntity
  8
frame
  6
ByBlock
100
AcDbLine
 10
222.9999999999991
 20
31.00000000000364
 30
0.0
 11
407.0
 21
31.00000000000364
 31
0.0
1001
AcDbBlockRepETag
1070
     1
1071
       88
1005
514
  0
LINE
  5
515
330
434
100
AcDbEntity
  8
frame
  6
ByBlock
100
AcDbLine
 10
222.9999999999991
 20
30.91500000000269
 30
0.0
 11
407.0
 21
30.91500000000269
 31
0.0
1001
AcDbBlockRepETag
1070
     1
1071
       89
1005
515
  0
LINE
  5
516
330
434
100
AcDbEntity
  8
frame
  6
ByBlock
100
AcDbLine
 10
222.9999999999991
 20
31.08500000000276
 30
0.0
 11
407.0
 21
31.08500000000276
 31
0.0
1001
AcDbBlockRepETag
1070
     1
1071
       90
1005
516
  0
LINE
  5
517
330
434
100
AcDbEntity
  8
frame
  6
ByBlock
100
AcDbLine
 10
312.5
 20
24.00000000000364
 30
0.0
 11
407.0
 21
24.00000000000364
 31
0.0
1001
AcDbBlockRepETag
1070
     1
1071
       91
1005
517
  0
LINE
  5
518
330
434
100
AcDbEntity
  8
frame
  6
ByBlock
100
AcDbLine
 10
312.5
 20
23.91500000000269
 30
0.0
 11
407.0
 21
23.91500000000269
 31
0.0
1001
AcDbBlockRepETag
1070
     1
1071
       92
1005
518
  0
LINE
  5
519
330
434
100
AcDbEntity
  8
frame
  6
ByBlock
100
AcDbLine
 10
312.5
 20
24.08500000000277
 30
0.0
 11
407.0
 21
24.08500000000277
 31
0.0
1001
AcDbBlockRepETag
1070
     1
1071
       93
1005
519
  0
LINE
  5
51A
330
434
100
AcDbEntity
  8
frame
  6
ByBlock
100
AcDbLine
 10
312.5
 20
17.00000000000364
 30
0.0
 11
407.0
 21
17.00000000000364
 31
0.0
1001
AcDbBlockRepETag
1070
     1
1071
       94
1005
51A
  0
LINE
  5
51B
330
434
100
AcDbEntity
  8
frame
  6
ByBlock
100
AcDbLine
 10
312.5
 20
16.91500000000269
 30
0.0
 11
407.0
 21
16.91500000000269
 31
0.0
1001
AcDbBlockRepETag
1070
     1
1071
       95
1005
51B
  0
LINE
  5
51C
330
434
100
AcDbEntity
  8
frame
  6
ByBlock
100
AcDbLine
 10
312.5
 20
17.08500000000276
 30
0.0
 11
407.0
 21
17.08500000000276
 31
0.0
1001
AcDbBlockRepETag
1070
     1
1071
       96
1005
51C
  0
LINE
  5
51D
330
434
100
AcDbEntity
  8
frame
  6
ByBlock
100
AcDbLine
 10
236.0
 20
38.00000000000364
 30
0.0
 11
236.0
 21
31.00000000000364
 31
0.0
1001
AcDbBlockRepETag
1070
     1
1071
       97
1005
51D
  0
LINE
  5
51E
330
434
100
AcDbEntity
  8
frame
  6
ByBlock
100
AcDbLine
 10
239.0
 20
31.00000000000364
 30
0.0
 11
239.0
 21
38.00000000000364
 31
0.0
1001
AcDbBlockRepETag
1070
     1
1071
       98
1005
51E
  0
LINE
  5
51F
330
434
100
AcDbEntity
  8
frame
  6
ByBlock
100
AcDbLine
 10
251.0
 20
38.00000000000364
 30
0.0
 11
251.0
 21
31.00000000000364
 31
0.0
1001
AcDbBlockRepETag
1070
     1
1071
       99
1005
51F
  0
LINE
  5
520
330
434
100
AcDbEntity
  8
frame
  6
ByBlock
100
AcDbLine
 10
258.0
 20
38.00000000000364
 30
0.0
 11
258.0
 21
31.00000000000364
 31
0.0
1001
AcDbBlockRepETag
1070
     1
1071
      100
1005
520
  0
LINE
  5
521
330
434
100
AcDbEntity
  8
frame
  6
ByBlock
100
AcDbLine
 10
261.0
 20
38.00000000000364
 30
0.0
 11
261.0
 21
31.00000000000364
 31
0.0
1001
AcDbBlockRepETag
1070
     1
1071
      101
1005
521
  0
LINE
  5
522
330
434
100
AcDbEntity
  8
frame
  6
ByBlock
100
AcDbLine
 10
315.5
 20
38.00000000000364
 30
0.0
 11
315.5
 21
10.00000000000364
 31
0.0
1001
AcDbBlockRepETag
1070
     1
1071
      102
1005
522
  0
LINE
  5
523
330
434
100
AcDbEntity
  8
frame
  6
ByBlock
100
AcDbLine
 10
315.585
 20
38.00000000000364
 30
0.0
 11
315.585
 21
10.00000000000364
 31
0.0
1001
AcDbBlockRepETag
1070
     1
1071
      103
1005
523
  0
LINE
  5
524
330
434
100
AcDbEntity
  8
frame
  6
ByBlock
100
AcDbLine
 10
315.415
 20
38.00000000000364
 30
0.0
 11
315.415
 21
10.00000000000364
 31
0.0
1001
AcDbBlockRepETag
1070
     1
1071
      104
1005
524
  0
LINE
  5
525
330
434
100
AcDbEntity
  8
frame
  6
ByBlock
100
AcDbLine
 10
312.5
 20
38.00000000000364
 30
0.0
 11
312.5
 21
10.00000000000364
 31
0.0
1001
AcDbBlockRepETag
1070
     1
1071
      105
1005
525
  0
LINE
  5
526
330
434
100
AcDbEntity
  8
frame
  6
ByBlock
100
AcDbLine
 10
312.585
 20
38.00000000000364
 30
0.0
 11
312.585
 21
10.00000000000364
 31
0.0
1001
AcDbBlockRepETag
1070
     1
1071
      106
1005
526
  0
LINE
  5
527
330
434
100
AcDbEntity
  8
frame
  6
ByBlock
100
AcDbLine
 10
312.415
 20
38.00000000000364
 30
0.0
 11
312.415
 21
10.00000000000364
 31
0.0
1001
AcDbBlockRepETag
1070
     1
1071
      107
1005
527
  0
LINE
  5
528
330
434
100
AcDbEntity
  8
frame
  6
ByBlock
100
AcDbLine
 10
209.9999999999991
 20
0.0
 30
0.0
 11
209.9999999999982
 21
10.0
 31
0.0
1001
AcDbBlockRepETag
1070
     1
1071
      108
1005
528
  0
LINE
  5
529
330
434
100
AcDbEntity
  8
frame
  6
ByBlock
100
AcDbLine
 10
210.159999999999
 20
0.0
 30
0.0
 11
210.159999999999
 21
10.0
 31
0.0
1001
AcDbBlockRepETag
1070
     1
1071
      109
1005
529
  0
LINE
  5
52A
330
434
100
AcDbEntity
  8
frame
  6
ByBlock
100
AcDbLine
 10
209.8399999999992
 20
0.0
 30
0.0
 11
209.8399999999983
 21
10.0
 31
0.0
1001
AcDbBlockRepETag
1070
     1
1071
      110
1005
52A
  0
LINE
  5
52B
330
434
100
AcDbEntity
  8
frame
  6
ByBlock
100
AcDbLine
 10
420.0
 20
148.5
 30
0.0
 11
406.9999999999991
 21
148.5
 31
0.0
1001
AcDbBlockRepETag
1070
     1
1071
      111
1005
52B
  0
LINE
  5
52C
330
434
100
AcDbEntity
  8
frame
  6
ByBlock
100
AcDbLine
 10
420.0
 20
148.3400000000001
 30
0.0
 11
406.9999999999991
 21
148.3400000000001
 31
0.0
1001
AcDbBlockRepETag
1070
     1
1071
      112
1005
52C
  0
LINE
  5
52D
330
434
100
AcDbEntity
  8
frame
  6
ByBlock
100
AcDbLine
 10
420.0
 20
148.6600000000017
 30
0.0
 11
406.9999999999991
 21
148.6600000000017
 31
0.0
1001
AcDbBlockRepETag
1070
     1
1071
      113
1005
52D
  0
LINE
  5
52E
330
434
100
AcDbEntity
  8
frame
  6
ByBlock
100
AcDbLine
 10
209.9999999999991
 20
297.0
 30
0.0
 11
209.9999999999991
 21
287.0
 31
0.0
1001
AcDbBlockRepETag
1070
     1
1071
      114
1005
52E
  0
LINE
  5
52F
330
434
100
AcDbEntity
  8
frame
  6
ByBlock
100
AcDbLine
 10
209.8399999999992
 20
297.0
 30
0.0
 11
209.8399999999992
 21
287.0
 31
0.0
1001
AcDbBlockRepETag
1070
     1
1071
      115
1005
52F
  0
LINE
  5
530
330
434
100
AcDbEntity
  8
frame
  6
ByBlock
100
AcDbLine
 10
210.159999999999
 20
297.0
 30
0.0
 11
210.159999999999
 21
287.0
 31
0.0
1001
AcDbBlockRepETag
1070
     1
1071
      116
1005
530
  0
LINE
  5
531
330
434
100
AcDbEntity
  8
frame
  6
ByBlock
100
AcDbLine
 10
0.0
 20
148.5
 30
0.0
 11
12.99999999999909
 21
148.5
 31
0.0
1001
AcDbBlockRepETag
1070
     1
1071
      117
1005
531
  0
LINE
  5
532
330
434
100
AcDbEntity
  8
frame
  6
ByBlock
100
AcDbLine
 10
0.0
 20
148.3400000000001
 30
0.0
 11
12.99999999999909
 21
148.3400000000001
 31
0.0
1001
AcDbBlockRepETag
1070
     1
1071
      118
1005
532
  0
LINE
  5
533
330
434
100
AcDbEntity
  8
frame
  6
ByBlock
100
AcDbLine
 10
0.0
 20
148.6600000000017
 30
0.0
 11
12.99999999999909
 21
148.6600000000017
 31
0.0
1001
AcDbBlockRepETag
1070
     1
1071
      119
1005
533
  0
LWPOLYLINE
  5
534
330
434
100
AcDbEntity
  8
frame
  6
ByBlock
100
AcDbPolyline
 90
        3
 70
     0
 43
0.0
 10
407.0
 20
45.00000000000365
 10
222.9999999999991
 20
45.00000000000365
 10
222.9999999999991
 20
10.0
1001
AcDbBlockRepETag
1070
     1
1071
      120
1005
534
  0
LWPOLYLINE
  5
535
330
434
100
AcDbEntity
  8
frame
  6
ByBlock
100
AcDbPolyline
 90
        3
 70
     0
 43
0.0
 10
407.0
 20
45.08500000000274
 10
222.914999999999
 20
45.08500000000274
 10
222.914999999999
 20
10.0
1001
AcDbBlockRepETag
1070
     1
1071
      121
1005
535
  0
LWPOLYLINE
  5
536
330
434
100
AcDbEntity
  8
frame
  6
ByBlock
100
AcDbPolyline
 90
        3
 70
     0
 43
0.0
 10
407.0
 20
44.91500000000269
 10
223.0849999999991
 20
44.91500000000269
 10
223.0849999999991
 20
10.0
1001
AcDbBlockRepETag
1070
     1
1071
      122
1005
536
  0
LINE
  5
537
330
434
100
AcDbEntity
  8
frame
  6
ByBlock
100
AcDbLine
 10
222.9999999999991
 20
45.00000000000365
 30
0.0
 11
222.9999999999991
 21
52.00000000000365
 31
0.0
1001
AcDbBlockRepETag
1070
     1
1071
      123
1005
537
  0
LWPOLYLINE
  5
538
330
434
100
AcDbEntity
  8
frame
  6
ByBlock
100
AcDbPolyline
 90
        3
 70
     0
 43
0.0
 10
407.0
 20
280.0000000000036
 10
223.0
 20
280.0000000000036
 10
223.0
 20
287.0
1001
AcDbBlockRepETag
1070
     1
1071
      124
1005
538
  0
LWPOLYLINE
  5
539
330
434
100
AcDbEntity
  8
frame
  6
ByBlock
100
AcDbPolyline
 90
        3
 70
     0
 43
0.0
 10
407.0
 20
280.0850000000028
 10
223.085
 20
280.0850000000028
 10
223.085
 20
287.0
1001
AcDbBlockRepETag
1070
     1
1071
      125
1005
539
  0
LWPOLYLINE
  5
53A
330
434
100
AcDbEntity
  8
frame
  6
ByBlock
100
AcDbPolyline
 90
        3
 70
     0
 43
0.0
 10
407.0
 20
279.9150000000027
 10
222.915
 20
279.9150000000027
 10
222.915
 20
287.0
1001
AcDbBlockRepETag
1070
     1
1071
      126
1005
53A
  0
LWPOLYLINE
  5
53B
330
434
100
AcDbEntity
  8
frame
  6
ByBlock
100
AcDbPolyline
 90
        4
 70
     1
 43
0.0
 10
234.5999999999995
 20
32.02453525127749
 10
230.5942130249651
 20
33.21128572090856
 10
230.5942130249651
 20
35.45924095267765
 10
234.5999999999995
 20
36.64599142230509
1001
AcDbBlockRepETag
1070
     1
1071
      127
1005
53B
  0
LWPOLYLINE
  5
53C
330
434
100
AcDbEntity
  8
frame
  6
ByBlock
100
AcDbPolyline
 90
        4
 70
     1
 43
0.0
 10
234.6849999999986
 20
31.9107014793517
 10
230.509213024965
 20
33.14781598009358
 10
230.509213024965
 20
35.52271069349081
 10
234.6849999999986
 20
36.75982519423087
1001
AcDbBlockRepETag
1070
     1
1071
      128
1005
53C
  0
LWPOLYLINE
  5
53D
330
434
100
AcDbEntity
  8
frame
  6
ByBlock
100
AcDbPolyline
 90
        4
 70
     1
 43
0.0
 10
234.5149999999994
 20
32.13836902320327
 10
230.6792130249651
 20
33.27475546172173
 10
230.6792130249651
 20
35.39577121186268
 10
234.5149999999994
 20
36.53215765038112
1001
AcDbBlockRepETag
1070
     1
1071
      129
1005
53D
  0
CIRCLE
  5
53E
330
434
100
AcDbEntity
  8
frame
100
AcDbCircle
 10
226.6985756137892
 20
34.3352633367922
 30
0.0
 40
1.123977615884085
1001
AcDbBlockRepETag
1070
     1
1071
      130
1005
53E
  0
CIRCLE
  5
53F
330
434
100
AcDbEntity
  8
frame
100
AcDbCircle
 10
226.6985756137892
 20
34.3352633367922
 30
0.0
 40
1.208977615884085
1001
AcDbBlockRepETag
1070
     1
1071
      131
1005
53F
  0
CIRCLE
  5
540
330
434
100
AcDbEntity
  8
frame
100
AcDbCircle
 10
226.6985756137892
 20
34.3352633367922
 30
0.0
 40
1.038977615884085
1001
AcDbBlockRepETag
1070
     1
1071
      132
1005
540
  0
CIRCLE
  5
541
330
434
100
AcDbEntity
  8
frame
100
AcDbCircle
 10
226.6985756137892
 20
34.3352633367922
 30
0.0
 40
2.310728085513118
1001
AcDbBlockRepETag
1070
     1
1071
      133
1005
541
  0
CIRCLE
  5
542
330
434
100
AcDbEntity
  8
frame
100
AcDbCircle
 10
226.6985756137892
 20
34.3352633367922
 30
0.0
 40
2.395728085513116
1001
AcDbBlockRepETag
1070
     1
1071
      134
1005
542
  0
CIRCLE
  5
543
330
434
100
AcDbEntity
  8
frame
100
AcDbCircle
 10
226.6985756137892
 20
34.3352633367922
 30
0.0
 40
2.225728085513118
1001
AcDbBlockRepETag
1070
     1
1071
      135
1005
543
  0
LINE
  5
544
330
434
100
AcDbEntity
  8
frame
100
AcDbLine
 10
229.9942130249647
 20
34.3352633367922
 30
0.0
 11
231.9942130249647
 21
34.3352633367922
 31
0.0
1001
AcDbBlockRepETag
1070
     1
1071
      136
1005
544
  0
LINE
  5
545
330
434
100
AcDbEntity
  8
frame
100
AcDbLine
 10
232.4942130249647
 20
34.3352633367922
 30
0.0
 11
232.9942130249647
 21
34.3352633367922
 31
0.0
1001
AcDbBlockRepETag
1070
     1
1071
      137
1005
545
  0
LINE
  5
546
330
434
100
AcDbEntity
  8
frame
100
AcDbLine
 10
233.4942130249647
 20
34.3352633367922
 30
0.0
 11
235.1999999999998
 21
34.3352633367922
 31
0.0
1001
AcDbBlockRepETag
1070
     1
1071
      138
1005
546
  0
LINE
  5
547
330
434
100
AcDbEntity
  8
frame
100
AcDbLine
 10
223.8000000000002
 20
34.3352633367922
 30
0.0
 11
224.9985756137894
 21
34.3352633367922
 31
0.0
1001
AcDbBlockRepETag
1070
     1
1071
      139
1005
547
  0
LINE
  5
548
330
434
100
AcDbEntity
  8
frame
100
AcDbLine
 10
225.4985756137894
 20
34.3352633367922
 30
0.0
 11
225.9985756137894
 21
34.3352633367922
 31
0.0
1001
AcDbBlockRepETag
1070
     1
1071
      140
1005
548
  0
LINE
  5
549
330
434
100
AcDbEntity
  8
frame
100
AcDbLine
 10
226.4985756137894
 20
34.3352633367922
 30
0.0
 11
229.5971512275782
 21
34.3352633367922
 31
0.0
1001
AcDbBlockRepETag
1070
     1
1071
      141
1005
549
  0
LINE
  5
54A
330
434
100
AcDbEntity
  8
frame
100
AcDbLine
 10
226.6985756137892
 20
37.23383895058214
 30
0.0
 11
226.6985756137892
 21
36.03526333679293
 31
0.0
1001
AcDbBlockRepETag
1070
     1
1071
      142
1005
54A
  0
LINE
  5
54B
330
434
100
AcDbEntity
  8
frame
100
AcDbLine
 10
226.6985756137892
 20
35.53526333679292
 30
0.0
 11
226.6985756137892
 21
35.03526333679293
 31
0.0
1001
AcDbBlockRepETag
1070
     1
1071
      143
1005
54B
  0
LINE
  5
54C
330
434
100
AcDbEntity
  8
frame
100
AcDbLine
 10
226.6985756137892
 20
34.53526333679292
 30
0.0
 11
226.6985756137892
 21
31.43668772300407
 31
0.0
1001
AcDbBlockRepETag
1070
     1
1071
      144
1005
54C
  0
LWPOLYLINE
  5
54D
330
434
100
AcDbEntity
  8
frame
  6
ByBlock
100
AcDbPolyline
 90
        4
 70
     1
 43
0.0
 10
249.996901273531
 20
20.30329643996447
 10
254.8134257250913
 20
25.11982089152662
 42
0.9999999999997582
 10
253.1737578266884
 20
26.75948878992858
 10
248.3572333751272
 20
21.94296433836826
 42
1.000000000000484
1001
AcDbBlockRepETag
1070
     1
1071
      145
1005
54D
  0
LWPOLYLINE
  5
54E
330
434
100
AcDbEntity
  8
frame
  6
ByBlock
100
AcDbPolyline
 90
        4
 70
     1
 43
0.0
 10
249.9367971971306
 20
20.36340051636398
 10
254.75332164869
 20
25.17992496792613
 42
1.0
 10
253.2338619030888
 20
26.69938471352725
 10
248.4173374515285
 20
21.88286026196875
 42
1.0
1001
AcDbBlockRepETag
1070
     1
1071
      146
1005
54E
  0
LWPOLYLINE
  5
54F
330
434
100
AcDbEntity
  8
frame
  6
ByBlock
100
AcDbPolyline
 90
        4
 70
     1
 43
0.0
 10
250.0570053499323
 20
20.24319236356314
 10
254.8735298014917
 20
25.05971681512529
 42
1.0
 10
253.1136537502871
 20
26.81959286632809
 10
248.2971292987268
 20
22.00306841476959
 42
1.0
1001
AcDbBlockRepETag
1070
     1
1071
      147
1005
54F
  0
LWPOLYLINE
  5
550
330
434
100
AcDbEntity
  8
frame
  6
ByBlock
100
AcDbPolyline
 90
        6
 70
     1
 43
0.0
 10
233.6579304050829
 20
22.87921870190257
 42
0.5040414943243567
 10
233.8658227433362
 20
23.16016907249468
 10
232.8801784101006
 20
26.38406642075097
 42
0.7399610750323026
 10
232.464393733595
 20
26.38406642075097
 10
231.4787494003613
 20
23.16016907249468
 42
0.5040414943247417
 10
231.6866417386127
 20
22.87921870190257
1001
AcDbBlockRepETag
1070
     1
1071
      148
1005
550
  0
LWPOLYLINE
  5
551
330
434
100
AcDbEntity
  8
frame
  6
ByBlock
100
AcDbPolyline
 90
        6
 70
     1
 43
0.0
 10
233.6579304050829
 20
22.79421870190345
 42
0.504041494324358
 10
233.9471086475933
 20
23.18502066739529
 10
232.9614643143577
 20
26.40891801565158
 42
0.7399610750322863
 10
232.3831078293379
 20
26.40891801565158
 10
231.3974634961041
 20
23.18502066739711
 42
0.5040414943247422
 10
231.6866417386127
 20
22.79421870190345
1001
AcDbBlockRepETag
1070
     1
1071
      149
1005
551
  0
LWPOLYLINE
  5
552
330
434
100
AcDbEntity
  8
frame
  6
ByBlock
100
AcDbPolyline
 90
        6
 70
     1
 43
0.0
 10
233.6579304050829
 20
22.96421870190352
 42
0.5040414943243489
 10
233.784536839079
 20
23.13531747759407
 10
232.7988925058444
 20
26.35921482584854
 42
0.7399610750322957
 10
232.5456796378521
 20
26.35921482585036
 10
231.5600353046175
 20
23.13531747759407
 42
0.5040414943247367
 10
231.6866417386136
 20
22.96421870190352
1001
AcDbBlockRepETag
1070
     1
1071
      150
1005
552
  0
LWPOLYLINE
  5
553
330
434
100
AcDbEntity
  8
frame
  6
ByBlock
100
AcDbPolyline
 90
       26
 70
     1
 43
0.0
 10
234.2359701769792
 20
21.94947136993869
 10
234.944910887607
 20
19.63063079022868
 42
-0.5040414943260745
 10
234.6677211032711
 20
19.25603029610647
 10
234.2664889703992
 20
19.25603029610647
 42
0.4142135623730951
 10
234.1215614341672
 20
19.11110275987448
 10
234.1215614341672
 20
18.53139261494652
 10
238.4693875211242
 20
18.53139261494652
 10
238.4693875211242
 20
19.11110275987448
 42
0.4142135623730951
 10
238.3244599848922
 20
19.25603029610647
 10
237.8281068345032
 20
19.25603029610465
 42
-0.3297505471416469
 10
237.4816196040811
 20
19.5124173596123
 10
234.7242421532091
 20
28.53139261494654
 10
232.363149584633
 20
28.53139261494654
 10
229.6057721337602
 20
19.5124173596123
 42
-0.3297505471416475
 10
229.259284903339
 20
19.25603029610647
 10
228.9041701298192
 20
19.25603029610647
 42
0.4142135623730951
 10
228.7592425935882
 20
19.11110275987448
 10
228.7592425935882
 20
18.53139261494652
 10
231.0780831732973
 20
18.53139261494652
 10
231.0780831732973
 20
19.11110275987448
 42
0.4142135623730951
 10
230.9331556370662
 20
19.25603029610647
 10
230.5789218782566
 20
19.25603029610647
 42
-0.5040414943243619
 10
230.3710295400033
 20
19.53698066669858
 10
231.124279045046
 20
22.00074878264059
 42
-0.329750547139216
 10
231.3321713832993
 20
22.15458102074263
 10
233.9587803926424
 20
22.15458102074444
 42
-0.3297505471401503
1001
AcDbBlockRepETag
1070
     1
1071
      151
1005
553
  0
LWPOLYLINE
  5
554
330
434
100
AcDbEntity
  8
frame
  6
ByBlock
100
AcDbPolyline
 90
       26
 70
     1
 43
0.0
 10
234.1546842727221
 20
21.92461977503808
 10
234.8636249833498
 20
19.60577919532625
 42
-0.5040414943260704
 10
234.6677211032711
 20
19.3410302961056
 10
234.2664889703992
 20
19.3410302961056
 42
0.4142135623730974
 10
234.0365614341672
 20
19.11110275987448
 10
234.0365614341672
 20
18.44639261494558
 10
238.5543875211242
 20
18.44639261494558
 10
238.5543875211242
 20
19.11110275987448
 42
0.4142135623730974
 10
238.3244599848922
 20
19.3410302961056
 10
237.8281068345032
 20
19.3410302961056
 42
-0.3297505471416459
 10
237.5629055083382
 20
19.53726895451473
 10
234.7871388445865
 20
28.61639261494565
 10
232.3002528932557
 20
28.61639261494565
 10
229.5244862295031
 20
19.53726895451473
 42
-0.3297505471416504
 10
229.259284903339
 20
19.3410302961056
 10
228.9041701298192
 20
19.3410302961056
 42
0.4142135623730974
 10
228.6742425935881
 20
19.11110275987448
 10
228.6742425935881
 20
18.44639261494558
 10
231.1630831732973
 20
18.44639261494558
 10
231.1630831732973
 20
19.11110275987448
 42
0.4142135623730974
 10
230.9331556370662
 20
19.3410302961056
 10
230.5789218782566
 20
19.3410302961056
 42
-0.5040414943243603
 10
230.4523154442595
 20
19.51212907179615
 10
231.2055649493032
 20
21.97589718773816
 42
-0.3297505471392114
 10
231.3321713832993
 20
22.0695810207435
 10
233.9587803926424
 20
22.0695810207435
 42
-0.3297505471401487
1001
AcDbBlockRepETag
1070
     1
1071
      152
1005
554
  0
LWPOLYLINE
  5
555
330
434
100
AcDbEntity
  8
frame
  6
ByBlock
100
AcDbPolyline
 90
       26
 70
     1
 43
0.0
 10
234.3172560812363
 20
21.97432296484112
 10
235.0261967918641
 20
19.65548238512929
 42
-0.5040414943260732
 10
234.6677211032711
 20
19.17103029610553
 10
234.2664889703992
 20
19.17103029610553
 42
0.4142135623730869
 10
234.2065614341673
 20
19.11110275987448
 10
234.2065614341673
 20
18.61639261494565
 10
238.384387521124
 20
18.61639261494565
 10
238.384387521124
 20
19.11110275987448
 42
0.4142135623730869
 10
238.3244599848922
 20
19.17103029610553
 10
237.8281068345032
 20
19.17103029610553
 42
-0.3297505471416466
 10
237.4003336998239
 20
19.48756576471169
 10
234.6613454618319
 20
28.44639261494558
 10
232.4260462760103
 20
28.44639261494558
 10
229.6870580380173
 20
19.48756576471169
 42
-0.3297505471416456
 10
229.259284903339
 20
19.17103029610553
 10
228.9041701298192
 20
19.17103029610553
 42
0.4142135623730869
 10
228.8442425935882
 20
19.11110275987448
 10
228.8442425935882
 20
18.61639261494565
 10
230.9930831732972
 20
18.61639261494565
 10
230.9930831732972
 20
19.11110275987448
 42
0.4142135623730869
 10
230.9331556370662
 20
19.17103029610553
 10
230.5789218782566
 20
19.17103029610553
 42
-0.5040414943243603
 10
230.2897436357461
 20
19.56183226159919
 10
231.0429931407898
 20
22.02560037754119
 42
-0.3297505471392168
 10
231.3321713832993
 20
22.23958102074357
 10
233.9587803926424
 20
22.23958102074357
 42
-0.3297505471401506
1001
AcDbBlockRepETag
1070
     1
1071
      153
1005
555
  0
LWPOLYLINE
  5
556
330
434
100
AcDbEntity
  8
frame
  6
ByBlock
100
AcDbPolyline
 90
       26
 70
     1
 43
0.0
 10
245.9329662872642
 20
26.29672794012004
 10
245.8606918689502
 20
28.53139261494654
 10
241.8751846225732
 20
28.53139261494654
 10
237.8896773761962
 20
28.53139261494654
 10
237.8174029578813
 20
26.29672794012004
 42
0.8721984941219423
 10
238.5251335900921
 20
26.17622796726938
 10
238.8149313892036
 20
27.09686812119617
 42
-0.3274643887701543
 10
239.7826145852141
 20
27.80675493378658
 10
239.9911266515583
 20
27.80675493378658
 42
-0.4142135623730951
 10
240.4983730283702
 20
27.29950855697462
 10
240.4983730283684
 20
19.61834913668463
 42
-0.4142135623730951
 10
240.1360541877902
 20
19.25603029610647
 10
239.8461991153272
 20
19.25603029610647
 42
0.4142135623730951
 10
239.7012715790952
 20
19.11110275987448
 10
239.7012715790952
 20
18.53139261494652
 10
241.8751846225732
 20
18.53139261494652
 10
244.0490976660512
 20
18.53139261494652
 10
244.0490976660512
 20
19.11110275987448
 42
0.4142135623730951
 10
243.9041701298202
 20
19.25603029610647
 10
243.6143150573562
 20
19.25603029610465
 42
-0.4142135623730951
 10
243.2519962167762
 20
19.61834913668463
 10
243.2519962167762
 20
27.29950855697462
 42
-0.4142135623730951
 10
243.7592425935882
 20
27.80675493378658
 10
243.9677546599323
 20
27.80675493378658
 42
-0.3274643887701542
 10
244.9354378559428
 20
27.09686812119617
 10
245.2252356550543
 20
26.17622796726938
 42
0.872198494121949
1001
AcDbBlockRepETag
1070
     1
1071
      154
1005
556
  0
LWPOLYLINE
  5
557
330
434
100
AcDbEntity
  8
frame
  6
ByBlock
100
AcDbPolyline
 90
       26
 70
     1
 43
0.0
 10
246.0179218658004
 20
26.29947560740584
 10
245.942987209658
 20
28.61639261494565
 10
241.8751846225732
 20
28.61639261494565
 10
237.8073820354875
 20
28.61639261494565
 10
237.7324473793442
 20
26.29947560740584
 42
0.8721984941219334
 10
238.6062116178718
 20
26.15070634092445
 10
238.8960094169834
 20
27.07134649485124
 42
-0.3274643887701552
 10
239.7826145852141
 20
27.72175493378745
 10
239.9911266515583
 20
27.72175493378745
 42
-0.414213562373094
 10
240.4133730283702
 20
27.29950855697462
 10
240.4133730283693
 20
19.61834913668463
 42
-0.4142135623730935
 10
240.1360541877902
 20
19.3410302961056
 10
239.8461991153272
 20
19.3410302961056
 42
0.4142135623730974
 10
239.6162715790952
 20
19.11110275987448
 10
239.6162715790952
 20
18.44639261494558
 10
241.8751846225732
 20
18.44639261494558
 10
244.1340976660513
 20
18.44639261494558
 10
244.1340976660513
 20
19.11110275987448
 42
0.4142135623730974
 10
243.9041701298202
 20
19.3410302961056
 10
243.6143150573562
 20
19.3410302961056
 42
-0.4142135623730935
 10
243.3369962167763
 20
19.61834913668463
 10
243.3369962167763
 20
27.29950855697462
 42
-0.414213562373094
 10
243.7592425935882
 20
27.72175493378745
 10
243.9677546599323
 20
27.72175493378745
 42
-0.3274643887701549
 10
244.8543598281631
 20
27.07134649485124
 10
245.1441576272737
 20
26.15070634092445
 42
0.8721984941219462
1001
AcDbBlockRepETag
1070
     1
1071
      155
1005
557
  0
LWPOLYLINE
  5
558
330
434
100
AcDbEntity
  8
frame
  6
ByBlock
100
AcDbPolyline
 90
       26
 70
     1
 43
0.0
 10
245.848010708728
 20
26.29398027283424
 10
245.7783965282424
 20
28.44639261494558
 10
241.8751846225732
 20
28.44639261494558
 10
237.971972716904
 20
28.44639261494558
 10
237.9023585364175
 20
26.29398027283424
 42
0.8721984941219337
 10
238.4440555623123
 20
26.2017495936143
 10
238.7338533614238
 20
27.1223897475411
 42
-0.327464388770155
 10
239.7826145852141
 20
27.89175493378753
 10
239.9911266515583
 20
27.89175493378753
 42
-0.4142135623730959
 10
240.5833730283703
 20
27.29950855697462
 10
240.5833730283684
 20
19.61834913668463
 42
-0.4142135623730962
 10
240.1360541877902
 20
19.17103029610553
 10
239.8461991153272
 20
19.17103029610553
 42
0.4142135623730869
 10
239.7862715790952
 20
19.11110275987448
 10
239.7862715790952
 20
18.61639261494565
 10
241.8751846225732
 20
18.61639261494565
 10
243.9640976660512
 20
18.61639261494565
 10
243.9640976660512
 20
19.11110275987448
 42
0.4142135623730869
 10
243.9041701298202
 20
19.17103029610553
 10
243.6143150573562
 20
19.17103029610553
 42
-0.414213562373096
 10
243.1669962167762
 20
19.61834913668463
 10
243.1669962167762
 20
27.29950855697462
 42
-0.4142135623730959
 10
243.7592425935882
 20
27.89175493378753
 10
243.9677546599323
 20
27.89175493378753
 42
-0.3274643887701536
 10
245.0165158837235
 20
27.1223897475411
 10
245.3063136828341
 20
26.2017495936143
 42
0.8721984941219799
1001
AcDbBlockRepETag
1070
     1
1071
      156
1005
558
  0
LWPOLYLINE
  5
559
330
434
100
AcDbEntity
  8
frame
  6
ByBlock
100
AcDbPolyline
 90
       40
 70
     1
 43
0.0
 10
268.6143150573562
 20
19.25603029610647
 42
-0.4142135623730951
 10
268.7592425935882
 20
19.11110275987448
 10
268.7592425935882
 20
18.53139261494652
 10
264.7012715790952
 20
18.53139261494652
 10
264.7012715790952
 20
19.11110275987448
 42
-0.4142135623730951
 10
264.8461991153272
 20
19.25603029610647
 10
265.1360541877912
 20
19.25603029610647
 42
0.4142135623730951
 10
265.4983730283702
 20
19.61834913668463
 10
265.4983730283702
 20
27.59605675325656
 42
0.8769764629942649
 10
265.0709978487421
 20
27.65232176306018
 10
262.6270522492841
 20
18.53139261494652
 10
261.9315323342799
 20
18.53139261494652
 10
259.4764728456794
 20
27.69379936200858
 42
0.8769764629925763
 10
259.0490976660522
 20
27.63753435220315
 10
259.0490976660522
 20
19.47342160045446
 42
0.4142135623730951
 10
259.2664889703992
 20
19.25603029610647
 10
259.4838802747472
 20
19.25603029610647
 42
-0.4142135623730951
 10
259.6288078109792
 20
19.11110275987448
 10
259.6288078109792
 20
18.53139261494652
 10
257.5998223037323
 20
18.53139261494652
 10
257.5998223037323
 20
19.11110275987448
 42
-0.4142135623730951
 10
257.7447498399642
 20
19.25603029610647
 10
258.1070686805442
 20
19.25603029610647
 42
0.4142135623730951
 10
258.3244599848922
 20
19.47342160045446
 10
258.3244599848922
 20
27.5893636294386
 42
0.4142135623730951
 10
258.1070686805442
 20
27.80675493378658
 10
257.7447498399642
 20
27.80675493378658
 42
-0.4142135623730951
 10
257.5998223037323
 20
27.95168247001857
 10
257.5998223037323
 20
28.53139261494654
 10
261.8027208544571
 20
28.53139261494654
 10
262.9695485733801
 20
24.1767322842461
 42
0.7673269879785563
 10
263.3895163239404
 20
24.1767322842461
 10
264.5563440428632
 20
28.53139261494654
 10
268.7592425935882
 20
28.53139261494654
 10
268.7592425935882
 20
27.95168247001857
 42
-0.4142135623730951
 10
268.6143150573562
 20
27.80675493378658
 10
268.3244599848922
 20
27.80675493378658
 42
0.4142135623730951
 10
267.9621411443122
 20
27.44443609320661
 10
267.9621411443122
 20
19.61834913668463
 42
0.4142135623730951
 10
268.3244599848922
 20
19.25603029610647
1001
AcDbBlockRepETag
1070
     1
1071
      157
1005
559
  0
LWPOLYLINE
  5
55A
330
434
100
AcDbEntity
  8
frame
  6
ByBlock
100
AcDbPolyline
 90
       40
 70
     1
 43
0.0
 10
268.6143150573562
 20
19.3410302961056
 42
-0.4142135623730974
 10
268.8442425935882
 20
19.11110275987448
 10
268.8442425935882
 20
18.44639261494558
 10
264.6162715790952
 20
18.44639261494558
 10
264.6162715790952
 20
19.11110275987448
 42
-0.4142135623730974
 10
264.8461991153272
 20
19.3410302961056
 10
265.1360541877912
 20
19.3410302961056
 42
0.4142135623730935
 10
265.4133730283702
 20
19.61834913668463
 10
265.4133730283702
 20
27.59605675325656
 42
0.8769764629942653
 10
265.1531015439768
 20
27.63032214422674
 10
262.6922750432623
 20
18.44639261494558
 10
261.8663095403017
 20
18.44639261494558
 10
259.3943691504446
 20
27.67179974317333
 42
0.8769764629924258
 10
259.1340976660522
 20
27.63753435220315
 10
259.1340976660522
 20
19.47342160045446
 42
0.4142135623730835
 10
259.2664889703992
 20
19.3410302961056
 10
259.4838802747472
 20
19.3410302961056
 42
-0.4142135623730974
 10
259.7138078109793
 20
19.11110275987448
 10
259.7138078109793
 20
18.44639261494558
 10
257.5148223037321
 20
18.44639261494558
 10
257.5148223037321
 20
19.11110275987448
 42
-0.4142135623730974
 10
257.7447498399642
 20
19.3410302961056
 10
258.1070686805442
 20
19.3410302961056
 42
0.4142135623730913
 10
258.2394599848921
 20
19.47342160045446
 10
258.2394599848921
 20
27.5893636294386
 42
0.4142135623730913
 10
258.1070686805442
 20
27.72175493378745
 10
257.7447498399642
 20
27.72175493378745
 42
-0.4142135623730974
 10
257.5148223037321
 20
27.95168247001857
 10
257.5148223037321
 20
28.61639261494565
 10
261.8679436484354
 20
28.61639261494565
 10
263.0516522686148
 20
24.19873190308135
 42
0.767326987978615
 10
263.3074126287056
 20
24.19873190308135
 10
264.491121248885
 20
28.61639261494565
 10
268.8442425935882
 20
28.61639261494565
 10
268.8442425935882
 20
27.95168247001857
 42
-0.4142135623730974
 10
268.6143150573562
 20
27.72175493378745
 10
268.3244599848922
 20
27.72175493378745
 42
0.4142135623730896
 10
268.0471411443122
 20
27.44443609320661
 10
268.0471411443122
 20
19.61834913668463
 42
0.4142135623730895
 10
268.3244599848922
 20
19.3410302961056
1001
AcDbBlockRepETag
1070
     1
1071
      158
1005
55A
  0
LWPOLYLINE
  5
55B
330
434
100
AcDbEntity
  8
frame
  6
ByBlock
100
AcDbPolyline
 90
       40
 70
     1
 43
0.0
 10
268.6143150573562
 20
19.17103029610553
 42
-0.4142135623730869
 10
268.6742425935881
 20
19.11110275987448
 10
268.6742425935881
 20
18.61639261494565
 10
264.7862715790952
 20
18.61639261494565
 10
264.7862715790952
 20
19.11110275987448
 42
-0.4142135623730869
 10
264.8461991153272
 20
19.17103029610553
 10
265.1360541877912
 20
19.17103029610553
 42
0.4142135623730962
 10
265.5833730283703
 20
19.61834913668463
 10
265.5833730283703
 20
27.59605675325656
 42
0.8769764629943033
 10
264.9888941535073
 20
27.67432138189362
 10
262.561829455306
 20
18.61639261494565
 10
261.996755128258
 20
18.61639261494565
 10
259.5585765409132
 20
27.71579898084202
 42
0.8769764629925827
 10
258.9640976660521
 20
27.63753435220315
 10
258.9640976660521
 20
19.47342160045446
 42
0.4142135623731002
 10
259.2664889703983
 20
19.17103029610553
 10
259.4838802747472
 20
19.17103029610553
 42
-0.4142135623730869
 10
259.5438078109792
 20
19.11110275987448
 10
259.5438078109792
 20
18.61639261494565
 10
257.6848223037323
 20
18.61639261494565
 10
257.6848223037323
 20
19.11110275987448
 42
-0.4142135623730869
 10
257.7447498399642
 20
19.17103029610553
 10
258.1070686805442
 20
19.17103029610553
 42
0.4142135623730966
 10
258.4094599848922
 20
19.47342160045446
 10
258.4094599848922
 20
27.5893636294386
 42
0.4142135623730966
 10
258.1070686805442
 20
27.89175493378753
 10
257.7447498399642
 20
27.89175493378753
 42
-0.4142135623730869
 10
257.6848223037323
 20
27.95168247001857
 10
257.6848223037323
 20
28.44639261494558
 10
261.7374980604791
 20
28.44639261494558
 10
262.8874448781453
 20
24.15473266541268
 42
0.7673269879785485
 10
263.4716200191751
 20
24.15473266541268
 10
264.6215668368413
 20
28.44639261494558
 10
268.6742425935881
 20
28.44639261494558
 10
268.6742425935881
 20
27.95168247001857
 42
-0.4142135623730869
 10
268.6143150573562
 20
27.89175493378753
 10
268.3244599848922
 20
27.89175493378753
 42
0.4142135623730962
 10
267.8771411443122
 20
27.44443609320661
 10
267.8771411443122
 20
19.61834913668463
 42
0.4142135623730985
 10
268.3244599848922
 20
19.17103029610553
1001
AcDbBlockRepETag
1070
     1
1071
      159
1005
55B
  0
CIRCLE
  5
55C
330
434
100
AcDbEntity
  8
frame
100
AcDbCircle
 10
251.6056181890681
 20
23.63139261494507
 30
0.0
 40
5.269566433505018
1001
AcDbBlockRepETag
1070
     1
1071
      160
1005
55C
  0
CIRCLE
  5
55D
330
434
100
AcDbEntity
  8
frame
100
AcDbCircle
 10
251.6056181890681
 20
23.63139261494507
 30
0.0
 40
5.354566433505018
1001
AcDbBlockRepETag
1070
     1
1071
      161
1005
55D
  0
CIRCLE
  5
55E
330
434
100
AcDbEntity
  8
frame
100
AcDbCircle
 10
251.6056181890681
 20
23.63139261494507
 30
0.0
 40
5.184566433505018
1001
AcDbBlockRepETag
1070
     1
1071
      162
1005
55E
  0
LINE
  5
55F
330
434
100
AcDbEntity
  8
frame
  6
ByBlock
100
AcDbLine
 10
222.9999999999991
 20
273.0000000000036
 30
0.0
 11
223.0
 21
280.0000000000036
 31
0.0
1001
AcDbBlockRepETag
1070
     1
1071
      163
1005
55F
  0
LINE
  5
560
330
434
100
AcDbEntity
  8
frame
  6
ByBlock
100
AcDbLine
 10
222.9999999999991
 20
273.0000000000036
 30
0.0
 11
407.0
 21
273.0000000000036
 31
0.0
1001
AcDbBlockRepETag
1070
     1
1071
      164
1005
560
  0
LINE
  5
561
330
434
100
AcDbEntity
  8
frame
  6
ByBlock
100
AcDbLine
 10
367.0
 20
280.0000000000036
 30
0.0
 11
367.0
 21
273.0000000000036
 31
0.0
1001
AcDbBlockRepETag
1070
     1
1071
      165
1005
561
  0
LINE
  5
562
330
434
100
AcDbEntity
  8
frame
  6
ByBlock
100
AcDbLine
 10
342.0
 20
280.0000000000036
 30
0.0
 11
342.0
 21
273.0000000000036
 31
0.0
1001
AcDbBlockRepETag
1070
     1
1071
      166
1005
562
  0
LINE
  5
563
330
434
100
AcDbEntity
  8
frame
  6
ByBlock
100
AcDbLine
 10
327.0
 20
280.0000000000036
 30
0.0
 11
327.0
 21
273.0000000000036
 31
0.0
1001
AcDbBlockRepETag
1070
     1
1071
      167
1005
563
  0
LINE
  5
564
330
434
100
AcDbEntity
  8
frame
  6
ByBlock
100
AcDbLine
 10
230.0
 20
280.0000000000036
 30
0.0
 11
230.0
 21
273.0000000000036
 31
0.0
1001
AcDbBlockRepETag
1070
     1
1071
      168
1005
564
  0
LINE
  5
565
330
434
100
AcDbEntity
  8
frame
  6
ByBlock
100
AcDbLine
 10
382.0
 20
280.0000000000036
 30
0.0
 11
382.0
 21
273.0000000000036
 31
0.0
1001
AcDbBlockRepETag
1070
     1
1071
      169
1005
565
  0
ATTDEF
  5
566
102
{ACAD_XDICTIONARY
360
567
102
}
330
434
100
AcDbEntity
  8
frame
  6
ByBlock
100
AcDbText
 10
226.5
 20
275.0000000000036
 30
0.0
 40
3.0
  1

 41
0.9
  7
ATOM
 72
     1
 11
226.5
 21
276.5000000000036
 31
0.0
100
AcDbAttributeDefinition
  3
改番?
  2
改番
 70
     0
 74
     2
1001
AcDbBlockRepETag
1070
     1
1071
      171
1005
0
1001
AcadAnnotative
1000
AnnotativeData
1002
{
1070
     1
1070
     1
1002
}
1001
AcDbAttr
1070
     0
1070
     1
  0
ATTDEF
  5
56B
102
{ACAD_XDICTIONARY
360
56C
102
}
330
434
100
AcDbEntity
  8
frame
  6
ByBlock
100
AcDbText
 10
278.5
 20
275.0000000000036
 30
0.0
 40
3.0
  1

 41
0.9
  7
ATOM
 72
     1
 11
278.5
 21
276.5000000000036
 31
0.0
100
AcDbAttributeDefinition
  3
改正理由?
  2
改　　　　正　　　　理　　　　由
 70
     0
 74
     2
1001
AcDbBlockRepETag
1070
     1
1071
      170
1005
0
1001
AcadAnnotative
1000
AnnotativeData
1002
{
1070
     1
1070
     1
1002
}
1001
AcDbAttr
1070
     0
1070
     1
  0
ATTDEF
  5
570
102
{ACAD_XDICTIONARY
360
571
102
}
330
434
100
AcDbEntity
  8
frame
  6
ByBlock
100
AcDbText
 10
334.5
 20
275.0000000000036
 30
0.0
 40
3.0
  1

 41
0.9
  7
ATOM
 72
     1
 11
334.5
 21
276.5000000000036
 31
0.0
100
AcDbAttributeDefinition
  3
改正承認?
  2
改正承認
 70
     0
 74
     2
1001
AcDbBlockRepETag
1070
     1
1071
      172
1005
0
1001
AcadAnnotative
1000
AnnotativeData
1002
{
1070
     1
1070
     1
1002
}
1001
AcDbAttr
1070
     0
1070
     1
  0
ATTDEF
  5
575
102
{ACAD_XDICTIONARY
360
576
102
}
330
434
100
AcDbEntity
  8
frame
  6
ByBlock
100
AcDbText
 10
354.5
 20
275.0000000000036
 30
0.0
 40
3.0
  1

 41
0.9
  7
ATOM
 72
     1
 11
354.5
 21
276.5000000000036
 31
0.0
100
AcDbAttributeDefinition
  3
改正承認日?
  2
改正承認日
 70
     0
 74
     2
1001
AcDbBlockRepETag
1070
     1
1071
      173
1005
0
1001
AcadAnnotative
1000
AnnotativeData
1002
{
1070
     1
1070
     1
1002
}
1001
AcDbAttr
1070
     0
1070
     1
  0
ATTDEF
  5
57A
102
{ACAD_XDICTIONARY
360
57B
102
}
330
434
100
AcDbEntity
  8
frame
  6
ByBlock
100
AcDbText
 10
374.5
 20
275.0000000000036
 30
0.0
 40
3.0
  1

 41
0.9
  7
ATOM
 72
     1
 11
374.5
 21
276.5000000000036
 31
0.0
100
AcDbAttributeDefinition
  3
改正担当?
  2
改正担当
 70
     0
 74
     2
1001
AcDbBlockRepETag
1070
     1
1071
      174
1005
0
1001
AcadAnnotative
1000
AnnotativeData
1002
{
1070
     1
1070
     1
1002
}
1001
AcDbAttr
1070
     0
1070
     1
  0
ATTDEF
  5
57F
102
{ACAD_XDICTIONARY
360
580
102
}
330
434
100
AcDbEntity
  8
frame
  6
ByBlock
100
AcDbText
 10
394.5
 20
275.0000000000036
 30
0.0
 40
3.0
  1

 41
0.9
  7
ATOM
 72
     1
 11
394.5
 21
276.5000000000036
 31
0.0
100
AcDbAttributeDefinition
  3
改正日?
  2
改正日
 70
     0
 74
     2
1001
AcDbBlockRepETag
1070
     1
1071
      175
1005
0
1001
AcadAnnotative
1000
AnnotativeData
1002
{
1070
     1
1070
     1
1002
}
1001
AcDbAttr
1070
     0
1070
     1
  0
ATTDEF
  5
584
102
{ACAD_XDICTIONARY
360
585
102
}
330
434
100
AcDbEntity
  8
frame
  6
ByBlock
100
AcDbText
 10
286.75
 20
32.75000000000364
 30
0.0
 40
3.5
  1

 41
0.9
  7
ATOM
 72
     1
 11
286.75
 21
34.50000000000364
 31
0.0
100
AcDbAttributeDefinition
  3
名称?
  2
名称
 70
     0
 74
     2
1001
AcDbBlockRepETag
1070
     1
1071
      185
1005
0
1001
AcadAnnotative
1000
AnnotativeData
1002
{
1070
     1
1070
     1
1002
}
1001
AcDbAttr
1070
     0
1070
     1
  0
ATTDEF
  5
589
102
{ACAD_XDICTIONARY
360
58A
102
}
330
434
100
AcDbEntity
  8
frame
  6
ByBlock
100
AcDbText
 10
245.0
 20
32.7858983848655
 30
0.0
 40
3.5
  1

 41
0.9
  7
ATOM
 72
     1
 11
245.0
 21
34.5358983848655
 31
0.0
100
AcDbAttributeDefinition
  3
尺度?
  2
尺度
 70
     0
 74
     2
1001
AcDbBlockRepETag
1070
     1
1071
      184
1005
0
1001
AcadAnnotative
1000
AnnotativeData
1002
{
1070
     1
1070
     1
1002
}
1001
AcDbAttr
1070
     0
1070
     1
  0
ATTDEF
  5
58E
102
{ACAD_XDICTIONARY
360
58F
102
}
330
434
100
AcDbEntity
  8
frame
  6
ByBlock
100
AcDbText
 10
322.25
 20
32.75000000000364
 30
0.0
 40
3.5
  1

 41
0.9
  7
ATOM
 72
     1
 11
322.25
 21
34.50000000000364
 31
0.0
100
AcDbAttributeDefinition
  3
承認?
  2
承認
 70
     0
 74
     2
1001
AcDbBlockRepETag
1070
     1
1071
      182
1005
0
1001
AcadAnnotative
1000
AnnotativeData
1002
{
1070
     1
1070
     1
1002
}
1001
AcDbAttr
1070
     0
1070
     1
  0
ATTDEF
  5
593
102
{ACAD_XDICTIONARY
360
594
102
}
330
434
100
AcDbEntity
  8
frame
  6
ByBlock
100
AcDbText
 10
322.25
 20
25.75000000000364
 30
0.0
 40
3.5
  1

 41
0.9
  7
ATOM
 72
     1
 11
322.25
 21
27.50000000000364
 31
0.0
100
AcDbAttributeDefinition
  3
検図?
  2
検図
 70
     0
 74
     2
1001
AcDbBlockRepETag
1070
     1
1071
      183
1005
0
1001
AcadAnnotative
1000
AnnotativeData
1002
{
1070
     1
1070
     1
1002
}
1001
AcDbAttr
1070
     0
1070
     1
  0
ATTDEF
  5
598
102
{ACAD_XDICTIONARY
360
599
102
}
330
434
100
AcDbEntity
  8
frame
  6
ByBlock
100
AcDbText
 10
322.25
 20
18.75000000000364
 30
0.0
 40
3.5
  1

 41
0.9
  7
ATOM
 72
     1
 11
322.25
 21
20.50000000000364
 31
0.0
100
AcDbAttributeDefinition
  3
設計?
  2
設計
 70
     0
 74
     2
1001
AcDbBlockRepETag
1070
     1
1071
      186
1005
0
1001
AcadAnnotative
1000
AnnotativeData
1002
{
1070
     1
1070
     1
1002
}
1001
AcDbAttr
1070
     0
1070
     1
  0
ATTDEF
  5
59D
102
{ACAD_XDICTIONARY
360
59E
102
}
330
434
100
AcDbEntity
  8
frame
  6
ByBlock
100
AcDbText
 10
322.25
 20
11.75000000000364
 30
0.0
 40
3.5
  1

 41
0.9
  7
ATOM
 72
     1
 11
322.25
 21
13.50000000000364
 31
0.0
100
AcDbAttributeDefinition
  3
作図?
  2
作図
 70
     0
 74
     2
1001
AcDbBlockRepETag
1070
     1
1071
      187
1005
0
1001
AcadAnnotative
1000
AnnotativeData
1002
{
1070
     1
1070
     1
1002
}
1001
AcDbAttr
1070
     0
1070
     1
  0
ATTDEF
  5
5A2
102
{ACAD_XDICTIONARY
360
5A3
102
}
330
434
100
AcDbEntity
  8
frame
  6
ByBlock
100
AcDbText
 10
340.0
 20
32.75000000000364
 30
0.0
 40
3.5
  1

 41
0.8
  7
ATOM
 72
     1
 11
340.0
 21
34.50000000000364
 31
0.0
100
AcDbAttributeDefinition
  3
承認日?
  2
承認日
 70
     0
 74
     2
1001
AcDbBlockRepETag
1070
     1
1071
      191
1005
0
1001
AcadAnnotative
1000
AnnotativeData
1002
{
1070
     1
1070
     1
1002
}
1001
AcDbAttr
1070
     0
1070
     1
  0
ATTDEF
  5
5A7
102
{ACAD_XDICTIONARY
360
5A8
102
}
330
434
100
AcDbEntity
  8
frame
  6
ByBlock
100
AcDbText
 10
340.0
 20
25.75000000000364
 30
0.0
 40
3.5
  1

 41
0.8
  7
ATOM
 72
     1
 11
340.0
 21
27.50000000000364
 31
0.0
100
AcDbAttributeDefinition
  3
検図日?
  2
検図日
 70
     0
 74
     2
1001
AcDbBlockRepETag
1070
     1
1071
      190
1005
0
1001
AcadAnnotative
1000
AnnotativeData
1002
{
1070
     1
1070
     1
1002
}
1001
AcDbAttr
1070
     0
1070
     1
  0
ATTDEF
  5
5AC
102
{ACAD_XDICTIONARY
360
5AD
102
}
330
434
100
AcDbEntity
  8
frame
  6
ByBlock
100
AcDbText
 10
340.0
 20
18.75000000000364
 30
0.0
 40
3.5
  1

 41
0.8
  7
ATOM
 72
     1
 11
340.0
 21
20.50000000000364
 31
0.0
100
AcDbAttributeDefinition
  3
設計日?
  2
設計日
 70
     0
 74
     2
1001
AcDbBlockRepETag
1070
     1
1071
      189
1005
0
1001
AcadAnnotative
1000
AnnotativeData
1002
{
1070
     1
1070
     1
1002
}
1001
AcDbAttr
1070
     0
1070
     1
  0
ATTDEF
  5
5B1
102
{ACAD_XDICTIONARY
360
5B2
102
}
330
434
100
AcDbEntity
  8
frame
  6
ByBlock
100
AcDbText
 10
340.0
 20
11.75000000000364
 30
0.0
 40
3.5
  1

 41
0.8
  7
ATOM
 72
     1
 11
340.0
 21
13.50000000000364
 31
0.0
100
AcDbAttributeDefinition
  3
作図日?
  2
作図日
 70
     0
 74
     2
1001
AcDbBlockRepETag
1070
     1
1071
      188
1005
0
1001
AcadAnnotative
1000
AnnotativeData
1002
{
1070
     1
1070
     1
1002
}
1001
AcDbAttr
1070
     0
1070
     1
  0
ATTDEF
  5
5B6
102
{ACAD_XDICTIONARY
360
5B7
102
}
330
434
100
AcDbEntity
  8
frame
  6
ByBlock
100
AcDbText
 10
380.5
 20
32.75000000000364
 30
0.0
 40
3.5
  1

 41
0.9
  7
ATOM
 72
     1
 11
380.5
 21
34.50000000000364
 31
0.0
100
AcDbAttributeDefinition
  3
品名?
  2
品名
 70
     0
 74
     2
1001
AcDbBlockRepETag
1070
     1
1071
      195
1005
0
1001
AcadAnnotative
1000
AnnotativeData
1002
{
1070
     1
1070
     1
1002
}
1001
AcDbAttr
1070
     0
1070
     1
  0
ATTDEF
  5
5BB
102
{ACAD_XDICTIONARY
360
5BC
102
}
330
434
100
AcDbEntity
  8
frame
  6
ByBlock
100
AcDbText
 10
380.5
 20
25.75000000000364
 30
0.0
 40
3.5
  1

 41
0.9
  7
ATOM
 72
     1
 11
380.5
 21
27.50000000000364
 31
0.0
100
AcDbAttributeDefinition
  3
品番?
  2
品番
 70
     0
 74
     2
1001
AcDbBlockRepETag
1070
     1
1071
      194
1005
0
1001
AcadAnnotative
1000
AnnotativeData
1002
{
1070
     1
1070
     1
1002
}
1001
AcDbAttr
1070
     0
1070
     1
  0
ATTDEF
  5
5C0
102
{ACAD_XDICTIONARY
360
5C1
102
}
330
434
100
AcDbEntity
  8
frame
  6
ByBlock
100
AcDbText
 10
380.5
 20
18.75000000000364
 30
0.0
 40
3.5
  1

 41
0.9
  7
ATOM
 72
     1
 11
380.5
 21
20.50000000000364
 31
0.0
100
AcDbAttributeDefinition
  3
図名?
  2
図名
 70
     0
 74
     2
1001
AcDbBlockRepETag
1070
     1
1071
      193
1005
0
1001
AcadAnnotative
1000
AnnotativeData
1002
{
1070
     1
1070
     1
1002
}
1001
AcDbAttr
1070
     0
1070
     1
  0
ATTDEF
  5
5C5
102
{ACAD_XDICTIONARY
360
5C6
102
}
330
434
100
AcDbEntity
  8
frame
  6
ByBlock
100
AcDbText
 10
375.25
 20
11.75000000000182
 30
0.0
 40
3.5
  1

 41
0.9
  7
ATOM
 72
     1
 11
375.25
 21
13.50000000000182
 31
0.0
100
AcDbAttributeDefinition
  3
図番?
  2
図番
 70
     0
 74
     2
1001
AcDbBlockRepETag
1070
     1
1071
      192
1005
0
1001
AcadAnnotative
1000
AnnotativeData
1002
{
1070
     1
1070
     1
1002
}
1001
AcDbAttr
1070
     0
1070
     1
  0
ATTDEF
  5
5CA
102
{ACAD_XDICTIONARY
360
5CB
102
}
330
434
100
AcDbEntity
  8
frame
  6
ByBlock
100
AcDbText
 10
226.5
 20
47.00000000000363
 30
0.0
 40
3.0
  1

 41
0.9
  7
ATOM
 72
     1
 11
226.5
 21
48.50000000000363
 31
0.0
100
AcDbAttributeDefinition
  3
部番?
  2
部番
 70
     0
 74
     2
1001
AcDbBlockRepETag
1070
     1
1071
      181
1005
0
1001
AcadAnnotative
1000
AnnotativeData
1002
{
1070
     1
1070
     1
1002
}
1001
AcDbAttr
1070
     0
1070
     1
  0
ATTDEF
  5
5CF
102
{ACAD_XDICTIONARY
360
5D0
102
}
330
434
100
AcDbEntity
  8
frame
  6
ByBlock
100
AcDbText
 10
255.0
 20
47.00000000000363
 30
0.0
 40
3.0
  1

 41
0.9
  7
ATOM
 72
     1
 11
255.0
 21
48.50000000000363
 31
0.0
100
AcDbAttributeDefinition
  3
部品名?
  2
部　　　　品　　　　名
 70
     0
 74
     2
1001
AcadAnnotative
1000
AnnotativeData
1002
{
1070
     1
1070
     1
1002
}
1001
AcDbBlockRepETag
1070
     1
1071
      196
1005
0
1001
AcDbAttr
1070
     0
1070
     1
  0
ATTDEF
  5
5D4
102
{ACAD_XDICTIONARY
360
5D5
102
}
330
434
100
AcDbEntity
  8
frame
  6
ByBlock
100
AcDbText
 10
294.0
 20
47.00000000000363
 30
0.0
 40
3.0
  1

 41
0.9
  7
ATOM
 72
     1
 11
294.0
 21
48.50000000000363
 31
0.0
100
AcDbAttributeDefinition
  3
材質?
  2
材　　質
 70
     0
 74
     2
1001
AcadAnnotative
1000
AnnotativeData
1002
{
1070
     1
1070
     1
1002
}
1001
AcDbBlockRepETag
1070
     1
1071
      197
1005
0
1001
AcDbAttr
1070
     0
1070
     1
  0
ATTDEF
  5
5D9
102
{ACAD_XDICTIONARY
360
5DA
102
}
330
434
100
AcDbEntity
  8
frame
  6
ByBlock
100
AcDbText
 10
311.5
 20
47.00000000000363
 30
0.0
 40
3.0
  1

 41
0.9
  7
ATOM
 72
     1
 11
311.5
 21
48.50000000000363
 31
0.0
100
AcDbAttributeDefinition
  3
数量?
  2
数量
 70
     0
 74
     2
1001
AcDbBlockRepETag
1070
     1
1071
      178
1005
0
1001
AcadAnnotative
1000
AnnotativeData
1002
{
1070
     1
1070
     1
1002
}
1001
AcDbAttr
1070
     0
1070
     1
  0
ATTDEF
  5
5DE
102
{ACAD_XDICTIONARY
360
5DF
102
}
330
434
100
AcDbEntity
  8
frame
  6
ByBlock
100
AcDbText
 10
340.0
 20
47.00000000000363
 30
0.0
 40
3.0
  1

 41
0.9
  7
ATOM
 72
     1
 11
340.0
 21
48.50000000000363
 31
0.0
100
AcDbAttributeDefinition
  3
表面処理?
  2
表　　面　　処　　理
 70
     0
 74
     2
1001
AcadAnnotative
1000
AnnotativeData
1002
{
1070
     1
1070
     1
1002
}
1001
AcDbBlockRepETag
1070
     1
1071
      198
1005
0
1001
AcDbAttr
1070
     0
1070
     1
  0
ATTDEF
  5
5E3
102
{ACAD_XDICTIONARY
360
5E4
102
}
330
434
100
AcDbEntity
  8
frame
  6
ByBlock
100
AcDbText
 10
386.0
 20
47.00000000000363
 30
0.0
 40
3.0
  1

 41
0.9
  7
ATOM
 72
     1
 11
386.0
 21
48.50000000000363
 31
0.0
100
AcDbAttributeDefinition
  3
備考?
  2
備　　　考
 70
     0
 74
     2
1001
AcadAnnotative
1000
AnnotativeData
1002
{
1070
     1
1070
     1
1002
}
1001
AcDbBlockRepETag
1070
     1
1071
      199
1005
0
1001
AcDbAttr
1070
     0
1070
     1
  0
ENDBLK
  5
5E8
330
434
100
AcDbEntity
  8
0
100
AcDbBlockEnd
  0
BLOCK
  5
67A
330
679
100
AcDbEntity
  8
0
100
AcDbBlockBegin
  2
*E3117
 70
     3
 10
0.0
 20
0.0
 30
0.0
  3
*E3117
  1

  0
LINE
  5
67C
330
679
100
AcDbEntity
  8
frame
  6
ByBlock
100
AcDbLine
 10
329.0
 20
38.00000000000364
 30
0.0
 11
329.0
 21
10.00000000000364
 31
0.0
1001
AcDbBlockRepETag
1070
     1
1071
        0
1005
67C
  0
LINE
  5
67D
330
679
100
AcDbEntity
  8
frame
  6
ByBlock
100
AcDbLine
 10
354.0
 20
38.00000000000364
 30
0.0
 11
354.0
 21
10.0
 31
0.0
1001
AcDbBlockRepETag
1070
     1
1071
        1
1005
67D
  0
LINE
  5
67E
330
679
100
AcDbEntity
  8
frame
  6
ByBlock
100
AcDbLine
 10
354.085
 20
38.00000000000364
 30
0.0
 11
354.085
 21
10.0
 31
0.0
1001
AcDbBlockRepETag
1070
     1
1071
        2
1005
67E
  0
LINE
  5
67F
330
679
100
AcDbEntity
  8
frame
  6
ByBlock
100
AcDbLine
 10
353.915
 20
38.00000000000364
 30
0.0
 11
353.915
 21
10.0
 31
0.0
1001
AcDbBlockRepETag
1070
     1
1071
        3
1005
67F
  0
LINE
  5
680
330
679
100
AcDbEntity
  8
frame
  6
ByBlock
100
AcDbLine
 10
351.0
 20
38.00000000000364
 30
0.0
 11
351.0
 21
10.0
 31
0.0
1001
AcDbBlockRepETag
1070
     1
1071
        4
1005
680
  0
LINE
  5
681
330
679
100
AcDbEntity
  8
frame
  6
ByBlock
100
AcDbLine
 10
351.085
 20
38.00000000000364
 30
0.0
 11
351.085
 21
10.0
 31
0.0
1001
AcDbBlockRepETag
1070
     1
1071
        5
1005
681
  0
LINE
  5
682
330
679
100
AcDbEntity
  8
frame
  6
ByBlock
100
AcDbLine
 10
351.1700000000001
 20
38.00000000000364
 30
0.0
 11
351.1700000000001
 21
10.0
 31
0.0
1001
AcDbBlockRepETag
1070
     1
1071
        6
1005
682
  0
LINE
  5
683
330
679
100
AcDbEntity
  8
frame
  6
ByBlock
100
AcDbLine
 10
396.5
 20
10.00000000000364
 30
0.0
 11
396.5
 21
17.00000000000364
 31
0.0
1001
AcDbBlockRepETag
1070
     1
1071
        7
1005
683
  0
LINE
  5
684
330
679
100
AcDbEntity
  8
frame
  6
ByBlock
100
AcDbLine
 10
365.0
 20
52.00000000000365
 30
0.0
 11
365.0
 21
45.00000000000365
 31
0.0
1001
AcDbBlockRepETag
1070
     1
1071
        8
1005
684
  0
LINE
  5
685
330
679
100
AcDbEntity
  8
frame
  6
ByBlock
100
AcDbLine
 10
315.0
 20
52.00000000000365
 30
0.0
 11
315.0
 21
45.00000000000365
 31
0.0
1001
AcDbBlockRepETag
1070
     1
1071
        9
1005
685
  0
LINE
  5
686
330
679
100
AcDbEntity
  8
frame
  6
ByBlock
100
AcDbLine
 10
308.0
 20
52.00000000000365
 30
0.0
 11
308.0
 21
45.00000000000365
 31
0.0
1001
AcDbBlockRepETag
1070
     1
1071
       10
1005
686
  0
LINE
  5
687
330
679
100
AcDbEntity
  8
frame
  6
ByBlock
100
AcDbLine
 10
280.0
 20
52.00000000000365
 30
0.0
 11
280.0
 21
45.00000000000365
 31
0.0
1001
AcDbBlockRepETag
1070
     1
1071
       11
1005
687
  0
LINE
  5
688
330
679
100
AcDbEntity
  8
frame
  6
ByBlock
100
AcDbLine
 10
230.0
 20
52.00000000000365
 30
0.0
 11
230.0
 21
45.00000000000365
 31
0.0
1001
AcDbBlockRepETag
1070
     1
1071
       12
1005
688
  0
LINE
  5
689
330
679
100
AcDbEntity
  8
frame
  6
ByBlock
100
AcDbLine
 10
222.9999999999991
 20
52.00000000000365
 30
0.0
 11
407.0
 21
52.00000000000365
 31
0.0
1001
AcDbBlockRepETag
1070
     1
1071
       13
1005
689
  0
TEXT
  5
68A
330
679
100
AcDbEntity
  8
frame
  6
ByBlock
100
AcDbText
 10
225.5592425935882
 20
11.75000000000182
 30
0.0
 40
5.0
  1
アトムリビンテック株式会社
 41
0.6
  7
ATOM
 72
     1
 11
248.7592425935882
 21
14.25000000000182
 31
0.0
100
AcDbText
 73
     2
1001
AcDbBlockRepETag
1070
     1
1071
       14
1005
68A
  0
TEXT
  5
68B
330
679
100
AcDbEntity
  8
frame
  6
ByBlock
100
AcDbText
 10
275.5
 20
21.5
 30
0.0
 40
4.0
  1
開　発　部
 41
0.9
  7
ATOM
 11
275.5
 21
23.5
 31
0.0
100
AcDbText
 73
     2
1001
AcDbBlockRepETag
1070
     1
1071
       15
1005
68B
  0
TEXT
  5
68C
330
679
100
AcDbEntity
  8
frame
  6
ByBlock
100
AcDbText
 10
275.5
 20
17.0
 30
0.0
 40
3.0
  1
〒110-8680
 41
0.7
  7
ATOM
 11
275.5
 21
18.5
 31
0.0
100
AcDbText
 73
     2
1001
AcDbBlockRepETag
1070
     1
1071
       16
1005
68C
  0
TEXT
  5
68D
330
679
100
AcDbEntity
  8
frame
  6
ByBlock
100
AcDbText
 10
275.5
 20
12.5
 30
0.0
 40
3.0
  1
東京都 台東区 入谷 1-27-4
 41
0.65
  7
ATOM
 11
275.5
 21
14.0
 31
0.0
100
AcDbText
 73
     2
1001
AcDbBlockRepETag
1070
     1
1071
       17
1005
68D
  0
TEXT
  5
68E
102
{ACAD_XDICTIONARY
360
68F
102
}
330
679
100
AcDbEntity
  8
frame
  6
ByBlock
100
AcDbText
 10
223.62
 20
40.00000000000363
 30
0.0
 40
3.0
  1
部番
 41
0.9
  7
ATOM
 72
     1
 11
226.5
 21
41.50000000000363
 31
0.0
100
AcDbText
 73
     2
1001
AcDbBlockRepETag
1070
     1
1071
       18
1005
68E
1001
AcadAnnotative
1000
AnnotativeData
1002
{
1070
     1
1070
     0
1002
}
  0
TEXT
  5
693
102
{ACAD_XDICTIONARY
360
694
102
}
330
679
100
AcDbEntity
  8
frame
  6
ByBlock
100
AcDbText
 10
237.63
 20
40.00000000000363
 30
0.0
 40
3.0
  1
部　　　　品　　　　名
 41
0.9
  7
ATOM
 72
     1
 11
255.0
 21
41.50000000000363
 31
0.0
100
AcDbText
 73
     2
1001
AcDbBlockRepETag
1070
     1
1071
       19
1005
693
1001
AcadAnnotative
1000
AnnotativeData
1002
{
1070
     1
1070
     0
1002
}
  0
TEXT
  5
698
102
{ACAD_XDICTIONARY
360
699
102
}
330
679
100
AcDbEntity
  8
frame
  6
ByBlock
100
AcDbText
 10
287.88
 20
40.00000000000363
 30
0.0
 40
3.0
  1
材　　質
 41
0.9
  7
ATOM
 72
     1
 11
294.0
 21
41.50000000000363
 31
0.0
100
AcDbText
 73
     2
1001
AcDbBlockRepETag
1070
     1
1071
       20
1005
698
1001
AcadAnnotative
1000
AnnotativeData
1002
{
1070
     1
1070
     0
1002
}
  0
TEXT
  5
69D
102
{ACAD_XDICTIONARY
360
69E
102
}
330
679
100
AcDbEntity
  8
frame
  6
ByBlock
100
AcDbText
 10
308.62
 20
40.00000000000363
 30
0.0
 40
3.0
  1
数量
 41
0.9
  7
ATOM
 72
     1
 11
311.5
 21
41.50000000000363
 31
0.0
100
AcDbText
 73
     2
1001
AcDbBlockRepETag
1070
     1
1071
       21
1005
69D
1001
AcadAnnotative
1000
AnnotativeData
1002
{
1070
     1
1070
     0
1002
}
  0
TEXT
  5
6A2
102
{ACAD_XDICTIONARY
360
6A3
102
}
330
679
100
AcDbEntity
  8
frame
  6
ByBlock
100
AcDbText
 10
324.16
 20
40.00000000000363
 30
0.0
 40
3.0
  1
表　　面　　処　　理
 41
0.9
  7
ATOM
 72
     1
 11
340.0
 21
41.50000000000363
 31
0.0
100
AcDbText
 73
     2
1001
AcDbBlockRepETag
1070
     1
1071
       22
1005
6A2
1001
AcadAnnotative
1000
AnnotativeData
1002
{
1070
     1
1070
     0
1002
}
  0
TEXT
  5
6A7
102
{ACAD_XDICTIONARY
360
6A8
102
}
330
679
100
AcDbEntity
  8
frame
  6
ByBlock
100
AcDbText
 10
378.26
 20
40.00000000000363
 30
0.0
 40
3.0
  1
備　　　考
 41
0.9
  7
ATOM
 72
     1
 11
386.0
 21
41.50000000000363
 31
0.0
100
AcDbText
 73
     2
1001
AcDbBlockRepETag
1070
     1
1071
       23
1005
6A7
1001
AcadAnnotative
1000
AnnotativeData
1002
{
1070
     1
1070
     0
1002
}
  0
TEXT
  5
6AC
102
{ACAD_XDICTIONARY
360
6AD
102
}
330
679
100
AcDbEntity
  8
frame
  6
ByBlock
100
AcDbText
 10
390.18
 20
282.0000000000018
 30
0.0
 40
3.0
  1
改正日
 41
0.9
  7
ATOM
 72
     1
 11
394.5
 21
283.5000000000018
 31
0.0
100
AcDbText
 73
     2
1001
AcDbBlockRepETag
1070
     1
1071
       24
1005
6AC
1001
AcadAnnotative
1000
AnnotativeData
1002
{
1070
     1
1070
     0
1002
}
  0
TEXT
  5
6B1
102
{ACAD_XDICTIONARY
360
6B2
102
}
330
679
100
AcDbEntity
  8
frame
  6
ByBlock
100
AcDbText
 10
368.47
 20
282.0000000000018
 30
0.0
 40
3.0
  1
改正担当
 41
0.9
  7
ATOM
 72
     1
 11
374.5
 21
283.5000000000018
 31
0.0
100
AcDbText
 73
     2
1001
AcDbBlockRepETag
1070
     1
1071
       25
1005
6B1
1001
AcadAnnotative
1000
AnnotativeData
1002
{
1070
     1
1070
     0
1002
}
  0
TEXT
  5
6B6
102
{ACAD_XDICTIONARY
360
6B7
102
}
330
679
100
AcDbEntity
  8
frame
  6
ByBlock
100
AcDbText
 10
346.94
 20
282.0000000000036
 30
0.0
 40
3.0
  1
改正承認日
 41
0.9
  7
ATOM
 72
     1
 11
354.5
 21
283.5000000000036
 31
0.0
100
AcDbText
 73
     2
1001
AcDbBlockRepETag
1070
     1
1071
       26
1005
6B6
1001
AcadAnnotative
1000
AnnotativeData
1002
{
1070
     1
1070
     0
1002
}
  0
TEXT
  5
6BB
102
{ACAD_XDICTIONARY
360
6BC
102
}
330
679
100
AcDbEntity
  8
frame
  6
ByBlock
100
AcDbText
 10
328.38
 20
282.0000000000018
 30
0.0
 40
3.0
  1
改正承認
 41
0.9
  7
ATOM
 72
     1
 11
334.5
 21
283.5000000000018
 31
0.0
100
AcDbText
 73
     2
1001
AcDbBlockRepETag
1070
     1
1071
       27
1005
6BB
1001
AcadAnnotative
1000
AnnotativeData
1002
{
1070
     1
1070
     0
1002
}
  0
TEXT
  5
6C0
102
{ACAD_XDICTIONARY
360
6C1
102
}
330
679
100
AcDbEntity
  8
frame
  6
ByBlock
100
AcDbText
 10
253.03
 20
282.0000000000018
 30
0.0
 40
3.0
  1
改　　　　正　　　　理　　　　由
 41
0.9
  7
ATOM
 72
     1
 11
278.5
 21
283.5000000000018
 31
0.0
100
AcDbText
 73
     2
1001
AcDbBlockRepETag
1070
     1
1071
       28
1005
6C0
1001
AcadAnnotative
1000
AnnotativeData
1002
{
1070
     1
1070
     0
1002
}
  0
TEXT
  5
6C5
102
{ACAD_XDICTIONARY
360
6C6
102
}
330
679
100
AcDbEntity
  8
frame
  6
ByBlock
100
AcDbText
 10
223.62
 20
282.0000000000018
 30
0.0
 40
3.0
  1
改番
 41
0.9
  7
ATOM
 72
     1
 11
226.5
 21
283.5000000000018
 31
0.0
100
AcDbText
 73
     2
1001
AcDbBlockRepETag
1070
     1
1071
       29
1005
6C5
1001
AcadAnnotative
1000
AnnotativeData
1002
{
1070
     1
1070
     0
1002
}
  0
TEXT
  5
6CA
102
{ACAD_XDICTIONARY
360
6CB
102
}
330
679
100
AcDbEntity
  8
frame
  6
ByBlock
100
AcDbText
 10
258.6333333333333
 20
35.00000000000364
 30
0.0
 40
2.5
  1
名
 41
0.8
  7
ATOM
 72
     1
 11
259.5
 21
36.25000000000364
 31
0.0
100
AcDbText
 73
     2
1001
AcDbBlockRepETag
1070
     1
1071
       30
1005
6CA
1001
AcadAnnotative
1000
AnnotativeData
1002
{
1070
     1
1070
     0
1002
}
  0
TEXT
  5
6CF
102
{ACAD_XDICTIONARY
360
6D0
102
}
330
679
100
AcDbEntity
  8
frame
  6
ByBlock
100
AcDbText
 10
258.5666666666667
 20
31.50000000000364
 30
0.0
 40
2.5
  1
称
 41
0.8
  7
ATOM
 72
     1
 11
259.5
 21
32.75000000000364
 31
0.0
100
AcDbText
 73
     2
1001
AcDbBlockRepETag
1070
     1
1071
       31
1005
6CF
1001
AcadAnnotative
1000
AnnotativeData
1002
{
1070
     1
1070
     0
1002
}
  0
TEXT
  5
6D4
102
{ACAD_XDICTIONARY
360
6D5
102
}
330
679
100
AcDbEntity
  8
frame
  6
ByBlock
100
AcDbText
 10
236.5666666666667
 20
35.00000000000364
 30
0.0
 40
2.5
  1
尺
 41
0.8
  7
ATOM
 72
     1
 11
237.5
 21
36.25000000000364
 31
0.0
100
AcDbText
 73
     2
1001
AcDbBlockRepETag
1070
     1
1071
       32
1005
6D4
1001
AcadAnnotative
1000
AnnotativeData
1002
{
1070
     1
1070
     0
1002
}
  0
TEXT
  5
6D9
102
{ACAD_XDICTIONARY
360
6DA
102
}
330
679
100
AcDbEntity
  8
frame
  6
ByBlock
100
AcDbText
 10
236.5666666666667
 20
31.50000000000364
 30
0.0
 40
2.5
  1
度
 41
0.8
  7
ATOM
 72
     1
 11
237.5
 21
32.75000000000364
 31
0.0
100
AcDbText
 73
     2
1001
AcDbBlockRepETag
1070
     1
1071
       33
1005
6D9
1001
AcadAnnotative
1000
AnnotativeData
1002
{
1070
     1
1070
     0
1002
}
  0
TEXT
  5
6DE
102
{ACAD_XDICTIONARY
360
6DF
102
}
330
679
100
AcDbEntity
  8
frame
  6
ByBlock
100
AcDbText
 10
313.0666666666666
 20
35.00000000000364
 30
0.0
 40
2.5
  1
承
 41
0.8
  7
ATOM
 72
     1
 11
314.0
 21
36.25000000000364
 31
0.0
100
AcDbText
 73
     2
1001
AcDbBlockRepETag
1070
     1
1071
       34
1005
6DE
1001
AcadAnnotative
1000
AnnotativeData
1002
{
1070
     1
1070
     0
1002
}
  0
TEXT
  5
6E3
102
{ACAD_XDICTIONARY
360
6E4
102
}
330
679
100
AcDbEntity
  8
frame
  6
ByBlock
100
AcDbText
 10
313.0666666666666
 20
31.50000000000364
 30
0.0
 40
2.5
  1
認
 41
0.8
  7
ATOM
 72
     1
 11
314.0
 21
32.75000000000364
 31
0.0
100
AcDbText
 73
     2
1001
AcDbBlockRepETag
1070
     1
1071
       35
1005
6E3
1001
AcadAnnotative
1000
AnnotativeData
1002
{
1070
     1
1070
     0
1002
}
  0
TEXT
  5
6E8
102
{ACAD_XDICTIONARY
360
6E9
102
}
330
679
100
AcDbEntity
  8
frame
  6
ByBlock
100
AcDbText
 10
313.0666666666666
 20
28.00000000000364
 30
0.0
 40
2.5
  1
検
 41
0.8
  7
ATOM
 72
     1
 11
314.0
 21
29.25000000000364
 31
0.0
100
AcDbText
 73
     2
1001
AcDbBlockRepETag
1070
     1
1071
       36
1005
6E8
1001
AcadAnnotative
1000
AnnotativeData
1002
{
1070
     1
1070
     0
1002
}
  0
TEXT
  5
6ED
102
{ACAD_XDICTIONARY
360
6EE
102
}
330
679
100
AcDbEntity
  8
frame
  6
ByBlock
100
AcDbText
 10
313.0666666666666
 20
24.50000000000364
 30
0.0
 40
2.5
  1
図
 41
0.8
  7
ATOM
 72
     1
 11
314.0
 21
25.75000000000364
 31
0.0
100
AcDbText
 73
     2
1001
AcDbBlockRepETag
1070
     1
1071
       37
1005
6ED
1001
AcadAnnotative
1000
AnnotativeData
1002
{
1070
     1
1070
     0
1002
}
  0
TEXT
  5
6F2
102
{ACAD_XDICTIONARY
360
6F3
102
}
330
679
100
AcDbEntity
  8
frame
  6
ByBlock
100
AcDbText
 10
313.0666666666666
 20
21.00000000000364
 30
0.0
 40
2.5
  1
設
 41
0.8
  7
ATOM
 72
     1
 11
314.0
 21
22.25000000000364
 31
0.0
100
AcDbText
 73
     2
1001
AcDbBlockRepETag
1070
     1
1071
       38
1005
6F2
1001
AcadAnnotative
1000
AnnotativeData
1002
{
1070
     1
1070
     0
1002
}
  0
TEXT
  5
6F7
102
{ACAD_XDICTIONARY
360
6F8
102
}
330
679
100
AcDbEntity
  8
frame
  6
ByBlock
100
AcDbText
 10
313.0666666666666
 20
17.50000000000364
 30
0.0
 40
2.5
  1
計
 41
0.8
  7
ATOM
 72
     1
 11
314.0
 21
18.75000000000364
 31
0.0
100
AcDbText
 73
     2
1001
AcDbBlockRepETag
1070
     1
1071
       39
1005
6F7
1001
AcadAnnotative
1000
AnnotativeData
1002
{
1070
     1
1070
     0
1002
}
  0
TEXT
  5
6FC
102
{ACAD_XDICTIONARY
360
6FD
102
}
330
679
100
AcDbEntity
  8
frame
  6
ByBlock
100
AcDbText
 10
313.0666666666666
 20
14.00000000000364
 30
0.0
 40
2.5
  1
作
 41
0.8
  7
ATOM
 72
     1
 11
314.0
 21
15.25000000000364
 31
0.0
100
AcDbText
 73
     2
1001
AcDbBlockRepETag
1070
     1
1071
       40
1005
6FC
1001
AcadAnnotative
1000
AnnotativeData
1002
{
1070
     1
1070
     0
1002
}
  0
TEXT
  5
701
102
{ACAD_XDICTIONARY
360
702
102
}
330
679
100
AcDbEntity
  8
frame
  6
ByBlock
100
AcDbText
 10
313.0666666666666
 20
10.50000000000363
 30
0.0
 40
2.5
  1
図
 41
0.8
  7
ATOM
 72
     1
 11
314.0
 21
11.75000000000363
 31
0.0
100
AcDbText
 73
     2
1001
AcDbBlockRepETag
1070
     1
1071
       41
1005
701
1001
AcadAnnotative
1000
AnnotativeData
1002
{
1070
     1
1070
     0
1002
}
  0
TEXT
  5
706
102
{ACAD_XDICTIONARY
360
707
102
}
330
679
100
AcDbEntity
  8
frame
  6
ByBlock
100
AcDbText
 10
351.5666666666667
 20
35.00000000000364
 30
0.0
 40
2.5
  1
品
 41
0.8
  7
ATOM
 72
     1
 11
352.5
 21
36.25000000000364
 31
0.0
100
AcDbText
 73
     2
1001
AcDbBlockRepETag
1070
     1
1071
       42
1005
706
1001
AcadAnnotative
1000
AnnotativeData
1002
{
1070
     1
1070
     0
1002
}
  0
TEXT
  5
70B
102
{ACAD_XDICTIONARY
360
70C
102
}
330
679
100
AcDbEntity
  8
frame
  6
ByBlock
100
AcDbText
 10
351.6333333333333
 20
31.50000000000364
 30
0.0
 40
2.5
  1
名
 41
0.8
  7
ATOM
 72
     1
 11
352.5
 21
32.75000000000364
 31
0.0
100
AcDbText
 73
     2
1001
AcDbBlockRepETag
1070
     1
1071
       43
1005
70B
1001
AcadAnnotative
1000
AnnotativeData
1002
{
1070
     1
1070
     0
1002
}
  0
TEXT
  5
710
102
{ACAD_XDICTIONARY
360
711
102
}
330
679
100
AcDbEntity
  8
frame
  6
ByBlock
100
AcDbText
 10
351.5666666666667
 20
28.00000000000364
 30
0.0
 40
2.5
  1
品
 41
0.8
  7
ATOM
 72
     1
 11
352.5
 21
29.25000000000364
 31
0.0
100
AcDbText
 73
     2
1001
AcDbBlockRepETag
1070
     1
1071
       44
1005
710
1001
AcadAnnotative
1000
AnnotativeData
1002
{
1070
     1
1070
     0
1002
}
  0
TEXT
  5
715
102
{ACAD_XDICTIONARY
360
716
102
}
330
679
100
AcDbEntity
  8
frame
  6
ByBlock
100
AcDbText
 10
351.5666666666667
 20
24.50000000000364
 30
0.0
 40
2.5
  1
番
 41
0.8
  7
ATOM
 72
     1
 11
352.5
 21
25.75000000000364
 31
0.0
100
AcDbText
 73
     2
1001
AcDbBlockRepETag
1070
     1
1071
       45
1005
715
1001
AcadAnnotative
1000
AnnotativeData
1002
{
1070
     1
1070
     0
1002
}
  0
TEXT
  5
71A
102
{ACAD_XDICTIONARY
360
71B
102
}
330
679
100
AcDbEntity
  8
frame
  6
ByBlock
100
AcDbText
 10
351.5666666666667
 20
21.00000000000364
 30
0.0
 40
2.5
  1
図
 41
0.8
  7
ATOM
 72
     1
 11
352.5
 21
22.25000000000364
 31
0.0
100
AcDbText
 73
     2
1001
AcDbBlockRepETag
1070
     1
1071
       46
1005
71A
1001
AcadAnnotative
1000
AnnotativeData
1002
{
1070
     1
1070
     0
1002
}
  0
TEXT
  5
71F
102
{ACAD_XDICTIONARY
360
720
102
}
330
679
100
AcDbEntity
  8
frame
  6
ByBlock
100
AcDbText
 10
351.6333333333333
 20
17.50000000000364
 30
0.0
 40
2.5
  1
名
 41
0.8
  7
ATOM
 72
     1
 11
352.5
 21
18.75000000000364
 31
0.0
100
AcDbText
 73
     2
1001
AcDbBlockRepETag
1070
     1
1071
       47
1005
71F
1001
AcadAnnotative
1000
AnnotativeData
1002
{
1070
     1
1070
     0
1002
}
  0
TEXT
  5
724
102
{ACAD_XDICTIONARY
360
725
102
}
330
679
100
AcDbEntity
  8
frame
  6
ByBlock
100
AcDbText
 10
351.5666666666667
 20
14.00000000000364
 30
0.0
 40
2.5
  1
図
 41
0.8
  7
ATOM
 72
     1
 11
352.5
 21
15.25000000000364
 31
0.0
100
AcDbText
 73
     2
1001
AcDbBlockRepETag
1070
     1
1071
       48
1005
724
1001
AcadAnnotative
1000
AnnotativeData
1002
{
1070
     1
1070
     0
1002
}
  0
TEXT
  5
729
102
{ACAD_XDICTIONARY
360
72A
102
}
330
679
100
AcDbEntity
  8
frame
  6
ByBlock
100
AcDbText
 10
351.5666666666667
 20
10.50000000000363
 30
0.0
 40
2.5
  1
番
 41
0.8
  7
ATOM
 72
     1
 11
352.5
 21
11.75000000000363
 31
0.0
100
AcDbText
 73
     2
1001
AcDbBlockRepETag
1070
     1
1071
       49
1005
729
1001
AcadAnnotative
1000
AnnotativeData
1002
{
1070
     1
1070
     0
1002
}
  0
TEXT
  5
72E
102
{ACAD_XDICTIONARY
360
72F
102
}
330
679
100
AcDbEntity
  8
frame
  6
ByBlock
100
AcDbText
 10
251.875
 20
32.75000000000364
 30
0.0
 40
3.5
  1
A3
 41
0.9
  7
ATOM
 72
     1
 11
254.5
 21
34.50000000000364
 31
0.0
100
AcDbText
 73
     2
1001
AcDbBlockRepETag
1070
     1
1071
       50
1005
72E
1001
AcadAnnotative
1000
AnnotativeData
1002
{
1070
     1
1070
     0
1002
}
  0
LWPOLYLINE
  5
733
330
679
100
AcDbEntity
  8
frame
  6
ByBlock
100
AcDbPolyline
 90
        4
 70
     1
 43
0.0
 10
406.9999999999991
 20
287.0
 10
12.99999999999909
 20
287.0
 10
12.99999999999909
 20
10.0
 10
406.9999999999991
 20
10.0
1001
AcDbBlockRepETag
1070
     1
1071
       51
1005
733
  0
LWPOLYLINE
  5
734
330
679
100
AcDbEntity
  8
frame
  6
ByBlock
100
AcDbPolyline
 90
        4
 70
     1
 43
0.0
 10
407.1599999999987
 20
287.1600000000017
 10
12.83999999999923
 20
287.1600000000017
 10
12.83999999999923
 20
9.840000000000143
 10
407.1599999999987
 20
9.840000000000143
1001
AcDbBlockRepETag
1070
     1
1071
       52
1005
734
  0
LWPOLYLINE
  5
735
330
679
100
AcDbEntity
  8
frame
  6
ByBlock
100
AcDbPolyline
 90
        4
 70
     1
 43
0.0
 10
406.8399999999991
 20
286.8400000000002
 10
13.15999999999894
 20
286.8400000000002
 10
13.15999999999894
 20
10.16000000000167
 10
406.8399999999991
 20
10.16000000000167
1001
AcDbBlockRepETag
1070
     1
1071
       53
1005
735
  0
LWPOLYLINE
  5
736
330
679
100
AcDbEntity
  8
frame
  6
ByBlock
390
86
100
AcDbPolyline
 90
        4
 70
     1
 43
0.0
 10
0.0
 20
0.0
 10
420.0
 20
0.0
 10
420.0
 20
297.0
 10
0.0
 20
297.0
1001
AcDbBlockRepETag
1070
     1
1071
       54
1005
736
  0
LINE
  5
737
330
679
100
AcDbEntity
  8
frame
  6
ByBlock
100
AcDbLine
 10
230.0
 20
287.0000000000036
 30
0.0
 11
230.0
 21
280.0000000000036
 31
0.0
1001
AcDbBlockRepETag
1070
     1
1071
       55
1005
737
  0
LINE
  5
738
330
679
100
AcDbEntity
  8
frame
  6
ByBlock
100
AcDbLine
 10
230.085
 20
287.0000000000036
 30
0.0
 11
230.085
 21
280.0000000000036
 31
0.0
1001
AcDbBlockRepETag
1070
     1
1071
       56
1005
738
  0
LINE
  5
739
330
679
100
AcDbEntity
  8
frame
  6
ByBlock
100
AcDbLine
 10
229.915
 20
287.0000000000036
 30
0.0
 11
229.915
 21
280.0000000000036
 31
0.0
1001
AcDbBlockRepETag
1070
     1
1071
       57
1005
739
  0
LINE
  5
73A
330
679
100
AcDbEntity
  8
frame
  6
ByBlock
100
AcDbLine
 10
327.0
 20
287.0000000000036
 30
0.0
 11
327.0
 21
280.0000000000036
 31
0.0
1001
AcDbBlockRepETag
1070
     1
1071
       58
1005
73A
  0
LINE
  5
73B
330
679
100
AcDbEntity
  8
frame
  6
ByBlock
100
AcDbLine
 10
327.085
 20
287.0000000000036
 30
0.0
 11
327.085
 21
280.0000000000036
 31
0.0
1001
AcDbBlockRepETag
1070
     1
1071
       59
1005
73B
  0
LINE
  5
73C
330
679
100
AcDbEntity
  8
frame
  6
ByBlock
100
AcDbLine
 10
326.915
 20
287.0000000000036
 30
0.0
 11
326.915
 21
280.0000000000036
 31
0.0
1001
AcDbBlockRepETag
1070
     1
1071
       60
1005
73C
  0
LINE
  5
73D
330
679
100
AcDbEntity
  8
frame
  6
ByBlock
100
AcDbLine
 10
342.0
 20
287.0000000000036
 30
0.0
 11
342.0
 21
280.0000000000036
 31
0.0
1001
AcDbBlockRepETag
1070
     1
1071
       61
1005
73D
  0
LINE
  5
73E
330
679
100
AcDbEntity
  8
frame
  6
ByBlock
100
AcDbLine
 10
342.0850000000001
 20
287.0000000000036
 30
0.0
 11
342.0850000000001
 21
280.0000000000036
 31
0.0
1001
AcDbBlockRepETag
1070
     1
1071
       62
1005
73E
  0
LINE
  5
73F
330
679
100
AcDbEntity
  8
frame
  6
ByBlock
100
AcDbLine
 10
341.915
 20
287.0000000000036
 30
0.0
 11
341.915
 21
280.0000000000036
 31
0.0
1001
AcDbBlockRepETag
1070
     1
1071
       63
1005
73F
  0
LINE
  5
740
330
679
100
AcDbEntity
  8
frame
  6
ByBlock
100
AcDbLine
 10
367.0
 20
287.0000000000036
 30
0.0
 11
367.0
 21
280.0000000000036
 31
0.0
1001
AcDbBlockRepETag
1070
     1
1071
       64
1005
740
  0
LINE
  5
741
330
679
100
AcDbEntity
  8
frame
  6
ByBlock
100
AcDbLine
 10
367.0850000000001
 20
287.0000000000036
 30
0.0
 11
367.0850000000001
 21
280.0000000000036
 31
0.0
1001
AcDbBlockRepETag
1070
     1
1071
       65
1005
741
  0
LINE
  5
742
330
679
100
AcDbEntity
  8
frame
  6
ByBlock
100
AcDbLine
 10
366.915
 20
287.0000000000036
 30
0.0
 11
366.915
 21
280.0000000000036
 31
0.0
1001
AcDbBlockRepETag
1070
     1
1071
       66
1005
742
  0
LINE
  5
743
330
679
100
AcDbEntity
  8
frame
  6
ByBlock
100
AcDbLine
 10
382.0
 20
287.0000000000036
 30
0.0
 11
382.0
 21
280.0000000000036
 31
0.0
1001
AcDbBlockRepETag
1070
     1
1071
       67
1005
743
  0
LINE
  5
744
330
679
100
AcDbEntity
  8
frame
  6
ByBlock
100
AcDbLine
 10
382.085
 20
287.0000000000036
 30
0.0
 11
382.085
 21
280.0000000000036
 31
0.0
1001
AcDbBlockRepETag
1070
     1
1071
       68
1005
744
  0
LINE
  5
745
330
679
100
AcDbEntity
  8
frame
  6
ByBlock
100
AcDbLine
 10
381.915
 20
287.0000000000036
 30
0.0
 11
381.915
 21
280.0000000000036
 31
0.0
1001
AcDbBlockRepETag
1070
     1
1071
       69
1005
745
  0
LINE
  5
746
330
679
100
AcDbEntity
  8
frame
  6
ByBlock
100
AcDbLine
 10
230.0
 20
45.00000000000365
 30
0.0
 11
230.0
 21
38.00000000000364
 31
0.0
1001
AcDbBlockRepETag
1070
     1
1071
       70
1005
746
  0
LINE
  5
747
330
679
100
AcDbEntity
  8
frame
  6
ByBlock
100
AcDbLine
 10
230.085
 20
45.00000000000365
 30
0.0
 11
230.085
 21
38.00000000000364
 31
0.0
1001
AcDbBlockRepETag
1070
     1
1071
       71
1005
747
  0
LINE
  5
748
330
679
100
AcDbEntity
  8
frame
  6
ByBlock
100
AcDbLine
 10
229.915
 20
45.00000000000365
 30
0.0
 11
229.915
 21
38.00000000000364
 31
0.0
1001
AcDbBlockRepETag
1070
     1
1071
       72
1005
748
  0
LINE
  5
749
330
679
100
AcDbEntity
  8
frame
  6
ByBlock
100
AcDbLine
 10
280.0
 20
38.00000000000364
 30
0.0
 11
280.0
 21
45.00000000000365
 31
0.0
1001
AcDbBlockRepETag
1070
     1
1071
       73
1005
749
  0
LINE
  5
74A
330
679
100
AcDbEntity
  8
frame
  6
ByBlock
100
AcDbLine
 10
280.085
 20
38.00000000000364
 30
0.0
 11
280.085
 21
45.00000000000365
 31
0.0
1001
AcDbBlockRepETag
1070
     1
1071
       74
1005
74A
  0
LINE
  5
74B
330
679
100
AcDbEntity
  8
frame
  6
ByBlock
100
AcDbLine
 10
279.915
 20
38.00000000000364
 30
0.0
 11
279.915
 21
45.00000000000365
 31
0.0
1001
AcDbBlockRepETag
1070
     1
1071
       75
1005
74B
  0
LINE
  5
74C
330
679
100
AcDbEntity
  8
frame
  6
ByBlock
100
AcDbLine
 10
308.0
 20
45.00000000000365
 30
0.0
 11
308.0
 21
38.00000000000364
 31
0.0
1001
AcDbBlockRepETag
1070
     1
1071
       76
1005
74C
  0
LINE
  5
74D
330
679
100
AcDbEntity
  8
frame
  6
ByBlock
100
AcDbLine
 10
308.085
 20
45.00000000000365
 30
0.0
 11
308.085
 21
38.00000000000364
 31
0.0
1001
AcDbBlockRepETag
1070
     1
1071
       77
1005
74D
  0
LINE
  5
74E
330
679
100
AcDbEntity
  8
frame
  6
ByBlock
100
AcDbLine
 10
307.915
 20
45.00000000000365
 30
0.0
 11
307.915
 21
38.00000000000364
 31
0.0
1001
AcDbBlockRepETag
1070
     1
1071
       78
1005
74E
  0
LINE
  5
74F
330
679
100
AcDbEntity
  8
frame
  6
ByBlock
100
AcDbLine
 10
315.0
 20
45.00000000000365
 30
0.0
 11
315.0
 21
38.00000000000364
 31
0.0
1001
AcDbBlockRepETag
1070
     1
1071
       79
1005
74F
  0
LINE
  5
750
330
679
100
AcDbEntity
  8
frame
  6
ByBlock
100
AcDbLine
 10
315.0850000000001
 20
45.00000000000365
 30
0.0
 11
315.0850000000001
 21
38.00000000000364
 31
0.0
1001
AcDbBlockRepETag
1070
     1
1071
       80
1005
750
  0
LINE
  5
751
330
679
100
AcDbEntity
  8
frame
  6
ByBlock
100
AcDbLine
 10
314.915
 20
45.00000000000365
 30
0.0
 11
314.915
 21
38.00000000000364
 31
0.0
1001
AcDbBlockRepETag
1070
     1
1071
       81
1005
751
  0
LINE
  5
752
330
679
100
AcDbEntity
  8
frame
  6
ByBlock
100
AcDbLine
 10
365.0
 20
45.00000000000365
 30
0.0
 11
365.0
 21
38.00000000000364
 31
0.0
1001
AcDbBlockRepETag
1070
     1
1071
       82
1005
752
  0
LINE
  5
753
330
679
100
AcDbEntity
  8
frame
  6
ByBlock
100
AcDbLine
 10
365.0850000000001
 20
45.00000000000365
 30
0.0
 11
365.0850000000001
 21
38.00000000000364
 31
0.0
1001
AcDbBlockRepETag
1070
     1
1071
       83
1005
753
  0
LINE
  5
754
330
679
100
AcDbEntity
  8
frame
  6
ByBlock
100
AcDbLine
 10
364.915
 20
45.00000000000365
 30
0.0
 11
364.915
 21
38.00000000000364
 31
0.0
1001
AcDbBlockRepETag
1070
     1
1071
       84
1005
754
  0
LINE
  5
755
330
679
100
AcDbEntity
  8
frame
  6
ByBlock
100
AcDbLine
 10
222.9999999999991
 20
38.00000000000364
 30
0.0
 11
407.0
 21
38.00000000000364
 31
0.0
1001
AcDbBlockRepETag
1070
     1
1071
       85
1005
755
  0
LINE
  5
756
330
679
100
AcDbEntity
  8
frame
  6
ByBlock
100
AcDbLine
 10
222.9999999999991
 20
37.91500000000269
 30
0.0
 11
407.0
 21
37.91500000000269
 31
0.0
1001
AcDbBlockRepETag
1070
     1
1071
       86
1005
756
  0
LINE
  5
757
330
679
100
AcDbEntity
  8
frame
  6
ByBlock
100
AcDbLine
 10
222.9999999999991
 20
38.08500000000277
 30
0.0
 11
407.0
 21
38.08500000000277
 31
0.0
1001
AcDbBlockRepETag
1070
     1
1071
       87
1005
757
  0
LINE
  5
758
330
679
100
AcDbEntity
  8
frame
  6
ByBlock
100
AcDbLine
 10
222.9999999999991
 20
31.00000000000364
 30
0.0
 11
407.0
 21
31.00000000000364
 31
0.0
1001
AcDbBlockRepETag
1070
     1
1071
       88
1005
758
  0
LINE
  5
759
330
679
100
AcDbEntity
  8
frame
  6
ByBlock
100
AcDbLine
 10
222.9999999999991
 20
30.91500000000269
 30
0.0
 11
407.0
 21
30.91500000000269
 31
0.0
1001
AcDbBlockRepETag
1070
     1
1071
       89
1005
759
  0
LINE
  5
75A
330
679
100
AcDbEntity
  8
frame
  6
ByBlock
100
AcDbLine
 10
222.9999999999991
 20
31.08500000000276
 30
0.0
 11
407.0
 21
31.08500000000276
 31
0.0
1001
AcDbBlockRepETag
1070
     1
1071
       90
1005
75A
  0
LINE
  5
75B
330
679
100
AcDbEntity
  8
frame
  6
ByBlock
100
AcDbLine
 10
312.5
 20
24.00000000000364
 30
0.0
 11
407.0
 21
24.00000000000364
 31
0.0
1001
AcDbBlockRepETag
1070
     1
1071
       91
1005
75B
  0
LINE
  5
75C
330
679
100
AcDbEntity
  8
frame
  6
ByBlock
100
AcDbLine
 10
312.5
 20
23.91500000000269
 30
0.0
 11
407.0
 21
23.91500000000269
 31
0.0
1001
AcDbBlockRepETag
1070
     1
1071
       92
1005
75C
  0
LINE
  5
75D
330
679
100
AcDbEntity
  8
frame
  6
ByBlock
100
AcDbLine
 10
312.5
 20
24.08500000000277
 30
0.0
 11
407.0
 21
24.08500000000277
 31
0.0
1001
AcDbBlockRepETag
1070
     1
1071
       93
1005
75D
  0
LINE
  5
75E
330
679
100
AcDbEntity
  8
frame
  6
ByBlock
100
AcDbLine
 10
312.5
 20
17.00000000000364
 30
0.0
 11
407.0
 21
17.00000000000364
 31
0.0
1001
AcDbBlockRepETag
1070
     1
1071
       94
1005
75E
  0
LINE
  5
75F
330
679
100
AcDbEntity
  8
frame
  6
ByBlock
100
AcDbLine
 10
312.5
 20
16.91500000000269
 30
0.0
 11
407.0
 21
16.91500000000269
 31
0.0
1001
AcDbBlockRepETag
1070
     1
1071
       95
1005
75F
  0
LINE
  5
760
330
679
100
AcDbEntity
  8
frame
  6
ByBlock
100
AcDbLine
 10
312.5
 20
17.08500000000276
 30
0.0
 11
407.0
 21
17.08500000000276
 31
0.0
1001
AcDbBlockRepETag
1070
     1
1071
       96
1005
760
  0
LINE
  5
761
330
679
100
AcDbEntity
  8
frame
  6
ByBlock
100
AcDbLine
 10
236.0
 20
38.00000000000364
 30
0.0
 11
236.0
 21
31.00000000000364
 31
0.0
1001
AcDbBlockRepETag
1070
     1
1071
       97
1005
761
  0
LINE
  5
762
330
679
100
AcDbEntity
  8
frame
  6
ByBlock
100
AcDbLine
 10
239.0
 20
31.00000000000364
 30
0.0
 11
239.0
 21
38.00000000000364
 31
0.0
1001
AcDbBlockRepETag
1070
     1
1071
       98
1005
762
  0
LINE
  5
763
330
679
100
AcDbEntity
  8
frame
  6
ByBlock
100
AcDbLine
 10
251.0
 20
38.00000000000364
 30
0.0
 11
251.0
 21
31.00000000000364
 31
0.0
1001
AcDbBlockRepETag
1070
     1
1071
       99
1005
763
  0
LINE
  5
764
330
679
100
AcDbEntity
  8
frame
  6
ByBlock
100
AcDbLine
 10
258.0
 20
38.00000000000364
 30
0.0
 11
258.0
 21
31.00000000000364
 31
0.0
1001
AcDbBlockRepETag
1070
     1
1071
      100
1005
764
  0
LINE
  5
765
330
679
100
AcDbEntity
  8
frame
  6
ByBlock
100
AcDbLine
 10
261.0
 20
38.00000000000364
 30
0.0
 11
261.0
 21
31.00000000000364
 31
0.0
1001
AcDbBlockRepETag
1070
     1
1071
      101
1005
765
  0
LINE
  5
766
330
679
100
AcDbEntity
  8
frame
  6
ByBlock
100
AcDbLine
 10
315.5
 20
38.00000000000364
 30
0.0
 11
315.5
 21
10.00000000000364
 31
0.0
1001
AcDbBlockRepETag
1070
     1
1071
      102
1005
766
  0
LINE
  5
767
330
679
100
AcDbEntity
  8
frame
  6
ByBlock
100
AcDbLine
 10
315.585
 20
38.00000000000364
 30
0.0
 11
315.585
 21
10.00000000000364
 31
0.0
1001
AcDbBlockRepETag
1070
     1
1071
      103
1005
767
  0
LINE
  5
768
330
679
100
AcDbEntity
  8
frame
  6
ByBlock
100
AcDbLine
 10
315.415
 20
38.00000000000364
 30
0.0
 11
315.415
 21
10.00000000000364
 31
0.0
1001
AcDbBlockRepETag
1070
     1
1071
      104
1005
768
  0
LINE
  5
769
330
679
100
AcDbEntity
  8
frame
  6
ByBlock
100
AcDbLine
 10
312.5
 20
38.00000000000364
 30
0.0
 11
312.5
 21
10.00000000000364
 31
0.0
1001
AcDbBlockRepETag
1070
     1
1071
      105
1005
769
  0
LINE
  5
76A
330
679
100
AcDbEntity
  8
frame
  6
ByBlock
100
AcDbLine
 10
312.585
 20
38.00000000000364
 30
0.0
 11
312.585
 21
10.00000000000364
 31
0.0
1001
AcDbBlockRepETag
1070
     1
1071
      106
1005
76A
  0
LINE
  5
76B
330
679
100
AcDbEntity
  8
frame
  6
ByBlock
100
AcDbLine
 10
312.415
 20
38.00000000000364
 30
0.0
 11
312.415
 21
10.00000000000364
 31
0.0
1001
AcDbBlockRepETag
1070
     1
1071
      107
1005
76B
  0
LINE
  5
76C
330
679
100
AcDbEntity
  8
frame
  6
ByBlock
100
AcDbLine
 10
209.9999999999991
 20
0.0
 30
0.0
 11
209.9999999999982
 21
10.0
 31
0.0
1001
AcDbBlockRepETag
1070
     1
1071
      108
1005
76C
  0
LINE
  5
76D
330
679
100
AcDbEntity
  8
frame
  6
ByBlock
100
AcDbLine
 10
210.159999999999
 20
0.0
 30
0.0
 11
210.159999999999
 21
10.0
 31
0.0
1001
AcDbBlockRepETag
1070
     1
1071
      109
1005
76D
  0
LINE
  5
76E
330
679
100
AcDbEntity
  8
frame
  6
ByBlock
100
AcDbLine
 10
209.8399999999992
 20
0.0
 30
0.0
 11
209.8399999999983
 21
10.0
 31
0.0
1001
AcDbBlockRepETag
1070
     1
1071
      110
1005
76E
  0
LINE
  5
76F
330
679
100
AcDbEntity
  8
frame
  6
ByBlock
100
AcDbLine
 10
420.0
 20
148.5
 30
0.0
 11
406.9999999999991
 21
148.5
 31
0.0
1001
AcDbBlockRepETag
1070
     1
1071
      111
1005
76F
  0
LINE
  5
770
330
679
100
AcDbEntity
  8
frame
  6
ByBlock
100
AcDbLine
 10
420.0
 20
148.3400000000001
 30
0.0
 11
406.9999999999991
 21
148.3400000000001
 31
0.0
1001
AcDbBlockRepETag
1070
     1
1071
      112
1005
770
  0
LINE
  5
771
330
679
100
AcDbEntity
  8
frame
  6
ByBlock
100
AcDbLine
 10
420.0
 20
148.6600000000017
 30
0.0
 11
406.9999999999991
 21
148.6600000000017
 31
0.0
1001
AcDbBlockRepETag
1070
     1
1071
      113
1005
771
  0
LINE
  5
772
330
679
100
AcDbEntity
  8
frame
  6
ByBlock
100
AcDbLine
 10
209.9999999999991
 20
297.0
 30
0.0
 11
209.9999999999991
 21
287.0
 31
0.0
1001
AcDbBlockRepETag
1070
     1
1071
      114
1005
772
  0
LINE
  5
773
330
679
100
AcDbEntity
  8
frame
  6
ByBlock
100
AcDbLine
 10
209.8399999999992
 20
297.0
 30
0.0
 11
209.8399999999992
 21
287.0
 31
0.0
1001
AcDbBlockRepETag
1070
     1
1071
      115
1005
773
  0
LINE
  5
774
330
679
100
AcDbEntity
  8
frame
  6
ByBlock
100
AcDbLine
 10
210.159999999999
 20
297.0
 30
0.0
 11
210.159999999999
 21
287.0
 31
0.0
1001
AcDbBlockRepETag
1070
     1
1071
      116
1005
774
  0
LINE
  5
775
330
679
100
AcDbEntity
  8
frame
  6
ByBlock
100
AcDbLine
 10
0.0
 20
148.5
 30
0.0
 11
12.99999999999909
 21
148.5
 31
0.0
1001
AcDbBlockRepETag
1070
     1
1071
      117
1005
775
  0
LINE
  5
776
330
679
100
AcDbEntity
  8
frame
  6
ByBlock
100
AcDbLine
 10
0.0
 20
148.3400000000001
 30
0.0
 11
12.99999999999909
 21
148.3400000000001
 31
0.0
1001
AcDbBlockRepETag
1070
     1
1071
      118
1005
776
  0
LINE
  5
777
330
679
100
AcDbEntity
  8
frame
  6
ByBlock
100
AcDbLine
 10
0.0
 20
148.6600000000017
 30
0.0
 11
12.99999999999909
 21
148.6600000000017
 31
0.0
1001
AcDbBlockRepETag
1070
     1
1071
      119
1005
777
  0
LWPOLYLINE
  5
778
330
679
100
AcDbEntity
  8
frame
  6
ByBlock
100
AcDbPolyline
 90
        3
 70
     0
 43
0.0
 10
407.0
 20
45.00000000000365
 10
222.9999999999991
 20
45.00000000000365
 10
222.9999999999991
 20
10.0
1001
AcDbBlockRepETag
1070
     1
1071
      120
1005
778
  0
LWPOLYLINE
  5
779
330
679
100
AcDbEntity
  8
frame
  6
ByBlock
100
AcDbPolyline
 90
        3
 70
     0
 43
0.0
 10
407.0
 20
45.08500000000274
 10
222.914999999999
 20
45.08500000000274
 10
222.914999999999
 20
10.0
1001
AcDbBlockRepETag
1070
     1
1071
      121
1005
779
  0
LWPOLYLINE
  5
77A
330
679
100
AcDbEntity
  8
frame
  6
ByBlock
100
AcDbPolyline
 90
        3
 70
     0
 43
0.0
 10
407.0
 20
44.91500000000269
 10
223.0849999999991
 20
44.91500000000269
 10
223.0849999999991
 20
10.0
1001
AcDbBlockRepETag
1070
     1
1071
      122
1005
77A
  0
LINE
  5
77B
330
679
100
AcDbEntity
  8
frame
  6
ByBlock
100
AcDbLine
 10
222.9999999999991
 20
45.00000000000365
 30
0.0
 11
222.9999999999991
 21
52.00000000000365
 31
0.0
1001
AcDbBlockRepETag
1070
     1
1071
      123
1005
77B
  0
LWPOLYLINE
  5
77C
330
679
100
AcDbEntity
  8
frame
  6
ByBlock
100
AcDbPolyline
 90
        3
 70
     0
 43
0.0
 10
407.0
 20
280.0000000000036
 10
223.0
 20
280.0000000000036
 10
223.0
 20
287.0
1001
AcDbBlockRepETag
1070
     1
1071
      124
1005
77C
  0
LWPOLYLINE
  5
77D
330
679
100
AcDbEntity
  8
frame
  6
ByBlock
100
AcDbPolyline
 90
        3
 70
     0
 43
0.0
 10
407.0
 20
280.0850000000028
 10
223.085
 20
280.0850000000028
 10
223.085
 20
287.0
1001
AcDbBlockRepETag
1070
     1
1071
      125
1005
77D
  0
LWPOLYLINE
  5
77E
330
679
100
AcDbEntity
  8
frame
  6
ByBlock
100
AcDbPolyline
 90
        3
 70
     0
 43
0.0
 10
407.0
 20
279.9150000000027
 10
222.915
 20
279.9150000000027
 10
222.915
 20
287.0
1001
AcDbBlockRepETag
1070
     1
1071
      126
1005
77E
  0
LWPOLYLINE
  5
77F
330
679
100
AcDbEntity
  8
frame
  6
ByBlock
100
AcDbPolyline
 90
        4
 70
     1
 43
0.0
 10
234.5999999999995
 20
32.02453525127749
 10
230.5942130249651
 20
33.21128572090856
 10
230.5942130249651
 20
35.45924095267765
 10
234.5999999999995
 20
36.64599142230509
1001
AcDbBlockRepETag
1070
     1
1071
      127
1005
77F
  0
LWPOLYLINE
  5
780
330
679
100
AcDbEntity
  8
frame
  6
ByBlock
100
AcDbPolyline
 90
        4
 70
     1
 43
0.0
 10
234.6849999999986
 20
31.9107014793517
 10
230.509213024965
 20
33.14781598009358
 10
230.509213024965
 20
35.52271069349081
 10
234.6849999999986
 20
36.75982519423087
1001
AcDbBlockRepETag
1070
     1
1071
      128
1005
780
  0
LWPOLYLINE
  5
781
330
679
100
AcDbEntity
  8
frame
  6
ByBlock
100
AcDbPolyline
 90
        4
 70
     1
 43
0.0
 10
234.5149999999994
 20
32.13836902320327
 10
230.6792130249651
 20
33.27475546172173
 10
230.6792130249651
 20
35.39577121186268
 10
234.5149999999994
 20
36.53215765038112
1001
AcDbBlockRepETag
1070
     1
1071
      129
1005
781
  0
CIRCLE
  5
782
330
679
100
AcDbEntity
  8
frame
100
AcDbCircle
 10
226.6985756137892
 20
34.3352633367922
 30
0.0
 40
1.123977615884085
1001
AcDbBlockRepETag
1070
     1
1071
      130
1005
782
  0
CIRCLE
  5
783
330
679
100
AcDbEntity
  8
frame
100
AcDbCircle
 10
226.6985756137892
 20
34.3352633367922
 30
0.0
 40
1.208977615884085
1001
AcDbBlockRepETag
1070
     1
1071
      131
1005
783
  0
CIRCLE
  5
784
330
679
100
AcDbEntity
  8
frame
100
AcDbCircle
 10
226.6985756137892
 20
34.3352633367922
 30
0.0
 40
1.038977615884085
1001
AcDbBlockRepETag
1070
     1
1071
      132
1005
784
  0
CIRCLE
  5
785
330
679
100
AcDbEntity
  8
frame
100
AcDbCircle
 10
226.6985756137892
 20
34.3352633367922
 30
0.0
 40
2.310728085513118
1001
AcDbBlockRepETag
1070
     1
1071
      133
1005
785
  0
CIRCLE
  5
786
330
679
100
AcDbEntity
  8
frame
100
AcDbCircle
 10
226.6985756137892
 20
34.3352633367922
 30
0.0
 40
2.395728085513116
1001
AcDbBlockRepETag
1070
     1
1071
      134
1005
786
  0
CIRCLE
  5
787
330
679
100
AcDbEntity
  8
frame
100
AcDbCircle
 10
226.6985756137892
 20
34.3352633367922
 30
0.0
 40
2.225728085513118
1001
AcDbBlockRepETag
1070
     1
1071
      135
1005
787
  0
LINE
  5
788
330
679
100
AcDbEntity
  8
frame
100
AcDbLine
 10
229.9942130249647
 20
34.3352633367922
 30
0.0
 11
231.9942130249647
 21
34.3352633367922
 31
0.0
1001
AcDbBlockRepETag
1070
     1
1071
      136
1005
788
  0
LINE
  5
789
330
679
100
AcDbEntity
  8
frame
100
AcDbLine
 10
232.4942130249647
 20
34.3352633367922
 30
0.0
 11
232.9942130249647
 21
34.3352633367922
 31
0.0
1001
AcDbBlockRepETag
1070
     1
1071
      137
1005
789
  0
LINE
  5
78A
330
679
100
AcDbEntity
  8
frame
100
AcDbLine
 10
233.4942130249647
 20
34.3352633367922
 30
0.0
 11
235.1999999999998
 21
34.3352633367922
 31
0.0
1001
AcDbBlockRepETag
1070
     1
1071
      138
1005
78A
  0
LINE
  5
78B
330
679
100
AcDbEntity
  8
frame
100
AcDbLine
 10
223.8000000000002
 20
34.3352633367922
 30
0.0
 11
224.9985756137894
 21
34.3352633367922
 31
0.0
1001
AcDbBlockRepETag
1070
     1
1071
      139
1005
78B
  0
LINE
  5
78C
330
679
100
AcDbEntity
  8
frame
100
AcDbLine
 10
225.4985756137894
 20
34.3352633367922
 30
0.0
 11
225.9985756137894
 21
34.3352633367922
 31
0.0
1001
AcDbBlockRepETag
1070
     1
1071
      140
1005
78C
  0
LINE
  5
78D
330
679
100
AcDbEntity
  8
frame
100
AcDbLine
 10
226.4985756137894
 20
34.3352633367922
 30
0.0
 11
229.5971512275782
 21
34.3352633367922
 31
0.0
1001
AcDbBlockRepETag
1070
     1
1071
      141
1005
78D
  0
LINE
  5
78E
330
679
100
AcDbEntity
  8
frame
100
AcDbLine
 10
226.6985756137892
 20
37.23383895058214
 30
0.0
 11
226.6985756137892
 21
36.03526333679293
 31
0.0
1001
AcDbBlockRepETag
1070
     1
1071
      142
1005
78E
  0
LINE
  5
78F
330
679
100
AcDbEntity
  8
frame
100
AcDbLine
 10
226.6985756137892
 20
35.53526333679292
 30
0.0
 11
226.6985756137892
 21
35.03526333679293
 31
0.0
1001
AcDbBlockRepETag
1070
     1
1071
      143
1005
78F
  0
LINE
  5
790
330
679
100
AcDbEntity
  8
frame
100
AcDbLine
 10
226.6985756137892
 20
34.53526333679292
 30
0.0
 11
226.6985756137892
 21
31.43668772300407
 31
0.0
1001
AcDbBlockRepETag
1070
     1
1071
      144
1005
790
  0
LWPOLYLINE
  5
791
330
679
100
AcDbEntity
  8
frame
  6
ByBlock
100
AcDbPolyline
 90
        4
 70
     1
 43
0.0
 10
249.996901273531
 20
20.30329643996447
 10
254.8134257250913
 20
25.11982089152662
 42
0.9999999999997582
 10
253.1737578266884
 20
26.75948878992858
 10
248.3572333751272
 20
21.94296433836826
 42
1.000000000000484
1001
AcDbBlockRepETag
1070
     1
1071
      145
1005
791
  0
LWPOLYLINE
  5
792
330
679
100
AcDbEntity
  8
frame
  6
ByBlock
100
AcDbPolyline
 90
        4
 70
     1
 43
0.0
 10
249.9367971971306
 20
20.36340051636398
 10
254.75332164869
 20
25.17992496792613
 42
1.0
 10
253.2338619030888
 20
26.69938471352725
 10
248.4173374515285
 20
21.88286026196875
 42
1.0
1001
AcDbBlockRepETag
1070
     1
1071
      146
1005
792
  0
LWPOLYLINE
  5
793
330
679
100
AcDbEntity
  8
frame
  6
ByBlock
100
AcDbPolyline
 90
        4
 70
     1
 43
0.0
 10
250.0570053499323
 20
20.24319236356314
 10
254.8735298014917
 20
25.05971681512529
 42
1.0
 10
253.1136537502871
 20
26.81959286632809
 10
248.2971292987268
 20
22.00306841476959
 42
1.0
1001
AcDbBlockRepETag
1070
     1
1071
      147
1005
793
  0
LWPOLYLINE
  5
794
330
679
100
AcDbEntity
  8
frame
  6
ByBlock
100
AcDbPolyline
 90
        6
 70
     1
 43
0.0
 10
233.6579304050829
 20
22.87921870190257
 42
0.5040414943243567
 10
233.8658227433362
 20
23.16016907249468
 10
232.8801784101006
 20
26.38406642075097
 42
0.7399610750323026
 10
232.464393733595
 20
26.38406642075097
 10
231.4787494003613
 20
23.16016907249468
 42
0.5040414943247417
 10
231.6866417386127
 20
22.87921870190257
1001
AcDbBlockRepETag
1070
     1
1071
      148
1005
794
  0
LWPOLYLINE
  5
795
330
679
100
AcDbEntity
  8
frame
  6
ByBlock
100
AcDbPolyline
 90
        6
 70
     1
 43
0.0
 10
233.6579304050829
 20
22.79421870190345
 42
0.504041494324358
 10
233.9471086475933
 20
23.18502066739529
 10
232.9614643143577
 20
26.40891801565158
 42
0.7399610750322863
 10
232.3831078293379
 20
26.40891801565158
 10
231.3974634961041
 20
23.18502066739711
 42
0.5040414943247422
 10
231.6866417386127
 20
22.79421870190345
1001
AcDbBlockRepETag
1070
     1
1071
      149
1005
795
  0
LWPOLYLINE
  5
796
330
679
100
AcDbEntity
  8
frame
  6
ByBlock
100
AcDbPolyline
 90
        6
 70
     1
 43
0.0
 10
233.6579304050829
 20
22.96421870190352
 42
0.5040414943243489
 10
233.784536839079
 20
23.13531747759407
 10
232.7988925058444
 20
26.35921482584854
 42
0.7399610750322957
 10
232.5456796378521
 20
26.35921482585036
 10
231.5600353046175
 20
23.13531747759407
 42
0.5040414943247367
 10
231.6866417386136
 20
22.96421870190352
1001
AcDbBlockRepETag
1070
     1
1071
      150
1005
796
  0
LWPOLYLINE
  5
797
330
679
100
AcDbEntity
  8
frame
  6
ByBlock
100
AcDbPolyline
 90
       26
 70
     1
 43
0.0
 10
234.2359701769792
 20
21.94947136993869
 10
234.944910887607
 20
19.63063079022868
 42
-0.5040414943260745
 10
234.6677211032711
 20
19.25603029610647
 10
234.2664889703992
 20
19.25603029610647
 42
0.4142135623730951
 10
234.1215614341672
 20
19.11110275987448
 10
234.1215614341672
 20
18.53139261494652
 10
238.4693875211242
 20
18.53139261494652
 10
238.4693875211242
 20
19.11110275987448
 42
0.4142135623730951
 10
238.3244599848922
 20
19.25603029610647
 10
237.8281068345032
 20
19.25603029610465
 42
-0.3297505471416469
 10
237.4816196040811
 20
19.5124173596123
 10
234.7242421532091
 20
28.53139261494654
 10
232.363149584633
 20
28.53139261494654
 10
229.6057721337602
 20
19.5124173596123
 42
-0.3297505471416475
 10
229.259284903339
 20
19.25603029610647
 10
228.9041701298192
 20
19.25603029610647
 42
0.4142135623730951
 10
228.7592425935882
 20
19.11110275987448
 10
228.7592425935882
 20
18.53139261494652
 10
231.0780831732973
 20
18.53139261494652
 10
231.0780831732973
 20
19.11110275987448
 42
0.4142135623730951
 10
230.9331556370662
 20
19.25603029610647
 10
230.5789218782566
 20
19.25603029610647
 42
-0.5040414943243619
 10
230.3710295400033
 20
19.53698066669858
 10
231.124279045046
 20
22.00074878264059
 42
-0.329750547139216
 10
231.3321713832993
 20
22.15458102074263
 10
233.9587803926424
 20
22.15458102074444
 42
-0.3297505471401503
1001
AcDbBlockRepETag
1070
     1
1071
      151
1005
797
  0
LWPOLYLINE
  5
798
330
679
100
AcDbEntity
  8
frame
  6
ByBlock
100
AcDbPolyline
 90
       26
 70
     1
 43
0.0
 10
234.1546842727221
 20
21.92461977503808
 10
234.8636249833498
 20
19.60577919532625
 42
-0.5040414943260704
 10
234.6677211032711
 20
19.3410302961056
 10
234.2664889703992
 20
19.3410302961056
 42
0.4142135623730974
 10
234.0365614341672
 20
19.11110275987448
 10
234.0365614341672
 20
18.44639261494558
 10
238.5543875211242
 20
18.44639261494558
 10
238.5543875211242
 20
19.11110275987448
 42
0.4142135623730974
 10
238.3244599848922
 20
19.3410302961056
 10
237.8281068345032
 20
19.3410302961056
 42
-0.3297505471416459
 10
237.5629055083382
 20
19.53726895451473
 10
234.7871388445865
 20
28.61639261494565
 10
232.3002528932557
 20
28.61639261494565
 10
229.5244862295031
 20
19.53726895451473
 42
-0.3297505471416504
 10
229.259284903339
 20
19.3410302961056
 10
228.9041701298192
 20
19.3410302961056
 42
0.4142135623730974
 10
228.6742425935881
 20
19.11110275987448
 10
228.6742425935881
 20
18.44639261494558
 10
231.1630831732973
 20
18.44639261494558
 10
231.1630831732973
 20
19.11110275987448
 42
0.4142135623730974
 10
230.9331556370662
 20
19.3410302961056
 10
230.5789218782566
 20
19.3410302961056
 42
-0.5040414943243603
 10
230.4523154442595
 20
19.51212907179615
 10
231.2055649493032
 20
21.97589718773816
 42
-0.3297505471392114
 10
231.3321713832993
 20
22.0695810207435
 10
233.9587803926424
 20
22.0695810207435
 42
-0.3297505471401487
1001
AcDbBlockRepETag
1070
     1
1071
      152
1005
798
  0
LWPOLYLINE
  5
799
330
679
100
AcDbEntity
  8
frame
  6
ByBlock
100
AcDbPolyline
 90
       26
 70
     1
 43
0.0
 10
234.3172560812363
 20
21.97432296484112
 10
235.0261967918641
 20
19.65548238512929
 42
-0.5040414943260732
 10
234.6677211032711
 20
19.17103029610553
 10
234.2664889703992
 20
19.17103029610553
 42
0.4142135623730869
 10
234.2065614341673
 20
19.11110275987448
 10
234.2065614341673
 20
18.61639261494565
 10
238.384387521124
 20
18.61639261494565
 10
238.384387521124
 20
19.11110275987448
 42
0.4142135623730869
 10
238.3244599848922
 20
19.17103029610553
 10
237.8281068345032
 20
19.17103029610553
 42
-0.3297505471416466
 10
237.4003336998239
 20
19.48756576471169
 10
234.6613454618319
 20
28.44639261494558
 10
232.4260462760103
 20
28.44639261494558
 10
229.6870580380173
 20
19.48756576471169
 42
-0.3297505471416456
 10
229.259284903339
 20
19.17103029610553
 10
228.9041701298192
 20
19.17103029610553
 42
0.4142135623730869
 10
228.8442425935882
 20
19.11110275987448
 10
228.8442425935882
 20
18.61639261494565
 10
230.9930831732972
 20
18.61639261494565
 10
230.9930831732972
 20
19.11110275987448
 42
0.4142135623730869
 10
230.9331556370662
 20
19.17103029610553
 10
230.5789218782566
 20
19.17103029610553
 42
-0.5040414943243603
 10
230.2897436357461
 20
19.56183226159919
 10
231.0429931407898
 20
22.02560037754119
 42
-0.3297505471392168
 10
231.3321713832993
 20
22.23958102074357
 10
233.9587803926424
 20
22.23958102074357
 42
-0.3297505471401506
1001
AcDbBlockRepETag
1070
     1
1071
      153
1005
799
  0
LWPOLYLINE
  5
79A
330
679
100
AcDbEntity
  8
frame
  6
ByBlock
100
AcDbPolyline
 90
       26
 70
     1
 43
0.0
 10
245.9329662872642
 20
26.29672794012004
 10
245.8606918689502
 20
28.53139261494654
 10
241.8751846225732
 20
28.53139261494654
 10
237.8896773761962
 20
28.53139261494654
 10
237.8174029578813
 20
26.29672794012004
 42
0.8721984941219423
 10
238.5251335900921
 20
26.17622796726938
 10
238.8149313892036
 20
27.09686812119617
 42
-0.3274643887701543
 10
239.7826145852141
 20
27.80675493378658
 10
239.9911266515583
 20
27.80675493378658
 42
-0.4142135623730951
 10
240.4983730283702
 20
27.29950855697462
 10
240.4983730283684
 20
19.61834913668463
 42
-0.4142135623730951
 10
240.1360541877902
 20
19.25603029610647
 10
239.8461991153272
 20
19.25603029610647
 42
0.4142135623730951
 10
239.7012715790952
 20
19.11110275987448
 10
239.7012715790952
 20
18.53139261494652
 10
241.8751846225732
 20
18.53139261494652
 10
244.0490976660512
 20
18.53139261494652
 10
244.0490976660512
 20
19.11110275987448
 42
0.4142135623730951
 10
243.9041701298202
 20
19.25603029610647
 10
243.6143150573562
 20
19.25603029610465
 42
-0.4142135623730951
 10
243.2519962167762
 20
19.61834913668463
 10
243.2519962167762
 20
27.29950855697462
 42
-0.4142135623730951
 10
243.7592425935882
 20
27.80675493378658
 10
243.9677546599323
 20
27.80675493378658
 42
-0.3274643887701542
 10
244.9354378559428
 20
27.09686812119617
 10
245.2252356550543
 20
26.17622796726938
 42
0.872198494121949
1001
AcDbBlockRepETag
1070
     1
1071
      154
1005
79A
  0
LWPOLYLINE
  5
79B
330
679
100
AcDbEntity
  8
frame
  6
ByBlock
100
AcDbPolyline
 90
       26
 70
     1
 43
0.0
 10
246.0179218658004
 20
26.29947560740584
 10
245.942987209658
 20
28.61639261494565
 10
241.8751846225732
 20
28.61639261494565
 10
237.8073820354875
 20
28.61639261494565
 10
237.7324473793442
 20
26.29947560740584
 42
0.8721984941219334
 10
238.6062116178718
 20
26.15070634092445
 10
238.8960094169834
 20
27.07134649485124
 42
-0.3274643887701552
 10
239.7826145852141
 20
27.72175493378745
 10
239.9911266515583
 20
27.72175493378745
 42
-0.414213562373094
 10
240.4133730283702
 20
27.29950855697462
 10
240.4133730283693
 20
19.61834913668463
 42
-0.4142135623730935
 10
240.1360541877902
 20
19.3410302961056
 10
239.8461991153272
 20
19.3410302961056
 42
0.4142135623730974
 10
239.6162715790952
 20
19.11110275987448
 10
239.6162715790952
 20
18.44639261494558
 10
241.8751846225732
 20
18.44639261494558
 10
244.1340976660513
 20
18.44639261494558
 10
244.1340976660513
 20
19.11110275987448
 42
0.4142135623730974
 10
243.9041701298202
 20
19.3410302961056
 10
243.6143150573562
 20
19.3410302961056
 42
-0.4142135623730935
 10
243.3369962167763
 20
19.61834913668463
 10
243.3369962167763
 20
27.29950855697462
 42
-0.414213562373094
 10
243.7592425935882
 20
27.72175493378745
 10
243.9677546599323
 20
27.72175493378745
 42
-0.3274643887701549
 10
244.8543598281631
 20
27.07134649485124
 10
245.1441576272737
 20
26.15070634092445
 42
0.8721984941219462
1001
AcDbBlockRepETag
1070
     1
1071
      155
1005
79B
  0
LWPOLYLINE
  5
79C
330
679
100
AcDbEntity
  8
frame
  6
ByBlock
100
AcDbPolyline
 90
       26
 70
     1
 43
0.0
 10
245.848010708728
 20
26.29398027283424
 10
245.7783965282424
 20
28.44639261494558
 10
241.8751846225732
 20
28.44639261494558
 10
237.971972716904
 20
28.44639261494558
 10
237.9023585364175
 20
26.29398027283424
 42
0.8721984941219337
 10
238.4440555623123
 20
26.2017495936143
 10
238.7338533614238
 20
27.1223897475411
 42
-0.327464388770155
 10
239.7826145852141
 20
27.89175493378753
 10
239.9911266515583
 20
27.89175493378753
 42
-0.4142135623730959
 10
240.5833730283703
 20
27.29950855697462
 10
240.5833730283684
 20
19.61834913668463
 42
-0.4142135623730962
 10
240.1360541877902
 20
19.17103029610553
 10
239.8461991153272
 20
19.17103029610553
 42
0.4142135623730869
 10
239.7862715790952
 20
19.11110275987448
 10
239.7862715790952
 20
18.61639261494565
 10
241.8751846225732
 20
18.61639261494565
 10
243.9640976660512
 20
18.61639261494565
 10
243.9640976660512
 20
19.11110275987448
 42
0.4142135623730869
 10
243.9041701298202
 20
19.17103029610553
 10
243.6143150573562
 20
19.17103029610553
 42
-0.414213562373096
 10
243.1669962167762
 20
19.61834913668463
 10
243.1669962167762
 20
27.29950855697462
 42
-0.4142135623730959
 10
243.7592425935882
 20
27.89175493378753
 10
243.9677546599323
 20
27.89175493378753
 42
-0.3274643887701536
 10
245.0165158837235
 20
27.1223897475411
 10
245.3063136828341
 20
26.2017495936143
 42
0.8721984941219799
1001
AcDbBlockRepETag
1070
     1
1071
      156
1005
79C
  0
LWPOLYLINE
  5
79D
330
679
100
AcDbEntity
  8
frame
  6
ByBlock
100
AcDbPolyline
 90
       40
 70
     1
 43
0.0
 10
268.6143150573562
 20
19.25603029610647
 42
-0.4142135623730951
 10
268.7592425935882
 20
19.11110275987448
 10
268.7592425935882
 20
18.53139261494652
 10
264.7012715790952
 20
18.53139261494652
 10
264.7012715790952
 20
19.11110275987448
 42
-0.4142135623730951
 10
264.8461991153272
 20
19.25603029610647
 10
265.1360541877912
 20
19.25603029610647
 42
0.4142135623730951
 10
265.4983730283702
 20
19.61834913668463
 10
265.4983730283702
 20
27.59605675325656
 42
0.8769764629942649
 10
265.0709978487421
 20
27.65232176306018
 10
262.6270522492841
 20
18.53139261494652
 10
261.9315323342799
 20
18.53139261494652
 10
259.4764728456794
 20
27.69379936200858
 42
0.8769764629925763
 10
259.0490976660522
 20
27.63753435220315
 10
259.0490976660522
 20
19.47342160045446
 42
0.4142135623730951
 10
259.2664889703992
 20
19.25603029610647
 10
259.4838802747472
 20
19.25603029610647
 42
-0.4142135623730951
 10
259.6288078109792
 20
19.11110275987448
 10
259.6288078109792
 20
18.53139261494652
 10
257.5998223037323
 20
18.53139261494652
 10
257.5998223037323
 20
19.11110275987448
 42
-0.4142135623730951
 10
257.7447498399642
 20
19.25603029610647
 10
258.1070686805442
 20
19.25603029610647
 42
0.4142135623730951
 10
258.3244599848922
 20
19.47342160045446
 10
258.3244599848922
 20
27.5893636294386
 42
0.4142135623730951
 10
258.1070686805442
 20
27.80675493378658
 10
257.7447498399642
 20
27.80675493378658
 42
-0.4142135623730951
 10
257.5998223037323
 20
27.95168247001857
 10
257.5998223037323
 20
28.53139261494654
 10
261.8027208544571
 20
28.53139261494654
 10
262.9695485733801
 20
24.1767322842461
 42
0.7673269879785563
 10
263.3895163239404
 20
24.1767322842461
 10
264.5563440428632
 20
28.53139261494654
 10
268.7592425935882
 20
28.53139261494654
 10
268.7592425935882
 20
27.95168247001857
 42
-0.4142135623730951
 10
268.6143150573562
 20
27.80675493378658
 10
268.3244599848922
 20
27.80675493378658
 42
0.4142135623730951
 10
267.9621411443122
 20
27.44443609320661
 10
267.9621411443122
 20
19.61834913668463
 42
0.4142135623730951
 10
268.3244599848922
 20
19.25603029610647
1001
AcDbBlockRepETag
1070
     1
1071
      157
1005
79D
  0
LWPOLYLINE
  5
79E
330
679
100
AcDbEntity
  8
frame
  6
ByBlock
100
AcDbPolyline
 90
       40
 70
     1
 43
0.0
 10
268.6143150573562
 20
19.3410302961056
 42
-0.4142135623730974
 10
268.8442425935882
 20
19.11110275987448
 10
268.8442425935882
 20
18.44639261494558
 10
264.6162715790952
 20
18.44639261494558
 10
264.6162715790952
 20
19.11110275987448
 42
-0.4142135623730974
 10
264.8461991153272
 20
19.3410302961056
 10
265.1360541877912
 20
19.3410302961056
 42
0.4142135623730935
 10
265.4133730283702
 20
19.61834913668463
 10
265.4133730283702
 20
27.59605675325656
 42
0.8769764629942653
 10
265.1531015439768
 20
27.63032214422674
 10
262.6922750432623
 20
18.44639261494558
 10
261.8663095403017
 20
18.44639261494558
 10
259.3943691504446
 20
27.67179974317333
 42
0.8769764629924258
 10
259.1340976660522
 20
27.63753435220315
 10
259.1340976660522
 20
19.47342160045446
 42
0.4142135623730835
 10
259.2664889703992
 20
19.3410302961056
 10
259.4838802747472
 20
19.3410302961056
 42
-0.4142135623730974
 10
259.7138078109793
 20
19.11110275987448
 10
259.7138078109793
 20
18.44639261494558
 10
257.5148223037321
 20
18.44639261494558
 10
257.5148223037321
 20
19.11110275987448
 42
-0.4142135623730974
 10
257.7447498399642
 20
19.3410302961056
 10
258.1070686805442
 20
19.3410302961056
 42
0.4142135623730913
 10
258.2394599848921
 20
19.47342160045446
 10
258.2394599848921
 20
27.5893636294386
 42
0.4142135623730913
 10
258.1070686805442
 20
27.72175493378745
 10
257.7447498399642
 20
27.72175493378745
 42
-0.4142135623730974
 10
257.5148223037321
 20
27.95168247001857
 10
257.5148223037321
 20
28.61639261494565
 10
261.8679436484354
 20
28.61639261494565
 10
263.0516522686148
 20
24.19873190308135
 42
0.767326987978615
 10
263.3074126287056
 20
24.19873190308135
 10
264.491121248885
 20
28.61639261494565
 10
268.8442425935882
 20
28.61639261494565
 10
268.8442425935882
 20
27.95168247001857
 42
-0.4142135623730974
 10
268.6143150573562
 20
27.72175493378745
 10
268.3244599848922
 20
27.72175493378745
 42
0.4142135623730896
 10
268.0471411443122
 20
27.44443609320661
 10
268.0471411443122
 20
19.61834913668463
 42
0.4142135623730895
 10
268.3244599848922
 20
19.3410302961056
1001
AcDbBlockRepETag
1070
     1
1071
      158
1005
79E
  0
LWPOLYLINE
  5
79F
330
679
100
AcDbEntity
  8
frame
  6
ByBlock
100
AcDbPolyline
 90
       40
 70
     1
 43
0.0
 10
268.6143150573562
 20
19.17103029610553
 42
-0.4142135623730869
 10
268.6742425935881
 20
19.11110275987448
 10
268.6742425935881
 20
18.61639261494565
 10
264.7862715790952
 20
18.61639261494565
 10
264.7862715790952
 20
19.11110275987448
 42
-0.4142135623730869
 10
264.8461991153272
 20
19.17103029610553
 10
265.1360541877912
 20
19.17103029610553
 42
0.4142135623730962
 10
265.5833730283703
 20
19.61834913668463
 10
265.5833730283703
 20
27.59605675325656
 42
0.8769764629943033
 10
264.9888941535073
 20
27.67432138189362
 10
262.561829455306
 20
18.61639261494565
 10
261.996755128258
 20
18.61639261494565
 10
259.5585765409132
 20
27.71579898084202
 42
0.8769764629925827
 10
258.9640976660521
 20
27.63753435220315
 10
258.9640976660521
 20
19.47342160045446
 42
0.4142135623731002
 10
259.2664889703983
 20
19.17103029610553
 10
259.4838802747472
 20
19.17103029610553
 42
-0.4142135623730869
 10
259.5438078109792
 20
19.11110275987448
 10
259.5438078109792
 20
18.61639261494565
 10
257.6848223037323
 20
18.61639261494565
 10
257.6848223037323
 20
19.11110275987448
 42
-0.4142135623730869
 10
257.7447498399642
 20
19.17103029610553
 10
258.1070686805442
 20
19.17103029610553
 42
0.4142135623730966
 10
258.4094599848922
 20
19.47342160045446
 10
258.4094599848922
 20
27.5893636294386
 42
0.4142135623730966
 10
258.1070686805442
 20
27.89175493378753
 10
257.7447498399642
 20
27.89175493378753
 42
-0.4142135623730869
 10
257.6848223037323
 20
27.95168247001857
 10
257.6848223037323
 20
28.44639261494558
 10
261.7374980604791
 20
28.44639261494558
 10
262.8874448781453
 20
24.15473266541268
 42
0.7673269879785485
 10
263.4716200191751
 20
24.15473266541268
 10
264.6215668368413
 20
28.44639261494558
 10
268.6742425935881
 20
28.44639261494558
 10
268.6742425935881
 20
27.95168247001857
 42
-0.4142135623730869
 10
268.6143150573562
 20
27.89175493378753
 10
268.3244599848922
 20
27.89175493378753
 42
0.4142135623730962
 10
267.8771411443122
 20
27.44443609320661
 10
267.8771411443122
 20
19.61834913668463
 42
0.4142135623730985
 10
268.3244599848922
 20
19.17103029610553
1001
AcDbBlockRepETag
1070
     1
1071
      159
1005
79F
  0
CIRCLE
  5
7A0
330
679
100
AcDbEntity
  8
frame
100
AcDbCircle
 10
251.6056181890681
 20
23.63139261494507
 30
0.0
 40
5.269566433505018
1001
AcDbBlockRepETag
1070
     1
1071
      160
1005
7A0
  0
CIRCLE
  5
7A1
330
679
100
AcDbEntity
  8
frame
100
AcDbCircle
 10
251.6056181890681
 20
23.63139261494507
 30
0.0
 40
5.354566433505018
1001
AcDbBlockRepETag
1070
     1
1071
      161
1005
7A1
  0
CIRCLE
  5
7A2
330
679
100
AcDbEntity
  8
frame
100
AcDbCircle
 10
251.6056181890681
 20
23.63139261494507
 30
0.0
 40
5.184566433505018
1001
AcDbBlockRepETag
1070
     1
1071
      162
1005
7A2
  0
LINE
  5
7A3
330
679
100
AcDbEntity
  8
frame
  6
ByBlock
100
AcDbLine
 10
222.9999999999991
 20
273.0000000000036
 30
0.0
 11
223.0
 21
280.0000000000036
 31
0.0
1001
AcDbBlockRepETag
1070
     1
1071
      163
1005
7A3
  0
LINE
  5
7A4
330
679
100
AcDbEntity
  8
frame
  6
ByBlock
100
AcDbLine
 10
222.9999999999991
 20
273.0000000000036
 30
0.0
 11
407.0
 21
273.0000000000036
 31
0.0
1001
AcDbBlockRepETag
1070
     1
1071
      164
1005
7A4
  0
LINE
  5
7A5
330
679
100
AcDbEntity
  8
frame
  6
ByBlock
100
AcDbLine
 10
367.0
 20
280.0000000000036
 30
0.0
 11
367.0
 21
273.0000000000036
 31
0.0
1001
AcDbBlockRepETag
1070
     1
1071
      165
1005
7A5
  0
LINE
  5
7A6
330
679
100
AcDbEntity
  8
frame
  6
ByBlock
100
AcDbLine
 10
342.0
 20
280.0000000000036
 30
0.0
 11
342.0
 21
273.0000000000036
 31
0.0
1001
AcDbBlockRepETag
1070
     1
1071
      166
1005
7A6
  0
LINE
  5
7A7
330
679
100
AcDbEntity
  8
frame
  6
ByBlock
100
AcDbLine
 10
327.0
 20
280.0000000000036
 30
0.0
 11
327.0
 21
273.0000000000036
 31
0.0
1001
AcDbBlockRepETag
1070
     1
1071
      167
1005
7A7
  0
LINE
  5
7A8
330
679
100
AcDbEntity
  8
frame
  6
ByBlock
100
AcDbLine
 10
230.0
 20
280.0000000000036
 30
0.0
 11
230.0
 21
273.0000000000036
 31
0.0
1001
AcDbBlockRepETag
1070
     1
1071
      168
1005
7A8
  0
LINE
  5
7A9
330
679
100
AcDbEntity
  8
frame
  6
ByBlock
100
AcDbLine
 10
382.0
 20
280.0000000000036
 30
0.0
 11
382.0
 21
273.0000000000036
 31
0.0
1001
AcDbBlockRepETag
1070
     1
1071
      169
1005
7A9
  0
ATTDEF
  5
7AA
102
{ACAD_XDICTIONARY
360
7AB
102
}
330
679
100
AcDbEntity
  8
frame
  6
ByBlock
100
AcDbText
 10
226.5
 20
275.0000000000036
 30
0.0
 40
3.0
  1

 41
0.9
  7
ATOM
 72
     1
 11
226.5
 21
276.5000000000036
 31
0.0
100
AcDbAttributeDefinition
  3
改番?
  2
改番
 70
     0
 74
     2
1001
AcDbBlockRepETag
1070
     1
1071
      171
1005
0
1001
AcadAnnotative
1000
AnnotativeData
1002
{
1070
     1
1070
     0
1002
}
1001
AcDbAttr
1070
     0
1070
     1
  0
ATTDEF
  5
7AF
102
{ACAD_XDICTIONARY
360
7B0
102
}
330
679
100
AcDbEntity
  8
frame
  6
ByBlock
100
AcDbText
 10
278.5
 20
275.0000000000036
 30
0.0
 40
3.0
  1

 41
0.9
  7
ATOM
 72
     1
 11
278.5
 21
276.5000000000036
 31
0.0
100
AcDbAttributeDefinition
  3
改正理由?
  2
改　　　　正　　　　理　　　　由
 70
     0
 74
     2
1001
AcDbBlockRepETag
1070
     1
1071
      170
1005
0
1001
AcadAnnotative
1000
AnnotativeData
1002
{
1070
     1
1070
     0
1002
}
1001
AcDbAttr
1070
     0
1070
     1
  0
ATTDEF
  5
7B4
102
{ACAD_XDICTIONARY
360
7B5
102
}
330
679
100
AcDbEntity
  8
frame
  6
ByBlock
100
AcDbText
 10
334.5
 20
275.0000000000036
 30
0.0
 40
3.0
  1

 41
0.9
  7
ATOM
 72
     1
 11
334.5
 21
276.5000000000036
 31
0.0
100
AcDbAttributeDefinition
  3
改正承認?
  2
改正承認
 70
     0
 74
     2
1001
AcDbBlockRepETag
1070
     1
1071
      172
1005
0
1001
AcadAnnotative
1000
AnnotativeData
1002
{
1070
     1
1070
     0
1002
}
1001
AcDbAttr
1070
     0
1070
     1
  0
ATTDEF
  5
7B9
102
{ACAD_XDICTIONARY
360
7BA
102
}
330
679
100
AcDbEntity
  8
frame
  6
ByBlock
100
AcDbText
 10
354.5
 20
275.0000000000036
 30
0.0
 40
3.0
  1

 41
0.9
  7
ATOM
 72
     1
 11
354.5
 21
276.5000000000036
 31
0.0
100
AcDbAttributeDefinition
  3
改正承認日?
  2
改正承認日
 70
     0
 74
     2
1001
AcDbBlockRepETag
1070
     1
1071
      173
1005
0
1001
AcadAnnotative
1000
AnnotativeData
1002
{
1070
     1
1070
     0
1002
}
1001
AcDbAttr
1070
     0
1070
     1
  0
ATTDEF
  5
7BE
102
{ACAD_XDICTIONARY
360
7BF
102
}
330
679
100
AcDbEntity
  8
frame
  6
ByBlock
100
AcDbText
 10
374.5
 20
275.0000000000036
 30
0.0
 40
3.0
  1

 41
0.9
  7
ATOM
 72
     1
 11
374.5
 21
276.5000000000036
 31
0.0
100
AcDbAttributeDefinition
  3
改正担当?
  2
改正担当
 70
     0
 74
     2
1001
AcDbBlockRepETag
1070
     1
1071
      174
1005
0
1001
AcadAnnotative
1000
AnnotativeData
1002
{
1070
     1
1070
     0
1002
}
1001
AcDbAttr
1070
     0
1070
     1
  0
ATTDEF
  5
7C3
102
{ACAD_XDICTIONARY
360
7C4
102
}
330
679
100
AcDbEntity
  8
frame
  6
ByBlock
100
AcDbText
 10
394.5
 20
275.0000000000036
 30
0.0
 40
3.0
  1

 41
0.9
  7
ATOM
 72
     1
 11
394.5
 21
276.5000000000036
 31
0.0
100
AcDbAttributeDefinition
  3
改正日?
  2
改正日
 70
     0
 74
     2
1001
AcDbBlockRepETag
1070
     1
1071
      175
1005
0
1001
AcadAnnotative
1000
AnnotativeData
1002
{
1070
     1
1070
     0
1002
}
1001
AcDbAttr
1070
     0
1070
     1
  0
ATTDEF
  5
7C8
102
{ACAD_XDICTIONARY
360
7C9
102
}
330
679
100
AcDbEntity
  8
frame
  6
ByBlock
100
AcDbText
 10
286.75
 20
32.75000000000364
 30
0.0
 40
3.5
  1

 41
0.9
  7
ATOM
 72
     1
 11
286.75
 21
34.50000000000364
 31
0.0
100
AcDbAttributeDefinition
  3
名称?
  2
名称
 70
     0
 74
     2
1001
AcDbBlockRepETag
1070
     1
1071
      185
1005
0
1001
AcadAnnotative
1000
AnnotativeData
1002
{
1070
     1
1070
     0
1002
}
1001
AcDbAttr
1070
     0
1070
     1
  0
ATTDEF
  5
7CD
102
{ACAD_XDICTIONARY
360
7CE
102
}
330
679
100
AcDbEntity
  8
frame
  6
ByBlock
100
AcDbText
 10
245.0
 20
32.7858983848655
 30
0.0
 40
3.5
  1

 41
0.9
  7
ATOM
 72
     1
 11
245.0
 21
34.5358983848655
 31
0.0
100
AcDbAttributeDefinition
  3
尺度?
  2
尺度
 70
     0
 74
     2
1001
AcDbBlockRepETag
1070
     1
1071
      184
1005
0
1001
AcadAnnotative
1000
AnnotativeData
1002
{
1070
     1
1070
     0
1002
}
1001
AcDbAttr
1070
     0
1070
     1
  0
ATTDEF
  5
7D2
102
{ACAD_XDICTIONARY
360
7D3
102
}
330
679
100
AcDbEntity
  8
frame
  6
ByBlock
100
AcDbText
 10
322.25
 20
32.75000000000364
 30
0.0
 40
3.5
  1

 41
0.9
  7
ATOM
 72
     1
 11
322.25
 21
34.50000000000364
 31
0.0
100
AcDbAttributeDefinition
  3
承認?
  2
承認
 70
     0
 74
     2
1001
AcDbBlockRepETag
1070
     1
1071
      182
1005
0
1001
AcadAnnotative
1000
AnnotativeData
1002
{
1070
     1
1070
     0
1002
}
1001
AcDbAttr
1070
     0
1070
     1
  0
ATTDEF
  5
7D7
102
{ACAD_XDICTIONARY
360
7D8
102
}
330
679
100
AcDbEntity
  8
frame
  6
ByBlock
100
AcDbText
 10
322.25
 20
25.75000000000364
 30
0.0
 40
3.5
  1

 41
0.9
  7
ATOM
 72
     1
 11
322.25
 21
27.50000000000364
 31
0.0
100
AcDbAttributeDefinition
  3
検図?
  2
検図
 70
     0
 74
     2
1001
AcDbBlockRepETag
1070
     1
1071
      183
1005
0
1001
AcadAnnotative
1000
AnnotativeData
1002
{
1070
     1
1070
     0
1002
}
1001
AcDbAttr
1070
     0
1070
     1
  0
ATTDEF
  5
7DC
102
{ACAD_XDICTIONARY
360
7DD
102
}
330
679
100
AcDbEntity
  8
frame
  6
ByBlock
100
AcDbText
 10
322.25
 20
18.75000000000364
 30
0.0
 40
3.5
  1

 41
0.9
  7
ATOM
 72
     1
 11
322.25
 21
20.50000000000364
 31
0.0
100
AcDbAttributeDefinition
  3
設計?
  2
設計
 70
     0
 74
     2
1001
AcDbBlockRepETag
1070
     1
1071
      186
1005
0
1001
AcadAnnotative
1000
AnnotativeData
1002
{
1070
     1
1070
     0
1002
}
1001
AcDbAttr
1070
     0
1070
     1
  0
ATTDEF
  5
7E1
102
{ACAD_XDICTIONARY
360
7E2
102
}
330
679
100
AcDbEntity
  8
frame
  6
ByBlock
100
AcDbText
 10
322.25
 20
11.75000000000364
 30
0.0
 40
3.5
  1

 41
0.9
  7
ATOM
 72
     1
 11
322.25
 21
13.50000000000364
 31
0.0
100
AcDbAttributeDefinition
  3
作図?
  2
作図
 70
     0
 74
     2
1001
AcDbBlockRepETag
1070
     1
1071
      187
1005
0
1001
AcadAnnotative
1000
AnnotativeData
1002
{
1070
     1
1070
     0
1002
}
1001
AcDbAttr
1070
     0
1070
     1
  0
ATTDEF
  5
7E6
102
{ACAD_XDICTIONARY
360
7E7
102
}
330
679
100
AcDbEntity
  8
frame
  6
ByBlock
100
AcDbText
 10
340.0
 20
32.75000000000364
 30
0.0
 40
3.5
  1

 41
0.8
  7
ATOM
 72
     1
 11
340.0
 21
34.50000000000364
 31
0.0
100
AcDbAttributeDefinition
  3
承認日?
  2
承認日
 70
     0
 74
     2
1001
AcDbBlockRepETag
1070
     1
1071
      191
1005
0
1001
AcadAnnotative
1000
AnnotativeData
1002
{
1070
     1
1070
     0
1002
}
1001
AcDbAttr
1070
     0
1070
     1
  0
ATTDEF
  5
7EB
102
{ACAD_XDICTIONARY
360
7EC
102
}
330
679
100
AcDbEntity
  8
frame
  6
ByBlock
100
AcDbText
 10
340.0
 20
25.75000000000364
 30
0.0
 40
3.5
  1

 41
0.8
  7
ATOM
 72
     1
 11
340.0
 21
27.50000000000364
 31
0.0
100
AcDbAttributeDefinition
  3
検図日?
  2
検図日
 70
     0
 74
     2
1001
AcDbBlockRepETag
1070
     1
1071
      190
1005
0
1001
AcadAnnotative
1000
AnnotativeData
1002
{
1070
     1
1070
     0
1002
}
1001
AcDbAttr
1070
     0
1070
     1
  0
ATTDEF
  5
7F0
102
{ACAD_XDICTIONARY
360
7F1
102
}
330
679
100
AcDbEntity
  8
frame
  6
ByBlock
100
AcDbText
 10
340.0
 20
18.75000000000364
 30
0.0
 40
3.5
  1

 41
0.8
  7
ATOM
 72
     1
 11
340.0
 21
20.50000000000364
 31
0.0
100
AcDbAttributeDefinition
  3
設計日?
  2
設計日
 70
     0
 74
     2
1001
AcDbBlockRepETag
1070
     1
1071
      189
1005
0
1001
AcadAnnotative
1000
AnnotativeData
1002
{
1070
     1
1070
     0
1002
}
1001
AcDbAttr
1070
     0
1070
     1
  0
ATTDEF
  5
7F5
102
{ACAD_XDICTIONARY
360
7F6
102
}
330
679
100
AcDbEntity
  8
frame
  6
ByBlock
100
AcDbText
 10
340.0
 20
11.75000000000364
 30
0.0
 40
3.5
  1

 41
0.8
  7
ATOM
 72
     1
 11
340.0
 21
13.50000000000364
 31
0.0
100
AcDbAttributeDefinition
  3
作図日?
  2
作図日
 70
     0
 74
     2
1001
AcDbBlockRepETag
1070
     1
1071
      188
1005
0
1001
AcadAnnotative
1000
AnnotativeData
1002
{
1070
     1
1070
     0
1002
}
1001
AcDbAttr
1070
     0
1070
     1
  0
ATTDEF
  5
7FA
102
{ACAD_XDICTIONARY
360
7FB
102
}
330
679
100
AcDbEntity
  8
frame
  6
ByBlock
100
AcDbText
 10
380.5
 20
32.75000000000364
 30
0.0
 40
3.5
  1

 41
0.9
  7
ATOM
 72
     1
 11
380.5
 21
34.50000000000364
 31
0.0
100
AcDbAttributeDefinition
  3
品名?
  2
品名
 70
     0
 74
     2
1001
AcDbBlockRepETag
1070
     1
1071
      195
1005
0
1001
AcadAnnotative
1000
AnnotativeData
1002
{
1070
     1
1070
     0
1002
}
1001
AcDbAttr
1070
     0
1070
     1
  0
ATTDEF
  5
7FF
102
{ACAD_XDICTIONARY
360
800
102
}
330
679
100
AcDbEntity
  8
frame
  6
ByBlock
100
AcDbText
 10
380.5
 20
25.75000000000364
 30
0.0
 40
3.5
  1

 41
0.9
  7
ATOM
 72
     1
 11
380.5
 21
27.50000000000364
 31
0.0
100
AcDbAttributeDefinition
  3
品番?
  2
品番
 70
     0
 74
     2
1001
AcDbBlockRepETag
1070
     1
1071
      194
1005
0
1001
AcadAnnotative
1000
AnnotativeData
1002
{
1070
     1
1070
     0
1002
}
1001
AcDbAttr
1070
     0
1070
     1
  0
ATTDEF
  5
804
102
{ACAD_XDICTIONARY
360
805
102
}
330
679
100
AcDbEntity
  8
frame
  6
ByBlock
100
AcDbText
 10
380.5
 20
18.75000000000364
 30
0.0
 40
3.5
  1

 41
0.9
  7
ATOM
 72
     1
 11
380.5
 21
20.50000000000364
 31
0.0
100
AcDbAttributeDefinition
  3
図名?
  2
図名
 70
     0
 74
     2
1001
AcDbBlockRepETag
1070
     1
1071
      193
1005
0
1001
AcadAnnotative
1000
AnnotativeData
1002
{
1070
     1
1070
     0
1002
}
1001
AcDbAttr
1070
     0
1070
     1
  0
ATTDEF
  5
809
102
{ACAD_XDICTIONARY
360
80A
102
}
330
679
100
AcDbEntity
  8
frame
  6
ByBlock
100
AcDbText
 10
375.25
 20
11.75000000000182
 30
0.0
 40
3.5
  1

 41
0.9
  7
ATOM
 72
     1
 11
375.25
 21
13.50000000000182
 31
0.0
100
AcDbAttributeDefinition
  3
図番?
  2
図番
 70
     0
 74
     2
1001
AcDbBlockRepETag
1070
     1
1071
      192
1005
0
1001
AcadAnnotative
1000
AnnotativeData
1002
{
1070
     1
1070
     0
1002
}
1001
AcDbAttr
1070
     0
1070
     1
  0
ATTDEF
  5
80E
102
{ACAD_XDICTIONARY
360
80F
102
}
330
679
100
AcDbEntity
  8
frame
  6
ByBlock
100
AcDbText
 10
226.5
 20
47.00000000000363
 30
0.0
 40
3.0
  1

 41
0.9
  7
ATOM
 72
     1
 11
226.5
 21
48.50000000000363
 31
0.0
100
AcDbAttributeDefinition
  3
部番?
  2
部番
 70
     0
 74
     2
1001
AcDbBlockRepETag
1070
     1
1071
      181
1005
0
1001
AcadAnnotative
1000
AnnotativeData
1002
{
1070
     1
1070
     0
1002
}
1001
AcDbAttr
1070
     0
1070
     1
  0
ATTDEF
  5
813
102
{ACAD_XDICTIONARY
360
814
102
}
330
679
100
AcDbEntity
  8
frame
  6
ByBlock
100
AcDbText
 10
255.0
 20
47.00000000000363
 30
0.0
 40
3.0
  1

 41
0.9
  7
ATOM
 72
     1
 11
255.0
 21
48.50000000000363
 31
0.0
100
AcDbAttributeDefinition
  3
部品名?
  2
部　　　　品　　　　名
 70
     0
 74
     2
1001
AcDbBlockRepETag
1070
     1
1071
      196
1005
0
1001
AcadAnnotative
1000
AnnotativeData
1002
{
1070
     1
1070
     0
1002
}
1001
AcDbAttr
1070
     0
1070
     1
  0
ATTDEF
  5
818
102
{ACAD_XDICTIONARY
360
819
102
}
330
679
100
AcDbEntity
  8
frame
  6
ByBlock
100
AcDbText
 10
294.0
 20
47.00000000000363
 30
0.0
 40
3.0
  1

 41
0.9
  7
ATOM
 72
     1
 11
294.0
 21
48.50000000000363
 31
0.0
100
AcDbAttributeDefinition
  3
材質?
  2
材　　質
 70
     0
 74
     2
1001
AcDbBlockRepETag
1070
     1
1071
      197
1005
0
1001
AcadAnnotative
1000
AnnotativeData
1002
{
1070
     1
1070
     0
1002
}
1001
AcDbAttr
1070
     0
1070
     1
  0
ATTDEF
  5
81D
102
{ACAD_XDICTIONARY
360
81E
102
}
330
679
100
AcDbEntity
  8
frame
  6
ByBlock
100
AcDbText
 10
311.5
 20
47.00000000000363
 30
0.0
 40
3.0
  1

 41
0.9
  7
ATOM
 72
     1
 11
311.5
 21
48.50000000000363
 31
0.0
100
AcDbAttributeDefinition
  3
数量?
  2
数量
 70
     0
 74
     2
1001
AcDbBlockRepETag
1070
     1
1071
      178
1005
0
1001
AcadAnnotative
1000
AnnotativeData
1002
{
1070
     1
1070
     0
1002
}
1001
AcDbAttr
1070
     0
1070
     1
  0
ATTDEF
  5
822
102
{ACAD_XDICTIONARY
360
823
102
}
330
679
100
AcDbEntity
  8
frame
  6
ByBlock
100
AcDbText
 10
340.0
 20
47.00000000000363
 30
0.0
 40
3.0
  1

 41
0.9
  7
ATOM
 72
     1
 11
340.0
 21
48.50000000000363
 31
0.0
100
AcDbAttributeDefinition
  3
表面処理?
  2
表　　面　　処　　理
 70
     0
 74
     2
1001
AcDbBlockRepETag
1070
     1
1071
      198
1005
0
1001
AcadAnnotative
1000
AnnotativeData
1002
{
1070
     1
1070
     0
1002
}
1001
AcDbAttr
1070
     0
1070
     1
  0
ATTDEF
  5
827
102
{ACAD_XDICTIONARY
360
828
102
}
330
679
100
AcDbEntity
  8
frame
  6
ByBlock
100
AcDbText
 10
386.0
 20
47.00000000000363
 30
0.0
 40
3.0
  1

 41
0.9
  7
ATOM
 72
     1
 11
386.0
 21
48.50000000000363
 31
0.0
100
AcDbAttributeDefinition
  3
備考?
  2
備　　　考
 70
     0
 74
     2
1001
AcDbBlockRepETag
1070
     1
1071
      199
1005
0
1001
AcadAnnotative
1000
AnnotativeData
1002
{
1070
     1
1070
     0
1002
}
1001
AcDbAttr
1070
     0
1070
     1
  0
ENDBLK
  5
67B
330
679
100
AcDbEntity
  8
0
100
AcDbBlockEnd
  0
ENDSEC
  0
SECTION
  2
ENTITIES
  0
LINE
  5
12F
330
6C
100
AcDbEntity
  8
0
100
AcDbLine
 10
269.4029841601714
 20
340.0162460467254
 30
0.0
 11
269.4029841601718
 21
324.2662466058868
 31
0.0
  0
LINE
  5
130
330
6C
100
AcDbEntity
  8
0
100
AcDbLine
 10
272.902984035914
 20
340.0162460467254
 30
0.0
 11
272.902984035914
 21
324.2662466058868
 31
0.0
  0
LINE
  5
131
330
6C
100
AcDbEntity
  8
0
100
AcDbLine
 10
181.9029872666265
 20
324.2662466058868
 30
0.0
 11
181.9029872666269
 21
319.2662467833234
 31
0.0
  0
LINE
  5
132
330
6C
100
AcDbEntity
  8
0
100
AcDbLine
 10
269.4029841601718
 20
319.2662467835548
 30
0.0
 11
199.4029866453283
 21
319.2662467833462
 31
0.0
  0
LINE
  5
134
330
6C
100
AcDbEntity
  8
0
100
AcDbLine
 10
196.9029867340841
 20
321.7662466945717
 30
0.0
 11
194.4029868228399
 21
319.2662467833238
 31
0.0
  0
LINE
  5
135
330
6C
100
AcDbEntity
  8
0
100
AcDbLine
 10
199.4029866453356
 20
319.2662467833388
 30
0.0
 11
196.9029867340914
 21
321.766246694579
 31
0.0
  0
LINE
  5
136
330
6C
100
AcDbEntity
  8
0
100
AcDbLine
 10
271.4029840891671
 20
341.7662459845956
 30
0.0
 11
271.4029840891671
 21
341.7662459845956
 31
0.0
  0
LINE
  5
137
330
6C
100
AcDbEntity
  8
0
100
AcDbLine
 10
181.9029872666265
 20
324.2662466058868
 30
0.0
 11
269.4029841601718
 21
324.2662466058868
 31
0.0
  0
LINE
  5
18E
330
6C
100
AcDbEntity
  8
0
100
AcDbLine
 10
269.4029841601718
 20
319.2662467834002
 30
0.0
 11
269.4029841601718
 21
315.7619352809047
 31
0.0
  0
LINE
  5
18F
330
6C
100
AcDbEntity
  8
0
100
AcDbLine
 10
272.902984035914
 20
324.2662466058868
 30
0.0
 11
272.902984035914
 21
315.7619352809047
 31
0.0
  0
LINE
  5
1BA
330
6C
100
AcDbEntity
  8
0
100
AcDbLine
 10
181.9029872666269
 20
319.2662467833234
 30
0.0
 11
194.4029868228394
 21
319.2662467833234
 31
0.0
  0
ARC
  5
1EC
330
6C
100
AcDbEntity
  8
0
100
AcDbCircle
 10
271.1529840980429
 20
340.0162460467254
 30
0.0
 40
1.749999937870905
100
AcDbArc
 50
0.0
 51
180.0
  0
ARC
  5
1ED
330
6C
100
AcDbEntity
  8
0
100
AcDbCircle
 10
268.6529841867964
 20
308.5162471650465
 30
0.0
 40
1.749999937870905
100
AcDbArc
 50
141.927774586334
 51
321.9277745863153
  0
ARC
  5
1EE
330
6C
100
AcDbEntity
  8
0
100
AcDbCircle
 10
259.4029845151954
 20
315.7619352809047
 30
0.0
 40
9.999999644976607
100
AcDbArc
 50
321.9277745863414
 51
0.0
  0
ARC
  5
1EF
330
6C
100
AcDbEntity
  8
0
100
AcDbCircle
 10
259.4029845151954
 20
315.7619352809047
 30
0.0
 40
13.49999952071842
100
AcDbArc
 50
321.9277745863382
 51
0.0
  0
MTEXT
  5
42F
330
6C
100
AcDbEntity
  8
0
100
AcDbMText
 10
-19.79617902536961
 20
222.4562888556574
 30
0.0
 40
2.5
 41
0.0
 71
     1
 72
     1
  1

 73
     1
 44
1.0
1001
ACAD
1000
MTEXTBEGIN
1070
    73
1070
     1
1070
    44
1040
1.0
1070
    74
1070
     0
1000
MTEXTEND
  0
ENDSEC
  0
SECTION
  2
OBJECTS
  0
DICTIONARY
  5
C
330
0
100
AcDbDictionary
281
     1
  3
ACAD_CIP_PREVIOUS_PRODUCT_INFO
350
8B9
  3
ACAD_COLOR
350
63
  3
ACAD_GROUP
350
D
  3
ACAD_LAYOUT
350
62
  3
ACAD_MATERIAL
350
10
  3
ACAD_MLEADERSTYLE
350
66
  3
ACAD_MLINESTYLE
350
5F
  3
ACAD_PLOTSETTINGS
350
61
  3
ACAD_PLOTSTYLENAME
350
E
  3
ACAD_SCALELIST
350
42
  3
ACAD_TABLESTYLE
350
64
  3
ACAD_VISUALSTYLE
350
29
  3
ACDB_RECOMPOSE_DATA
350
941
  3
AcDbVariableDictionary
350
8AD
  3
DWGPROPS
350
942
  0
DICTIONARY
  5
8C9
330
2
100
AcDbDictionary
280
     1
281
     1
  3
ACAD_LAYERSTATES
360
8CA
  0
DICTIONARY
  5
8BA
330
54
100
AcDbDictionary
280
     1
281
     1
  3
ADSK_XREC_LAYER_RECONCILED
360
8BB
  0
DICTIONARY
  5
9C
330
9B
100
AcDbDictionary
280
     1
281
     1
  3
ADSK_XREC_LAYER_RECONCILED
360
9D
  0
DICTIONARY
  5
A2
330
A1
100
AcDbDictionary
280
     1
281
     1
  3
ADSK_XREC_LAYER_RECONCILED
360
A3
  0
DICTIONARY
  5
A6
330
A5
100
AcDbDictionary
280
     1
281
     1
  3
ADSK_XREC_LAYER_RECONCILED
360
A7
  0
DICTIONARY
  5
D8
330
D7
100
AcDbDictionary
280
     1
281
     1
  3
ADSK_XREC_LAYER_RECONCILED
360
D9
  0
DICTIONARY
  5
1C6
330
1C5
100
AcDbDictionary
280
     1
281
     1
  3
ADSK_XREC_LAYER_RECONCILED
360
1C7
  0
DICTIONARY
  5
432
330
431
100
AcDbDictionary
280
     1
281
     1
  3
ADSK_XREC_LAYER_RECONCILED
360
433
  0
DICTIONARY
  5
939
330
938
100
AcDbDictionary
280
     1
281
     1
  3
ASDK_XREC_ANNO_SCALE_INFO
360
93A
  0
DICTIONARY
  5
12D
330
6C
100
AcDbDictionary
280
     1
281
     1
  3
ACAD_SORTENTS
360
42E
  0
DICTIONARY
  5
435
330
434
100
AcDbDictionary
280
     1
281
     1
  3
AcDbBlockTableRecordData
360
97A
  0
DICTIONARY
  5
44B
330
44A
100
AcDbDictionary
280
     1
281
     1
  3
AcDbContextDataManager
360
44C
  0
DICTIONARY
  5
450
330
44F
100
AcDbDictionary
280
     1
281
     1
  3
AcDbContextDataManager
360
451
  0
DICTIONARY
  5
455
330
454
100
AcDbDictionary
280
     1
281
     1
  3
AcDbContextDataManager
360
456
  0
DICTIONARY
  5
45A
330
459
100
AcDbDictionary
280
     1
281
     1
  3
AcDbContextDataManager
360
45B
  0
DICTIONARY
  5
45F
330
45E
100
AcDbDictionary
280
     1
281
     1
  3
AcDbContextDataManager
360
460
  0
DICTIONARY
  5
464
330
463
100
AcDbDictionary
280
     1
281
     1
  3
AcDbContextDataManager
360
465
  0
DICTIONARY
  5
469
330
468
100
AcDbDictionary
280
     1
281
     1
  3
AcDbContextDataManager
360
46A
  0
DICTIONARY
  5
46E
330
46D
100
AcDbDictionary
280
     1
281
     1
  3
AcDbContextDataManager
360
46F
  0
DICTIONARY
  5
473
330
472
100
AcDbDictionary
280
     1
281
     1
  3
AcDbContextDataManager
360
474
  0
DICTIONARY
  5
478
330
477
100
AcDbDictionary
280
     1
281
     1
  3
AcDbContextDataManager
360
479
  0
DICTIONARY
  5
47D
330
47C
100
AcDbDictionary
280
     1
281
     1
  3
AcDbContextDataManager
360
47E
  0
DICTIONARY
  5
482
330
481
100
AcDbDictionary
280
     1
281
     1
  3
AcDbContextDataManager
360
483
  0
DICTIONARY
  5
487
330
486
100
AcDbDictionary
280
     1
281
     1
  3
AcDbContextDataManager
360
488
  0
DICTIONARY
  5
48C
330
48B
100
AcDbDictionary
280
     1
281
     1
  3
AcDbContextDataManager
360
48D
  0
DICTIONARY
  5
491
330
490
100
AcDbDictionary
280
     1
281
     1
  3
AcDbContextDataManager
360
492
  0
DICTIONARY
  5
496
330
495
100
AcDbDictionary
280
     1
281
     1
  3
AcDbContextDataManager
360
497
  0
DICTIONARY
  5
49B
330
49A
100
AcDbDictionary
280
     1
281
     1
  3
AcDbContextDataManager
360
49C
  0
DICTIONARY
  5
4A0
330
49F
100
AcDbDictionary
280
     1
281
     1
  3
AcDbContextDataManager
360
4A1
  0
DICTIONARY
  5
4A5
330
4A4
100
AcDbDictionary
280
     1
281
     1
  3
AcDbContextDataManager
360
4A6
  0
DICTIONARY
  5
4AA
330
4A9
100
AcDbDictionary
280
     1
281
     1
  3
AcDbContextDataManager
360
4AB
  0
DICTIONARY
  5
4AF
330
4AE
100
AcDbDictionary
280
     1
281
     1
  3
AcDbContextDataManager
360
4B0
  0
DICTIONARY
  5
4B4
330
4B3
100
AcDbDictionary
280
     1
281
     1
  3
AcDbContextDataManager
360
4B5
  0
DICTIONARY
  5
4B9
330
4B8
100
AcDbDictionary
280
     1
281
     1
  3
AcDbContextDataManager
360
4BA
  0
DICTIONARY
  5
4BE
330
4BD
100
AcDbDictionary
280
     1
281
     1
  3
AcDbContextDataManager
360
4BF
  0
DICTIONARY
  5
4C3
330
4C2
100
AcDbDictionary
280
     1
281
     1
  3
AcDbContextDataManager
360
4C4
  0
DICTIONARY
  5
4C8
330
4C7
100
AcDbDictionary
280
     1
281
     1
  3
AcDbContextDataManager
360
4C9
  0
DICTIONARY
  5
4CD
330
4CC
100
AcDbDictionary
280
     1
281
     1
  3
AcDbContextDataManager
360
4CE
  0
DICTIONARY
  5
4D2
330
4D1
100
AcDbDictionary
280
     1
281
     1
  3
AcDbContextDataManager
360
4D3
  0
DICTIONARY
  5
4D7
330
4D6
100
AcDbDictionary
280
     1
281
     1
  3
AcDbContextDataManager
360
4D8
  0
DICTIONARY
  5
4DC
330
4DB
100
AcDbDictionary
280
     1
281
     1
  3
AcDbContextDataManager
360
4DD
  0
DICTIONARY
  5
4E1
330
4E0
100
AcDbDictionary
280
     1
281
     1
  3
AcDbContextDataManager
360
4E2
  0
DICTIONARY
  5
4E6
330
4E5
100
AcDbDictionary
280
     1
281
     1
  3
AcDbContextDataManager
360
4E7
  0
DICTIONARY
  5
4EB
330
4EA
100
AcDbDictionary
280
     1
281
     1
  3
AcDbContextDataManager
360
4EC
  0
DICTIONARY
  5
567
330
566
100
AcDbDictionary
280
     1
281
     1
  3
AcDbContextDataManager
360
568
  0
DICTIONARY
  5
56C
330
56B
100
AcDbDictionary
280
     1
281
     1
  3
AcDbContextDataManager
360
56D
  0
DICTIONARY
  5
571
330
570
100
AcDbDictionary
280
     1
281
     1
  3
AcDbContextDataManager
360
572
  0
DICTIONARY
  5
576
330
575
100
AcDbDictionary
280
     1
281
     1
  3
AcDbContextDataManager
360
577
  0
DICTIONARY
  5
57B
330
57A
100
AcDbDictionary
280
     1
281
     1
  3
AcDbContextDataManager
360
57C
  0
DICTIONARY
  5
580
330
57F
100
AcDbDictionary
280
     1
281
     1
  3
AcDbContextDataManager
360
581
  0
DICTIONARY
  5
585
330
584
100
AcDbDictionary
280
     1
281
     1
  3
AcDbContextDataManager
360
586
  0
DICTIONARY
  5
58A
330
589
100
AcDbDictionary
280
     1
281
     1
  3
AcDbContextDataManager
360
58B
  0
DICTIONARY
  5
58F
330
58E
100
AcDbDictionary
280
     1
281
     1
  3
AcDbContextDataManager
360
590
  0
DICTIONARY
  5
594
330
593
100
AcDbDictionary
280
     1
281
     1
  3
AcDbContextDataManager
360
595
  0
DICTIONARY
  5
599
330
598
100
AcDbDictionary
280
     1
281
     1
  3
AcDbContextDataManager
360
59A
  0
DICTIONARY
  5
59E
330
59D
100
AcDbDictionary
280
     1
281
     1
  3
AcDbContextDataManager
360
59F
  0
DICTIONARY
  5
5A3
330
5A2
100
AcDbDictionary
280
     1
281
     1
  3
AcDbContextDataManager
360
5A4
  0
DICTIONARY
  5
5A8
330
5A7
100
AcDbDictionary
280
     1
281
     1
  3
AcDbContextDataManager
360
5A9
  0
DICTIONARY
  5
5AD
330
5AC
100
AcDbDictionary
280
     1
281
     1
  3
AcDbContextDataManager
360
5AE
  0
DICTIONARY
  5
5B2
330
5B1
100
AcDbDictionary
280
     1
281
     1
  3
AcDbContextDataManager
360
5B3
  0
DICTIONARY
  5
5B7
330
5B6
100
AcDbDictionary
280
     1
281
     1
  3
AcDbContextDataManager
360
5B8
  0
DICTIONARY
  5
5BC
330
5BB
100
AcDbDictionary
280
     1
281
     1
  3
AcDbContextDataManager
360
5BD
  0
DICTIONARY
  5
5C1
330
5C0
100
AcDbDictionary
280
     1
281
     1
  3
AcDbContextDataManager
360
5C2
  0
DICTIONARY
  5
5C6
330
5C5
100
AcDbDictionary
280
     1
281
     1
  3
AcDbContextDataManager
360
5C7
  0
DICTIONARY
  5
5CB
330
5CA
100
AcDbDictionary
280
     1
281
     1
  3
AcDbContextDataManager
360
5CC
  0
DICTIONARY
  5
5D0
330
5CF
100
AcDbDictionary
280
     1
281
     1
  3
AcDbContextDataManager
360
5D1
  0
DICTIONARY
  5
5D5
330
5D4
100
AcDbDictionary
280
     1
281
     1
  3
AcDbContextDataManager
360
5D6
  0
DICTIONARY
  5
5DA
330
5D9
100
AcDbDictionary
280
     1
281
     1
  3
AcDbContextDataManager
360
5DB
  0
DICTIONARY
  5
5DF
330
5DE
100
AcDbDictionary
280
     1
281
     1
  3
AcDbContextDataManager
360
5E0
  0
DICTIONARY
  5
5E4
330
5E3
100
AcDbDictionary
280
     1
281
     1
  3
AcDbContextDataManager
360
5E5
  0
DICTIONARY
  5
68F
330
68E
100
AcDbDictionary
280
     1
281
     1
  3
AcDbContextDataManager
360
690
  0
DICTIONARY
  5
694
330
693
100
AcDbDictionary
280
     1
281
     1
  3
AcDbContextDataManager
360
695
  0
DICTIONARY
  5
699
330
698
100
AcDbDictionary
280
     1
281
     1
  3
AcDbContextDataManager
360
69A
  0
DICTIONARY
  5
69E
330
69D
100
AcDbDictionary
280
     1
281
     1
  3
AcDbContextDataManager
360
69F
  0
DICTIONARY
  5
6A3
330
6A2
100
AcDbDictionary
280
     1
281
     1
  3
AcDbContextDataManager
360
6A4
  0
DICTIONARY
  5
6A8
330
6A7
100
AcDbDictionary
280
     1
281
     1
  3
AcDbContextDataManager
360
6A9
  0
DICTIONARY
  5
6AD
330
6AC
100
AcDbDictionary
280
     1
281
     1
  3
AcDbContextDataManager
360
6AE
  0
DICTIONARY
  5
6B2
330
6B1
100
AcDbDictionary
280
     1
281
     1
  3
AcDbContextDataManager
360
6B3
  0
DICTIONARY
  5
6B7
330
6B6
100
AcDbDictionary
280
     1
281
     1
  3
AcDbContextDataManager
360
6B8
  0
DICTIONARY
  5
6BC
330
6BB
100
AcDbDictionary
280
     1
281
     1
  3
AcDbContextDataManager
360
6BD
  0
DICTIONARY
  5
6C1
330
6C0
100
AcDbDictionary
280
     1
281
     1
  3
AcDbContextDataManager
360
6C2
  0
DICTIONARY
  5
6C6
330
6C5
100
AcDbDictionary
280
     1
281
     1
  3
AcDbContextDataManager
360
6C7
  0
DICTIONARY
  5
6CB
330
6CA
100
AcDbDictionary
280
     1
281
     1
  3
AcDbContextDataManager
360
6CC
  0
DICTIONARY
  5
6D0
330
6CF
100
AcDbDictionary
280
     1
281
     1
  3
AcDbContextDataManager
360
6D1
  0
DICTIONARY
  5
6D5
330
6D4
100
AcDbDictionary
280
     1
281
     1
  3
AcDbContextDataManager
360
6D6
  0
DICTIONARY
  5
6DA
330
6D9
100
AcDbDictionary
280
     1
281
     1
  3
AcDbContextDataManager
360
6DB
  0
DICTIONARY
  5
6DF
330
6DE
100
AcDbDictionary
280
     1
281
     1
  3
AcDbContextDataManager
360
6E0
  0
DICTIONARY
  5
6E4
330
6E3
100
AcDbDictionary
280
     1
281
     1
  3
AcDbContextDataManager
360
6E5
  0
DICTIONARY
  5
6E9
330
6E8
100
AcDbDictionary
280
     1
281
     1
  3
AcDbContextDataManager
360
6EA
  0
DICTIONARY
  5
6EE
330
6ED
100
AcDbDictionary
280
     1
281
     1
  3
AcDbContextDataManager
360
6EF
  0
DICTIONARY
  5
6F3
330
6F2
100
AcDbDictionary
280
     1
281
     1
  3
AcDbContextDataManager
360
6F4
  0
DICTIONARY
  5
6F8
330
6F7
100
AcDbDictionary
280
     1
281
     1
  3
AcDbContextDataManager
360
6F9
  0
DICTIONARY
  5
6FD
330
6FC
100
AcDbDictionary
280
     1
281
     1
  3
AcDbContextDataManager
360
6FE
  0
DICTIONARY
  5
702
330
701
100
AcDbDictionary
280
     1
281
     1
  3
AcDbContextDataManager
360
703
  0
DICTIONARY
  5
707
330
706
100
AcDbDictionary
280
     1
281
     1
  3
AcDbContextDataManager
360
708
  0
DICTIONARY
  5
70C
330
70B
100
AcDbDictionary
280
     1
281
     1
  3
AcDbContextDataManager
360
70D
  0
DICTIONARY
  5
711
330
710
100
AcDbDictionary
280
     1
281
     1
  3
AcDbContextDataManager
360
712
  0
DICTIONARY
  5
716
330
715
100
AcDbDictionary
280
     1
281
     1
  3
AcDbContextDataManager
360
717
  0
DICTIONARY
  5
71B
330
71A
100
AcDbDictionary
280
     1
281
     1
  3
AcDbContextDataManager
360
71C
  0
DICTIONARY
  5
720
330
71F
100
AcDbDictionary
280
     1
281
     1
  3
AcDbContextDataManager
360
721
  0
DICTIONARY
  5
725
330
724
100
AcDbDictionary
280
     1
281
     1
  3
AcDbContextDataManager
360
726
  0
DICTIONARY
  5
72A
330
729
100
AcDbDictionary
280
     1
281
     1
  3
AcDbContextDataManager
360
72B
  0
DICTIONARY
  5
72F
330
72E
100
AcDbDictionary
280
     1
281
     1
  3
AcDbContextDataManager
360
730
  0
DICTIONARY
  5
7AB
330
7AA
100
AcDbDictionary
280
     1
281
     1
  3
AcDbContextDataManager
360
7AC
  0
DICTIONARY
  5
7B0
330
7AF
100
AcDbDictionary
280
     1
281
     1
  3
AcDbContextDataManager
360
7B1
  0
DICTIONARY
  5
7B5
330
7B4
100
AcDbDictionary
280
     1
281
     1
  3
AcDbContextDataManager
360
7B6
  0
DICTIONARY
  5
7BA
330
7B9
100
AcDbDictionary
280
     1
281
     1
  3
AcDbContextDataManager
360
7BB
  0
DICTIONARY
  5
7BF
330
7BE
100
AcDbDictionary
280
     1
281
     1
  3
AcDbContextDataManager
360
7C0
  0
DICTIONARY
  5
7C4
330
7C3
100
AcDbDictionary
280
     1
281
     1
  3
AcDbContextDataManager
360
7C5
  0
DICTIONARY
  5
7C9
330
7C8
100
AcDbDictionary
280
     1
281
     1
  3
AcDbContextDataManager
360
7CA
  0
DICTIONARY
  5
7CE
330
7CD
100
AcDbDictionary
280
     1
281
     1
  3
AcDbContextDataManager
360
7CF
  0
DICTIONARY
  5
7D3
330
7D2
100
AcDbDictionary
280
     1
281
     1
  3
AcDbContextDataManager
360
7D4
  0
DICTIONARY
  5
7D8
330
7D7
100
AcDbDictionary
280
     1
281
     1
  3
AcDbContextDataManager
360
7D9
  0
DICTIONARY
  5
7DD
330
7DC
100
AcDbDictionary
280
     1
281
     1
  3
AcDbContextDataManager
360
7DE
  0
DICTIONARY
  5
7E2
330
7E1
100
AcDbDictionary
280
     1
281
     1
  3
AcDbContextDataManager
360
7E3
  0
DICTIONARY
  5
7E7
330
7E6
100
AcDbDictionary
280
     1
281
     1
  3
AcDbContextDataManager
360
7E8
  0
DICTIONARY
  5
7EC
330
7EB
100
AcDbDictionary
280
     1
281
     1
  3
AcDbContextDataManager
360
7ED
  0
DICTIONARY
  5
7F1
330
7F0
100
AcDbDictionary
280
     1
281
     1
  3
AcDbContextDataManager
360
7F2
  0
DICTIONARY
  5
7F6
330
7F5
100
AcDbDictionary
280
     1
281
     1
  3
AcDbContextDataManager
360
7F7
  0
DICTIONARY
  5
7FB
330
7FA
100
AcDbDictionary
280
     1
281
     1
  3
AcDbContextDataManager
360
7FC
  0
DICTIONARY
  5
800
330
7FF
100
AcDbDictionary
280
     1
281
     1
  3
AcDbContextDataManager
360
801
  0
DICTIONARY
  5
805
330
804
100
AcDbDictionary
280
     1
281
     1
  3
AcDbContextDataManager
360
806
  0
DICTIONARY
  5
80A
330
809
100
AcDbDictionary
280
     1
281
     1
  3
AcDbContextDataManager
360
80B
  0
DICTIONARY
  5
80F
330
80E
100
AcDbDictionary
280
     1
281
     1
  3
AcDbContextDataManager
360
810
  0
DICTIONARY
  5
814
330
813
100
AcDbDictionary
280
     1
281
     1
  3
AcDbContextDataManager
360
815
  0
DICTIONARY
  5
819
330
818
100
AcDbDictionary
280
     1
281
     1
  3
AcDbContextDataManager
360
81A
  0
DICTIONARY
  5
81E
330
81D
100
AcDbDictionary
280
     1
281
     1
  3
AcDbContextDataManager
360
81F
  0
DICTIONARY
  5
823
330
822
100
AcDbDictionary
280
     1
281
     1
  3
AcDbContextDataManager
360
824
  0
DICTIONARY
  5
828
330
827
100
AcDbDictionary
280
     1
281
     1
  3
AcDbContextDataManager
360
829
  0
XRECORD
  5
8B9
102
{ACAD_REACTORS
330
C
102
}
330
C
100
AcDbXrecord
280
     1
300
ACD
300
2012
300
ACD_F_S
  0
DICTIONARY
  5
63
102
{ACAD_REACTORS
330
C
102
}
330
C
100
AcDbDictionary
281
     1
  0
DICTIONARY
  5
D
102
{ACAD_REACTORS
330
C
102
}
330
C
100
AcDbDictionary
281
     1
  0
DICTIONARY
  5
62
102
{ACAD_REACTORS
330
C
102
}
330
C
100
AcDbDictionary
281
     1
  3
Model
350
6F
  3
レイアウト1
350
6B
  3
レイアウト2
350
73
  0
DICTIONARY
  5
10
102
{ACAD_REACTORS
330
C
102
}
330
C
100
AcDbDictionary
281
     1
  3
ByBlock
350
19
  3
ByLayer
350
11
  3
Global
350
21
  0
DICTIONARY
  5
66
102
{ACAD_REACTORS
330
C
102
}
330
C
100
AcDbDictionary
281
     1
  3
Standard
350
67
  0
DICTIONARY
  5
5F
102
{ACAD_REACTORS
330
C
102
}
330
C
100
AcDbDictionary
281
     1
  3
Standard
350
60
  0
DICTIONARY
  5
61
102
{ACAD_REACTORS
330
C
102
}
330
C
100
AcDbDictionary
281
     1
  0
ACDBDICTIONARYWDFLT
  5
E
102
{ACAD_REACTORS
330
C
102
}
330
C
100
AcDbDictionary
281
     1
  3
invisible
350
86
  3
Normal
350
F
  3
Style 1
350
87
100
AcDbDictionaryWithDefault
340
F
  0
DICTIONARY
  5
42
102
{ACAD_REACTORS
330
C
102
}
330
C
100
AcDbDictionary
281
     1
  3
*A1
350
88
  3
*A10
350
90
  3
*A11
350
91
  3
*A12
350
92
  3
*A13
350
93
  3
*A14
350
94
  3
*A15
350
95
  3
*A16
350
96
  3
*A17
350
97
  3
*A18
350
98
  3
*A2
350
99
  3
*A3
350
89
  3
*A4
350
8A
  3
*A5
350
8B
  3
*A6
350
8C
  3
*A7
350
8D
  3
*A8
350
8E
  3
*A9
350
8F
  3
A0
350
43
  3
A1
350
44
  3
A2
350
45
  3
A3
350
46
  3
A4
350
47
  3
A5
350
48
  3
A6
350
49
  3
A7
350
4A
  3
A8
350
4B
  3
A9
350
4C
  3
B0
350
4D
  3
B1
350
4E
  3
B2
350
4F
  3
B3
350
50
  3
B4
350
51
  3
B5
350
52
  3
B6
350
53
  0
DICTIONARY
  5
64
102
{ACAD_REACTORS
330
C
102
}
330
C
100
AcDbDictionary
281
     1
  3
Standard
350
65
  0
DICTIONARY
  5
29
102
{ACAD_REACTORS
330
C
102
}
330
C
100
AcDbDictionary
281
     1
  3
2dWireframe
350
2F
  3
Basic
350
2E
  3
Brighten
350
35
  3
ColorChange
350
39
  3
Conceptual
350
32
  3
Dim
350
34
  3
EdgeColorOff
350
41
  3
Facepattern
350
38
  3
Flat
350
2A
  3
FlatWithEdges
350
2B
  3
Gouraud
350
2C
  3
GouraudWithEdges
350
2D
  3
Hidden
350
31
  3
JitterOff
350
3F
  3
Linepattern
350
37
  3
OverhangOff
350
40
  3
Realistic
350
33
  3
Shaded
350
3E
  3
Shaded with edges
350
3D
  3
Shades of Gray
350
3A
  3
Sketchy
350
3B
  3
Thicken
350
36
  3
Wireframe
350
30
  3
X-Ray
350
3C
  0
XRECORD
  5
941
102
{ACAD_REACTORS
330
C
102
}
330
C
100
AcDbXrecord
280
     1
 90
        1
330
65
330
44A
330
44F
330
454
330
459
330
45E
330
463
330
468
330
46D
330
472
330
477
330
47C
330
481
330
486
330
48B
330
490
330
495
330
49A
330
49F
330
4A4
330
4A9
330
4AE
330
4B3
330
4B8
330
4BD
330
4C2
330
4C7
330
4CC
330
4D1
330
4D6
330
4DB
330
4E0
330
4E5
330
4EA
  0
DICTIONARY
  5
8AD
102
{ACAD_REACTORS
330
C
102
}
330
C
100
AcDbDictionary
281
     1
  3
ANNOALLVISIBLE
350
8B0
  3
CANNOSCALE
350
8B1
  3
CMLEADERSTYLE
350
8AF
  3
CTABLESTYLE
350
8AE
  3
DIMASSOC
350
933
  3
HIDETEXT
350
932
  3
INDEXCTL
350
931
  3
LAYEREVAL
350
8B2
  3
LAYERNOTIFY
350
8B3
  3
LIGHTINGUNITS
350
8BD
  3
MSLTSCALE
350
8BC
  3
SOLIDHIST
350
8BE
  3
SORTENTS
350
930
  3
XCLIPFRAME
350
934
  0
XRECORD
  5
942
102
{ACAD_REACTORS
330
C
102
}
330
C
100
AcDbXrecord
280
     1
  1
DWGPROPS COOKIE
  2

  3

  4

  6

  7

  8
0035sekine
  9

300
=
301
=
302
=
303
=
304
=
305
=
306
=
307
=
308
=
309
=
 40
0.0017138425925926
 41
2457044.373732778
 42
2457638.674966852
  1

 90
        0
  0
DICTIONARY
  5
8CA
102
{ACAD_REACTORS
330
8C9
102
}
330
8C9
100
AcDbDictionary
281
     1
  3
2008 Model_2016-9-6_Scale 1
350
93E
  0
XRECORD
  5
8BB
102
{ACAD_REACTORS
330
8BA
102
}
330
8BA
100
AcDbXrecord
280
     1
290
     1
  0
XRECORD
  5
9D
102
{ACAD_REACTORS
330
9C
102
}
330
9C
100
AcDbXrecord
280
     1
290
     1
  0
XRECORD
  5
A3
102
{ACAD_REACTORS
330
A2
102
}
330
A2
100
AcDbXrecord
280
     1
290
     1
  0
XRECORD
  5
A7
102
{ACAD_REACTORS
330
A6
102
}
330
A6
100
AcDbXrecord
280
     1
290
     1
  0
XRECORD
  5
D9
102
{ACAD_REACTORS
330
D8
102
}
330
D8
100
AcDbXrecord
280
     1
290
     1
  0
XRECORD
  5
1C7
102
{ACAD_REACTORS
330
1C6
102
}
330
1C6
100
AcDbXrecord
280
     1
290
     1
  0
XRECORD
  5
433
102
{ACAD_REACTORS
330
432
102
}
330
432
100
AcDbXrecord
280
     1
290
     1
  0
XRECORD
  5
93A
102
{ACAD_REACTORS
330
939
102
}
330
939
100
AcDbXrecord
280
     1
 70
     1
340
43
340
431
 70
    -1
  0
SORTENTSTABLE
  5
42E
102
{ACAD_REACTORS
330
12D
102
}
330
12D
100
AcDbSortentsTable
330
6C
  0
DICTIONARY
  5
97A
102
{ACAD_REACTORS
330
435
102
}
330
435
100
AcDbDictionary
280
     1
281
     1
  3
Edit
360
97B
  0
DICTIONARY
  5
44C
102
{ACAD_REACTORS
330
44B
102
}
330
44B
100
AcDbDictionary
281
     1
  3
ACDB_ANNOTATIONSCALES
350
44D
  0
DICTIONARY
  5
451
102
{ACAD_REACTORS
330
450
102
}
330
450
100
AcDbDictionary
281
     1
  3
ACDB_ANNOTATIONSCALES
350
452
  0
DICTIONARY
  5
456
102
{ACAD_REACTORS
330
455
102
}
330
455
100
AcDbDictionary
281
     1
  3
ACDB_ANNOTATIONSCALES
350
457
  0
DICTIONARY
  5
45B
102
{ACAD_REACTORS
330
45A
102
}
330
45A
100
AcDbDictionary
281
     1
  3
ACDB_ANNOTATIONSCALES
350
45C
  0
DICTIONARY
  5
460
102
{ACAD_REACTORS
330
45F
102
}
330
45F
100
AcDbDictionary
281
     1
  3
ACDB_ANNOTATIONSCALES
350
461
  0
DICTIONARY
  5
465
102
{ACAD_REACTORS
330
464
102
}
330
464
100
AcDbDictionary
281
     1
  3
ACDB_ANNOTATIONSCALES
350
466
  0
DICTIONARY
  5
46A
102
{ACAD_REACTORS
330
469
102
}
330
469
100
AcDbDictionary
281
     1
  3
ACDB_ANNOTATIONSCALES
350
46B
  0
DICTIONARY
  5
46F
102
{ACAD_REACTORS
330
46E
102
}
330
46E
100
AcDbDictionary
281
     1
  3
ACDB_ANNOTATIONSCALES
350
470
  0
DICTIONARY
  5
474
102
{ACAD_REACTORS
330
473
102
}
330
473
100
AcDbDictionary
281
     1
  3
ACDB_ANNOTATIONSCALES
350
475
  0
DICTIONARY
  5
479
102
{ACAD_REACTORS
330
478
102
}
330
478
100
AcDbDictionary
281
     1
  3
ACDB_ANNOTATIONSCALES
350
47A
  0
DICTIONARY
  5
47E
102
{ACAD_REACTORS
330
47D
102
}
330
47D
100
AcDbDictionary
281
     1
  3
ACDB_ANNOTATIONSCALES
350
47F
  0
DICTIONARY
  5
483
102
{ACAD_REACTORS
330
482
102
}
330
482
100
AcDbDictionary
281
     1
  3
ACDB_ANNOTATIONSCALES
350
484
  0
DICTIONARY
  5
488
102
{ACAD_REACTORS
330
487
102
}
330
487
100
AcDbDictionary
281
     1
  3
ACDB_ANNOTATIONSCALES
350
489
  0
DICTIONARY
  5
48D
102
{ACAD_REACTORS
330
48C
102
}
330
48C
100
AcDbDictionary
281
     1
  3
ACDB_ANNOTATIONSCALES
350
48E
  0
DICTIONARY
  5
492
102
{ACAD_REACTORS
330
491
102
}
330
491
100
AcDbDictionary
281
     1
  3
ACDB_ANNOTATIONSCALES
350
493
  0
DICTIONARY
  5
497
102
{ACAD_REACTORS
330
496
102
}
330
496
100
AcDbDictionary
281
     1
  3
ACDB_ANNOTATIONSCALES
350
498
  0
DICTIONARY
  5
49C
102
{ACAD_REACTORS
330
49B
102
}
330
49B
100
AcDbDictionary
281
     1
  3
ACDB_ANNOTATIONSCALES
350
49D
  0
DICTIONARY
  5
4A1
102
{ACAD_REACTORS
330
4A0
102
}
330
4A0
100
AcDbDictionary
281
     1
  3
ACDB_ANNOTATIONSCALES
350
4A2
  0
DICTIONARY
  5
4A6
102
{ACAD_REACTORS
330
4A5
102
}
330
4A5
100
AcDbDictionary
281
     1
  3
ACDB_ANNOTATIONSCALES
350
4A7
  0
DICTIONARY
  5
4AB
102
{ACAD_REACTORS
330
4AA
102
}
330
4AA
100
AcDbDictionary
281
     1
  3
ACDB_ANNOTATIONSCALES
350
4AC
  0
DICTIONARY
  5
4B0
102
{ACAD_REACTORS
330
4AF
102
}
330
4AF
100
AcDbDictionary
281
     1
  3
ACDB_ANNOTATIONSCALES
350
4B1
  0
DICTIONARY
  5
4B5
102
{ACAD_REACTORS
330
4B4
102
}
330
4B4
100
AcDbDictionary
281
     1
  3
ACDB_ANNOTATIONSCALES
350
4B6
  0
DICTIONARY
  5
4BA
102
{ACAD_REACTORS
330
4B9
102
}
330
4B9
100
AcDbDictionary
281
     1
  3
ACDB_ANNOTATIONSCALES
350
4BB
  0
DICTIONARY
  5
4BF
102
{ACAD_REACTORS
330
4BE
102
}
330
4BE
100
AcDbDictionary
281
     1
  3
ACDB_ANNOTATIONSCALES
350
4C0
  0
DICTIONARY
  5
4C4
102
{ACAD_REACTORS
330
4C3
102
}
330
4C3
100
AcDbDictionary
281
     1
  3
ACDB_ANNOTATIONSCALES
350
4C5
  0
DICTIONARY
  5
4C9
102
{ACAD_REACTORS
330
4C8
102
}
330
4C8
100
AcDbDictionary
281
     1
  3
ACDB_ANNOTATIONSCALES
350
4CA
  0
DICTIONARY
  5
4CE
102
{ACAD_REACTORS
330
4CD
102
}
330
4CD
100
AcDbDictionary
281
     1
  3
ACDB_ANNOTATIONSCALES
350
4CF
  0
DICTIONARY
  5
4D3
102
{ACAD_REACTORS
330
4D2
102
}
330
4D2
100
AcDbDictionary
281
     1
  3
ACDB_ANNOTATIONSCALES
350
4D4
  0
DICTIONARY
  5
4D8
102
{ACAD_REACTORS
330
4D7
102
}
330
4D7
100
AcDbDictionary
281
     1
  3
ACDB_ANNOTATIONSCALES
350
4D9
  0
DICTIONARY
  5
4DD
102
{ACAD_REACTORS
330
4DC
102
}
330
4DC
100
AcDbDictionary
281
     1
  3
ACDB_ANNOTATIONSCALES
350
4DE
  0
DICTIONARY
  5
4E2
102
{ACAD_REACTORS
330
4E1
102
}
330
4E1
100
AcDbDictionary
281
     1
  3
ACDB_ANNOTATIONSCALES
350
4E3
  0
DICTIONARY
  5
4E7
102
{ACAD_REACTORS
330
4E6
102
}
330
4E6
100
AcDbDictionary
281
     1
  3
ACDB_ANNOTATIONSCALES
350
4E8
  0
DICTIONARY
  5
4EC
102
{ACAD_REACTORS
330
4EB
102
}
330
4EB
100
AcDbDictionary
281
     1
  3
ACDB_ANNOTATIONSCALES
350
4ED
  0
DICTIONARY
  5
568
102
{ACAD_REACTORS
330
567
102
}
330
567
100
AcDbDictionary
281
     1
  3
ACDB_ANNOTATIONSCALES
350
569
  0
DICTIONARY
  5
56D
102
{ACAD_REACTORS
330
56C
102
}
330
56C
100
AcDbDictionary
281
     1
  3
ACDB_ANNOTATIONSCALES
350
56E
  0
DICTIONARY
  5
572
102
{ACAD_REACTORS
330
571
102
}
330
571
100
AcDbDictionary
281
     1
  3
ACDB_ANNOTATIONSCALES
350
573
  0
DICTIONARY
  5
577
102
{ACAD_REACTORS
330
576
102
}
330
576
100
AcDbDictionary
281
     1
  3
ACDB_ANNOTATIONSCALES
350
578
  0
DICTIONARY
  5
57C
102
{ACAD_REACTORS
330
57B
102
}
330
57B
100
AcDbDictionary
281
     1
  3
ACDB_ANNOTATIONSCALES
350
57D
  0
DICTIONARY
  5
581
102
{ACAD_REACTORS
330
580
102
}
330
580
100
AcDbDictionary
281
     1
  3
ACDB_ANNOTATIONSCALES
350
582
  0
DICTIONARY
  5
586
102
{ACAD_REACTORS
330
585
102
}
330
585
100
AcDbDictionary
281
     1
  3
ACDB_ANNOTATIONSCALES
350
587
  0
DICTIONARY
  5
58B
102
{ACAD_REACTORS
330
58A
102
}
330
58A
100
AcDbDictionary
281
     1
  3
ACDB_ANNOTATIONSCALES
350
58C
  0
DICTIONARY
  5
590
102
{ACAD_REACTORS
330
58F
102
}
330
58F
100
AcDbDictionary
281
     1
  3
ACDB_ANNOTATIONSCALES
350
591
  0
DICTIONARY
  5
595
102
{ACAD_REACTORS
330
594
102
}
330
594
100
AcDbDictionary
281
     1
  3
ACDB_ANNOTATIONSCALES
350
596
  0
DICTIONARY
  5
59A
102
{ACAD_REACTORS
330
599
102
}
330
599
100
AcDbDictionary
281
     1
  3
ACDB_ANNOTATIONSCALES
350
59B
  0
DICTIONARY
  5
59F
102
{ACAD_REACTORS
330
59E
102
}
330
59E
100
AcDbDictionary
281
     1
  3
ACDB_ANNOTATIONSCALES
350
5A0
  0
DICTIONARY
  5
5A4
102
{ACAD_REACTORS
330
5A3
102
}
330
5A3
100
AcDbDictionary
281
     1
  3
ACDB_ANNOTATIONSCALES
350
5A5
  0
DICTIONARY
  5
5A9
102
{ACAD_REACTORS
330
5A8
102
}
330
5A8
100
AcDbDictionary
281
     1
  3
ACDB_ANNOTATIONSCALES
350
5AA
  0
DICTIONARY
  5
5AE
102
{ACAD_REACTORS
330
5AD
102
}
330
5AD
100
AcDbDictionary
281
     1
  3
ACDB_ANNOTATIONSCALES
350
5AF
  0
DICTIONARY
  5
5B3
102
{ACAD_REACTORS
330
5B2
102
}
330
5B2
100
AcDbDictionary
281
     1
  3
ACDB_ANNOTATIONSCALES
350
5B4
  0
DICTIONARY
  5
5B8
102
{ACAD_REACTORS
330
5B7
102
}
330
5B7
100
AcDbDictionary
281
     1
  3
ACDB_ANNOTATIONSCALES
350
5B9
  0
DICTIONARY
  5
5BD
102
{ACAD_REACTORS
330
5BC
102
}
330
5BC
100
AcDbDictionary
281
     1
  3
ACDB_ANNOTATIONSCALES
350
5BE
  0
DICTIONARY
  5
5C2
102
{ACAD_REACTORS
330
5C1
102
}
330
5C1
100
AcDbDictionary
281
     1
  3
ACDB_ANNOTATIONSCALES
350
5C3
  0
DICTIONARY
  5
5C7
102
{ACAD_REACTORS
330
5C6
102
}
330
5C6
100
AcDbDictionary
281
     1
  3
ACDB_ANNOTATIONSCALES
350
5C8
  0
DICTIONARY
  5
5CC
102
{ACAD_REACTORS
330
5CB
102
}
330
5CB
100
AcDbDictionary
281
     1
  3
ACDB_ANNOTATIONSCALES
350
5CD
  0
DICTIONARY
  5
5D1
102
{ACAD_REACTORS
330
5D0
102
}
330
5D0
100
AcDbDictionary
281
     1
  3
ACDB_ANNOTATIONSCALES
350
5D2
  0
DICTIONARY
  5
5D6
102
{ACAD_REACTORS
330
5D5
102
}
330
5D5
100
AcDbDictionary
281
     1
  3
ACDB_ANNOTATIONSCALES
350
5D7
  0
DICTIONARY
  5
5DB
102
{ACAD_REACTORS
330
5DA
102
}
330
5DA
100
AcDbDictionary
281
     1
  3
ACDB_ANNOTATIONSCALES
350
5DC
  0
DICTIONARY
  5
5E0
102
{ACAD_REACTORS
330
5DF
102
}
330
5DF
100
AcDbDictionary
281
     1
  3
ACDB_ANNOTATIONSCALES
350
5E1
  0
DICTIONARY
  5
5E5
102
{ACAD_REACTORS
330
5E4
102
}
330
5E4
100
AcDbDictionary
281
     1
  3
ACDB_ANNOTATIONSCALES
350
5E6
  0
DICTIONARY
  5
690
102
{ACAD_REACTORS
330
68F
102
}
330
68F
100
AcDbDictionary
281
     1
  3
ACDB_ANNOTATIONSCALES
350
691
  0
DICTIONARY
  5
695
102
{ACAD_REACTORS
330
694
102
}
330
694
100
AcDbDictionary
281
     1
  3
ACDB_ANNOTATIONSCALES
350
696
  0
DICTIONARY
  5
69A
102
{ACAD_REACTORS
330
699
102
}
330
699
100
AcDbDictionary
281
     1
  3
ACDB_ANNOTATIONSCALES
350
69B
  0
DICTIONARY
  5
69F
102
{ACAD_REACTORS
330
69E
102
}
330
69E
100
AcDbDictionary
281
     1
  3
ACDB_ANNOTATIONSCALES
350
6A0
  0
DICTIONARY
  5
6A4
102
{ACAD_REACTORS
330
6A3
102
}
330
6A3
100
AcDbDictionary
281
     1
  3
ACDB_ANNOTATIONSCALES
350
6A5
  0
DICTIONARY
  5
6A9
102
{ACAD_REACTORS
330
6A8
102
}
330
6A8
100
AcDbDictionary
281
     1
  3
ACDB_ANNOTATIONSCALES
350
6AA
  0
DICTIONARY
  5
6AE
102
{ACAD_REACTORS
330
6AD
102
}
330
6AD
100
AcDbDictionary
281
     1
  3
ACDB_ANNOTATIONSCALES
350
6AF
  0
DICTIONARY
  5
6B3
102
{ACAD_REACTORS
330
6B2
102
}
330
6B2
100
AcDbDictionary
281
     1
  3
ACDB_ANNOTATIONSCALES
350
6B4
  0
DICTIONARY
  5
6B8
102
{ACAD_REACTORS
330
6B7
102
}
330
6B7
100
AcDbDictionary
281
     1
  3
ACDB_ANNOTATIONSCALES
350
6B9
  0
DICTIONARY
  5
6BD
102
{ACAD_REACTORS
330
6BC
102
}
330
6BC
100
AcDbDictionary
281
     1
  3
ACDB_ANNOTATIONSCALES
350
6BE
  0
DICTIONARY
  5
6C2
102
{ACAD_REACTORS
330
6C1
102
}
330
6C1
100
AcDbDictionary
281
     1
  3
ACDB_ANNOTATIONSCALES
350
6C3
  0
DICTIONARY
  5
6C7
102
{ACAD_REACTORS
330
6C6
102
}
330
6C6
100
AcDbDictionary
281
     1
  3
ACDB_ANNOTATIONSCALES
350
6C8
  0
DICTIONARY
  5
6CC
102
{ACAD_REACTORS
330
6CB
102
}
330
6CB
100
AcDbDictionary
281
     1
  3
ACDB_ANNOTATIONSCALES
350
6CD
  0
DICTIONARY
  5
6D1
102
{ACAD_REACTORS
330
6D0
102
}
330
6D0
100
AcDbDictionary
281
     1
  3
ACDB_ANNOTATIONSCALES
350
6D2
  0
DICTIONARY
  5
6D6
102
{ACAD_REACTORS
330
6D5
102
}
330
6D5
100
AcDbDictionary
281
     1
  3
ACDB_ANNOTATIONSCALES
350
6D7
  0
DICTIONARY
  5
6DB
102
{ACAD_REACTORS
330
6DA
102
}
330
6DA
100
AcDbDictionary
281
     1
  3
ACDB_ANNOTATIONSCALES
350
6DC
  0
DICTIONARY
  5
6E0
102
{ACAD_REACTORS
330
6DF
102
}
330
6DF
100
AcDbDictionary
281
     1
  3
ACDB_ANNOTATIONSCALES
350
6E1
  0
DICTIONARY
  5
6E5
102
{ACAD_REACTORS
330
6E4
102
}
330
6E4
100
AcDbDictionary
281
     1
  3
ACDB_ANNOTATIONSCALES
350
6E6
  0
DICTIONARY
  5
6EA
102
{ACAD_REACTORS
330
6E9
102
}
330
6E9
100
AcDbDictionary
281
     1
  3
ACDB_ANNOTATIONSCALES
350
6EB
  0
DICTIONARY
  5
6EF
102
{ACAD_REACTORS
330
6EE
102
}
330
6EE
100
AcDbDictionary
281
     1
  3
ACDB_ANNOTATIONSCALES
350
6F0
  0
DICTIONARY
  5
6F4
102
{ACAD_REACTORS
330
6F3
102
}
330
6F3
100
AcDbDictionary
281
     1
  3
ACDB_ANNOTATIONSCALES
350
6F5
  0
DICTIONARY
  5
6F9
102
{ACAD_REACTORS
330
6F8
102
}
330
6F8
100
AcDbDictionary
281
     1
  3
ACDB_ANNOTATIONSCALES
350
6FA
  0
DICTIONARY
  5
6FE
102
{ACAD_REACTORS
330
6FD
102
}
330
6FD
100
AcDbDictionary
281
     1
  3
ACDB_ANNOTATIONSCALES
350
6FF
  0
DICTIONARY
  5
703
102
{ACAD_REACTORS
330
702
102
}
330
702
100
AcDbDictionary
281
     1
  3
ACDB_ANNOTATIONSCALES
350
704
  0
DICTIONARY
  5
708
102
{ACAD_REACTORS
330
707
102
}
330
707
100
AcDbDictionary
281
     1
  3
ACDB_ANNOTATIONSCALES
350
709
  0
DICTIONARY
  5
70D
102
{ACAD_REACTORS
330
70C
102
}
330
70C
100
AcDbDictionary
281
     1
  3
ACDB_ANNOTATIONSCALES
350
70E
  0
DICTIONARY
  5
712
102
{ACAD_REACTORS
330
711
102
}
330
711
100
AcDbDictionary
281
     1
  3
ACDB_ANNOTATIONSCALES
350
713
  0
DICTIONARY
  5
717
102
{ACAD_REACTORS
330
716
102
}
330
716
100
AcDbDictionary
281
     1
  3
ACDB_ANNOTATIONSCALES
350
718
  0
DICTIONARY
  5
71C
102
{ACAD_REACTORS
330
71B
102
}
330
71B
100
AcDbDictionary
281
     1
  3
ACDB_ANNOTATIONSCALES
350
71D
  0
DICTIONARY
  5
721
102
{ACAD_REACTORS
330
720
102
}
330
720
100
AcDbDictionary
281
     1
  3
ACDB_ANNOTATIONSCALES
350
722
  0
DICTIONARY
  5
726
102
{ACAD_REACTORS
330
725
102
}
330
725
100
AcDbDictionary
281
     1
  3
ACDB_ANNOTATIONSCALES
350
727
  0
DICTIONARY
  5
72B
102
{ACAD_REACTORS
330
72A
102
}
330
72A
100
AcDbDictionary
281
     1
  3
ACDB_ANNOTATIONSCALES
350
72C
  0
DICTIONARY
  5
730
102
{ACAD_REACTORS
330
72F
102
}
330
72F
100
AcDbDictionary
281
     1
  3
ACDB_ANNOTATIONSCALES
350
731
  0
DICTIONARY
  5
7AC
102
{ACAD_REACTORS
330
7AB
102
}
330
7AB
100
AcDbDictionary
281
     1
  3
ACDB_ANNOTATIONSCALES
350
7AD
  0
DICTIONARY
  5
7B1
102
{ACAD_REACTORS
330
7B0
102
}
330
7B0
100
AcDbDictionary
281
     1
  3
ACDB_ANNOTATIONSCALES
350
7B2
  0
DICTIONARY
  5
7B6
102
{ACAD_REACTORS
330
7B5
102
}
330
7B5
100
AcDbDictionary
281
     1
  3
ACDB_ANNOTATIONSCALES
350
7B7
  0
DICTIONARY
  5
7BB
102
{ACAD_REACTORS
330
7BA
102
}
330
7BA
100
AcDbDictionary
281
     1
  3
ACDB_ANNOTATIONSCALES
350
7BC
  0
DICTIONARY
  5
7C0
102
{ACAD_REACTORS
330
7BF
102
}
330
7BF
100
AcDbDictionary
281
     1
  3
ACDB_ANNOTATIONSCALES
350
7C1
  0
DICTIONARY
  5
7C5
102
{ACAD_REACTORS
330
7C4
102
}
330
7C4
100
AcDbDictionary
281
     1
  3
ACDB_ANNOTATIONSCALES
350
7C6
  0
DICTIONARY
  5
7CA
102
{ACAD_REACTORS
330
7C9
102
}
330
7C9
100
AcDbDictionary
281
     1
  3
ACDB_ANNOTATIONSCALES
350
7CB
  0
DICTIONARY
  5
7CF
102
{ACAD_REACTORS
330
7CE
102
}
330
7CE
100
AcDbDictionary
281
     1
  3
ACDB_ANNOTATIONSCALES
350
7D0
  0
DICTIONARY
  5
7D4
102
{ACAD_REACTORS
330
7D3
102
}
330
7D3
100
AcDbDictionary
281
     1
  3
ACDB_ANNOTATIONSCALES
350
7D5
  0
DICTIONARY
  5
7D9
102
{ACAD_REACTORS
330
7D8
102
}
330
7D8
100
AcDbDictionary
281
     1
  3
ACDB_ANNOTATIONSCALES
350
7DA
  0
DICTIONARY
  5
7DE
102
{ACAD_REACTORS
330
7DD
102
}
330
7DD
100
AcDbDictionary
281
     1
  3
ACDB_ANNOTATIONSCALES
350
7DF
  0
DICTIONARY
  5
7E3
102
{ACAD_REACTORS
330
7E2
102
}
330
7E2
100
AcDbDictionary
281
     1
  3
ACDB_ANNOTATIONSCALES
350
7E4
  0
DICTIONARY
  5
7E8
102
{ACAD_REACTORS
330
7E7
102
}
330
7E7
100
AcDbDictionary
281
     1
  3
ACDB_ANNOTATIONSCALES
350
7E9
  0
DICTIONARY
  5
7ED
102
{ACAD_REACTORS
330
7EC
102
}
330
7EC
100
AcDbDictionary
281
     1
  3
ACDB_ANNOTATIONSCALES
350
7EE
  0
DICTIONARY
  5
7F2
102
{ACAD_REACTORS
330
7F1
102
}
330
7F1
100
AcDbDictionary
281
     1
  3
ACDB_ANNOTATIONSCALES
350
7F3
  0
DICTIONARY
  5
7F7
102
{ACAD_REACTORS
330
7F6
102
}
330
7F6
100
AcDbDictionary
281
     1
  3
ACDB_ANNOTATIONSCALES
350
7F8
  0
DICTIONARY
  5
7FC
102
{ACAD_REACTORS
330
7FB
102
}
330
7FB
100
AcDbDictionary
281
     1
  3
ACDB_ANNOTATIONSCALES
350
7FD
  0
DICTIONARY
  5
801
102
{ACAD_REACTORS
330
800
102
}
330
800
100
AcDbDictionary
281
     1
  3
ACDB_ANNOTATIONSCALES
350
802
  0
DICTIONARY
  5
806
102
{ACAD_REACTORS
330
805
102
}
330
805
100
AcDbDictionary
281
     1
  3
ACDB_ANNOTATIONSCALES
350
807
  0
DICTIONARY
  5
80B
102
{ACAD_REACTORS
330
80A
102
}
330
80A
100
AcDbDictionary
281
     1
  3
ACDB_ANNOTATIONSCALES
350
80C
  0
DICTIONARY
  5
810
102
{ACAD_REACTORS
330
80F
102
}
330
80F
100
AcDbDictionary
281
     1
  3
ACDB_ANNOTATIONSCALES
350
811
  0
DICTIONARY
  5
815
102
{ACAD_REACTORS
330
814
102
}
330
814
100
AcDbDictionary
281
     1
  3
ACDB_ANNOTATIONSCALES
350
816
  0
DICTIONARY
  5
81A
102
{ACAD_REACTORS
330
819
102
}
330
819
100
AcDbDictionary
281
     1
  3
ACDB_ANNOTATIONSCALES
350
81B
  0
DICTIONARY
  5
81F
102
{ACAD_REACTORS
330
81E
102
}
330
81E
100
AcDbDictionary
281
     1
  3
ACDB_ANNOTATIONSCALES
350
820
  0
DICTIONARY
  5
824
102
{ACAD_REACTORS
330
823
102
}
330
823
100
AcDbDictionary
281
     1
  3
ACDB_ANNOTATIONSCALES
350
825
  0
DICTIONARY
  5
829
102
{ACAD_REACTORS
330
828
102
}
330
828
100
AcDbDictionary
281
     1
  3
ACDB_ANNOTATIONSCALES
350
82A
  0
LAYOUT
  5
6F
102
{ACAD_XDICTIONARY
360
976
102
}
102
{ACAD_REACTORS
330
62
102
}
330
62
100
AcDbPlotSettings
  1

  2
none_device
  4
ISO_A4_(210.00_x_297.00_MM)
  6

 40
7.5
 41
20.0
 42
7.5
 43
20.0
 44
210.0
 45
297.0
 46
-4.894741058349608
 47
-4.884418487548828
 48
0.0
 49
0.0
140
0.0
141
0.0
142
1.0
143
2.693537554300841
 70
 11954
 72
     1
 73
     1
 74
     0
  7
monochrome.stb
 75
     0
147
0.371258978143176
148
99.77831601677008
149
-130.3133604344995
100
AcDbLayout
  1
Model
 70
     1
 71
     0
 10
0.0
 20
0.0
 11
12.0
 21
9.0
 12
0.0
 22
0.0
 32
0.0
 14
0.0
 24
0.0
 34
0.0
 15
0.0
 25
0.0
 35
0.0
146
0.0
 13
0.0
 23
0.0
 33
0.0
 16
1.0
 26
0.0
 36
0.0
 17
0.0
 27
1.0
 37
0.0
 76
     0
330
6C
331
57
1001
ACAD_PSEXT
1000
なし
1000
なし
1000
適切ではありません
1000
新しいプロッタ環境設定名を選択しない限り、レイアウトは印刷されません。
1070
     0
  0
LAYOUT
  5
6B
102
{ACAD_XDICTIONARY
360
974
102
}
102
{ACAD_REACTORS
330
62
102
}
330
62
100
AcDbPlotSettings
  1

  2
\\asrv0030\DocuCentre 230 - 本社９階　開発部
  4

  6

 40
0.0
 41
0.0
 42
0.0
 43
0.0
 44
0.0
 45
0.0
 46
0.0
 47
0.0
 48
0.0
 49
0.0
140
0.0
141
0.0
142
1.0
143
1.0
 70
   688
 72
     0
 73
     0
 74
     5
  7

 75
    16
147
1.0
148
0.0
149
0.0
100
AcDbLayout
  1
レイアウト1
 70
     1
 71
     1
 10
0.0
 20
0.0
 11
12.0
 21
9.0
 12
0.0
 22
0.0
 32
0.0
 14
1.000000000000000E+20
 24
1.000000000000000E+20
 34
1.000000000000000E+20
 15
-1.000000000000000E+20
 25
-1.000000000000000E+20
 35
-1.000000000000000E+20
146
0.0
 13
0.0
 23
0.0
 33
0.0
 16
1.0
 26
0.0
 36
0.0
 17
0.0
 27
1.0
 37
0.0
 76
     0
330
68
  0
LAYOUT
  5
73
102
{ACAD_XDICTIONARY
360
978
102
}
102
{ACAD_REACTORS
330
62
102
}
330
62
100
AcDbPlotSettings
  1

  2
\\asrv0030\DocuCentre 230 - 本社９階　開発部
  4

  6

 40
0.0
 41
0.0
 42
0.0
 43
0.0
 44
0.0
 45
0.0
 46
0.0
 47
0.0
 48
0.0
 49
0.0
140
0.0
141
0.0
142
1.0
143
1.0
 70
   688
 72
     0
 73
     0
 74
     5
  7

 75
    16
147
1.0
148
0.0
149
0.0
100
AcDbLayout
  1
レイアウト2
 70
     1
 71
     2
 10
0.0
 20
0.0
 11
12.0
 21
9.0
 12
0.0
 22
0.0
 32
0.0
 14
0.0
 24
0.0
 34
0.0
 15
0.0
 25
0.0
 35
0.0
146
0.0
 13
0.0
 23
0.0
 33
0.0
 16
1.0
 26
0.0
 36
0.0
 17
0.0
 27
1.0
 37
0.0
 76
     0
330
70
  0
MATERIAL
  5
19
102
{ACAD_XDICTIONARY
360
1A
102
}
102
{ACAD_REACTORS
330
10
102
}
330
10
100
AcDbMaterial
  1
ByBlock
 72
     0
 43
0.0208333333333333
 43
0.0
 43
0.0
 43
0.0
 43
0.0
 43
0.0208333333333333
 43
0.0
 43
0.0
 43
0.0
 43
0.0
 43
1.0
 43
0.0
 43
0.0
 43
0.0
 43
0.0
 43
1.0
 77
     0
 47
0.0208333333333333
 47
0.0
 47
0.0
 47
0.0
 47
0.0
 47
0.0208333333333333
 47
0.0
 47
0.0
 47
0.0
 47
0.0
 47
1.0
 47
0.0
 47
0.0
 47
0.0
 47
0.0
 47
1.0
171
     0
 49
0.0208333333333333
 49
0.0
 49
0.0
 49
0.0
 49
0.0
 49
0.0208333333333333
 49
0.0
 49
0.0
 49
0.0
 49
0.0
 49
1.0
 49
0.0
 49
0.0
 49
0.0
 49
0.0
 49
1.0
175
     0
142
0.0208333333333333
142
0.0
142
0.0
142
0.0
142
0.0
142
0.0208333333333333
142
0.0
142
0.0
142
0.0
142
0.0
142
1.0
142
0.0
142
0.0
142
0.0
142
0.0
142
1.0
179
     0
144
0.0208333333333333
144
0.0
144
0.0
144
0.0
144
0.0
144
0.0208333333333333
144
0.0
144
0.0
144
0.0
144
0.0
144
1.0
144
0.0
144
0.0
144
0.0
144
0.0
144
1.0
147
0.0208333333333333
147
0.0
147
0.0
147
0.0
147
0.0
147
0.0208333333333333
147
0.0
147
0.0
147
0.0
147
0.0
147
1.0
147
0.0
147
0.0
147
0.0
147
0.0
147
1.0
  0
MATERIAL
  5
11
102
{ACAD_XDICTIONARY
360
12
102
}
102
{ACAD_REACTORS
330
10
102
}
330
10
100
AcDbMaterial
  1
ByLayer
 72
     0
 43
0.0208333333333333
 43
0.0
 43
0.0
 43
0.0
 43
0.0
 43
0.0208333333333333
 43
0.0
 43
0.0
 43
0.0
 43
0.0
 43
1.0
 43
0.0
 43
0.0
 43
0.0
 43
0.0
 43
1.0
 77
     0
 47
0.0208333333333333
 47
0.0
 47
0.0
 47
0.0
 47
0.0
 47
0.0208333333333333
 47
0.0
 47
0.0
 47
0.0
 47
0.0
 47
1.0
 47
0.0
 47
0.0
 47
0.0
 47
0.0
 47
1.0
171
     0
 49
0.0208333333333333
 49
0.0
 49
0.0
 49
0.0
 49
0.0
 49
0.0208333333333333
 49
0.0
 49
0.0
 49
0.0
 49
0.0
 49
1.0
 49
0.0
 49
0.0
 49
0.0
 49
0.0
 49
1.0
175
     0
142
0.0208333333333333
142
0.0
142
0.0
142
0.0
142
0.0
142
0.0208333333333333
142
0.0
142
0.0
142
0.0
142
0.0
142
1.0
142
0.0
142
0.0
142
0.0
142
0.0
142
1.0
179
     0
144
0.0208333333333333
144
0.0
144
0.0
144
0.0
144
0.0
144
0.0208333333333333
144
0.0
144
0.0
144
0.0
144
0.0
144
1.0
144
0.0
144
0.0
144
0.0
144
0.0
144
1.0
147
0.0208333333333333
147
0.0
147
0.0
147
0.0
147
0.0
147
0.0208333333333333
147
0.0
147
0.0
147
0.0
147
0.0
147
1.0
147
0.0
147
0.0
147
0.0
147
0.0
147
1.0
  0
MATERIAL
  5
21
102
{ACAD_XDICTIONARY
360
22
102
}
102
{ACAD_REACTORS
330
10
102
}
330
10
100
AcDbMaterial
  1
Global
 72
     0
 43
0.0208333333333333
 43
0.0
 43
0.0
 43
0.0
 43
0.0
 43
0.0208333333333333
 43
0.0
 43
0.0
 43
0.0
 43
0.0
 43
1.0
 43
0.0
 43
0.0
 43
0.0
 43
0.0
 43
1.0
 77
     0
 47
0.0208333333333333
 47
0.0
 47
0.0
 47
0.0
 47
0.0
 47
0.0208333333333333
 47
0.0
 47
0.0
 47
0.0
 47
0.0
 47
1.0
 47
0.0
 47
0.0
 47
0.0
 47
0.0
 47
1.0
171
     0
 49
0.0208333333333333
 49
0.0
 49
0.0
 49
0.0
 49
0.0
 49
0.0208333333333333
 49
0.0
 49
0.0
 49
0.0
 49
0.0
 49
1.0
 49
0.0
 49
0.0
 49
0.0
 49
0.0
 49
1.0
175
     0
142
0.0208333333333333
142
0.0
142
0.0
142
0.0
142
0.0
142
0.0208333333333333
142
0.0
142
0.0
142
0.0
142
0.0
142
1.0
142
0.0
142
0.0
142
0.0
142
0.0
142
1.0
179
     0
144
0.0208333333333333
144
0.0
144
0.0
144
0.0
144
0.0
144
0.0208333333333333
144
0.0
144
0.0
144
0.0
144
0.0
144
1.0
144
0.0
144
0.0
144
0.0
144
0.0
144
1.0
147
0.0208333333333333
147
0.0
147
0.0
147
0.0
147
0.0
147
0.0208333333333333
147
0.0
147
0.0
147
0.0
147
0.0
147
1.0
147
0.0
147
0.0
147
0.0
147
0.0
147
1.0
  0
MLEADERSTYLE
  5
67
102
{ACAD_XDICTIONARY
360
936
102
}
102
{ACAD_REACTORS
330
66
102
}
330
66
100
AcDbMLeaderStyle
170
     2
171
     1
172
     0
 90
        2
 40
0.0
 41
0.0
173
     1
 91
-1056964608
340
5B
 92
       -2
290
     1
 42
0.09
291
     1
 43
0.36
  3
Standard
 44
0.18
300

342
55
174
     1
178
     6
175
     1
176
     0
 93
-1056964608
 45
0.18
292
     0
297
     0
 46
0.18
 94
-1056964608
 47
1.0
 49
1.0
140
1.0
293
     1
141
0.0
294
     1
177
     0
142
1.0
295
     0
296
     0
143
0.125
1001
ACAD_MLEADERVER
1070
     2
  0
MLINESTYLE
  5
60
102
{ACAD_REACTORS
330
5F
102
}
330
5F
100
AcDbMlineStyle
  2
STANDARD
 70
     0
  3

 62
   256
 51
90.0
 52
90.0
 71
     2
 49
0.5
 62
   256
  6
BYLAYER
 49
-0.5
 62
   256
  6
BYLAYER
  0
ACDBPLACEHOLDER
  5
86
102
{ACAD_REACTORS
330
E
102
}
330
E
  0
ACDBPLACEHOLDER
  5
F
102
{ACAD_REACTORS
330
E
102
}
330
E
  0
ACDBPLACEHOLDER
  5
87
102
{ACAD_REACTORS
330
E
102
}
330
E
  0
SCALE
  5
88
102
{ACAD_REACTORS
330
42
102
}
330
42
100
AcDbScale
 70
     0
300
3:1
140
3.0
141
1.0
290
     0
  0
SCALE
  5
90
102
{ACAD_REACTORS
330
42
102
}
330
42
100
AcDbScale
 70
     0
300
3/16" = 1'-0"
140
0.1875
141
12.0
290
     0
  0
SCALE
  5
91
102
{ACAD_REACTORS
330
42
102
}
330
42
100
AcDbScale
 70
     0
300
1/4" = 1'-0"
140
0.25
141
12.0
290
     0
  0
SCALE
  5
92
102
{ACAD_REACTORS
330
42
102
}
330
42
100
AcDbScale
 70
     0
300
3/8" = 1'-0"
140
0.375
141
12.0
290
     0
  0
SCALE
  5
93
102
{ACAD_REACTORS
330
42
102
}
330
42
100
AcDbScale
 70
     0
300
1/2" = 1'-0"
140
0.5
141
12.0
290
     0
  0
SCALE
  5
94
102
{ACAD_REACTORS
330
42
102
}
330
42
100
AcDbScale
 70
     0
300
3/4" = 1'-0"
140
0.75
141
12.0
290
     0
  0
SCALE
  5
95
102
{ACAD_REACTORS
330
42
102
}
330
42
100
AcDbScale
 70
     0
300
1" = 1'-0"
140
1.0
141
12.0
290
     0
  0
SCALE
  5
96
102
{ACAD_REACTORS
330
42
102
}
330
42
100
AcDbScale
 70
     0
300
1-1/2" = 1'-0"
140
1.5
141
12.0
290
     0
  0
SCALE
  5
97
102
{ACAD_REACTORS
330
42
102
}
330
42
100
AcDbScale
 70
     0
300
3" = 1'-0"
140
3.0
141
12.0
290
     0
  0
SCALE
  5
98
102
{ACAD_REACTORS
330
42
102
}
330
42
100
AcDbScale
 70
     0
300
6" = 1'-0"
140
6.0
141
12.0
290
     0
  0
SCALE
  5
99
102
{ACAD_REACTORS
330
42
102
}
330
42
100
AcDbScale
 70
     0
300
1'-0" = 1'-0"
140
12.0
141
12.0
290
     0
  0
SCALE
  5
89
102
{ACAD_REACTORS
330
42
102
}
330
42
100
AcDbScale
 70
     0
300
5:1
140
5.0
141
1.0
290
     0
  0
SCALE
  5
8A
102
{ACAD_REACTORS
330
42
102
}
330
42
100
AcDbScale
 70
     0
300
1/128" = 1'-0"
140
0.0078125
141
12.0
290
     0
  0
SCALE
  5
8B
102
{ACAD_REACTORS
330
42
102
}
330
42
100
AcDbScale
 70
     0
300
1/64" = 1'-0"
140
0.015625
141
12.0
290
     0
  0
SCALE
  5
8C
102
{ACAD_REACTORS
330
42
102
}
330
42
100
AcDbScale
 70
     0
300
1/32" = 1'-0"
140
0.03125
141
12.0
290
     0
  0
SCALE
  5
8D
102
{ACAD_REACTORS
330
42
102
}
330
42
100
AcDbScale
 70
     0
300
1/16" = 1'-0"
140
0.0625
141
12.0
290
     0
  0
SCALE
  5
8E
102
{ACAD_REACTORS
330
42
102
}
330
42
100
AcDbScale
 70
     0
300
3/32" = 1'-0"
140
0.09375
141
12.0
290
     0
  0
SCALE
  5
8F
102
{ACAD_REACTORS
330
42
102
}
330
42
100
AcDbScale
 70
     0
300
1/8" = 1'-0"
140
0.125
141
12.0
290
     0
  0
SCALE
  5
43
102
{ACAD_REACTORS
330
42
102
}
330
42
100
AcDbScale
 70
     0
300
1:1
140
1.0
141
1.0
290
     1
  0
SCALE
  5
44
102
{ACAD_REACTORS
330
42
102
}
330
42
100
AcDbScale
 70
     0
300
1:2
140
1.0
141
2.0
290
     0
  0
SCALE
  5
45
102
{ACAD_REACTORS
330
42
102
}
330
42
100
AcDbScale
 70
     0
300
1:4
140
1.0
141
4.0
290
     0
  0
SCALE
  5
46
102
{ACAD_REACTORS
330
42
102
}
330
42
100
AcDbScale
 70
     0
300
1:5
140
1.0
141
5.0
290
     0
  0
SCALE
  5
47
102
{ACAD_REACTORS
330
42
102
}
330
42
100
AcDbScale
 70
     0
300
1:8
140
1.0
141
8.0
290
     0
  0
SCALE
  5
48
102
{ACAD_REACTORS
330
42
102
}
330
42
100
AcDbScale
 70
     0
300
1:10
140
1.0
141
10.0
290
     0
  0
SCALE
  5
49
102
{ACAD_REACTORS
330
42
102
}
330
42
100
AcDbScale
 70
     0
300
1:16
140
1.0
141
16.0
290
     0
  0
SCALE
  5
4A
102
{ACAD_REACTORS
330
42
102
}
330
42
100
AcDbScale
 70
     0
300
1:20
140
1.0
141
20.0
290
     0
  0
SCALE
  5
4B
102
{ACAD_REACTORS
330
42
102
}
330
42
100
AcDbScale
 70
     0
300
1:30
140
1.0
141
30.0
290
     0
  0
SCALE
  5
4C
102
{ACAD_REACTORS
330
42
102
}
330
42
100
AcDbScale
 70
     0
300
1:40
140
1.0
141
40.0
290
     0
  0
SCALE
  5
4D
102
{ACAD_REACTORS
330
42
102
}
330
42
100
AcDbScale
 70
     0
300
1:50
140
1.0
141
50.0
290
     0
  0
SCALE
  5
4E
102
{ACAD_REACTORS
330
42
102
}
330
42
100
AcDbScale
 70
     0
300
1:100
140
1.0
141
100.0
290
     0
  0
SCALE
  5
4F
102
{ACAD_REACTORS
330
42
102
}
330
42
100
AcDbScale
 70
     0
300
2:1
140
2.0
141
1.0
290
     0
  0
SCALE
  5
50
102
{ACAD_REACTORS
330
42
102
}
330
42
100
AcDbScale
 70
     0
300
4:1
140
4.0
141
1.0
290
     0
  0
SCALE
  5
51
102
{ACAD_REACTORS
330
42
102
}
330
42
100
AcDbScale
 70
     0
300
8:1
140
8.0
141
1.0
290
     0
  0
SCALE
  5
52
102
{ACAD_REACTORS
330
42
102
}
330
42
100
AcDbScale
 70
     0
300
10:1
140
10.0
141
1.0
290
     0
  0
SCALE
  5
53
102
{ACAD_REACTORS
330
42
102
}
330
42
100
AcDbScale
 70
     0
300
100:1
140
100.0
141
1.0
290
     0
  0
TABLESTYLE
  5
65
102
{ACAD_XDICTIONARY
360
8C1
102
}
102
{ACAD_REACTORS
330
64
102
}
330
64
100
AcDbTableStyle
  3
Standard
 70
     0
 71
     3
 40
1.5
 41
1.5
280
     0
281
     0
  7
Standard
140
4.5
170
     2
 62
     0
 63
     7
283
     0
274
    -2
284
     1
 64
     0
275
    -2
285
     1
 65
     0
276
    -2
286
     1
 66
     0
277
    -2
287
     1
 67
     0
278
    -2
288
     1
 68
     0
279
    -2
289
     1
 69
     0
  7
Standard
140
6.0
170
     5
 62
     0
 63
     7
283
     0
274
    -2
284
     1
 64
     0
275
    -2
285
     1
 65
     0
276
    -2
286
     1
 66
     0
277
    -2
287
     1
 67
     0
278
    -2
288
     1
 68
     0
279
    -2
289
     1
 69
     0
  7
Standard
140
4.5
170
     5
 62
     0
 63
     7
283
     0
274
    -2
284
     1
 64
     0
275
    -2
285
     1
 65
     0
276
    -2
286
     1
 66
     0
277
    -2
287
     1
 67
     0
278
    -2
288
     1
 68
     0
279
    -2
289
     1
 69
     0
  0
VISUALSTYLE
  5
2F
102
{ACAD_XDICTIONARY
360
94D
102
}
102
{ACAD_REACTORS
330
29
102
}
330
29
100
AcDbVisualStyle
  2

 70
     4
 71
     0
 72
     2
 73
     0
 90
        0
 40
-0.6
 41
-30.0
 62
     5
 63
     7
 74
     1
 91
        4
 64
     7
 65
   257
 75
     1
175
     1
 42
1.0
 92
        0
 66
   257
 43
1.0
 76
     1
 77
     6
 78
     2
 67
     7
 79
     5
170
     0
171
     0
290
     0
174
     0
 93
        1
 44
0.0
173
     0
291
     0
 45
0.0
1001
ACAD
1000
AcDbSavedByObjectVersion
1070
     0
  0
VISUALSTYLE
  5
2E
102
{ACAD_XDICTIONARY
360
94B
102
}
102
{ACAD_REACTORS
330
29
102
}
330
29
100
AcDbVisualStyle
  2

 70
     7
 71
     1
 72
     0
 73
     1
 90
        0
 40
-0.6
 41
-30.0
 62
     5
 63
     7
 74
     0
 91
        4
 64
     7
 65
   257
 75
     1
175
     1
 42
1.0
 92
        8
 66
     7
 43
1.0
 76
     1
 77
     6
 78
     2
 67
     7
 79
     5
170
     0
171
     0
290
     0
174
     0
 93
        1
 44
0.0
173
     0
291
     1
 45
0.0
1001
ACAD
1000
AcDbSavedByObjectVersion
1070
     0
  0
VISUALSTYLE
  5
35
102
{ACAD_XDICTIONARY
360
959
102
}
102
{ACAD_REACTORS
330
29
102
}
330
29
100
AcDbVisualStyle
  2

 70
    12
 71
     2
 72
     2
 73
     0
 90
        0
 40
-0.6
 41
-30.0
 62
     5
 63
     7
 74
     1
 91
        4
 64
     7
 65
   257
 75
     1
175
     1
 42
1.0
 92
        8
 66
     7
 43
1.0
 76
     1
 77
     6
 78
     2
 67
     7
 79
     5
170
     0
171
     0
290
     0
174
     0
 93
        1
 44
50.0
173
     0
291
     1
 45
0.0
1001
ACAD
1000
AcDbSavedByObjectVersion
1070
     0
  0
VISUALSTYLE
  5
39
102
{ACAD_XDICTIONARY
360
961
102
}
102
{ACAD_REACTORS
330
29
102
}
330
29
100
AcDbVisualStyle
  2

 70
    16
 71
     2
 72
     2
 73
     3
 90
        0
 40
-0.6
 41
-30.0
 62
     5
 63
     8
 74
     1
 91
        4
 64
     7
 65
   257
 75
     1
175
     1
 42
1.0
 92
        8
 66
     8
 43
1.0
 76
     1
 77
     6
 78
     2
 67
     7
 79
     5
170
     0
171
     0
290
     0
174
     0
 93
        1
 44
0.0
173
     0
291
     1
 45
0.0
1001
ACAD
1000
AcDbSavedByObjectVersion
1070
     0
  0
VISUALSTYLE
  5
32
102
{ACAD_XDICTIONARY
360
953
102
}
102
{ACAD_REACTORS
330
29
102
}
330
29
100
AcDbVisualStyle
  2

 70
     9
 71
     3
 72
     2
 73
     0
 90
        0
 40
-0.6
 41
-30.0
 62
     5
 63
     7
 74
     2
 91
        2
 64
     7
 65
   257
 75
     1
175
     1
 42
179.0
 92
        8
 66
     7
 43
1.0
 76
     1
 77
     6
 78
     2
 67
     7
 79
     3
170
     0
171
     0
290
     0
174
     0
 93
        1
 44
0.0
173
     0
291
     0
 45
0.0
1001
ACAD
1000
AcDbSavedByObjectVersion
1070
     0
  0
VISUALSTYLE
  5
34
102
{ACAD_XDICTIONARY
360
957
102
}
102
{ACAD_REACTORS
330
29
102
}
330
29
100
AcDbVisualStyle
  2

 70
    11
 71
     2
 72
     2
 73
     0
 90
        0
 40
-0.6
 41
-30.0
 62
     5
 63
     7
 74
     1
 91
        4
 64
     7
 65
   257
 75
     1
175
     1
 42
1.0
 92
        8
 66
     7
 43
1.0
 76
     1
 77
     6
 78
     2
 67
     7
 79
     5
170
     0
171
     0
290
     0
174
     0
 93
        1
 44
-50.0
173
     0
291
     1
 45
0.0
1001
ACAD
1000
AcDbSavedByObjectVersion
1070
     0
  0
VISUALSTYLE
  5
41
102
{ACAD_XDICTIONARY
360
971
102
}
102
{ACAD_REACTORS
330
29
102
}
330
29
100
AcDbVisualStyle
  2

 70
    22
 71
     2
 72
     2
 73
     0
 90
        0
 40
-0.6
 41
-30.0
 62
     5
 63
     7
 74
     1
 91
        4
 64
     7
 65
   257
 75
     1
175
     1
 42
1.0
 92
        8
 66
     7
 43
1.0
 76
     1
 77
     6
 78
     2
 67
     7
 79
     5
170
     0
171
     0
290
     0
174
     0
 93
        1
 44
0.0
173
     0
291
     1
 45
0.0
1001
ACAD
1000
AcDbSavedByObjectVersion
1070
     0
  0
VISUALSTYLE
  5
38
102
{ACAD_XDICTIONARY
360
95F
102
}
102
{ACAD_REACTORS
330
29
102
}
330
29
100
AcDbVisualStyle
  2

 70
    15
 71
     2
 72
     2
 73
     0
 90
        0
 40
-0.6
 41
-30.0
 62
     5
 63
     7
 74
     1
 91
        4
 64
     7
 65
   257
 75
     1
175
     1
 42
1.0
 92
        8
 66
     7
 43
1.0
 76
     1
 77
     6
 78
     2
 67
     7
 79
     5
170
     0
171
     0
290
     0
174
     0
 93
        1
 44
0.0
173
     0
291
     1
 45
0.0
1001
ACAD
1000
AcDbSavedByObjectVersion
1070
     0
  0
VISUALSTYLE
  5
2A
102
{ACAD_XDICTIONARY
360
943
102
}
102
{ACAD_REACTORS
330
29
102
}
330
29
100
AcDbVisualStyle
  2

 70
     0
 71
     2
 72
     1
 73
     1
 90
        2
 40
-0.6
 41
30.0
 62
     5
 63
     7
 74
     0
 91
        0
 64
     7
 65
   257
 75
     1
175
     1
 42
1.0
 92
        8
 66
     7
 43
1.0
 76
     1
 77
     6
 78
     2
 67
     7
 79
     5
170
     0
171
     0
290
     0
174
     0
 93
       13
 44
0.0
173
     0
291
     1
 45
0.0
1001
ACAD
1000
AcDbSavedByObjectVersion
1070
     0
  0
VISUALSTYLE
  5
2B
102
{ACAD_XDICTIONARY
360
945
102
}
102
{ACAD_REACTORS
330
29
102
}
330
29
100
AcDbVisualStyle
  2

 70
     1
 71
     2
 72
     1
 73
     1
 90
        2
 40
-0.6
 41
30.0
 62
     5
 63
     7
 74
     1
 91
        0
 64
     7
 65
   257
 75
     1
175
     1
 42
1.0
 92
        0
 66
   257
 43
1.0
 76
     1
 77
     6
 78
     2
 67
     7
 79
     5
170
     0
171
     0
290
     0
174
     0
 93
       13
 44
0.0
173
     0
291
     1
 45
0.0
1001
ACAD
1000
AcDbSavedByObjectVersion
1070
     0
  0
VISUALSTYLE
  5
2C
102
{ACAD_XDICTIONARY
360
947
102
}
102
{ACAD_REACTORS
330
29
102
}
330
29
100
AcDbVisualStyle
  2

 70
     2
 71
     2
 72
     2
 73
     1
 90
        2
 40
-0.6
 41
30.0
 62
     5
 63
     7
 74
     0
 91
        0
 64
     7
 65
   257
 75
     1
175
     1
 42
1.0
 92
        0
 66
     7
 43
1.0
 76
     1
 77
     6
 78
     2
 67
     7
 79
     5
170
     0
171
     0
290
     0
174
     0
 93
       13
 44
0.0
173
     0
291
     1
 45
0.0
1001
ACAD
1000
AcDbSavedByObjectVersion
1070
     0
  0
VISUALSTYLE
  5
2D
102
{ACAD_XDICTIONARY
360
949
102
}
102
{ACAD_REACTORS
330
29
102
}
330
29
100
AcDbVisualStyle
  2

 70
     3
 71
     2
 72
     2
 73
     1
 90
        2
 40
-0.6
 41
30.0
 62
     5
 63
     7
 74
     1
 91
        0
 64
     7
 65
   257
 75
     1
175
     1
 42
1.0
 92
        0
 66
   257
 43
1.0
 76
     1
 77
     6
 78
     2
 67
     7
 79
     5
170
     0
171
     0
290
     0
174
     0
 93
       13
 44
0.0
173
     0
291
     1
 45
0.0
1001
ACAD
1000
AcDbSavedByObjectVersion
1070
     0
  0
VISUALSTYLE
  5
31
102
{ACAD_XDICTIONARY
360
951
102
}
102
{ACAD_REACTORS
330
29
102
}
330
29
100
AcDbVisualStyle
  2

 70
     6
 71
     1
 72
     2
 73
     2
 90
        0
 40
-0.6
 41
-30.0
 62
     5
 63
     7
 74
     2
 91
        2
 64
     7
 65
   257
 75
     2
175
     1
 42
40.0
 92
        0
 66
   257
 43
1.0
 76
     1
 77
     6
 78
     2
 67
     7
 79
     3
170
     0
171
     0
290
     0
174
     0
 93
        1
 44
0.0
173
     0
291
     0
 45
0.0
1001
ACAD
1000
AcDbSavedByObjectVersion
1070
     0
  0
VISUALSTYLE
  5
3F
102
{ACAD_XDICTIONARY
360
96D
102
}
102
{ACAD_REACTORS
330
29
102
}
330
29
100
AcDbVisualStyle
  2

 70
    20
 71
     2
 72
     2
 73
     0
 90
        0
 40
-0.6
 41
-30.0
 62
     5
 63
     7
 74
     1
 91
        4
 64
     7
 65
   257
 75
     1
175
     1
 42
1.0
 92
       10
 66
     7
 43
1.0
 76
     1
 77
     6
 78
     2
 67
     7
 79
     5
170
     0
171
     0
290
     0
174
     0
 93
        1
 44
0.0
173
     0
291
     1
 45
0.0
1001
ACAD
1000
AcDbSavedByObjectVersion
1070
     0
  0
VISUALSTYLE
  5
37
102
{ACAD_XDICTIONARY
360
95D
102
}
102
{ACAD_REACTORS
330
29
102
}
330
29
100
AcDbVisualStyle
  2

 70
    14
 71
     2
 72
     2
 73
     0
 90
        0
 40
-0.6
 41
-30.0
 62
     5
 63
     7
 74
     1
 91
        4
 64
     7
 65
   257
 75
     7
175
     7
 42
1.0
 92
        8
 66
     7
 43
1.0
 76
     1
 77
     6
 78
     2
 67
     7
 79
     5
170
     0
171
     0
290
     0
174
     0
 93
        1
 44
0.0
173
     0
291
     1
 45
0.0
1001
ACAD
1000
AcDbSavedByObjectVersion
1070
     0
  0
VISUALSTYLE
  5
40
102
{ACAD_XDICTIONARY
360
96F
102
}
102
{ACAD_REACTORS
330
29
102
}
330
29
100
AcDbVisualStyle
  2

 70
    21
 71
     2
 72
     2
 73
     0
 90
        0
 40
-0.6
 41
-30.0
 62
     5
 63
     7
 74
     1
 91
        4
 64
     7
 65
   257
 75
     1
175
     1
 42
1.0
 92
        9
 66
     7
 43
1.0
 76
     1
 77
     6
 78
     2
 67
     7
 79
     5
170
     0
171
     0
290
     0
174
     0
 93
        1
 44
0.0
173
     0
291
     1
 45
0.0
1001
ACAD
1000
AcDbSavedByObjectVersion
1070
     0
  0
VISUALSTYLE
  5
33
102
{ACAD_XDICTIONARY
360
955
102
}
102
{ACAD_REACTORS
330
29
102
}
330
29
100
AcDbVisualStyle
  2

 70
     8
 71
     2
 72
     3
 73
     0
 90
        2
 40
-0.6
 41
30.0
 62
     5
 63
     7
 74
     0
 91
        0
 64
     7
 65
   257
 75
     1
175
     1
 42
1.0
 92
        8
 66
   257
 43
1.0
 76
     1
 77
     6
 78
     2
 67
     7
 79
     3
170
     0
171
     0
290
     0
174
     0
 93
       13
 44
0.0
173
     0
291
     0
 45
0.0
1001
ACAD
1000
AcDbSavedByObjectVersion
1070
     0
  0
VISUALSTYLE
  5
3E
102
{ACAD_XDICTIONARY
360
96B
102
}
102
{ACAD_REACTORS
330
29
102
}
330
29
100
AcDbVisualStyle
  2

 70
    27
 71
     2
 72
     2
 73
     1
 90
        2
 40
-0.6
 41
30.0
 62
     5
 63
     7
 74
     0
 91
        4
 64
     7
 65
   257
 75
     1
175
     1
 42
1.0
 92
        8
 66
   257
 43
1.0
 76
     1
 77
     6
 78
     2
 67
     8
 79
     3
170
     0
171
     0
290
     0
174
     0
 93
        5
 44
0.0
173
     0
291
     0
 45
0.0
1001
ACAD
1000
AcDbSavedByObjectVersion
1070
     0
  0
VISUALSTYLE
  5
3D
102
{ACAD_XDICTIONARY
360
969
102
}
102
{ACAD_REACTORS
330
29
102
}
330
29
100
AcDbVisualStyle
  2

 70
    26
 71
     2
 72
     2
 73
     1
 90
        2
 40
-0.6
 41
30.0
 62
     5
 63
     7
 74
     1
 91
       10
 64
     7
 65
   257
 75
     2
175
     1
 42
1.0
 92
        8
 66
   257
 43
1.0
 76
     1
 77
     6
 78
     2
 67
     7
 79
     3
170
     0
171
     0
290
     0
174
     0
 93
        5
 44
0.0
173
     0
291
     0
 45
0.0
1001
ACAD
1000
AcDbSavedByObjectVersion
1070
     0
  0
VISUALSTYLE
  5
3A
102
{ACAD_XDICTIONARY
360
963
102
}
102
{ACAD_REACTORS
330
29
102
}
330
29
100
AcDbVisualStyle
  2

 70
    23
 71
     2
 72
     2
 73
     3
 90
        0
 40
-0.6
 41
-30.0
 62
     5
 63
     7
 74
     2
 91
        2
 64
     7
 65
     7
 75
     1
175
     1
 42
40.0
 92
        8
 66
     7
 43
1.0
 76
     1
 77
     6
 78
     2
 67
     7
 79
     3
170
     0
171
     0
290
     0
174
     0
 93
        1
 44
0.0
173
     0
291
     0
 45
0.0
1001
ACAD
1000
AcDbSavedByObjectVersion
1070
     0
  0
VISUALSTYLE
  5
3B
102
{ACAD_XDICTIONARY
360
965
102
}
102
{ACAD_REACTORS
330
29
102
}
330
29
100
AcDbVisualStyle
  2

 70
    24
 71
     1
 72
     2
 73
     2
 90
        0
 40
-0.6
 41
-30.0
 62
     5
 63
     7
 74
     2
 91
        2
 64
     7
 65
     7
 75
     1
175
     1
 42
40.0
 92
       11
 66
     7
 43
1.0
 76
     1
 77
     6
 78
     2
 67
     7
 79
     6
170
     0
171
     0
290
     0
174
     0
 93
        1
 44
0.0
173
     0
291
     0
 45
0.0
1001
ACAD
1000
AcDbSavedByObjectVersion
1070
     0
  0
VISUALSTYLE
  5
36
102
{ACAD_XDICTIONARY
360
95B
102
}
102
{ACAD_REACTORS
330
29
102
}
330
29
100
AcDbVisualStyle
  2

 70
    13
 71
     2
 72
     2
 73
     0
 90
        0
 40
-0.6
 41
-30.0
 62
     5
 63
     7
 74
     1
 91
        4
 64
     7
 65
   257
 75
     1
175
     1
 42
1.0
 92
       12
 66
     7
 43
1.0
 76
     1
 77
     6
 78
     2
 67
     7
 79
     5
170
     0
171
     0
290
     0
174
     0
 93
        1
 44
0.0
173
     0
291
     1
 45
0.0
1001
ACAD
1000
AcDbSavedByObjectVersion
1070
     0
  0
VISUALSTYLE
  5
30
102
{ACAD_XDICTIONARY
360
94F
102
}
102
{ACAD_REACTORS
330
29
102
}
330
29
100
AcDbVisualStyle
  2

 70
     5
 71
     0
 72
     2
 73
     0
 90
        0
 40
-0.6
 41
-30.0
 62
     5
 63
     7
 74
     1
 91
        4
 64
     7
 65
   257
 75
     1
175
     1
 42
1.0
 92
        0
 66
   257
 43
1.0
 76
     1
 77
     6
 78
     2
 67
     7
 79
     3
170
     0
171
     0
290
     0
174
     0
 93
        1
 44
0.0
173
     0
291
     0
 45
0.0
1001
ACAD
1000
AcDbSavedByObjectVersion
1070
     0
  0
VISUALSTYLE
  5
3C
102
{ACAD_XDICTIONARY
360
967
102
}
102
{ACAD_REACTORS
330
29
102
}
330
29
100
AcDbVisualStyle
  2

 70
    25
 71
     2
 72
     2
 73
     1
 90
        1
 40
0.5
 41
-30.0
 62
     5
 63
     7
 74
     1
 91
        0
 64
     7
 65
   257
 75
     1
175
     1
 42
1.0
 92
        8
 66
     7
 43
1.0
 76
     1
 77
     6
 78
     2
 67
     7
 79
     3
170
     0
171
     0
290
     0
174
     0
 93
       13
 44
0.0
173
     0
291
     0
 45
0.0
1001
ACAD
1000
AcDbSavedByObjectVersion
1070
     0
  0
DICTIONARYVAR
  5
8B0
102
{ACAD_REACTORS
330
8AD
102
}
330
8AD
100
DictionaryVariables
280
     0
  1
0
  0
DICTIONARYVAR
  5
8B1
102
{ACAD_REACTORS
330
8AD
102
}
330
8AD
100
DictionaryVariables
280
     0
  1
1:1
  0
DICTIONARYVAR
  5
8AF
102
{ACAD_REACTORS
330
8AD
102
}
330
8AD
100
DictionaryVariables
280
     0
  1
STANDARD
  0
DICTIONARYVAR
  5
8AE
102
{ACAD_REACTORS
330
8AD
102
}
330
8AD
100
DictionaryVariables
280
     0
  1
STANDARD
  0
DICTIONARYVAR
  5
933
102
{ACAD_REACTORS
330
8AD
102
}
330
8AD
100
DictionaryVariables
280
     0
  1
2
  0
DICTIONARYVAR
  5
932
102
{ACAD_REACTORS
330
8AD
102
}
330
8AD
100
DictionaryVariables
280
     0
  1
1
  0
DICTIONARYVAR
  5
931
102
{ACAD_REACTORS
330
8AD
102
}
330
8AD
100
DictionaryVariables
280
     0
  1
0
  0
DICTIONARYVAR
  5
8B2
102
{ACAD_REACTORS
330
8AD
102
}
330
8AD
100
DictionaryVariables
280
     0
  1
1
  0
DICTIONARYVAR
  5
8B3
102
{ACAD_REACTORS
330
8AD
102
}
330
8AD
100
DictionaryVariables
280
     0
  1
15
  0
DICTIONARYVAR
  5
8BD
102
{ACAD_REACTORS
330
8AD
102
}
330
8AD
100
DictionaryVariables
280
     0
  1
2
  0
DICTIONARYVAR
  5
8BC
102
{ACAD_REACTORS
330
8AD
102
}
330
8AD
100
DictionaryVariables
280
     0
  1
1
  0
DICTIONARYVAR
  5
8BE
102
{ACAD_REACTORS
330
8AD
102
}
330
8AD
100
DictionaryVariables
280
     0
  1
1
  0
DICTIONARYVAR
  5
930
102
{ACAD_REACTORS
330
8AD
102
}
330
8AD
100
DictionaryVariables
280
     0
  1
127
  0
DICTIONARYVAR
  5
934
102
{ACAD_REACTORS
330
8AD
102
}
330
8AD
100
DictionaryVariables
280
     0
  1
2
  0
XRECORD
  5
93E
102
{ACAD_XDICTIONARY
360
93F
102
}
102
{ACAD_REACTORS
330
8CA
102
}
330
8CA
100
AcDbXrecord
280
     1
 91
   133119
301

290
     0
302
frame
330
938
 90
        8
 62
     4
370
    18
331
5D
390
87
440
        0
330
431
 90
        8
 62
     4
370
    18
331
5D
390
87
440
        0
330
1C5
 90
        8
 62
     3
370
    18
331
5D
390
87
440
        0
330
D7
 90
        8
 62
     2
370
    18
331
5D
390
87
440
        0
330
A5
 90
        8
 62
     6
370
    18
331
79
390
87
440
        0
330
A1
 90
        8
 62
     2
370
    18
331
78
390
87
440
        0
330
9B
 90
        0
 62
     5
370
    18
331
5D
390
87
440
        0
330
75
 90
        0
 62
     7
370
    -3
331
5D
390
87
440
        0
330
54
 90
        8
 62
     7
370
    35
331
5D
390
87
440
        0
  0
XRECORD
  5
97B
102
{ACAD_REACTORS
330
97A
102
}
330
97A
100
AcDbXrecord
280
     1
1070
     0
1070
     1
1070
     1
  0
DICTIONARY
  5
44D
102
{ACAD_REACTORS
330
44C
102
}
330
44C
100
AcDbDictionary
281
     1
  0
DICTIONARY
  5
452
102
{ACAD_REACTORS
330
451
102
}
330
451
100
AcDbDictionary
281
     1
  0
DICTIONARY
  5
457
102
{ACAD_REACTORS
330
456
102
}
330
456
100
AcDbDictionary
281
     1
  0
DICTIONARY
  5
45C
102
{ACAD_REACTORS
330
45B
102
}
330
45B
100
AcDbDictionary
281
     1
  0
DICTIONARY
  5
461
102
{ACAD_REACTORS
330
460
102
}
330
460
100
AcDbDictionary
281
     1
  0
DICTIONARY
  5
466
102
{ACAD_REACTORS
330
465
102
}
330
465
100
AcDbDictionary
281
     1
  0
DICTIONARY
  5
46B
102
{ACAD_REACTORS
330
46A
102
}
330
46A
100
AcDbDictionary
281
     1
  0
DICTIONARY
  5
470
102
{ACAD_REACTORS
330
46F
102
}
330
46F
100
AcDbDictionary
281
     1
  0
DICTIONARY
  5
475
102
{ACAD_REACTORS
330
474
102
}
330
474
100
AcDbDictionary
281
     1
  0
DICTIONARY
  5
47A
102
{ACAD_REACTORS
330
479
102
}
330
479
100
AcDbDictionary
281
     1
  0
DICTIONARY
  5
47F
102
{ACAD_REACTORS
330
47E
102
}
330
47E
100
AcDbDictionary
281
     1
  0
DICTIONARY
  5
484
102
{ACAD_REACTORS
330
483
102
}
330
483
100
AcDbDictionary
281
     1
  0
DICTIONARY
  5
489
102
{ACAD_REACTORS
330
488
102
}
330
488
100
AcDbDictionary
281
     1
  0
DICTIONARY
  5
48E
102
{ACAD_REACTORS
330
48D
102
}
330
48D
100
AcDbDictionary
281
     1
  0
DICTIONARY
  5
493
102
{ACAD_REACTORS
330
492
102
}
330
492
100
AcDbDictionary
281
     1
  0
DICTIONARY
  5
498
102
{ACAD_REACTORS
330
497
102
}
330
497
100
AcDbDictionary
281
     1
  0
DICTIONARY
  5
49D
102
{ACAD_REACTORS
330
49C
102
}
330
49C
100
AcDbDictionary
281
     1
  0
DICTIONARY
  5
4A2
102
{ACAD_REACTORS
330
4A1
102
}
330
4A1
100
AcDbDictionary
281
     1
  0
DICTIONARY
  5
4A7
102
{ACAD_REACTORS
330
4A6
102
}
330
4A6
100
AcDbDictionary
281
     1
  0
DICTIONARY
  5
4AC
102
{ACAD_REACTORS
330
4AB
102
}
330
4AB
100
AcDbDictionary
281
     1
  0
DICTIONARY
  5
4B1
102
{ACAD_REACTORS
330
4B0
102
}
330
4B0
100
AcDbDictionary
281
     1
  0
DICTIONARY
  5
4B6
102
{ACAD_REACTORS
330
4B5
102
}
330
4B5
100
AcDbDictionary
281
     1
  0
DICTIONARY
  5
4BB
102
{ACAD_REACTORS
330
4BA
102
}
330
4BA
100
AcDbDictionary
281
     1
  0
DICTIONARY
  5
4C0
102
{ACAD_REACTORS
330
4BF
102
}
330
4BF
100
AcDbDictionary
281
     1
  0
DICTIONARY
  5
4C5
102
{ACAD_REACTORS
330
4C4
102
}
330
4C4
100
AcDbDictionary
281
     1
  0
DICTIONARY
  5
4CA
102
{ACAD_REACTORS
330
4C9
102
}
330
4C9
100
AcDbDictionary
281
     1
  0
DICTIONARY
  5
4CF
102
{ACAD_REACTORS
330
4CE
102
}
330
4CE
100
AcDbDictionary
281
     1
  0
DICTIONARY
  5
4D4
102
{ACAD_REACTORS
330
4D3
102
}
330
4D3
100
AcDbDictionary
281
     1
  0
DICTIONARY
  5
4D9
102
{ACAD_REACTORS
330
4D8
102
}
330
4D8
100
AcDbDictionary
281
     1
  0
DICTIONARY
  5
4DE
102
{ACAD_REACTORS
330
4DD
102
}
330
4DD
100
AcDbDictionary
281
     1
  0
DICTIONARY
  5
4E3
102
{ACAD_REACTORS
330
4E2
102
}
330
4E2
100
AcDbDictionary
281
     1
  0
DICTIONARY
  5
4E8
102
{ACAD_REACTORS
330
4E7
102
}
330
4E7
100
AcDbDictionary
281
     1
  0
DICTIONARY
  5
4ED
102
{ACAD_REACTORS
330
4EC
102
}
330
4EC
100
AcDbDictionary
281
     1
  0
DICTIONARY
  5
569
102
{ACAD_REACTORS
330
568
102
}
330
568
100
AcDbDictionary
281
     1
  3
*A1
350
56A
  0
DICTIONARY
  5
56E
102
{ACAD_REACTORS
330
56D
102
}
330
56D
100
AcDbDictionary
281
     1
  3
*A1
350
56F
  0
DICTIONARY
  5
573
102
{ACAD_REACTORS
330
572
102
}
330
572
100
AcDbDictionary
281
     1
  3
*A1
350
574
  0
DICTIONARY
  5
578
102
{ACAD_REACTORS
330
577
102
}
330
577
100
AcDbDictionary
281
     1
  3
*A1
350
579
  0
DICTIONARY
  5
57D
102
{ACAD_REACTORS
330
57C
102
}
330
57C
100
AcDbDictionary
281
     1
  3
*A1
350
57E
  0
DICTIONARY
  5
582
102
{ACAD_REACTORS
330
581
102
}
330
581
100
AcDbDictionary
281
     1
  3
*A1
350
583
  0
DICTIONARY
  5
587
102
{ACAD_REACTORS
330
586
102
}
330
586
100
AcDbDictionary
281
     1
  3
*A1
350
588
  0
DICTIONARY
  5
58C
102
{ACAD_REACTORS
330
58B
102
}
330
58B
100
AcDbDictionary
281
     1
  3
*A1
350
58D
  0
DICTIONARY
  5
591
102
{ACAD_REACTORS
330
590
102
}
330
590
100
AcDbDictionary
281
     1
  3
*A1
350
592
  0
DICTIONARY
  5
596
102
{ACAD_REACTORS
330
595
102
}
330
595
100
AcDbDictionary
281
     1
  3
*A1
350
597
  0
DICTIONARY
  5
59B
102
{ACAD_REACTORS
330
59A
102
}
330
59A
100
AcDbDictionary
281
     1
  3
*A1
350
59C
  0
DICTIONARY
  5
5A0
102
{ACAD_REACTORS
330
59F
102
}
330
59F
100
AcDbDictionary
281
     1
  3
*A1
350
5A1
  0
DICTIONARY
  5
5A5
102
{ACAD_REACTORS
330
5A4
102
}
330
5A4
100
AcDbDictionary
281
     1
  3
*A1
350
5A6
  0
DICTIONARY
  5
5AA
102
{ACAD_REACTORS
330
5A9
102
}
330
5A9
100
AcDbDictionary
281
     1
  3
*A1
350
5AB
  0
DICTIONARY
  5
5AF
102
{ACAD_REACTORS
330
5AE
102
}
330
5AE
100
AcDbDictionary
281
     1
  3
*A1
350
5B0
  0
DICTIONARY
  5
5B4
102
{ACAD_REACTORS
330
5B3
102
}
330
5B3
100
AcDbDictionary
281
     1
  3
*A1
350
5B5
  0
DICTIONARY
  5
5B9
102
{ACAD_REACTORS
330
5B8
102
}
330
5B8
100
AcDbDictionary
281
     1
  3
*A1
350
5BA
  0
DICTIONARY
  5
5BE
102
{ACAD_REACTORS
330
5BD
102
}
330
5BD
100
AcDbDictionary
281
     1
  3
*A1
350
5BF
  0
DICTIONARY
  5
5C3
102
{ACAD_REACTORS
330
5C2
102
}
330
5C2
100
AcDbDictionary
281
     1
  3
*A1
350
5C4
  0
DICTIONARY
  5
5C8
102
{ACAD_REACTORS
330
5C7
102
}
330
5C7
100
AcDbDictionary
281
     1
  3
*A1
350
5C9
  0
DICTIONARY
  5
5CD
102
{ACAD_REACTORS
330
5CC
102
}
330
5CC
100
AcDbDictionary
281
     1
  3
*A1
350
5CE
  0
DICTIONARY
  5
5D2
102
{ACAD_REACTORS
330
5D1
102
}
330
5D1
100
AcDbDictionary
281
     1
  3
*A1
350
5D3
  0
DICTIONARY
  5
5D7
102
{ACAD_REACTORS
330
5D6
102
}
330
5D6
100
AcDbDictionary
281
     1
  3
*A1
350
5D8
  0
DICTIONARY
  5
5DC
102
{ACAD_REACTORS
330
5DB
102
}
330
5DB
100
AcDbDictionary
281
     1
  3
*A1
350
5DD
  0
DICTIONARY
  5
5E1
102
{ACAD_REACTORS
330
5E0
102
}
330
5E0
100
AcDbDictionary
281
     1
  3
*A1
350
5E2
  0
DICTIONARY
  5
5E6
102
{ACAD_REACTORS
330
5E5
102
}
330
5E5
100
AcDbDictionary
281
     1
  3
*A1
350
5E7
  0
DICTIONARY
  5
691
102
{ACAD_REACTORS
330
690
102
}
330
690
100
AcDbDictionary
281
     1
  0
DICTIONARY
  5
696
102
{ACAD_REACTORS
330
695
102
}
330
695
100
AcDbDictionary
281
     1
  0
DICTIONARY
  5
69B
102
{ACAD_REACTORS
330
69A
102
}
330
69A
100
AcDbDictionary
281
     1
  0
DICTIONARY
  5
6A0
102
{ACAD_REACTORS
330
69F
102
}
330
69F
100
AcDbDictionary
281
     1
  0
DICTIONARY
  5
6A5
102
{ACAD_REACTORS
330
6A4
102
}
330
6A4
100
AcDbDictionary
281
     1
  0
DICTIONARY
  5
6AA
102
{ACAD_REACTORS
330
6A9
102
}
330
6A9
100
AcDbDictionary
281
     1
  0
DICTIONARY
  5
6AF
102
{ACAD_REACTORS
330
6AE
102
}
330
6AE
100
AcDbDictionary
281
     1
  0
DICTIONARY
  5
6B4
102
{ACAD_REACTORS
330
6B3
102
}
330
6B3
100
AcDbDictionary
281
     1
  0
DICTIONARY
  5
6B9
102
{ACAD_REACTORS
330
6B8
102
}
330
6B8
100
AcDbDictionary
281
     1
  0
DICTIONARY
  5
6BE
102
{ACAD_REACTORS
330
6BD
102
}
330
6BD
100
AcDbDictionary
281
     1
  0
DICTIONARY
  5
6C3
102
{ACAD_REACTORS
330
6C2
102
}
330
6C2
100
AcDbDictionary
281
     1
  0
DICTIONARY
  5
6C8
102
{ACAD_REACTORS
330
6C7
102
}
330
6C7
100
AcDbDictionary
281
     1
  0
DICTIONARY
  5
6CD
102
{ACAD_REACTORS
330
6CC
102
}
330
6CC
100
AcDbDictionary
281
     1
  0
DICTIONARY
  5
6D2
102
{ACAD_REACTORS
330
6D1
102
}
330
6D1
100
AcDbDictionary
281
     1
  0
DICTIONARY
  5
6D7
102
{ACAD_REACTORS
330
6D6
102
}
330
6D6
100
AcDbDictionary
281
     1
  0
DICTIONARY
  5
6DC
102
{ACAD_REACTORS
330
6DB
102
}
330
6DB
100
AcDbDictionary
281
     1
  0
DICTIONARY
  5
6E1
102
{ACAD_REACTORS
330
6E0
102
}
330
6E0
100
AcDbDictionary
281
     1
  0
DICTIONARY
  5
6E6
102
{ACAD_REACTORS
330
6E5
102
}
330
6E5
100
AcDbDictionary
281
     1
  0
DICTIONARY
  5
6EB
102
{ACAD_REACTORS
330
6EA
102
}
330
6EA
100
AcDbDictionary
281
     1
  0
DICTIONARY
  5
6F0
102
{ACAD_REACTORS
330
6EF
102
}
330
6EF
100
AcDbDictionary
281
     1
  0
DICTIONARY
  5
6F5
102
{ACAD_REACTORS
330
6F4
102
}
330
6F4
100
AcDbDictionary
281
     1
  0
DICTIONARY
  5
6FA
102
{ACAD_REACTORS
330
6F9
102
}
330
6F9
100
AcDbDictionary
281
     1
  0
DICTIONARY
  5
6FF
102
{ACAD_REACTORS
330
6FE
102
}
330
6FE
100
AcDbDictionary
281
     1
  0
DICTIONARY
  5
704
102
{ACAD_REACTORS
330
703
102
}
330
703
100
AcDbDictionary
281
     1
  0
DICTIONARY
  5
709
102
{ACAD_REACTORS
330
708
102
}
330
708
100
AcDbDictionary
281
     1
  0
DICTIONARY
  5
70E
102
{ACAD_REACTORS
330
70D
102
}
330
70D
100
AcDbDictionary
281
     1
  0
DICTIONARY
  5
713
102
{ACAD_REACTORS
330
712
102
}
330
712
100
AcDbDictionary
281
     1
  0
DICTIONARY
  5
718
102
{ACAD_REACTORS
330
717
102
}
330
717
100
AcDbDictionary
281
     1
  0
DICTIONARY
  5
71D
102
{ACAD_REACTORS
330
71C
102
}
330
71C
100
AcDbDictionary
281
     1
  0
DICTIONARY
  5
722
102
{ACAD_REACTORS
330
721
102
}
330
721
100
AcDbDictionary
281
     1
  0
DICTIONARY
  5
727
102
{ACAD_REACTORS
330
726
102
}
330
726
100
AcDbDictionary
281
     1
  0
DICTIONARY
  5
72C
102
{ACAD_REACTORS
330
72B
102
}
330
72B
100
AcDbDictionary
281
     1
  0
DICTIONARY
  5
731
102
{ACAD_REACTORS
330
730
102
}
330
730
100
AcDbDictionary
281
     1
  0
DICTIONARY
  5
7AD
102
{ACAD_REACTORS
330
7AC
102
}
330
7AC
100
AcDbDictionary
281
     1
  0
DICTIONARY
  5
7B2
102
{ACAD_REACTORS
330
7B1
102
}
330
7B1
100
AcDbDictionary
281
     1
  0
DICTIONARY
  5
7B7
102
{ACAD_REACTORS
330
7B6
102
}
330
7B6
100
AcDbDictionary
281
     1
  0
DICTIONARY
  5
7BC
102
{ACAD_REACTORS
330
7BB
102
}
330
7BB
100
AcDbDictionary
281
     1
  0
DICTIONARY
  5
7C1
102
{ACAD_REACTORS
330
7C0
102
}
330
7C0
100
AcDbDictionary
281
     1
  0
DICTIONARY
  5
7C6
102
{ACAD_REACTORS
330
7C5
102
}
330
7C5
100
AcDbDictionary
281
     1
  0
DICTIONARY
  5
7CB
102
{ACAD_REACTORS
330
7CA
102
}
330
7CA
100
AcDbDictionary
281
     1
  0
DICTIONARY
  5
7D0
102
{ACAD_REACTORS
330
7CF
102
}
330
7CF
100
AcDbDictionary
281
     1
  0
DICTIONARY
  5
7D5
102
{ACAD_REACTORS
330
7D4
102
}
330
7D4
100
AcDbDictionary
281
     1
  0
DICTIONARY
  5
7DA
102
{ACAD_REACTORS
330
7D9
102
}
330
7D9
100
AcDbDictionary
281
     1
  0
DICTIONARY
  5
7DF
102
{ACAD_REACTORS
330
7DE
102
}
330
7DE
100
AcDbDictionary
281
     1
  0
DICTIONARY
  5
7E4
102
{ACAD_REACTORS
330
7E3
102
}
330
7E3
100
AcDbDictionary
281
     1
  0
DICTIONARY
  5
7E9
102
{ACAD_REACTORS
330
7E8
102
}
330
7E8
100
AcDbDictionary
281
     1
  0
DICTIONARY
  5
7EE
102
{ACAD_REACTORS
330
7ED
102
}
330
7ED
100
AcDbDictionary
281
     1
  0
DICTIONARY
  5
7F3
102
{ACAD_REACTORS
330
7F2
102
}
330
7F2
100
AcDbDictionary
281
     1
  0
DICTIONARY
  5
7F8
102
{ACAD_REACTORS
330
7F7
102
}
330
7F7
100
AcDbDictionary
281
     1
  0
DICTIONARY
  5
7FD
102
{ACAD_REACTORS
330
7FC
102
}
330
7FC
100
AcDbDictionary
281
     1
  0
DICTIONARY
  5
802
102
{ACAD_REACTORS
330
801
102
}
330
801
100
AcDbDictionary
281
     1
  0
DICTIONARY
  5
807
102
{ACAD_REACTORS
330
806
102
}
330
806
100
AcDbDictionary
281
     1
  0
DICTIONARY
  5
80C
102
{ACAD_REACTORS
330
80B
102
}
330
80B
100
AcDbDictionary
281
     1
  0
DICTIONARY
  5
811
102
{ACAD_REACTORS
330
810
102
}
330
810
100
AcDbDictionary
281
     1
  0
DICTIONARY
  5
816
102
{ACAD_REACTORS
330
815
102
}
330
815
100
AcDbDictionary
281
     1
  0
DICTIONARY
  5
81B
102
{ACAD_REACTORS
330
81A
102
}
330
81A
100
AcDbDictionary
281
     1
  0
DICTIONARY
  5
820
102
{ACAD_REACTORS
330
81F
102
}
330
81F
100
AcDbDictionary
281
     1
  0
DICTIONARY
  5
825
102
{ACAD_REACTORS
330
824
102
}
330
824
100
AcDbDictionary
281
     1
  0
DICTIONARY
  5
82A
102
{ACAD_REACTORS
330
829
102
}
330
829
100
AcDbDictionary
281
     1
  0
DICTIONARY
  5
976
330
6F
100
AcDbDictionary
280
     1
281
     1
  3
ACAD_XREC_ROUNDTRIP
360
977
  0
DICTIONARY
  5
974
330
6B
100
AcDbDictionary
280
     1
281
     1
  3
ACAD_XREC_ROUNDTRIP
360
975
  0
DICTIONARY
  5
978
330
73
100
AcDbDictionary
280
     1
281
     1
  3
ACAD_XREC_ROUNDTRIP
360
979
  0
DICTIONARY
  5
1A
330
19
100
AcDbDictionary
280
     1
281
     1
  3
ACAD_XREC_ROUNDTRIP
360
8D3
  3
BUMPTILE
360
1C
  3
DIFFUSETILE
360
1B
  3
OPACITYTILE
360
1F
  3
REFLECTIONTILE
360
1E
  3
REFRACTIONTILE
360
20
  3
SPECULARTILE
360
1D
  0
DICTIONARY
  5
12
330
11
100
AcDbDictionary
280
     1
281
     1
  3
ACAD_XREC_ROUNDTRIP
360
8D2
  3
BUMPTILE
360
14
  3
DIFFUSETILE
360
13
  3
OPACITYTILE
360
17
  3
REFLECTIONTILE
360
16
  3
REFRACTIONTILE
360
18
  3
SPECULARTILE
360
15
  0
DICTIONARY
  5
22
330
21
100
AcDbDictionary
280
     1
281
     1
  3
ACAD_XREC_ROUNDTRIP
360
8D4
  3
BUMPTILE
360
24
  3
DIFFUSETILE
360
23
  3
OPACITYTILE
360
27
  3
REFLECTIONTILE
360
26
  3
REFRACTIONTILE
360
28
  3
SPECULARTILE
360
25
  0
DICTIONARY
  5
936
330
67
100
AcDbDictionary
280
     1
281
     1
  3
ACAD_XREC_ROUNDTRIP
360
937
  0
DICTIONARY
  5
8C1
330
65
100
AcDbDictionary
280
     1
281
     1
  3
ACAD_ROUNDTRIP_2008_TABLESTYLE_CELLSTYLEMAP
360
935
  3
ACAD_XREC_ROUNDTRIP
360
973
  0
DICTIONARY
  5
94D
330
2F
100
AcDbDictionary
280
     1
281
     1
  3
ACAD_XREC_ROUNDTRIP
360
94E
  0
DICTIONARY
  5
94B
330
2E
100
AcDbDictionary
280
     1
281
     1
  3
ACAD_XREC_ROUNDTRIP
360
94C
  0
DICTIONARY
  5
959
330
35
100
AcDbDictionary
280
     1
281
     1
  3
ACAD_XREC_ROUNDTRIP
360
95A
  0
DICTIONARY
  5
961
330
39
100
AcDbDictionary
280
     1
281
     1
  3
ACAD_XREC_ROUNDTRIP
360
962
  0
DICTIONARY
  5
953
330
32
100
AcDbDictionary
280
     1
281
     1
  3
ACAD_XREC_ROUNDTRIP
360
954
  0
DICTIONARY
  5
957
330
34
100
AcDbDictionary
280
     1
281
     1
  3
ACAD_XREC_ROUNDTRIP
360
958
  0
DICTIONARY
  5
971
330
41
100
AcDbDictionary
280
     1
281
     1
  3
ACAD_XREC_ROUNDTRIP
360
972
  0
DICTIONARY
  5
95F
330
38
100
AcDbDictionary
280
     1
281
     1
  3
ACAD_XREC_ROUNDTRIP
360
960
  0
DICTIONARY
  5
943
330
2A
100
AcDbDictionary
280
     1
281
     1
  3
ACAD_XREC_ROUNDTRIP
360
944
  0
DICTIONARY
  5
945
330
2B
100
AcDbDictionary
280
     1
281
     1
  3
ACAD_XREC_ROUNDTRIP
360
946
  0
DICTIONARY
  5
947
330
2C
100
AcDbDictionary
280
     1
281
     1
  3
ACAD_XREC_ROUNDTRIP
360
948
  0
DICTIONARY
  5
949
330
2D
100
AcDbDictionary
280
     1
281
     1
  3
ACAD_XREC_ROUNDTRIP
360
94A
  0
DICTIONARY
  5
951
330
31
100
AcDbDictionary
280
     1
281
     1
  3
ACAD_XREC_ROUNDTRIP
360
952
  0
DICTIONARY
  5
96D
330
3F
100
AcDbDictionary
280
     1
281
     1
  3
ACAD_XREC_ROUNDTRIP
360
96E
  0
DICTIONARY
  5
95D
330
37
100
AcDbDictionary
280
     1
281
     1
  3
ACAD_XREC_ROUNDTRIP
360
95E
  0
DICTIONARY
  5
96F
330
40
100
AcDbDictionary
280
     1
281
     1
  3
ACAD_XREC_ROUNDTRIP
360
970
  0
DICTIONARY
  5
955
330
33
100
AcDbDictionary
280
     1
281
     1
  3
ACAD_XREC_ROUNDTRIP
360
956
  0
DICTIONARY
  5
96B
330
3E
100
AcDbDictionary
280
     1
281
     1
  3
ACAD_XREC_ROUNDTRIP
360
96C
  0
DICTIONARY
  5
969
330
3D
100
AcDbDictionary
280
     1
281
     1
  3
ACAD_XREC_ROUNDTRIP
360
96A
  0
DICTIONARY
  5
963
330
3A
100
AcDbDictionary
280
     1
281
     1
  3
ACAD_XREC_ROUNDTRIP
360
964
  0
DICTIONARY
  5
965
330
3B
100
AcDbDictionary
280
     1
281
     1
  3
ACAD_XREC_ROUNDTRIP
360
966
  0
DICTIONARY
  5
95B
330
36
100
AcDbDictionary
280
     1
281
     1
  3
ACAD_XREC_ROUNDTRIP
360
95C
  0
DICTIONARY
  5
94F
330
30
100
AcDbDictionary
280
     1
281
     1
  3
ACAD_XREC_ROUNDTRIP
360
950
  0
DICTIONARY
  5
967
330
3C
100
AcDbDictionary
280
     1
281
     1
  3
ACAD_XREC_ROUNDTRIP
360
968
  0
DICTIONARY
  5
93F
330
93E
100
AcDbDictionary
280
     1
281
     1
  3
AcadLayerStateAnnoScale
360
940
  0
ACDB_MTEXTATTRIBUTEOBJECTCONTEXTDATA_CLASS
  5
56A
102
{ACAD_REACTORS
330
569
102
}
330
569
100
AcDbObjectContextData
 70
     3
290
     1
100
AcDbAnnotScaleObjectContextData
340
43
 70
     1
 50
0.0
 10
226.5
 20
275.0000000000036
 11
226.5
 21
276.5000000000036
290
     0
  0
ACDB_MTEXTATTRIBUTEOBJECTCONTEXTDATA_CLASS
  5
56F
102
{ACAD_REACTORS
330
56E
102
}
330
56E
100
AcDbObjectContextData
 70
     3
290
     1
100
AcDbAnnotScaleObjectContextData
340
43
 70
     1
 50
0.0
 10
278.5
 20
275.0000000000036
 11
278.5
 21
276.5000000000036
290
     0
  0
ACDB_MTEXTATTRIBUTEOBJECTCONTEXTDATA_CLASS
  5
574
102
{ACAD_REACTORS
330
573
102
}
330
573
100
AcDbObjectContextData
 70
     3
290
     1
100
AcDbAnnotScaleObjectContextData
340
43
 70
     1
 50
0.0
 10
334.5
 20
275.0000000000036
 11
334.5
 21
276.5000000000036
290
     0
  0
ACDB_MTEXTATTRIBUTEOBJECTCONTEXTDATA_CLASS
  5
579
102
{ACAD_REACTORS
330
578
102
}
330
578
100
AcDbObjectContextData
 70
     3
290
     1
100
AcDbAnnotScaleObjectContextData
340
43
 70
     1
 50
0.0
 10
354.5
 20
275.0000000000036
 11
354.5
 21
276.5000000000036
290
     0
  0
ACDB_MTEXTATTRIBUTEOBJECTCONTEXTDATA_CLASS
  5
57E
102
{ACAD_REACTORS
330
57D
102
}
330
57D
100
AcDbObjectContextData
 70
     3
290
     1
100
AcDbAnnotScaleObjectContextData
340
43
 70
     1
 50
0.0
 10
374.5
 20
275.0000000000036
 11
374.5
 21
276.5000000000036
290
     0
  0
ACDB_MTEXTATTRIBUTEOBJECTCONTEXTDATA_CLASS
  5
583
102
{ACAD_REACTORS
330
582
102
}
330
582
100
AcDbObjectContextData
 70
     3
290
     1
100
AcDbAnnotScaleObjectContextData
340
43
 70
     1
 50
0.0
 10
394.5
 20
275.0000000000036
 11
394.5
 21
276.5000000000036
290
     0
  0
ACDB_MTEXTATTRIBUTEOBJECTCONTEXTDATA_CLASS
  5
588
102
{ACAD_REACTORS
330
587
102
}
330
587
100
AcDbObjectContextData
 70
     3
290
     1
100
AcDbAnnotScaleObjectContextData
340
43
 70
     1
 50
0.0
 10
286.75
 20
32.75000000000364
 11
286.75
 21
34.50000000000364
290
     0
  0
ACDB_MTEXTATTRIBUTEOBJECTCONTEXTDATA_CLASS
  5
58D
102
{ACAD_REACTORS
330
58C
102
}
330
58C
100
AcDbObjectContextData
 70
     3
290
     1
100
AcDbAnnotScaleObjectContextData
340
43
 70
     1
 50
0.0
 10
245.0
 20
32.7858983848655
 11
245.0
 21
34.5358983848655
290
     0
  0
ACDB_MTEXTATTRIBUTEOBJECTCONTEXTDATA_CLASS
  5
592
102
{ACAD_REACTORS
330
591
102
}
330
591
100
AcDbObjectContextData
 70
     3
290
     1
100
AcDbAnnotScaleObjectContextData
340
43
 70
     1
 50
0.0
 10
322.25
 20
32.75000000000364
 11
322.25
 21
34.50000000000364
290
     0
  0
ACDB_MTEXTATTRIBUTEOBJECTCONTEXTDATA_CLASS
  5
597
102
{ACAD_REACTORS
330
596
102
}
330
596
100
AcDbObjectContextData
 70
     3
290
     1
100
AcDbAnnotScaleObjectContextData
340
43
 70
     1
 50
0.0
 10
322.25
 20
25.75000000000364
 11
322.25
 21
27.50000000000364
290
     0
  0
ACDB_MTEXTATTRIBUTEOBJECTCONTEXTDATA_CLASS
  5
59C
102
{ACAD_REACTORS
330
59B
102
}
330
59B
100
AcDbObjectContextData
 70
     3
290
     1
100
AcDbAnnotScaleObjectContextData
340
43
 70
     1
 50
0.0
 10
322.25
 20
18.75000000000364
 11
322.25
 21
20.50000000000364
290
     0
  0
ACDB_MTEXTATTRIBUTEOBJECTCONTEXTDATA_CLASS
  5
5A1
102
{ACAD_REACTORS
330
5A0
102
}
330
5A0
100
AcDbObjectContextData
 70
     3
290
     1
100
AcDbAnnotScaleObjectContextData
340
43
 70
     1
 50
0.0
 10
322.25
 20
11.75000000000364
 11
322.25
 21
13.50000000000364
290
     0
  0
ACDB_MTEXTATTRIBUTEOBJECTCONTEXTDATA_CLASS
  5
5A6
102
{ACAD_REACTORS
330
5A5
102
}
330
5A5
100
AcDbObjectContextData
 70
     3
290
     1
100
AcDbAnnotScaleObjectContextData
340
43
 70
     1
 50
0.0
 10
340.0
 20
32.75000000000364
 11
340.0
 21
34.50000000000364
290
     0
  0
ACDB_MTEXTATTRIBUTEOBJECTCONTEXTDATA_CLASS
  5
5AB
102
{ACAD_REACTORS
330
5AA
102
}
330
5AA
100
AcDbObjectContextData
 70
     3
290
     1
100
AcDbAnnotScaleObjectContextData
340
43
 70
     1
 50
0.0
 10
340.0
 20
25.75000000000364
 11
340.0
 21
27.50000000000364
290
     0
  0
ACDB_MTEXTATTRIBUTEOBJECTCONTEXTDATA_CLASS
  5
5B0
102
{ACAD_REACTORS
330
5AF
102
}
330
5AF
100
AcDbObjectContextData
 70
     3
290
     1
100
AcDbAnnotScaleObjectContextData
340
43
 70
     1
 50
0.0
 10
340.0
 20
18.75000000000364
 11
340.0
 21
20.50000000000364
290
     0
  0
ACDB_MTEXTATTRIBUTEOBJECTCONTEXTDATA_CLASS
  5
5B5
102
{ACAD_REACTORS
330
5B4
102
}
330
5B4
100
AcDbObjectContextData
 70
     3
290
     1
100
AcDbAnnotScaleObjectContextData
340
43
 70
     1
 50
0.0
 10
340.0
 20
11.75000000000364
 11
340.0
 21
13.50000000000364
290
     0
  0
ACDB_MTEXTATTRIBUTEOBJECTCONTEXTDATA_CLASS
  5
5BA
102
{ACAD_REACTORS
330
5B9
102
}
330
5B9
100
AcDbObjectContextData
 70
     3
290
     1
100
AcDbAnnotScaleObjectContextData
340
43
 70
     1
 50
0.0
 10
380.5
 20
32.75000000000364
 11
380.5
 21
34.50000000000364
290
     0
  0
ACDB_MTEXTATTRIBUTEOBJECTCONTEXTDATA_CLASS
  5
5BF
102
{ACAD_REACTORS
330
5BE
102
}
330
5BE
100
AcDbObjectContextData
 70
     3
290
     1
100
AcDbAnnotScaleObjectContextData
340
43
 70
     1
 50
0.0
 10
380.5
 20
25.75000000000364
 11
380.5
 21
27.50000000000364
290
     0
  0
ACDB_MTEXTATTRIBUTEOBJECTCONTEXTDATA_CLASS
  5
5C4
102
{ACAD_REACTORS
330
5C3
102
}
330
5C3
100
AcDbObjectContextData
 70
     3
290
     1
100
AcDbAnnotScaleObjectContextData
340
43
 70
     1
 50
0.0
 10
380.5
 20
18.75000000000364
 11
380.5
 21
20.50000000000364
290
     0
  0
ACDB_MTEXTATTRIBUTEOBJECTCONTEXTDATA_CLASS
  5
5C9
102
{ACAD_REACTORS
330
5C8
102
}
330
5C8
100
AcDbObjectContextData
 70
     3
290
     1
100
AcDbAnnotScaleObjectContextData
340
43
 70
     1
 50
0.0
 10
375.25
 20
11.75000000000182
 11
375.25
 21
13.50000000000182
290
     0
  0
ACDB_MTEXTATTRIBUTEOBJECTCONTEXTDATA_CLASS
  5
5CE
102
{ACAD_REACTORS
330
5CD
102
}
330
5CD
100
AcDbObjectContextData
 70
     3
290
     1
100
AcDbAnnotScaleObjectContextData
340
43
 70
     1
 50
0.0
 10
226.5
 20
47.00000000000363
 11
226.5
 21
48.50000000000363
290
     0
  0
ACDB_MTEXTATTRIBUTEOBJECTCONTEXTDATA_CLASS
  5
5D3
102
{ACAD_REACTORS
330
5D2
102
}
330
5D2
100
AcDbObjectContextData
 70
     3
290
     1
100
AcDbAnnotScaleObjectContextData
340
43
 70
     1
 50
0.0
 10
255.0
 20
47.00000000000363
 11
255.0
 21
48.50000000000363
290
     0
  0
ACDB_MTEXTATTRIBUTEOBJECTCONTEXTDATA_CLASS
  5
5D8
102
{ACAD_REACTORS
330
5D7
102
}
330
5D7
100
AcDbObjectContextData
 70
     3
290
     1
100
AcDbAnnotScaleObjectContextData
340
43
 70
     1
 50
0.0
 10
294.0
 20
47.00000000000363
 11
294.0
 21
48.50000000000363
290
     0
  0
ACDB_MTEXTATTRIBUTEOBJECTCONTEXTDATA_CLASS
  5
5DD
102
{ACAD_REACTORS
330
5DC
102
}
330
5DC
100
AcDbObjectContextData
 70
     3
290
     1
100
AcDbAnnotScaleObjectContextData
340
43
 70
     1
 50
0.0
 10
311.5
 20
47.00000000000363
 11
311.5
 21
48.50000000000363
290
     0
  0
ACDB_MTEXTATTRIBUTEOBJECTCONTEXTDATA_CLASS
  5
5E2
102
{ACAD_REACTORS
330
5E1
102
}
330
5E1
100
AcDbObjectContextData
 70
     3
290
     1
100
AcDbAnnotScaleObjectContextData
340
43
 70
     1
 50
0.0
 10
340.0
 20
47.00000000000363
 11
340.0
 21
48.50000000000363
290
     0
  0
ACDB_MTEXTATTRIBUTEOBJECTCONTEXTDATA_CLASS
  5
5E7
102
{ACAD_REACTORS
330
5E6
102
}
330
5E6
100
AcDbObjectContextData
 70
     3
290
     1
100
AcDbAnnotScaleObjectContextData
340
43
 70
     1
 50
0.0
 10
386.0
 20
47.00000000000363
 11
386.0
 21
48.50000000000363
290
     0
  0
XRECORD
  5
977
102
{ACAD_REACTORS
330
976
102
}
330
976
100
AcDbXrecord
280
     1
102
SHADEPLOT
 70
     0
102
SHADEPLOTRESLEVEL
 70
     2
102
SHADEPLOTCUSTOMDPI
 70
   300
  0
XRECORD
  5
975
102
{ACAD_REACTORS
330
974
102
}
330
974
100
AcDbXrecord
280
     1
102
SHADEPLOT
 70
     0
102
SHADEPLOTRESLEVEL
 70
     2
102
SHADEPLOTCUSTOMDPI
 70
   300
  0
XRECORD
  5
979
102
{ACAD_REACTORS
330
978
102
}
330
978
100
AcDbXrecord
280
     1
102
SHADEPLOT
 70
     0
102
SHADEPLOTRESLEVEL
 70
     2
102
SHADEPLOTCUSTOMDPI
 70
   300
  0
XRECORD
  5
8D3
102
{ACAD_REACTORS
330
1A
102
}
330
1A
100
AcDbXrecord
280
     1
102
MATERIAL
148
0.0
149
0.0
149
0.0
 93
        0
 94
      127
282
     0
 72
     0
 77
     0
171
     0
175
     0
179
     0
273
     0
  0
XRECORD
  5
1C
102
{ACAD_REACTORS
330
1A
102
}
330
1A
100
AcDbXrecord
280
     1
270
     1
271
     1
  0
XRECORD
  5
1B
102
{ACAD_REACTORS
330
1A
102
}
330
1A
100
AcDbXrecord
280
     1
270
     1
271
     1
  0
XRECORD
  5
1F
102
{ACAD_REACTORS
330
1A
102
}
330
1A
100
AcDbXrecord
280
     1
270
     1
271
     1
  0
XRECORD
  5
1E
102
{ACAD_REACTORS
330
1A
102
}
330
1A
100
AcDbXrecord
280
     1
270
     1
271
     1
  0
XRECORD
  5
20
102
{ACAD_REACTORS
330
1A
102
}
330
1A
100
AcDbXrecord
280
     1
270
     1
271
     1
  0
XRECORD
  5
1D
102
{ACAD_REACTORS
330
1A
102
}
330
1A
100
AcDbXrecord
280
     1
270
     1
271
     1
  0
XRECORD
  5
8D2
102
{ACAD_REACTORS
330
12
102
}
330
12
100
AcDbXrecord
280
     1
102
MATERIAL
148
0.0
149
0.0
149
0.0
 93
        0
 94
      127
282
     0
 72
     0
 77
     0
171
     0
175
     0
179
     0
273
     0
  0
XRECORD
  5
14
102
{ACAD_REACTORS
330
12
102
}
330
12
100
AcDbXrecord
280
     1
270
     1
271
     1
  0
XRECORD
  5
13
102
{ACAD_REACTORS
330
12
102
}
330
12
100
AcDbXrecord
280
     1
270
     1
271
     1
  0
XRECORD
  5
17
102
{ACAD_REACTORS
330
12
102
}
330
12
100
AcDbXrecord
280
     1
270
     1
271
     1
  0
XRECORD
  5
16
102
{ACAD_REACTORS
330
12
102
}
330
12
100
AcDbXrecord
280
     1
270
     1
271
     1
  0
XRECORD
  5
18
102
{ACAD_REACTORS
330
12
102
}
330
12
100
AcDbXrecord
280
     1
270
     1
271
     1
  0
XRECORD
  5
15
102
{ACAD_REACTORS
330
12
102
}
330
12
100
AcDbXrecord
280
     1
270
     1
271
     1
  0
XRECORD
  5
8D4
102
{ACAD_REACTORS
330
22
102
}
330
22
100
AcDbXrecord
280
     1
102
MATERIAL
148
0.0
149
0.0
149
0.0
 93
        0
 94
      127
282
     0
 72
     0
 77
     0
171
     0
175
     0
179
     0
273
     0
  0
XRECORD
  5
24
102
{ACAD_REACTORS
330
22
102
}
330
22
100
AcDbXrecord
280
     1
270
     1
271
     1
  0
XRECORD
  5
23
102
{ACAD_REACTORS
330
22
102
}
330
22
100
AcDbXrecord
280
     1
270
     1
271
     1
  0
XRECORD
  5
27
102
{ACAD_REACTORS
330
22
102
}
330
22
100
AcDbXrecord
280
     1
270
     1
271
     1
  0
XRECORD
  5
26
102
{ACAD_REACTORS
330
22
102
}
330
22
100
AcDbXrecord
280
     1
270
     1
271
     1
  0
XRECORD
  5
28
102
{ACAD_REACTORS
330
22
102
}
330
22
100
AcDbXrecord
280
     1
270
     1
271
     1
  0
XRECORD
  5
25
102
{ACAD_REACTORS
330
22
102
}
330
22
100
AcDbXrecord
280
     1
270
     1
271
     1
  0
XRECORD
  5
937
102
{ACAD_REACTORS
330
936
102
}
330
936
100
AcDbXrecord
280
     1
102
ACAD_ROUNDTRIP_2012_MLEADER_STYLE
298
     1
  0
CELLSTYLEMAP
  5
935
102
{ACAD_REACTORS
330
8C1
102
}
330
8C1
100
AcDbCellStyleMap
 90
        3
300
CELLSTYLE
  1
TABLEFORMAT_BEGIN
 90
        5
170
     1
 91
        0
 92
    32768
 62
   257
 93
        1
300
CONTENTFORMAT
  1
CONTENTFORMAT_BEGIN
 90
        0
 91
        0
 92
      512
 93
        0
300

 40
0.0
140
1.0
 94
        5
 62
     0
340
55
144
6.0
309
CONTENTFORMAT_END
171
     1
301
MARGIN
  1
CELLMARGIN_BEGIN
 40
1.5
 40
1.5
 40
1.5
 40
1.5
 40
0.18
 40
0.18
309
CELLMARGIN_END
 94
        6
 95
        1
302
GRIDFORMAT
  1
GRIDFORMAT_BEGIN
 90
        0
 91
        1
 62
     0
 92
       -2
340
0
 93
        0
 40
1.125
309
GRIDFORMAT_END
 95
        2
302
GRIDFORMAT
  1
GRIDFORMAT_BEGIN
 90
        0
 91
        1
 62
     0
 92
       -2
340
0
 93
        0
 40
1.125
309
GRIDFORMAT_END
 95
        4
302
GRIDFORMAT
  1
GRIDFORMAT_BEGIN
 90
        0
 91
        1
 62
     0
 92
       -2
340
0
 93
        0
 40
1.125
309
GRIDFORMAT_END
 95
        8
302
GRIDFORMAT
  1
GRIDFORMAT_BEGIN
 90
        0
 91
        1
 62
     0
 92
       -2
340
0
 93
        0
 40
1.125
309
GRIDFORMAT_END
 95
       16
302
GRIDFORMAT
  1
GRIDFORMAT_BEGIN
 90
        0
 91
        1
 62
     0
 92
       -2
340
0
 93
        0
 40
1.125
309
GRIDFORMAT_END
 95
       32
302
GRIDFORMAT
  1
GRIDFORMAT_BEGIN
 90
        0
 91
        1
 62
     0
 92
       -2
340
0
 93
        0
 40
1.125
309
GRIDFORMAT_END
309
TABLEFORMAT_END
  1
CELLSTYLE_BEGIN
 90
        1
 91
        1
300
_TITLE
309
CELLSTYLE_END
300
CELLSTYLE
  1
TABLEFORMAT_BEGIN
 90
        5
170
     1
 91
        0
 92
        0
 62
   257
 93
        1
300
CONTENTFORMAT
  1
CONTENTFORMAT_BEGIN
 90
        0
 91
        0
 92
      512
 93
        0
300

 40
0.0
140
1.0
 94
        5
 62
     0
340
55
144
4.5
309
CONTENTFORMAT_END
171
     1
301
MARGIN
  1
CELLMARGIN_BEGIN
 40
1.5
 40
1.5
 40
1.5
 40
1.5
 40
0.18
 40
0.18
309
CELLMARGIN_END
 94
        6
 95
        1
302
GRIDFORMAT
  1
GRIDFORMAT_BEGIN
 90
        0
 91
        1
 62
     0
 92
       -2
340
0
 93
        0
 40
1.125
309
GRIDFORMAT_END
 95
        2
302
GRIDFORMAT
  1
GRIDFORMAT_BEGIN
 90
        0
 91
        1
 62
     0
 92
       -2
340
0
 93
        0
 40
1.125
309
GRIDFORMAT_END
 95
        4
302
GRIDFORMAT
  1
GRIDFORMAT_BEGIN
 90
        0
 91
        1
 62
     0
 92
       -2
340
0
 93
        0
 40
1.125
309
GRIDFORMAT_END
 95
        8
302
GRIDFORMAT
  1
GRIDFORMAT_BEGIN
 90
        0
 91
        1
 62
     0
 92
       -2
340
0
 93
        0
 40
1.125
309
GRIDFORMAT_END
 95
       16
302
GRIDFORMAT
  1
GRIDFORMAT_BEGIN
 90
        0
 91
        1
 62
     0
 92
       -2
340
0
 93
        0
 40
1.125
309
GRIDFORMAT_END
 95
       32
302
GRIDFORMAT
  1
GRIDFORMAT_BEGIN
 90
        0
 91
        1
 62
     0
 92
       -2
340
0
 93
        0
 40
1.125
309
GRIDFORMAT_END
309
TABLEFORMAT_END
  1
CELLSTYLE_BEGIN
 90
        2
 91
        1
300
_HEADER
309
CELLSTYLE_END
300
CELLSTYLE
  1
TABLEFORMAT_BEGIN
 90
        5
170
     1
 91
        0
 92
        0
 62
   257
 93
        1
300
CONTENTFORMAT
  1
CONTENTFORMAT_BEGIN
 90
        0
 91
        0
 92
      512
 93
        0
300

 40
0.0
140
1.0
 94
        2
 62
     0
340
55
144
4.5
309
CONTENTFORMAT_END
171
     1
301
MARGIN
  1
CELLMARGIN_BEGIN
 40
1.5
 40
1.5
 40
1.5
 40
1.5
 40
0.18
 40
0.18
309
CELLMARGIN_END
 94
        6
 95
        1
302
GRIDFORMAT
  1
GRIDFORMAT_BEGIN
 90
        0
 91
        1
 62
     0
 92
       -2
340
0
 93
        0
 40
1.125
309
GRIDFORMAT_END
 95
        2
302
GRIDFORMAT
  1
GRIDFORMAT_BEGIN
 90
        0
 91
        1
 62
     0
 92
       -2
340
0
 93
        0
 40
1.125
309
GRIDFORMAT_END
 95
        4
302
GRIDFORMAT
  1
GRIDFORMAT_BEGIN
 90
        0
 91
        1
 62
     0
 92
       -2
340
0
 93
        0
 40
1.125
309
GRIDFORMAT_END
 95
        8
302
GRIDFORMAT
  1
GRIDFORMAT_BEGIN
 90
        0
 91
        1
 62
     0
 92
       -2
340
0
 93
        0
 40
1.125
309
GRIDFORMAT_END
 95
       16
302
GRIDFORMAT
  1
GRIDFORMAT_BEGIN
 90
        0
 91
        1
 62
     0
 92
       -2
340
0
 93
        0
 40
1.125
309
GRIDFORMAT_END
 95
       32
302
GRIDFORMAT
  1
GRIDFORMAT_BEGIN
 90
        0
 91
        1
 62
     0
 92
       -2
340
0
 93
        0
 40
1.125
309
GRIDFORMAT_END
309
TABLEFORMAT_END
  1
CELLSTYLE_BEGIN
 90
        3
 91
        2
300
_DATA
309
CELLSTYLE_END
  0
XRECORD
  5
973
102
{ACAD_REACTORS
330
8C1
102
}
330
8C1
100
AcDbXrecord
280
     1
102
ACAD_ROUNDTRIP_PRE2007_TABLESTYLE
 90
      512
 91
        0
  1

 92
      512
 93
        0
  2

 94
      512
 95
        0
  3

  0
XRECORD
  5
94E
102
{ACAD_REACTORS
330
94D
102
}
330
94D
100
AcDbXrecord
280
     1
102
RTVSPropertyOp0
 70
     1
102
RTVSPropertyOp1
 70
     1
102
RTVSPropertyOp2
 70
     1
102
RTVSPropertyOp3
 70
     1
102
RTVSPropertyOp4
 70
     1
102
RTVSPropertyOp5
 70
     1
102
RTVSPropertyOp6
 70
     1
102
RTVSPropertyOp7
 70
     1
102
RTVSPropertyOp8
 70
     1
102
RTVSPropertyOp9
 70
     1
102
RTVSPropertyOp10
 70
     1
102
RTVSPropertyOp11
 70
     1
102
RTVSPropertyOp12
 70
     1
102
RTVSPropertyOp13
 70
     1
102
RTVSPropertyOp14
 70
     1
102
RTVSPropertyOp15
 70
     1
102
RTVSPropertyOp16
 70
     1
102
RTVSPropertyOp17
 70
     1
102
RTVSPropertyOp18
 70
     1
102
RTVSPropertyOp19
 70
     1
102
RTVSPropertyOp20
 70
     1
102
RTVSPropertyOp21
 70
     1
102
RTVSPropertyOp22
 70
     1
102
RTVSPropertyOp23
 70
     1
102
RTVSPropertyOp24
 70
     1
102
RTVSPropertyOp25
 70
     1
102
RTVSPropertyOp26
 70
     1
102
RTVSPropertyOp27
 70
     1
102
RTVSPropertyOp28
 70
     1
102
RTVSPropertyOp29
 70
     1
102
RTVSPropertyOp30
 70
     1
102
RTVSPropertyOp31
 70
     1
102
RTVSPropertyOp32
 70
     1
  0
XRECORD
  5
94C
102
{ACAD_REACTORS
330
94B
102
}
330
94B
100
AcDbXrecord
280
     1
102
RTVSPropertyOp0
 70
     1
102
RTVSPropertyOp1
 70
     1
102
RTVSPropertyOp2
 70
     1
102
RTVSPropertyOp3
 70
     1
102
RTVSPropertyOp4
 70
     1
102
RTVSPropertyOp5
 70
     1
102
RTVSPropertyOp6
 70
     1
102
RTVSPropertyOp7
 70
     1
102
RTVSPropertyOp8
 70
     1
102
RTVSPropertyOp9
 70
     1
102
RTVSPropertyOp10
 70
     1
102
RTVSPropertyOp11
 70
     1
102
RTVSPropertyOp12
 70
     1
102
RTVSPropertyOp13
 70
     1
102
RTVSPropertyOp14
 70
     1
102
RTVSPropertyOp15
 70
     1
102
RTVSPropertyOp16
 70
     1
102
RTVSPropertyOp17
 70
     1
102
RTVSPropertyOp18
 70
     1
102
RTVSPropertyOp19
 70
     1
102
RTVSPropertyOp20
 70
     1
102
RTVSPropertyOp21
 70
     1
102
RTVSPropertyOp22
 70
     1
102
RTVSPropertyOp23
 70
     1
102
RTVSPropertyOp24
 70
     1
102
RTVSPropertyOp25
 70
     1
102
RTVSPropertyOp26
 70
     1
102
RTVSPropertyOp27
 70
     1
102
RTVSPropertyOp28
 70
     1
102
RTVSPropertyOp29
 70
     1
102
RTVSPropertyOp30
 70
     1
102
RTVSPropertyOp31
 70
     1
102
RTVSPropertyOp32
 70
     1
  0
XRECORD
  5
95A
102
{ACAD_REACTORS
330
959
102
}
330
959
100
AcDbXrecord
280
     1
102
RTVSPropertyOp0
 70
     1
102
RTVSPropertyOp1
 70
     1
102
RTVSPropertyOp2
 70
     1
102
RTVSPropertyOp3
 70
     1
102
RTVSPropertyOp4
 70
     1
102
RTVSPropertyOp5
 70
     1
102
RTVSPropertyOp6
 70
     1
102
RTVSPropertyOp7
 70
     1
102
RTVSPropertyOp8
 70
     1
102
RTVSPropertyOp9
 70
     1
102
RTVSPropertyOp10
 70
     1
102
RTVSPropertyOp11
 70
     1
102
RTVSPropertyOp12
 70
     1
102
RTVSPropertyOp13
 70
     1
102
RTVSPropertyOp14
 70
     1
102
RTVSPropertyOp15
 70
     1
102
RTVSPropertyOp16
 70
     1
102
RTVSPropertyOp17
 70
     1
102
RTVSPropertyOp18
 70
     1
102
RTVSPropertyOp19
 70
     1
102
RTVSPropertyOp20
 70
     1
102
RTVSPropertyOp21
 70
     1
102
RTVSPropertyOp22
 70
     1
102
RTVSPropertyOp23
 70
     1
102
RTVSPropertyOp24
 70
     1
102
RTVSPropertyOp25
 70
     1
102
RTVSPropertyOp26
 70
     1
102
RTVSPropertyOp27
 70
     1
102
RTVSPropertyOp28
 70
     1
102
RTVSPropertyOp29
 70
     1
102
RTVSPropertyOp30
 70
     1
102
RTVSPropertyOp31
 70
     1
102
RTVSPropertyOp32
 70
     1
  0
XRECORD
  5
962
102
{ACAD_REACTORS
330
961
102
}
330
961
100
AcDbXrecord
280
     1
102
RTVSPropertyOp0
 70
     1
102
RTVSPropertyOp1
 70
     1
102
RTVSPropertyOp2
 70
     1
102
RTVSPropertyOp3
 70
     1
102
RTVSPropertyOp4
 70
     1
102
RTVSPropertyOp5
 70
     1
102
RTVSPropertyOp6
 70
     1
102
RTVSPropertyOp7
 70
     1
102
RTVSPropertyOp8
 70
     1
102
RTVSPropertyOp9
 70
     1
102
RTVSPropertyOp10
 70
     1
102
RTVSPropertyOp11
 70
     1
102
RTVSPropertyOp12
 70
     1
102
RTVSPropertyOp13
 70
     1
102
RTVSPropertyOp14
 70
     1
102
RTVSPropertyOp15
 70
     1
102
RTVSPropertyOp16
 70
     1
102
RTVSPropertyOp17
 70
     1
102
RTVSPropertyOp18
 70
     1
102
RTVSPropertyOp19
 70
     1
102
RTVSPropertyOp20
 70
     1
102
RTVSPropertyOp21
 70
     1
102
RTVSPropertyOp22
 70
     1
102
RTVSPropertyOp23
 70
     1
102
RTVSPropertyOp24
 70
     1
102
RTVSPropertyOp25
 70
     1
102
RTVSPropertyOp26
 70
     1
102
RTVSPropertyOp27
 70
     1
102
RTVSPropertyOp28
 70
     1
102
RTVSPropertyOp29
 70
     1
102
RTVSPropertyOp30
 70
     1
102
RTVSPropertyOp31
 70
     1
102
RTVSPropertyOp32
 70
     1
  0
XRECORD
  5
954
102
{ACAD_REACTORS
330
953
102
}
330
953
100
AcDbXrecord
280
     1
102
RTVSPropertyOp0
 70
     1
102
RTVSPropertyOp1
 70
     1
102
RTVSPropertyOp2
 70
     1
102
RTVSPropertyOp3
 70
     1
102
RTVSPropertyOp4
 70
     1
102
RTVSPropertyOp5
 70
     1
102
RTVSPropertyOp6
 70
     1
102
RTVSPropertyOp7
 70
     1
102
RTVSPropertyOp8
 70
     1
102
RTVSPropertyOp9
 70
     1
102
RTVSPropertyOp10
 70
     1
102
RTVSPropertyOp11
 70
     1
102
RTVSPropertyOp12
 70
     1
102
RTVSPropertyOp13
 70
     1
102
RTVSPropertyOp14
 70
     1
102
RTVSPropertyOp15
 70
     1
102
RTVSPropertyOp16
 70
     1
102
RTVSPropertyOp17
 70
     1
102
RTVSPropertyOp18
 70
     1
102
RTVSPropertyOp19
 70
     1
102
RTVSPropertyOp20
 70
     1
102
RTVSPropertyOp21
 70
     1
102
RTVSPropertyOp22
 70
     1
102
RTVSPropertyOp23
 70
     1
102
RTVSPropertyOp24
 70
     1
102
RTVSPropertyOp25
 70
     1
102
RTVSPropertyOp26
 70
     1
102
RTVSPropertyOp27
 70
     1
102
RTVSPropertyOp28
 70
     1
102
RTVSPropertyOp29
 70
     1
102
RTVSPropertyOp30
 70
     1
102
RTVSPropertyOp31
 70
     1
102
RTVSPropertyOp32
 70
     1
  0
XRECORD
  5
958
102
{ACAD_REACTORS
330
957
102
}
330
957
100
AcDbXrecord
280
     1
102
RTVSPropertyOp0
 70
     1
102
RTVSPropertyOp1
 70
     1
102
RTVSPropertyOp2
 70
     1
102
RTVSPropertyOp3
 70
     1
102
RTVSPropertyOp4
 70
     1
102
RTVSPropertyOp5
 70
     1
102
RTVSPropertyOp6
 70
     1
102
RTVSPropertyOp7
 70
     1
102
RTVSPropertyOp8
 70
     1
102
RTVSPropertyOp9
 70
     1
102
RTVSPropertyOp10
 70
     1
102
RTVSPropertyOp11
 70
     1
102
RTVSPropertyOp12
 70
     1
102
RTVSPropertyOp13
 70
     1
102
RTVSPropertyOp14
 70
     1
102
RTVSPropertyOp15
 70
     1
102
RTVSPropertyOp16
 70
     1
102
RTVSPropertyOp17
 70
     1
102
RTVSPropertyOp18
 70
     1
102
RTVSPropertyOp19
 70
     1
102
RTVSPropertyOp20
 70
     1
102
RTVSPropertyOp21
 70
     1
102
RTVSPropertyOp22
 70
     1
102
RTVSPropertyOp23
 70
     1
102
RTVSPropertyOp24
 70
     1
102
RTVSPropertyOp25
 70
     1
102
RTVSPropertyOp26
 70
     1
102
RTVSPropertyOp27
 70
     1
102
RTVSPropertyOp28
 70
     1
102
RTVSPropertyOp29
 70
     1
102
RTVSPropertyOp30
 70
     1
102
RTVSPropertyOp31
 70
     1
102
RTVSPropertyOp32
 70
     1
  0
XRECORD
  5
972
102
{ACAD_REACTORS
330
971
102
}
330
971
100
AcDbXrecord
280
     1
102
RTVSPropertyOp0
 70
     0
102
RTVSPropertyOp1
 70
     0
102
RTVSPropertyOp2
 70
     0
102
RTVSPropertyOp3
 70
     0
102
RTVSPropertyOp4
 70
     0
102
RTVSPropertyOp5
 70
     0
102
RTVSPropertyOp6
 70
     0
102
RTVSPropertyOp7
 70
     0
102
RTVSPropertyOp8
 70
     0
102
RTVSPropertyOp9
 70
     0
102
RTVSPropertyOp10
 70
     0
102
RTVSPropertyOp11
 70
     0
102
RTVSPropertyOp12
 70
     0
102
RTVSPropertyOp13
 70
     0
102
RTVSPropertyOp14
 70
     2
102
RTVSPropertyOp15
 70
     0
102
RTVSPropertyOp16
 70
     0
102
RTVSPropertyOp17
 70
     0
102
RTVSPropertyOp18
 70
     0
102
RTVSPropertyOp19
 70
     0
102
RTVSPropertyOp20
 70
     0
102
RTVSPropertyOp21
 70
     0
102
RTVSPropertyOp22
 70
     0
102
RTVSPropertyOp23
 70
     0
102
RTVSPropertyOp24
 70
     0
102
RTVSPropertyOp25
 70
     0
102
RTVSPropertyOp26
 70
     0
102
RTVSPropertyOp27
 70
     0
102
RTVSPropertyOp28
 70
     1
102
RTVSPropertyOp29
 70
     1
102
RTVSPropertyOp30
 70
     1
102
RTVSPropertyOp31
 70
     1
102
RTVSPropertyOp32
 70
     1
  0
XRECORD
  5
960
102
{ACAD_REACTORS
330
95F
102
}
330
95F
100
AcDbXrecord
280
     1
102
RTVSPropertyOp0
 70
     1
102
RTVSPropertyOp1
 70
     1
102
RTVSPropertyOp2
 70
     1
102
RTVSPropertyOp3
 70
     1
102
RTVSPropertyOp4
 70
     1
102
RTVSPropertyOp5
 70
     1
102
RTVSPropertyOp6
 70
     1
102
RTVSPropertyOp7
 70
     1
102
RTVSPropertyOp8
 70
     1
102
RTVSPropertyOp9
 70
     1
102
RTVSPropertyOp10
 70
     1
102
RTVSPropertyOp11
 70
     1
102
RTVSPropertyOp12
 70
     1
102
RTVSPropertyOp13
 70
     1
102
RTVSPropertyOp14
 70
     1
102
RTVSPropertyOp15
 70
     1
102
RTVSPropertyOp16
 70
     1
102
RTVSPropertyOp17
 70
     1
102
RTVSPropertyOp18
 70
     1
102
RTVSPropertyOp19
 70
     1
102
RTVSPropertyOp20
 70
     1
102
RTVSPropertyOp21
 70
     1
102
RTVSPropertyOp22
 70
     1
102
RTVSPropertyOp23
 70
     1
102
RTVSPropertyOp24
 70
     1
102
RTVSPropertyOp25
 70
     1
102
RTVSPropertyOp26
 70
     1
102
RTVSPropertyOp27
 70
     1
102
RTVSPropertyOp28
 70
     1
102
RTVSPropertyOp29
 70
     1
102
RTVSPropertyOp30
 70
     1
102
RTVSPropertyOp31
 70
     1
102
RTVSPropertyOp32
 70
     1
  0
XRECORD
  5
944
102
{ACAD_REACTORS
330
943
102
}
330
943
100
AcDbXrecord
280
     1
102
RTVSPropertyOp0
 70
     1
102
RTVSPropertyOp1
 70
     1
102
RTVSPropertyOp2
 70
     1
102
RTVSPropertyOp3
 70
     1
102
RTVSPropertyOp4
 70
     1
102
RTVSPropertyOp5
 70
     1
102
RTVSPropertyOp6
 70
     1
102
RTVSPropertyOp7
 70
     1
102
RTVSPropertyOp8
 70
     1
102
RTVSPropertyOp9
 70
     1
102
RTVSPropertyOp10
 70
     1
102
RTVSPropertyOp11
 70
     1
102
RTVSPropertyOp12
 70
     1
102
RTVSPropertyOp13
 70
     1
102
RTVSPropertyOp14
 70
     1
102
RTVSPropertyOp15
 70
     1
102
RTVSPropertyOp16
 70
     1
102
RTVSPropertyOp17
 70
     1
102
RTVSPropertyOp18
 70
     1
102
RTVSPropertyOp19
 70
     1
102
RTVSPropertyOp20
 70
     1
102
RTVSPropertyOp21
 70
     1
102
RTVSPropertyOp22
 70
     1
102
RTVSPropertyOp23
 70
     1
102
RTVSPropertyOp24
 70
     1
102
RTVSPropertyOp25
 70
     1
102
RTVSPropertyOp26
 70
     1
102
RTVSPropertyOp27
 70
     1
102
RTVSPropertyOp28
 70
     1
102
RTVSPropertyOp29
 70
     1
102
RTVSPropertyOp30
 70
     1
102
RTVSPropertyOp31
 70
     1
102
RTVSPropertyOp32
 70
     1
  0
XRECORD
  5
946
102
{ACAD_REACTORS
330
945
102
}
330
945
100
AcDbXrecord
280
     1
102
RTVSPropertyOp0
 70
     1
102
RTVSPropertyOp1
 70
     1
102
RTVSPropertyOp2
 70
     1
102
RTVSPropertyOp3
 70
     1
102
RTVSPropertyOp4
 70
     1
102
RTVSPropertyOp5
 70
     1
102
RTVSPropertyOp6
 70
     1
102
RTVSPropertyOp7
 70
     1
102
RTVSPropertyOp8
 70
     1
102
RTVSPropertyOp9
 70
     1
102
RTVSPropertyOp10
 70
     1
102
RTVSPropertyOp11
 70
     1
102
RTVSPropertyOp12
 70
     1
102
RTVSPropertyOp13
 70
     1
102
RTVSPropertyOp14
 70
     1
102
RTVSPropertyOp15
 70
     1
102
RTVSPropertyOp16
 70
     1
102
RTVSPropertyOp17
 70
     1
102
RTVSPropertyOp18
 70
     1
102
RTVSPropertyOp19
 70
     1
102
RTVSPropertyOp20
 70
     1
102
RTVSPropertyOp21
 70
     1
102
RTVSPropertyOp22
 70
     1
102
RTVSPropertyOp23
 70
     1
102
RTVSPropertyOp24
 70
     1
102
RTVSPropertyOp25
 70
     1
102
RTVSPropertyOp26
 70
     1
102
RTVSPropertyOp27
 70
     1
102
RTVSPropertyOp28
 70
     1
102
RTVSPropertyOp29
 70
     1
102
RTVSPropertyOp30
 70
     1
102
RTVSPropertyOp31
 70
     1
102
RTVSPropertyOp32
 70
     1
  0
XRECORD
  5
948
102
{ACAD_REACTORS
330
947
102
}
330
947
100
AcDbXrecord
280
     1
102
RTVSPropertyOp0
 70
     1
102
RTVSPropertyOp1
 70
     1
102
RTVSPropertyOp2
 70
     1
102
RTVSPropertyOp3
 70
     1
102
RTVSPropertyOp4
 70
     1
102
RTVSPropertyOp5
 70
     1
102
RTVSPropertyOp6
 70
     1
102
RTVSPropertyOp7
 70
     1
102
RTVSPropertyOp8
 70
     1
102
RTVSPropertyOp9
 70
     1
102
RTVSPropertyOp10
 70
     1
102
RTVSPropertyOp11
 70
     1
102
RTVSPropertyOp12
 70
     1
102
RTVSPropertyOp13
 70
     1
102
RTVSPropertyOp14
 70
     1
102
RTVSPropertyOp15
 70
     1
102
RTVSPropertyOp16
 70
     1
102
RTVSPropertyOp17
 70
     1
102
RTVSPropertyOp18
 70
     1
102
RTVSPropertyOp19
 70
     1
102
RTVSPropertyOp20
 70
     1
102
RTVSPropertyOp21
 70
     1
102
RTVSPropertyOp22
 70
     1
102
RTVSPropertyOp23
 70
     1
102
RTVSPropertyOp24
 70
     1
102
RTVSPropertyOp25
 70
     1
102
RTVSPropertyOp26
 70
     1
102
RTVSPropertyOp27
 70
     1
102
RTVSPropertyOp28
 70
     1
102
RTVSPropertyOp29
 70
     1
102
RTVSPropertyOp30
 70
     1
102
RTVSPropertyOp31
 70
     1
102
RTVSPropertyOp32
 70
     1
  0
XRECORD
  5
94A
102
{ACAD_REACTORS
330
949
102
}
330
949
100
AcDbXrecord
280
     1
102
RTVSPropertyOp0
 70
     1
102
RTVSPropertyOp1
 70
     1
102
RTVSPropertyOp2
 70
     1
102
RTVSPropertyOp3
 70
     1
102
RTVSPropertyOp4
 70
     1
102
RTVSPropertyOp5
 70
     1
102
RTVSPropertyOp6
 70
     1
102
RTVSPropertyOp7
 70
     1
102
RTVSPropertyOp8
 70
     1
102
RTVSPropertyOp9
 70
     1
102
RTVSPropertyOp10
 70
     1
102
RTVSPropertyOp11
 70
     1
102
RTVSPropertyOp12
 70
     1
102
RTVSPropertyOp13
 70
     1
102
RTVSPropertyOp14
 70
     1
102
RTVSPropertyOp15
 70
     1
102
RTVSPropertyOp16
 70
     1
102
RTVSPropertyOp17
 70
     1
102
RTVSPropertyOp18
 70
     1
102
RTVSPropertyOp19
 70
     1
102
RTVSPropertyOp20
 70
     1
102
RTVSPropertyOp21
 70
     1
102
RTVSPropertyOp22
 70
     1
102
RTVSPropertyOp23
 70
     1
102
RTVSPropertyOp24
 70
     1
102
RTVSPropertyOp25
 70
     1
102
RTVSPropertyOp26
 70
     1
102
RTVSPropertyOp27
 70
     1
102
RTVSPropertyOp28
 70
     1
102
RTVSPropertyOp29
 70
     1
102
RTVSPropertyOp30
 70
     1
102
RTVSPropertyOp31
 70
     1
102
RTVSPropertyOp32
 70
     1
  0
XRECORD
  5
952
102
{ACAD_REACTORS
330
951
102
}
330
951
100
AcDbXrecord
280
     1
102
RTVSPropertyOp0
 70
     1
102
RTVSPropertyOp1
 70
     1
102
RTVSPropertyOp2
 70
     1
102
RTVSPropertyOp3
 70
     1
102
RTVSPropertyOp4
 70
     1
102
RTVSPropertyOp5
 70
     1
102
RTVSPropertyOp6
 70
     1
102
RTVSPropertyOp7
 70
     1
102
RTVSPropertyOp8
 70
     1
102
RTVSPropertyOp9
 70
     1
102
RTVSPropertyOp10
 70
     1
102
RTVSPropertyOp11
 70
     1
102
RTVSPropertyOp12
 70
     1
102
RTVSPropertyOp13
 70
     1
102
RTVSPropertyOp14
 70
     1
102
RTVSPropertyOp15
 70
     1
102
RTVSPropertyOp16
 70
     1
102
RTVSPropertyOp17
 70
     1
102
RTVSPropertyOp18
 70
     1
102
RTVSPropertyOp19
 70
     1
102
RTVSPropertyOp20
 70
     1
102
RTVSPropertyOp21
 70
     1
102
RTVSPropertyOp22
 70
     1
102
RTVSPropertyOp23
 70
     1
102
RTVSPropertyOp24
 70
     1
102
RTVSPropertyOp25
 70
     1
102
RTVSPropertyOp26
 70
     1
102
RTVSPropertyOp27
 70
     1
102
RTVSPropertyOp28
 70
     1
102
RTVSPropertyOp29
 70
     1
102
RTVSPropertyOp30
 70
     1
102
RTVSPropertyOp31
 70
     1
102
RTVSPropertyOp32
 70
     1
  0
XRECORD
  5
96E
102
{ACAD_REACTORS
330
96D
102
}
330
96D
100
AcDbXrecord
280
     1
102
RTVSPropertyOp0
 70
     0
102
RTVSPropertyOp1
 70
     0
102
RTVSPropertyOp2
 70
     0
102
RTVSPropertyOp3
 70
     0
102
RTVSPropertyOp4
 70
     0
102
RTVSPropertyOp5
 70
     0
102
RTVSPropertyOp6
 70
     0
102
RTVSPropertyOp7
 70
     0
102
RTVSPropertyOp8
 70
     0
102
RTVSPropertyOp9
 70
     0
102
RTVSPropertyOp10
 70
     0
102
RTVSPropertyOp11
 70
     0
102
RTVSPropertyOp12
 70
     0
102
RTVSPropertyOp13
 70
     0
102
RTVSPropertyOp14
 70
     2
102
RTVSPropertyOp15
 70
     0
102
RTVSPropertyOp16
 70
     0
102
RTVSPropertyOp17
 70
     0
102
RTVSPropertyOp18
 70
     0
102
RTVSPropertyOp19
 70
     0
102
RTVSPropertyOp20
 70
     0
102
RTVSPropertyOp21
 70
     0
102
RTVSPropertyOp22
 70
     0
102
RTVSPropertyOp23
 70
     0
102
RTVSPropertyOp24
 70
     0
102
RTVSPropertyOp25
 70
     0
102
RTVSPropertyOp26
 70
     0
102
RTVSPropertyOp27
 70
     0
102
RTVSPropertyOp28
 70
     1
102
RTVSPropertyOp29
 70
     1
102
RTVSPropertyOp30
 70
     1
102
RTVSPropertyOp31
 70
     1
102
RTVSPropertyOp32
 70
     1
  0
XRECORD
  5
95E
102
{ACAD_REACTORS
330
95D
102
}
330
95D
100
AcDbXrecord
280
     1
102
RTVSPropertyOp0
 70
     1
102
RTVSPropertyOp1
 70
     1
102
RTVSPropertyOp2
 70
     1
102
RTVSPropertyOp3
 70
     1
102
RTVSPropertyOp4
 70
     1
102
RTVSPropertyOp5
 70
     1
102
RTVSPropertyOp6
 70
     1
102
RTVSPropertyOp7
 70
     1
102
RTVSPropertyOp8
 70
     1
102
RTVSPropertyOp9
 70
     1
102
RTVSPropertyOp10
 70
     1
102
RTVSPropertyOp11
 70
     1
102
RTVSPropertyOp12
 70
     1
102
RTVSPropertyOp13
 70
     1
102
RTVSPropertyOp14
 70
     1
102
RTVSPropertyOp15
 70
     1
102
RTVSPropertyOp16
 70
     1
102
RTVSPropertyOp17
 70
     1
102
RTVSPropertyOp18
 70
     1
102
RTVSPropertyOp19
 70
     1
102
RTVSPropertyOp20
 70
     1
102
RTVSPropertyOp21
 70
     1
102
RTVSPropertyOp22
 70
     1
102
RTVSPropertyOp23
 70
     1
102
RTVSPropertyOp24
 70
     1
102
RTVSPropertyOp25
 70
     1
102
RTVSPropertyOp26
 70
     1
102
RTVSPropertyOp27
 70
     1
102
RTVSPropertyOp28
 70
     1
102
RTVSPropertyOp29
 70
     1
102
RTVSPropertyOp30
 70
     1
102
RTVSPropertyOp31
 70
     1
102
RTVSPropertyOp32
 70
     1
  0
XRECORD
  5
970
102
{ACAD_REACTORS
330
96F
102
}
330
96F
100
AcDbXrecord
280
     1
102
RTVSPropertyOp0
 70
     0
102
RTVSPropertyOp1
 70
     0
102
RTVSPropertyOp2
 70
     0
102
RTVSPropertyOp3
 70
     0
102
RTVSPropertyOp4
 70
     0
102
RTVSPropertyOp5
 70
     0
102
RTVSPropertyOp6
 70
     0
102
RTVSPropertyOp7
 70
     0
102
RTVSPropertyOp8
 70
     0
102
RTVSPropertyOp9
 70
     0
102
RTVSPropertyOp10
 70
     0
102
RTVSPropertyOp11
 70
     0
102
RTVSPropertyOp12
 70
     0
102
RTVSPropertyOp13
 70
     0
102
RTVSPropertyOp14
 70
     2
102
RTVSPropertyOp15
 70
     0
102
RTVSPropertyOp16
 70
     0
102
RTVSPropertyOp17
 70
     0
102
RTVSPropertyOp18
 70
     0
102
RTVSPropertyOp19
 70
     0
102
RTVSPropertyOp20
 70
     0
102
RTVSPropertyOp21
 70
     0
102
RTVSPropertyOp22
 70
     0
102
RTVSPropertyOp23
 70
     0
102
RTVSPropertyOp24
 70
     0
102
RTVSPropertyOp25
 70
     0
102
RTVSPropertyOp26
 70
     0
102
RTVSPropertyOp27
 70
     0
102
RTVSPropertyOp28
 70
     1
102
RTVSPropertyOp29
 70
     1
102
RTVSPropertyOp30
 70
     1
102
RTVSPropertyOp31
 70
     1
102
RTVSPropertyOp32
 70
     1
  0
XRECORD
  5
956
102
{ACAD_REACTORS
330
955
102
}
330
955
100
AcDbXrecord
280
     1
102
RTVSPropertyOp0
 70
     1
102
RTVSPropertyOp1
 70
     1
102
RTVSPropertyOp2
 70
     1
102
RTVSPropertyOp3
 70
     1
102
RTVSPropertyOp4
 70
     1
102
RTVSPropertyOp5
 70
     1
102
RTVSPropertyOp6
 70
     1
102
RTVSPropertyOp7
 70
     1
102
RTVSPropertyOp8
 70
     1
102
RTVSPropertyOp9
 70
     1
102
RTVSPropertyOp10
 70
     1
102
RTVSPropertyOp11
 70
     1
102
RTVSPropertyOp12
 70
     1
102
RTVSPropertyOp13
 70
     1
102
RTVSPropertyOp14
 70
     1
102
RTVSPropertyOp15
 70
     1
102
RTVSPropertyOp16
 70
     1
102
RTVSPropertyOp17
 70
     1
102
RTVSPropertyOp18
 70
     1
102
RTVSPropertyOp19
 70
     1
102
RTVSPropertyOp20
 70
     1
102
RTVSPropertyOp21
 70
     1
102
RTVSPropertyOp22
 70
     1
102
RTVSPropertyOp23
 70
     1
102
RTVSPropertyOp24
 70
     1
102
RTVSPropertyOp25
 70
     1
102
RTVSPropertyOp26
 70
     1
102
RTVSPropertyOp27
 70
     1
102
RTVSPropertyOp28
 70
     1
102
RTVSPropertyOp29
 70
     1
102
RTVSPropertyOp30
 70
     1
102
RTVSPropertyOp31
 70
     1
102
RTVSPropertyOp32
 70
     1
  0
XRECORD
  5
96C
102
{ACAD_REACTORS
330
96B
102
}
330
96B
100
AcDbXrecord
280
     1
102
RTVSPropertyOp0
 70
     1
102
RTVSPropertyOp1
 70
     1
102
RTVSPropertyOp2
 70
     1
102
RTVSPropertyOp3
 70
     1
102
RTVSPropertyOp4
 70
     1
102
RTVSPropertyOp5
 70
     1
102
RTVSPropertyOp6
 70
     1
102
RTVSPropertyOp7
 70
     1
102
RTVSPropertyOp8
 70
     1
102
RTVSPropertyOp9
 70
     1
102
RTVSPropertyOp10
 70
     1
102
RTVSPropertyOp11
 70
     1
102
RTVSPropertyOp12
 70
     1
102
RTVSPropertyOp13
 70
     1
102
RTVSPropertyOp14
 70
     1
102
RTVSPropertyOp15
 70
     1
102
RTVSPropertyOp16
 70
     1
102
RTVSPropertyOp17
 70
     1
102
RTVSPropertyOp18
 70
     1
102
RTVSPropertyOp19
 70
     1
102
RTVSPropertyOp20
 70
     1
102
RTVSPropertyOp21
 70
     1
102
RTVSPropertyOp22
 70
     1
102
RTVSPropertyOp23
 70
     1
102
RTVSPropertyOp24
 70
     1
102
RTVSPropertyOp25
 70
     1
102
RTVSPropertyOp26
 70
     1
102
RTVSPropertyOp27
 70
     1
102
RTVSPropertyOp28
 70
     1
102
RTVSPropertyOp29
 70
     1
102
RTVSPropertyOp30
 70
     1
102
RTVSPropertyOp31
 70
     1
102
RTVSPropertyOp32
 70
     1
  0
XRECORD
  5
96A
102
{ACAD_REACTORS
330
969
102
}
330
969
100
AcDbXrecord
280
     1
102
RTVSPropertyOp0
 70
     1
102
RTVSPropertyOp1
 70
     1
102
RTVSPropertyOp2
 70
     1
102
RTVSPropertyOp3
 70
     1
102
RTVSPropertyOp4
 70
     1
102
RTVSPropertyOp5
 70
     1
102
RTVSPropertyOp6
 70
     1
102
RTVSPropertyOp7
 70
     1
102
RTVSPropertyOp8
 70
     1
102
RTVSPropertyOp9
 70
     1
102
RTVSPropertyOp10
 70
     1
102
RTVSPropertyOp11
 70
     1
102
RTVSPropertyOp12
 70
     1
102
RTVSPropertyOp13
 70
     1
102
RTVSPropertyOp14
 70
     1
102
RTVSPropertyOp15
 70
     1
102
RTVSPropertyOp16
 70
     1
102
RTVSPropertyOp17
 70
     1
102
RTVSPropertyOp18
 70
     1
102
RTVSPropertyOp19
 70
     1
102
RTVSPropertyOp20
 70
     1
102
RTVSPropertyOp21
 70
     1
102
RTVSPropertyOp22
 70
     1
102
RTVSPropertyOp23
 70
     1
102
RTVSPropertyOp24
 70
     1
102
RTVSPropertyOp25
 70
     1
102
RTVSPropertyOp26
 70
     1
102
RTVSPropertyOp27
 70
     1
102
RTVSPropertyOp28
 70
     1
102
RTVSPropertyOp29
 70
     1
102
RTVSPropertyOp30
 70
     1
102
RTVSPropertyOp31
 70
     1
102
RTVSPropertyOp32
 70
     1
  0
XRECORD
  5
964
102
{ACAD_REACTORS
330
963
102
}
330
963
100
AcDbXrecord
280
     1
102
RTVSPropertyOp0
 70
     1
102
RTVSPropertyOp1
 70
     1
102
RTVSPropertyOp2
 70
     1
102
RTVSPropertyOp3
 70
     1
102
RTVSPropertyOp4
 70
     1
102
RTVSPropertyOp5
 70
     1
102
RTVSPropertyOp6
 70
     1
102
RTVSPropertyOp7
 70
     1
102
RTVSPropertyOp8
 70
     1
102
RTVSPropertyOp9
 70
     1
102
RTVSPropertyOp10
 70
     1
102
RTVSPropertyOp11
 70
     1
102
RTVSPropertyOp12
 70
     1
102
RTVSPropertyOp13
 70
     1
102
RTVSPropertyOp14
 70
     1
102
RTVSPropertyOp15
 70
     1
102
RTVSPropertyOp16
 70
     1
102
RTVSPropertyOp17
 70
     1
102
RTVSPropertyOp18
 70
     1
102
RTVSPropertyOp19
 70
     1
102
RTVSPropertyOp20
 70
     1
102
RTVSPropertyOp21
 70
     1
102
RTVSPropertyOp22
 70
     1
102
RTVSPropertyOp23
 70
     1
102
RTVSPropertyOp24
 70
     1
102
RTVSPropertyOp25
 70
     1
102
RTVSPropertyOp26
 70
     1
102
RTVSPropertyOp27
 70
     1
102
RTVSPropertyOp28
 70
     1
102
RTVSPropertyOp29
 70
     1
102
RTVSPropertyOp30
 70
     1
102
RTVSPropertyOp31
 70
     1
102
RTVSPropertyOp32
 70
     1
  0
XRECORD
  5
966
102
{ACAD_REACTORS
330
965
102
}
330
965
100
AcDbXrecord
280
     1
102
RTVSPropertyOp0
 70
     1
102
RTVSPropertyOp1
 70
     1
102
RTVSPropertyOp2
 70
     1
102
RTVSPropertyOp3
 70
     1
102
RTVSPropertyOp4
 70
     1
102
RTVSPropertyOp5
 70
     1
102
RTVSPropertyOp6
 70
     1
102
RTVSPropertyOp7
 70
     1
102
RTVSPropertyOp8
 70
     1
102
RTVSPropertyOp9
 70
     1
102
RTVSPropertyOp10
 70
     1
102
RTVSPropertyOp11
 70
     1
102
RTVSPropertyOp12
 70
     1
102
RTVSPropertyOp13
 70
     1
102
RTVSPropertyOp14
 70
     1
102
RTVSPropertyOp15
 70
     1
102
RTVSPropertyOp16
 70
     1
102
RTVSPropertyOp17
 70
     1
102
RTVSPropertyOp18
 70
     1
102
RTVSPropertyOp19
 70
     1
102
RTVSPropertyOp20
 70
     1
102
RTVSPropertyOp21
 70
     1
102
RTVSPropertyOp22
 70
     1
102
RTVSPropertyOp23
 70
     1
102
RTVSPropertyOp24
 70
     1
102
RTVSPropertyOp25
 70
     1
102
RTVSPropertyOp26
 70
     1
102
RTVSPropertyOp27
 70
     1
102
RTVSPropertyOp28
 70
     1
102
RTVSPropertyOp29
 70
     1
102
RTVSPropertyOp30
 70
     1
102
RTVSPropertyOp31
 70
     1
102
RTVSPropertyOp32
 70
     1
  0
XRECORD
  5
95C
102
{ACAD_REACTORS
330
95B
102
}
330
95B
100
AcDbXrecord
280
     1
102
RTVSPropertyOp0
 70
     1
102
RTVSPropertyOp1
 70
     1
102
RTVSPropertyOp2
 70
     1
102
RTVSPropertyOp3
 70
     1
102
RTVSPropertyOp4
 70
     1
102
RTVSPropertyOp5
 70
     1
102
RTVSPropertyOp6
 70
     1
102
RTVSPropertyOp7
 70
     1
102
RTVSPropertyOp8
 70
     1
102
RTVSPropertyOp9
 70
     1
102
RTVSPropertyOp10
 70
     1
102
RTVSPropertyOp11
 70
     1
102
RTVSPropertyOp12
 70
     1
102
RTVSPropertyOp13
 70
     1
102
RTVSPropertyOp14
 70
     1
102
RTVSPropertyOp15
 70
     1
102
RTVSPropertyOp16
 70
     1
102
RTVSPropertyOp17
 70
     1
102
RTVSPropertyOp18
 70
     1
102
RTVSPropertyOp19
 70
     1
102
RTVSPropertyOp20
 70
     1
102
RTVSPropertyOp21
 70
     1
102
RTVSPropertyOp22
 70
     1
102
RTVSPropertyOp23
 70
     1
102
RTVSPropertyOp24
 70
     1
102
RTVSPropertyOp25
 70
     1
102
RTVSPropertyOp26
 70
     1
102
RTVSPropertyOp27
 70
     1
102
RTVSPropertyOp28
 70
     1
102
RTVSPropertyOp29
 70
     1
102
RTVSPropertyOp30
 70
     1
102
RTVSPropertyOp31
 70
     1
102
RTVSPropertyOp32
 70
     1
  0
XRECORD
  5
950
102
{ACAD_REACTORS
330
94F
102
}
330
94F
100
AcDbXrecord
280
     1
102
RTVSPropertyOp0
 70
     1
102
RTVSPropertyOp1
 70
     1
102
RTVSPropertyOp2
 70
     1
102
RTVSPropertyOp3
 70
     1
102
RTVSPropertyOp4
 70
     1
102
RTVSPropertyOp5
 70
     1
102
RTVSPropertyOp6
 70
     1
102
RTVSPropertyOp7
 70
     1
102
RTVSPropertyOp8
 70
     1
102
RTVSPropertyOp9
 70
     1
102
RTVSPropertyOp10
 70
     1
102
RTVSPropertyOp11
 70
     1
102
RTVSPropertyOp12
 70
     1
102
RTVSPropertyOp13
 70
     1
102
RTVSPropertyOp14
 70
     1
102
RTVSPropertyOp15
 70
     1
102
RTVSPropertyOp16
 70
     1
102
RTVSPropertyOp17
 70
     1
102
RTVSPropertyOp18
 70
     1
102
RTVSPropertyOp19
 70
     1
102
RTVSPropertyOp20
 70
     1
102
RTVSPropertyOp21
 70
     1
102
RTVSPropertyOp22
 70
     1
102
RTVSPropertyOp23
 70
     1
102
RTVSPropertyOp24
 70
     1
102
RTVSPropertyOp25
 70
     1
102
RTVSPropertyOp26
 70
     1
102
RTVSPropertyOp27
 70
     1
102
RTVSPropertyOp28
 70
     1
102
RTVSPropertyOp29
 70
     1
102
RTVSPropertyOp30
 70
     1
102
RTVSPropertyOp31
 70
     1
102
RTVSPropertyOp32
 70
     1
  0
XRECORD
  5
968
102
{ACAD_REACTORS
330
967
102
}
330
967
100
AcDbXrecord
280
     1
102
RTVSPropertyOp0
 70
     1
102
RTVSPropertyOp1
 70
     1
102
RTVSPropertyOp2
 70
     1
102
RTVSPropertyOp3
 70
     1
102
RTVSPropertyOp4
 70
     1
102
RTVSPropertyOp5
 70
     1
102
RTVSPropertyOp6
 70
     1
102
RTVSPropertyOp7
 70
     1
102
RTVSPropertyOp8
 70
     1
102
RTVSPropertyOp9
 70
     1
102
RTVSPropertyOp10
 70
     1
102
RTVSPropertyOp11
 70
     1
102
RTVSPropertyOp12
 70
     1
102
RTVSPropertyOp13
 70
     1
102
RTVSPropertyOp14
 70
     1
102
RTVSPropertyOp15
 70
     1
102
RTVSPropertyOp16
 70
     1
102
RTVSPropertyOp17
 70
     1
102
RTVSPropertyOp18
 70
     1
102
RTVSPropertyOp19
 70
     1
102
RTVSPropertyOp20
 70
     1
102
RTVSPropertyOp21
 70
     1
102
RTVSPropertyOp22
 70
     1
102
RTVSPropertyOp23
 70
     1
102
RTVSPropertyOp24
 70
     1
102
RTVSPropertyOp25
 70
     1
102
RTVSPropertyOp26
 70
     1
102
RTVSPropertyOp27
 70
     1
102
RTVSPropertyOp28
 70
     1
102
RTVSPropertyOp29
 70
     1
102
RTVSPropertyOp30
 70
     1
102
RTVSPropertyOp31
 70
     1
102
RTVSPropertyOp32
 70
     1
  0
XRECORD
  5
940
102
{ACAD_REACTORS
330
93F
102
}
330
93F
100
AcDbXrecord
280
     1
330
43
  0
ENDSEC
  0
EOF
