  0
SECTION
  2
HEADER
  9
$ACADVER
  1
AC1015
  9
$ACADMAINTVER
 70
    20
  9
$DWGCODEPAGE
  3
ANSI_932
  9
$INSBASE
 10
0.0
 20
0.0
 30
0.0
  9
$EXTMIN
 10
-68.81421331534693
 20
161.2867502856338
 30
0.0
  9
$EXTMAX
 10
351.1857866846531
 20
458.2867502856338
 30
0.0
  9
$LIMMIN
 10
-68.81994691660384
 20
161.2933151705781
  9
$LIMMAX
 10
351.169036237693
 20
458.2616379244844
  9
$ORTHOMODE
 70
     1
  9
$REGENMODE
 70
     1
  9
$FILLMODE
 70
     1
  9
$QTEXTMODE
 70
     0
  9
$MIRRTEXT
 70
     0
  9
$LTSCALE
 40
1.0
  9
$ATTMODE
 70
     1
  9
$TEXTSIZE
 40
3.0
  9
$TRACEWID
 40
1.0
  9
$TEXTSTYLE
  7
ATOM
  9
$CLAYER
  8
guide
  9
$CELTYPE
  6
ByLayer
  9
$CECOLOR
 62
   256
  9
$CELTSCALE
 40
1.0
  9
$DISPSILH
 70
     0
  9
$DIMSCALE
 40
0.0
  9
$DIMASZ
 40
2.0
  9
$DIMEXO
 40
2.0
  9
$DIMDLI
 40
7.0
  9
$DIMRND
 40
0.0
  9
$DIMDLE
 40
0.0
  9
$DIMEXE
 40
1.0
  9
$DIMTP
 40
0.1
  9
$DIMTM
 40
0.1
  9
$DIMTXT
 40
3.0
  9
$DIMCEN
 40
-2.5
  9
$DIMTSZ
 40
0.0
  9
$DIMTOL
 70
     0
  9
$DIMLIM
 70
     0
  9
$DIMTIH
 70
     0
  9
$DIMTOH
 70
     0
  9
$DIMSE1
 70
     0
  9
$DIMSE2
 70
     0
  9
$DIMTAD
 70
     1
  9
$DIMZIN
 70
     8
  9
$DIMBLK
  1
Open30
  9
$DIMASO
 70
     1
  9
$DIMSHO
 70
     1
  9
$DIMPOST
  1

  9
$DIMAPOST
  1

  9
$DIMALT
 70
     0
  9
$DIMALTD
 70
     3
  9
$DIMALTF
 40
0.03937007874016
  9
$DIMLFAC
 40
1.0
  9
$DIMTOFL
 70
     1
  9
$DIMTVP
 40
0.0
  9
$DIMTIX
 70
     0
  9
$DIMSOXD
 70
     0
  9
$DIMSAH
 70
     0
  9
$DIMBLK1
  1

  9
$DIMBLK2
  1

  9
$DIMSTYLE
  2
ATOM
  9
$DIMCLRD
 70
     0
  9
$DIMCLRE
 70
     0
  9
$DIMCLRT
 70
     3
  9
$DIMTFAC
 40
0.4999999999999998
  9
$DIMGAP
 40
0.625
  9
$DIMJUST
 70
     0
  9
$DIMSD1
 70
     0
  9
$DIMSD2
 70
     0
  9
$DIMTOLJ
 70
     0
  9
$DIMTZIN
 70
     8
  9
$DIMALTZ
 70
     0
  9
$DIMALTTZ
 70
     0
  9
$DIMUPT
 70
     0
  9
$DIMDEC
 70
     2
  9
$DIMTDEC
 70
     2
  9
$DIMALTU
 70
     2
  9
$DIMALTTD
 70
     3
  9
$DIMTXSTY
  7
ATOM
  9
$DIMAUNIT
 70
     0
  9
$DIMADEC
 70
     0
  9
$DIMALTRND
 40
0.0
  9
$DIMAZIN
 70
     0
  9
$DIMDSEP
 70
    46
  9
$DIMATFIT
 70
     0
  9
$DIMFRAC
 70
     2
  9
$DIMLDRBLK
  1
Open30
  9
$DIMLUNIT
 70
     2
  9
$DIMLWD
 70
    -2
  9
$DIMLWE
 70
    -2
  9
$DIMTMOVE
 70
     1
  9
$LUNITS
 70
     2
  9
$LUPREC
 70
     4
  9
$SKETCHINC
 40
1.0
  9
$FILLETRAD
 40
0.0
  9
$AUNITS
 70
     0
  9
$AUPREC
 70
     0
  9
$MENU
  1
.
  9
$ELEVATION
 40
0.0
  9
$PELEVATION
 40
0.0
  9
$THICKNESS
 40
0.0
  9
$LIMCHECK
 70
     0
  9
$CHAMFERA
 40
0.0
  9
$CHAMFERB
 40
0.0
  9
$CHAMFERC
 40
0.0
  9
$CHAMFERD
 40
0.0
  9
$SKPOLY
 70
     0
  9
$TDCREATE
 40
2456618.421585648
  9
$TDUCREATE
 40
2456618.046593449
  9
$TDUPDATE
 40
2457822.564606482
  9
$TDUUPDATE
 40
2457822.189606482
  9
$TDINDWG
 40
0.0032210648
  9
$TDUSRTIMER
 40
0.0032210648
  9
$USRTIMER
 70
     1
  9
$ANGBASE
 50
0.0
  9
$ANGDIR
 70
     0
  9
$PDMODE
 70
     0
  9
$PDSIZE
 40
0.0
  9
$PLINEWID
 40
0.0
  9
$SPLFRAME
 70
     0
  9
$SPLINETYPE
 70
     6
  9
$SPLINESEGS
 70
     8
  9
$HANDSEED
  5
B18
  9
$SURFTAB1
 70
     6
  9
$SURFTAB2
 70
     6
  9
$SURFTYPE
 70
     6
  9
$SURFU
 70
     6
  9
$SURFV
 70
     6
  9
$UCSBASE
  2

  9
$UCSNAME
  2

  9
$UCSORG
 10
0.0
 20
0.0
 30
0.0
  9
$UCSXDIR
 10
1.0
 20
0.0
 30
0.0
  9
$UCSYDIR
 10
0.0
 20
1.0
 30
0.0
  9
$UCSORTHOREF
  2

  9
$UCSORTHOVIEW
 70
     0
  9
$UCSORGTOP
 10
0.0
 20
0.0
 30
0.0
  9
$UCSORGBOTTOM
 10
0.0
 20
0.0
 30
0.0
  9
$UCSORGLEFT
 10
0.0
 20
0.0
 30
0.0
  9
$UCSORGRIGHT
 10
0.0
 20
0.0
 30
0.0
  9
$UCSORGFRONT
 10
0.0
 20
0.0
 30
0.0
  9
$UCSORGBACK
 10
0.0
 20
0.0
 30
0.0
  9
$PUCSBASE
  2

  9
$PUCSNAME
  2

  9
$PUCSORG
 10
0.0
 20
0.0
 30
0.0
  9
$PUCSXDIR
 10
1.0
 20
0.0
 30
0.0
  9
$PUCSYDIR
 10
0.0
 20
1.0
 30
0.0
  9
$PUCSORTHOREF
  2

  9
$PUCSORTHOVIEW
 70
     0
  9
$PUCSORGTOP
 10
0.0
 20
0.0
 30
0.0
  9
$PUCSORGBOTTOM
 10
0.0
 20
0.0
 30
0.0
  9
$PUCSORGLEFT
 10
0.0
 20
0.0
 30
0.0
  9
$PUCSORGRIGHT
 10
0.0
 20
0.0
 30
0.0
  9
$PUCSORGFRONT
 10
0.0
 20
0.0
 30
0.0
  9
$PUCSORGBACK
 10
0.0
 20
0.0
 30
0.0
  9
$USERI1
 70
     0
  9
$USERI2
 70
     0
  9
$USERI3
 70
     0
  9
$USERI4
 70
     0
  9
$USERI5
 70
     0
  9
$USERR1
 40
0.0
  9
$USERR2
 40
0.0
  9
$USERR3
 40
0.0
  9
$USERR4
 40
0.0
  9
$USERR5
 40
0.0
  9
$WORLDVIEW
 70
     1
  9
$SHADEDGE
 70
     3
  9
$SHADEDIF
 70
    70
  9
$TILEMODE
 70
     1
  9
$MAXACTVP
 70
    64
  9
$PINSBASE
 10
0.0
 20
0.0
 30
0.0
  9
$PLIMCHECK
 70
     0
  9
$PEXTMIN
 10
1.000000000000000E+20
 20
1.000000000000000E+20
 30
1.000000000000000E+20
  9
$PEXTMAX
 10
-1.000000000000000E+20
 20
-1.000000000000000E+20
 30
-1.000000000000000E+20
  9
$PLIMMIN
 10
0.0
 20
0.0
  9
$PLIMMAX
 10
12.0
 20
9.0
  9
$UNITMODE
 70
     0
  9
$VISRETAIN
 70
     1
  9
$PLINEGEN
 70
     0
  9
$PSLTSCALE
 70
     1
  9
$TREEDEPTH
 70
  3020
  9
$CMLSTYLE
  2
Standard
  9
$CMLJUST
 70
     0
  9
$CMLSCALE
 40
10.0
  9
$PROXYGRAPHICS
 70
     1
  9
$MEASUREMENT
 70
     1
  9
$CELWEIGHT
370
    -1
  9
$ENDCAPS
280
     0
  9
$JOINSTYLE
280
     0
  9
$LWDISPLAY
290
     0
  9
$INSUNITS
 70
     4
  9
$HYPERLINKBASE
  1

  9
$STYLESHEET
  1

  9
$XEDIT
290
     1
  9
$CEPSNTYPE
380
     0
  9
$PSTYLEMODE
290
     0
  9
$FINGERPRINTGUID
  2
{8E6D765C-92F6-4F11-A986-E97FFD8DCF11}
  9
$VERSIONGUID
  2
{81DBA8B0-FDC8-7346-BF7B-8979AF71BA6F}
  9
$EXTNAMES
290
     1
  9
$PSVPSCALE
 40
0.0
  9
$OLESTARTUP
290
     0
  0
ENDSEC
  0
SECTION
  2
CLASSES
  0
CLASS
  1
ACDBDICTIONARYWDFLT
  2
AcDbDictionaryWithDefault
  3
ObjectDBX Classes
 90
        0
280
     0
281
     0
  0
CLASS
  1
MATERIAL
  2
AcDbMaterial
  3
ObjectDBX Classes
 90
     1153
280
     0
281
     0
  0
CLASS
  1
VISUALSTYLE
  2
AcDbVisualStyle
  3
ObjectDBX Classes
 90
     4095
280
     0
281
     0
  0
CLASS
  1
SCALE
  2
AcDbScale
  3
ObjectDBX Classes
 90
     1153
280
     0
281
     0
  0
CLASS
  1
TABLESTYLE
  2
AcDbTableStyle
  3
ObjectDBX Classes
 90
     4095
280
     0
281
     0
  0
CLASS
  1
MLEADERSTYLE
  2
AcDbMLeaderStyle
  3
ACDB_MLEADERSTYLE_CLASS
 90
     4095
280
     0
281
     0
  0
CLASS
  1
DIMASSOC
  2
AcDbDimAssoc
  3
"AcDbDimAssoc|Product Desc:     AcDim ARX App For Dimension|Company:          Autodesk, Inc.|WEB Address:      www.autodesk.com"
 90
        0
280
     0
281
     0
  0
CLASS
  1
ACDB_ALDIMOBJECTCONTEXTDATA_CLASS
  2
AcDbAlignedDimensionObjectContextData
  3
ObjectDBX Classes
 90
    33921
280
     0
281
     0
  0
CLASS
  1
ACDB_LEADEROBJECTCONTEXTDATA_CLASS
  2
AcDbLeaderObjectContextData
  3
ObjectDBX Classes
 90
    33921
280
     0
281
     0
  0
CLASS
  1
ACDB_MTEXTOBJECTCONTEXTDATA_CLASS
  2
AcDbMTextObjectContextData
  3
ObjectDBX Classes
 90
    33921
280
     0
281
     0
  0
CLASS
  1
MULTILEADER
  2
AcDbMLeader
  3
ACDB_MLEADER_CLASS
 90
     1025
280
     0
281
     1
  0
CLASS
  1
ACDB_MLEADEROBJECTCONTEXTDATA_CLASS
  2
AcDbMLeaderObjectContextData
  3
ObjectDBX Classes
 90
    33921
280
     0
281
     0
  0
CLASS
  1
ACDB_RADIMOBJECTCONTEXTDATA_CLASS
  2
AcDbRadialDimensionObjectContextData
  3
ObjectDBX Classes
 90
    33921
280
     0
281
     0
  0
CLASS
  1
SORTENTSTABLE
  2
AcDbSortentsTable
  3
ObjectDBX Classes
 90
        0
280
     0
281
     0
  0
CLASS
  1
DICTIONARYVAR
  2
AcDbDictionaryVar
  3
ObjectDBX Classes
 90
        0
280
     0
281
     0
  0
CLASS
  1
CELLSTYLEMAP
  2
AcDbCellStyleMap
  3
ObjectDBX Classes
 90
     1152
280
     0
281
     0
  0
CLASS
  1
ACDBPLACEHOLDER
  2
AcDbPlaceHolder
  3
ObjectDBX Classes
 90
        0
280
     0
281
     0
  0
CLASS
  1
LAYOUT
  2
AcDbLayout
  3
ObjectDBX Classes
 90
        0
280
     0
281
     0
  0
CLASS
  1
ACDBSECTIONVIEWSTYLE
  2
AcDbSectionViewStyle
  3
ObjectDBX Classes
 90
     1025
280
     0
281
     0
  0
CLASS
  1
ACDBDETAILVIEWSTYLE
  2
AcDbDetailViewStyle
  3
ObjectDBX Classes
 90
     1025
280
     0
281
     0
  0
ENDSEC
  0
SECTION
  2
TABLES
  0
TABLE
  2
VPORT
  5
8
330
0
100
AcDbSymbolTable
 70
     1
  0
VPORT
  5
57
330
8
100
AcDbSymbolTableRecord
100
AcDbViewportTableRecord
  2
*Active
 70
     0
 10
0.0
 20
0.0
 11
1.0
 21
1.0
 12
151.3201081639138
 22
309.9731961297472
 13
0.0
 23
0.0
 14
10.0
 24
10.0
 15
10.0
 25
10.0
 16
0.0
 26
0.0
 36
1.0
 17
0.0
 27
0.0
 37
0.0
 40
303.1367805428082
 41
2.115621156211562
 42
50.0
 43
0.0
 44
0.0
 50
0.0
 51
0.0
 71
     0
 72
  1000
 73
     1
 74
     1
 75
     0
 76
     0
 77
     0
 78
     0
281
     0
 65
     1
110
0.0
120
0.0
130
0.0
111
1.0
121
0.0
131
0.0
112
0.0
122
1.0
132
0.0
 79
     0
146
0.0
1001
ACAD_NAV_VCDISPLAY
1070
     3
  0
ENDTAB
  0
TABLE
  2
LTYPE
  5
5
330
0
100
AcDbSymbolTable
 70
     6
  0
LTYPE
  5
5B
330
5
100
AcDbSymbolTableRecord
100
AcDbLinetypeTableRecord
  2
ByBlock
 70
     0
  3

 72
    65
 73
     0
 40
0.0
  0
LTYPE
  5
5C
330
5
100
AcDbSymbolTableRecord
100
AcDbLinetypeTableRecord
  2
ByLayer
 70
     0
  3

 72
    65
 73
     0
 40
0.0
  0
LTYPE
  5
5D
330
5
100
AcDbSymbolTableRecord
100
AcDbLinetypeTableRecord
  2
Continuous
 70
     0
  3
Solid line
 72
    65
 73
     0
 40
0.0
  0
LTYPE
  5
78
330
5
100
AcDbSymbolTableRecord
100
AcDbLinetypeTableRecord
  2
JIS_08_15
 70
     0
  3
1SASEN15 ____ _ ____ _ ____ _ ____ _ ____
 72
    65
 73
     4
 40
17.25
 49
15.0
 74
     0
 49
-0.75
 74
     0
 49
0.75
 74
     0
 49
-0.75
 74
     0
  0
LTYPE
  5
79
330
5
100
AcDbSymbolTableRecord
100
AcDbLinetypeTableRecord
  2
JIS_02_1.0
 70
     0
  3
HIDDEN01 _ _ _ _ _ _ _ _ _ _ _ _ _ _ _ _ _
 72
    65
 73
     2
 40
2.0
 49
1.0
 74
     0
 49
-1.0
 74
     0
  0
LTYPE
  5
7A
330
5
100
AcDbSymbolTableRecord
100
AcDbLinetypeTableRecord
  2
JIS_09_15
 70
     0
  3
2SASEN15 ___ _ _ ___ _ _ ___ _ _ ___ _ _ ___
 72
    65
 73
     6
 40
18.9
 49
15.0
 74
     0
 49
-0.9
 74
     0
 49
0.6
 74
     0
 49
-0.9
 74
     0
 49
0.6
 74
     0
 49
-0.9
 74
     0
  0
LTYPE
  5
7B
330
5
100
AcDbSymbolTableRecord
100
AcDbLinetypeTableRecord
  2
CENTER
 70
     0
  3
___ _ ___ _ __
 72
    65
 73
     4
 40
13.0
 49
8.5
 74
     0
 49
-1.5
 74
     0
 49
1.5
 74
     0
 49
-1.5
 74
     0
  0
LTYPE
  5
7C
330
5
100
AcDbSymbolTableRecord
100
AcDbLinetypeTableRecord
  2
HIDDEN
 70
     0
  3
__ __ __ __ __
 72
    65
 73
     2
 40
3.0
 49
2.0
 74
     0
 49
-1.0
 74
     0
  0
ENDTAB
  0
TABLE
  2
LAYER
  5
2
330
0
100
AcDbSymbolTable
 70
    19
  0
LAYER
  5
54
102
{ACAD_XDICTIONARY
360
A80
102
}
330
2
100
AcDbSymbolTableRecord
100
AcDbLayerTableRecord
  2
0
 70
     0
 62
     7
  6
Continuous
370
    35
390
8A
1001
AcAecLayerStandard
1000

1000

  0
LAYER
  5
75
330
2
100
AcDbSymbolTableRecord
100
AcDbLayerTableRecord
  2
Defpoints
 70
     0
 62
     7
  6
Continuous
290
     0
370
    -3
390
8A
1001
AcAecLayerStandard
1000

1000

  0
LAYER
  5
9E
102
{ACAD_XDICTIONARY
360
9F
102
}
330
2
100
AcDbSymbolTableRecord
100
AcDbLayerTableRecord
  2
viewports
 70
     0
 62
     5
  6
Continuous
290
     0
370
    18
390
8A
1001
AcAecLayerStandard
1000

1000

  0
LAYER
  5
A3
102
{ACAD_XDICTIONARY
360
A4
102
}
330
2
100
AcDbSymbolTableRecord
100
AcDbLayerTableRecord
  2
flame
 70
     0
 62
     4
  6
Continuous
370
    18
390
8A
1001
AcAecLayerStandard
1000

1000

  0
LAYER
  5
267
102
{ACAD_XDICTIONARY
360
268
102
}
330
2
100
AcDbSymbolTableRecord
100
AcDbLayerTableRecord
  2
# base
 70
     0
 62
    40
  6
Continuous
370
    35
390
8A
1001
AcAecLayerStandard
1000

1000

  0
LAYER
  5
273
102
{ACAD_XDICTIONARY
360
274
102
}
330
2
100
AcDbSymbolTableRecord
100
AcDbLayerTableRecord
  2
hidden
 70
     0
 62
     3
  6
JIS_02_1.0
370
    18
390
8A
1001
AcAecLayerStandard
1000

1000

  0
LAYER
  5
27C
102
{ACAD_XDICTIONARY
360
27D
102
}
330
2
100
AcDbSymbolTableRecord
100
AcDbLayerTableRecord
  2
center
 70
     0
 62
     2
  6
JIS_08_15
370
    18
390
8A
1001
AcAecLayerStandard
1000

1000

  0
LAYER
  5
286
102
{ACAD_XDICTIONARY
360
287
102
}
330
2
100
AcDbSymbolTableRecord
100
AcDbLayerTableRecord
  2
# cover
 70
     0
 62
    90
  6
Continuous
370
    35
390
8A
1001
AcAecLayerStandard
1000

1000

  0
LAYER
  5
2AB
102
{ACAD_XDICTIONARY
360
2AC
102
}
330
2
100
AcDbSymbolTableRecord
100
AcDbLayerTableRecord
  2
# holder_frm
 70
     0
 62
   160
  6
Continuous
370
    35
390
8A
1001
AcAecLayerStandard
1000

1000

  0
LAYER
  5
2B9
102
{ACAD_XDICTIONARY
360
2BA
102
}
330
2
100
AcDbSymbolTableRecord
100
AcDbLayerTableRecord
  2
# holder_dr
 70
     0
 62
   220
  6
Continuous
370
    35
390
8A
1001
AcAecLayerStandard
1000

1000

  0
LAYER
  5
2F3
102
{ACAD_XDICTIONARY
360
2F4
102
}
330
2
100
AcDbSymbolTableRecord
100
AcDbLayerTableRecord
  2
# brkc_frm
 70
     0
 62
   220
  6
Continuous
370
    35
390
8A
1001
AcAecLayerStandard
1000

1000

  0
LAYER
  5
303
102
{ACAD_XDICTIONARY
360
304
102
}
330
2
100
AcDbSymbolTableRecord
100
AcDbLayerTableRecord
  2
# shaft_frm
 70
     0
 62
   181
  6
Continuous
370
    35
390
8A
1001
AcAecLayerStandard
1000

1000

  0
LAYER
  5
33B
102
{ACAD_XDICTIONARY
360
33C
102
}
330
2
100
AcDbSymbolTableRecord
100
AcDbLayerTableRecord
  2
# slider
 70
     0
 62
   130
  6
Continuous
370
    35
390
8A
1001
AcAecLayerStandard
1000

1000

  0
LAYER
  5
359
102
{ACAD_XDICTIONARY
360
35A
102
}
330
2
100
AcDbSymbolTableRecord
100
AcDbLayerTableRecord
  2
# brkt_dr
 70
     0
 62
   220
  6
Continuous
370
    35
390
8A
1001
AcAecLayerStandard
1000

1000

  0
LAYER
  5
3B0
102
{ACAD_XDICTIONARY
360
3B1
102
}
330
2
100
AcDbSymbolTableRecord
100
AcDbLayerTableRecord
  2
phantom
 70
     0
 62
     6
  6
JIS_09_15
370
    18
390
8A
1001
AcAecLayerStandard
1000

1000

  0
LAYER
  5
43C
102
{ACAD_XDICTIONARY
360
43D
102
}
330
2
100
AcDbSymbolTableRecord
100
AcDbLayerTableRecord
  2
dim
 70
     0
 62
     2
  6
Continuous
370
    18
390
8A
1001
AcAecLayerStandard
1000

1000

  0
LAYER
  5
47E
102
{ACAD_XDICTIONARY
360
47F
102
}
330
2
100
AcDbSymbolTableRecord
100
AcDbLayerTableRecord
  2
text
 70
     0
 62
     3
  6
Continuous
370
    18
390
8A
1001
AcAecLayerStandard
1000

1000

  0
LAYER
  5
5E0
102
{ACAD_XDICTIONARY
360
5E1
102
}
330
2
100
AcDbSymbolTableRecord
100
AcDbLayerTableRecord
  2
hatch
 70
     0
 62
     3
  6
Continuous
370
    18
390
8A
1001
AcAecLayerStandard
1000

1000

  0
LAYER
  5
628
102
{ACAD_XDICTIONARY
360
629
102
}
330
2
100
AcDbSymbolTableRecord
100
AcDbLayerTableRecord
  2
guide
 70
     0
 62
     1
  6
Continuous
290
     0
370
    18
390
8A
1001
AcAecLayerStandard
1000

1000

  0
ENDTAB
  0
TABLE
  2
STYLE
  5
3
330
0
100
AcDbSymbolTable
 70
     4
  0
STYLE
  5
55
330
3
100
AcDbSymbolTableRecord
100
AcDbTextStyleTableRecord
  2
Standard
 70
     0
 40
0.0
 41
1.0
 50
0.0
 71
     0
 42
2.5
  3
txt
  4

  0
STYLE
  5
5A
330
3
100
AcDbSymbolTableRecord
100
AcDbTextStyleTableRecord
  2
Annotative
 70
     0
 40
0.0
 41
1.0
 50
0.0
 71
     0
 42
0.2
  3
txt
  4

1001
AcadAnnotative
1000
AnnotativeData
1002
{
1070
     1
1070
     1
1002
}
  0
STYLE
  5
76
330
3
100
AcDbSymbolTableRecord
100
AcDbTextStyleTableRecord
  2
ATOM
 70
     0
 40
0.0
 41
0.9
 50
0.0
 71
     0
 42
3.0
  3
txt.shx
  4
extfont.shx
1001
AcadAnnotative
1000
AnnotativeData
1002
{
1070
     1
1070
     1
1002
}
  0
STYLE
  5
77
330
3
100
AcDbSymbolTableRecord
100
AcDbTextStyleTableRecord
  2
VISION_STANDARD
 70
     0
 40
0.0
 41
0.6
 50
0.0
 71
     0
 42
3.2
  3
TXT
  4
BIGFONT
  0
ENDTAB
  0
TABLE
  2
VIEW
  5
6
330
0
100
AcDbSymbolTable
 70
     0
  0
ENDTAB
  0
TABLE
  2
UCS
  5
7
330
0
100
AcDbSymbolTable
 70
     0
  0
ENDTAB
  0
TABLE
  2
APPID
  5
9
330
0
100
AcDbSymbolTable
 70
    11
  0
APPID
  5
56
330
9
100
AcDbSymbolTableRecord
100
AcDbRegAppTableRecord
  2
ACAD
 70
     0
  0
APPID
  5
5E
330
9
100
AcDbSymbolTableRecord
100
AcDbRegAppTableRecord
  2
AcadAnnotative
 70
     0
  0
APPID
  5
74
330
9
100
AcDbSymbolTableRecord
100
AcDbRegAppTableRecord
  2
ACAD_PSEXT
 70
     0
  0
APPID
  5
86
330
9
100
AcDbSymbolTableRecord
100
AcDbRegAppTableRecord
  2
ACAD_DSTYLE_DIMBREAK
 70
     0
  0
APPID
  5
87
330
9
100
AcDbSymbolTableRecord
100
AcDbRegAppTableRecord
  2
ACAD_DSTYLE_DIMJAG
 70
     0
  0
APPID
  5
88
330
9
100
AcDbSymbolTableRecord
100
AcDbRegAppTableRecord
  2
ACAD_DSTYLE_DIMTALN
 70
     0
  0
APPID
  5
A1
330
9
100
AcDbSymbolTableRecord
100
AcDbRegAppTableRecord
  2
AcAecLayerStandard
 70
     0
  0
APPID
  5
A6
330
9
100
AcDbSymbolTableRecord
100
AcDbRegAppTableRecord
  2
AcDbBlockRepETag
 70
     0
  0
APPID
  5
4E7
330
9
100
AcDbSymbolTableRecord
100
AcDbRegAppTableRecord
  2
ACAD_DSTYLE_DIMRADIAL_EXTENSION
 70
     0
  0
APPID
  5
5C3
330
9
100
AcDbSymbolTableRecord
100
AcDbRegAppTableRecord
  2
ACAD_MLEADERVER
 70
     0
  0
APPID
  5
A8A
330
9
100
AcDbSymbolTableRecord
100
AcDbRegAppTableRecord
  2
ACAD_NAV_VCDISPLAY
 70
     0
  0
ENDTAB
  0
TABLE
  2
DIMSTYLE
  5
A
330
0
100
AcDbSymbolTable
 70
     3
100
AcDbDimStyleTable
 71
     1
340
7E
  0
DIMSTYLE
105
58
330
A
100
AcDbSymbolTableRecord
100
AcDbDimStyleTableRecord
  2
Standard
 70
     0
340
55
  0
DIMSTYLE
105
59
330
A
100
AcDbSymbolTableRecord
100
AcDbDimStyleTableRecord
  2
Annotative
 70
     0
340
55
1001
AcadAnnotative
1000
AnnotativeData
1002
{
1070
     1
1070
     1
1002
}
  0
DIMSTYLE
105
7E
330
A
100
AcDbSymbolTableRecord
100
AcDbDimStyleTableRecord
  2
ATOM
 70
     0
 40
0.0
 41
2.0
 42
2.0
 43
7.0
 44
1.0
 47
0.1
 48
0.1
 73
     0
 74
     0
 77
     1
 78
     8
140
3.0
141
-2.5
143
0.03937007874016
146
0.4999999999999998
147
0.625
171
     3
172
     1
178
     3
271
     2
272
     2
274
     3
276
     2
279
     1
283
     0
284
     8
289
     0
340
76
341
80
342
80
1001
ACAD_DSTYLE_DIMBREAK
1070
   391
1040
3.75
1001
AcadAnnotative
1000
AnnotativeData
1002
{
1070
     1
1070
     1
1002
}
1001
ACAD_DSTYLE_DIMJAG
1070
   388
1040
1.5
1001
ACAD_DSTYLE_DIMTALN
1070
   392
1070
     0
  0
ENDTAB
  0
TABLE
  2
BLOCK_RECORD
  5
1
330
0
100
AcDbSymbolTable
 70
    22
  0
BLOCK_RECORD
  5
6C
102
{ACAD_XDICTIONARY
360
9A0
102
}
330
1
100
AcDbSymbolTableRecord
100
AcDbBlockTableRecord
  2
*Model_Space
340
6F
  0
BLOCK_RECORD
  5
68
102
{ACAD_XDICTIONARY
360
9A1
102
}
330
1
100
AcDbSymbolTableRecord
100
AcDbBlockTableRecord
  2
*Paper_Space
340
6B
  0
BLOCK_RECORD
  5
70
330
1
100
AcDbSymbolTableRecord
100
AcDbBlockTableRecord
  2
*Paper_Space0
340
73
  0
BLOCK_RECORD
  5
80
330
1
100
AcDbSymbolTableRecord
100
AcDbBlockTableRecord
  2
_Open30
340
0
310
2800000020000000200000000100080000000000000400000000000000000000000000000000000000000000000080000080000000808000800000008000800080800000C0C0C000C0DCC000F0CAA6000020400000206000002080000020A0000020C0000020E00000400000004020000040400000406000004080000040A0
310
000040C0000040E00000600000006020000060400000606000006080000060A0000060C0000060E00000800000008020000080400000806000008080000080A0000080C0000080E00000A0000000A0200000A0400000A0600000A0800000A0A00000A0C00000A0E00000C0000000C0200000C0400000C0600000C0800000C0
310
A00000C0C00000C0E00000E0000000E0200000E0400000E0600000E0800000E0A00000E0C00000E0E00040000000400020004000400040006000400080004000A0004000C0004000E00040200000402020004020400040206000402080004020A0004020C0004020E000404000004040200040404000404060004040800040
310
40A0004040C0004040E00040600000406020004060400040606000406080004060A0004060C0004060E00040800000408020004080400040806000408080004080A0004080C0004080E00040A0000040A0200040A0400040A0600040A0800040A0A00040A0C00040A0E00040C0000040C0200040C0400040C0600040C08000
310
40C0A00040C0C00040C0E00040E0000040E0200040E0400040E0600040E0800040E0A00040E0C00040E0E00080000000800020008000400080006000800080008000A0008000C0008000E00080200000802020008020400080206000802080008020A0008020C0008020E00080400000804020008040400080406000804080
310
008040A0008040C0008040E00080600000806020008060400080606000806080008060A0008060C0008060E00080800000808020008080400080806000808080008080A0008080C0008080E00080A0000080A0200080A0400080A0600080A0800080A0A00080A0C00080A0E00080C0000080C0200080C0400080C0600080C0
310
800080C0A00080C0C00080C0E00080E0000080E0200080E0400080E0600080E0800080E0A00080E0C00080E0E000C0000000C0002000C0004000C0006000C0008000C000A000C000C000C000E000C0200000C0202000C0204000C0206000C0208000C020A000C020C000C020E000C0400000C0402000C0404000C0406000C0
310
408000C040A000C040C000C040E000C0600000C0602000C0604000C0606000C0608000C060A000C060C000C060E000C0800000C0802000C0804000C0806000C0808000C080A000C080C000C080E000C0A00000C0A02000C0A04000C0A06000C0A08000C0A0A000C0A0C000C0A0E000C0C00000C0C02000C0C04000C0C06000
310
C0C08000C0C0A000F0FBFF00A4A0A000808080000000FF0000FF000000FFFF00FF000000FF00FF00FFFF0000FFFFFF0000000000000000000000000000000000000000000000000000000000000000000000000000000000000000000000000000000000000000000000000000000000000000000000000000000000000000
310
00000000000000000000000000000000000000000000000000000000000000000000000000000000000000000000000000000000000000000000000000000000000000000000000000000000000000000000000000000000000000000000000000000000000000000000000000000000000000000000000000000000000000
310
000000000000000000000000000000000000000000000000000000000000000000000000000000000000000000000000000000FFFF0000000000000000000000000000000000000000000000000000000000000000FFFFFFFF0000000000000000000000000000000000000000000000000000000000000000FFFFFFFF0000
310
000000000000000000000000000000000000000000000000000000000000FFFFFF0000000000000000000000000000000000000000000000000000000000000000FFFFFFFF0000000000000000000000000000000000000000000000000000000000000000FFFFFF0000000000000000000000000000000000000000000000
310
000000000000000000FFFFFFFF0000000000000000000000000000000000000000000000000000000000000000FFFFFFFF00000000FFFFFFFFFFFFFFFFFFFFFFFFFFFFFFFFFFFFFFFFFFFFFFFFFFFFFFFFFFFF00000000000000000000000000000000000000000000000000FFFFFFFF000000000000000000000000000000
310
000000000000000000FFFFFFFF000000000000000000000000000000000000000000000000FFFFFFFF000000000000000000000000000000000000000000000000FFFFFFFF000000000000000000000000000000000000000000000000FFFFFFFF000000000000000000000000000000000000000000000000FFFFFFFF0000
310
0000000000000000000000000000000000000000000000FFFFFF0000000000000000000000000000000000000000000000000000000000000000000000000000000000000000000000000000000000000000000000000000000000000000000000000000000000000000000000000000000000000000000000000000000000
310
00000000000000000000000000000000000000000000000000000000000000000000000000000000000000000000000000000000000000000000000000000000000000000000000000000000000000000000000000000000000000000000000000000000000000000000000000000000000000000000000000000000000000
310
0000000000000000000000000000000000000000000000000000000000000000000000000000000000000000000000000000000000000000
102
{BLKREFS
331
9A7
331
9A8
331
9B0
331
9B1
331
9B9
331
9BA
331
9C2
331
9C3
331
9CB
331
9CC
331
9D9
331
9DA
331
9E6
331
9E7
331
9EE
331
9F9
331
9FA
331
A06
331
A07
331
A13
331
A14
331
A1B
331
A1C
331
A24
331
A25
331
A32
331
A33
331
A3A
331
A3B
331
A43
331
A44
331
A51
331
A52
331
A5E
331
A5F
331
A6B
331
A6C
102
}
  0
BLOCK_RECORD
  5
484
330
1
100
AcDbSymbolTableRecord
100
AcDbBlockTableRecord
  2
_TagCircle
340
0
1001
ACAD
1000
DesignCenter Data
1002
{
1070
     1
1070
     4
1002
}
  0
BLOCK_RECORD
  5
62D
330
1
100
AcDbSymbolTableRecord
100
AcDbBlockTableRecord
  2
*D3
340
0
  0
BLOCK_RECORD
  5
639
330
1
100
AcDbSymbolTableRecord
100
AcDbBlockTableRecord
  2
*D4
340
0
  0
BLOCK_RECORD
  5
645
330
1
100
AcDbSymbolTableRecord
100
AcDbBlockTableRecord
  2
*D5
340
0
  0
BLOCK_RECORD
  5
651
330
1
100
AcDbSymbolTableRecord
100
AcDbBlockTableRecord
  2
*D6
340
0
  0
BLOCK_RECORD
  5
65D
330
1
100
AcDbSymbolTableRecord
100
AcDbBlockTableRecord
  2
*D7
340
0
  0
BLOCK_RECORD
  5
669
330
1
100
AcDbSymbolTableRecord
100
AcDbBlockTableRecord
  2
*D8
340
0
  0
BLOCK_RECORD
  5
679
330
1
100
AcDbSymbolTableRecord
100
AcDbBlockTableRecord
  2
*D9
340
0
  0
BLOCK_RECORD
  5
689
330
1
100
AcDbSymbolTableRecord
100
AcDbBlockTableRecord
  2
*D10
340
0
  0
BLOCK_RECORD
  5
692
330
1
100
AcDbSymbolTableRecord
100
AcDbBlockTableRecord
  2
*D11
340
0
  0
BLOCK_RECORD
  5
6A2
330
1
100
AcDbSymbolTableRecord
100
AcDbBlockTableRecord
  2
*D12
340
0
  0
BLOCK_RECORD
  5
6B2
330
1
100
AcDbSymbolTableRecord
100
AcDbBlockTableRecord
  2
*D13
340
0
  0
BLOCK_RECORD
  5
6C2
330
1
100
AcDbSymbolTableRecord
100
AcDbBlockTableRecord
  2
*D14
340
0
  0
BLOCK_RECORD
  5
6CE
330
1
100
AcDbSymbolTableRecord
100
AcDbBlockTableRecord
  2
*D15
340
0
  0
BLOCK_RECORD
  5
6DA
330
1
100
AcDbSymbolTableRecord
100
AcDbBlockTableRecord
  2
*D16
340
0
  0
BLOCK_RECORD
  5
6EA
330
1
100
AcDbSymbolTableRecord
100
AcDbBlockTableRecord
  2
*D17
340
0
  0
BLOCK_RECORD
  5
6F6
330
1
100
AcDbSymbolTableRecord
100
AcDbBlockTableRecord
  2
*D18
340
0
  0
BLOCK_RECORD
  5
702
330
1
100
AcDbSymbolTableRecord
100
AcDbBlockTableRecord
  2
*D19
340
0
  0
BLOCK_RECORD
  5
712
330
1
100
AcDbSymbolTableRecord
100
AcDbBlockTableRecord
  2
*D20
340
0
  0
BLOCK_RECORD
  5
722
330
1
100
AcDbSymbolTableRecord
100
AcDbBlockTableRecord
  2
*D21
340
0
  0
ENDTAB
  0
ENDSEC
  0
SECTION
  2
BLOCKS
  0
BLOCK
  5
6D
330
6C
100
AcDbEntity
  8
0
100
AcDbBlockBegin
  2
*Model_Space
 70
     0
 10
0.0
 20
0.0
 30
0.0
  3
*Model_Space
  1

  0
ENDBLK
  5
6E
330
6C
100
AcDbEntity
  8
0
100
AcDbBlockEnd
  0
BLOCK
  5
69
330
68
100
AcDbEntity
 67
     1
  8
0
100
AcDbBlockBegin
  2
*Paper_Space
 70
     0
 10
0.0
 20
0.0
 30
0.0
  3
*Paper_Space
  1

  0
ENDBLK
  5
6A
330
68
100
AcDbEntity
 67
     1
  8
0
100
AcDbBlockEnd
  0
BLOCK
  5
71
330
70
100
AcDbEntity
 67
     1
  8
0
100
AcDbBlockBegin
  2
*Paper_Space0
 70
     0
 10
0.0
 20
0.0
 30
0.0
  3
*Paper_Space0
  1

  0
ENDBLK
  5
72
330
70
100
AcDbEntity
 67
     1
  8
0
100
AcDbBlockEnd
  0
BLOCK
  5
81
330
80
100
AcDbEntity
  8
0
100
AcDbBlockBegin
  2
_Open30
 70
     0
 10
0.0
 20
0.0
 30
0.0
  3
_Open30
  1

  0
LINE
  5
82
330
80
100
AcDbEntity
  8
0
  6
ByBlock
 62
     0
370
    -2
100
AcDbLine
 10
-1.0
 20
0.26794919
 30
0.0
 11
0.0
 21
0.0
 31
0.0
  0
LINE
  5
83
330
80
100
AcDbEntity
  8
0
  6
ByBlock
 62
     0
370
    -2
100
AcDbLine
 10
0.0
 20
0.0
 30
0.0
 11
-1.0
 21
-0.26794919
 31
0.0
  0
LINE
  5
84
330
80
100
AcDbEntity
  8
0
  6
ByBlock
 62
     0
370
    -2
100
AcDbLine
 10
0.0
 20
0.0
 30
0.0
 11
-1.0
 21
0.0
 31
0.0
  0
ENDBLK
  5
85
330
80
100
AcDbEntity
  8
0
100
AcDbBlockEnd
  0
BLOCK
  5
485
330
484
100
AcDbEntity
  8
0
100
AcDbBlockBegin
  2
_TagCircle
 70
     2
 10
0.0
 20
0.0
 30
0.0
  3
_TagCircle
  1

  0
CIRCLE
  5
486
330
484
100
AcDbEntity
  8
0
  6
ByBlock
 62
     0
370
    -2
100
AcDbCircle
 10
0.0
 20
0.0
 30
0.0
 40
4.0
  0
ATTDEF
  5
487
330
484
100
AcDbEntity
  8
0
 62
     0
100
AcDbText
 10
-4.5
 20
-1.5
 30
0.0
 40
3.0
  1
タグ番号
 72
     1
 11
0.0
 21
-1.5
 31
0.0
100
AcDbAttributeDefinition
  3
タグ番号を入力
  2
タグ番号
 70
     0
  0
ENDBLK
  5
488
330
484
100
AcDbEntity
  8
0
100
AcDbBlockEnd
  0
BLOCK
  5
62E
330
62D
100
AcDbEntity
  8
0
100
AcDbBlockBegin
  2
*D3
 70
     1
 10
0.0
 20
0.0
 30
0.0
  3
*D3
  1

  0
LINE
  5
9A4
330
62D
100
AcDbEntity
  8
dim
 62
     0
370
    -2
100
AcDbLine
 10
9.955040548477883
 20
372.338727776774
 30
0.0
 11
9.95504054847788
 21
351.3233687213408
 31
0.0
  0
LINE
  5
9A5
330
62D
100
AcDbEntity
  8
dim
 62
     0
370
    -2
100
AcDbLine
 10
165.9550405609789
 20
374.0404807140242
 30
0.0
 11
165.9550405609789
 21
351.3233687213408
 31
0.0
  0
LINE
  5
9A6
330
62D
100
AcDbEntity
  8
dim
 62
     0
370
    -2
100
AcDbLine
 10
11.95504054847788
 20
352.3233687213408
 30
0.0
 11
163.9550405609789
 21
352.3233687213408
 31
0.0
  0
INSERT
  5
9A7
330
62D
100
AcDbEntity
  8
dim
 62
     0
370
    -2
100
AcDbBlockReference
  2
_Open30
 10
9.95504054847788
 20
352.3233687213408
 30
0.0
 41
2.0
 42
2.0
 43
2.0
 50
180.0
  0
INSERT
  5
9A8
330
62D
100
AcDbEntity
  8
dim
 62
     0
370
    -2
100
AcDbBlockReference
  2
_Open30
 10
165.9550405609789
 20
352.3233687213408
 30
0.0
 41
2.0
 42
2.0
 43
2.0
  0
MTEXT
  5
9A9
330
62D
100
AcDbEntity
  8
dim
 62
     3
100
AcDbMText
 10
87.95504055472838
 20
354.4483687213408
 30
0.0
 40
3.0
 41
0.0
 71
     5
 72
     1
  1
312（最短時）
  7
ATOM
 73
     1
 44
1.0
1001
ACAD
1000
MTEXTBEGIN
1070
    73
1070
     1
1070
    44
1040
1.0
1070
    74
1070
     0
1000
MTEXTEND
  0
POINT
  5
9AA
330
62D
100
AcDbEntity
  8
Defpoints
 62
     0
100
AcDbPoint
 10
9.955040548477883
 20
374.338727776774
 30
0.0
  0
POINT
  5
9AB
330
62D
100
AcDbEntity
  8
Defpoints
 62
     0
100
AcDbPoint
 10
165.9550405609789
 20
376.0404807140242
 30
0.0
  0
POINT
  5
9AC
330
62D
100
AcDbEntity
  8
Defpoints
 62
     0
100
AcDbPoint
 10
165.9550405609789
 20
352.3233687213408
 30
0.0
  0
ENDBLK
  5
62F
330
62D
100
AcDbEntity
  8
0
100
AcDbBlockEnd
  0
BLOCK
  5
63A
330
639
100
AcDbEntity
  8
0
100
AcDbBlockBegin
  2
*D4
 70
     1
 10
0.0
 20
0.0
 30
0.0
  3
*D4
  1

  0
LINE
  5
9AD
330
639
100
AcDbEntity
  8
dim
 62
     0
370
    -2
100
AcDbLine
 10
9.955040548477883
 20
372.338727776774
 30
0.0
 11
9.95504054847788
 21
337.9100430626788
 31
0.0
  0
LINE
  5
9AE
330
639
100
AcDbEntity
  8
dim
 62
     0
370
    -2
100
AcDbLine
 10
284.455040558495
 20
374.0404807140242
 30
0.0
 11
284.455040558495
 21
337.9100430626788
 31
0.0
  0
LINE
  5
9AF
330
639
100
AcDbEntity
  8
dim
 62
     0
370
    -2
100
AcDbLine
 10
11.95504054847788
 20
338.9100430626788
 30
0.0
 11
282.455040558495
 21
338.9100430626788
 31
0.0
  0
INSERT
  5
9B0
330
639
100
AcDbEntity
  8
dim
 62
     0
370
    -2
100
AcDbBlockReference
  2
_Open30
 10
9.95504054847788
 20
338.9100430626788
 30
0.0
 41
2.0
 42
2.0
 43
2.0
 50
180.0
  0
INSERT
  5
9B1
330
639
100
AcDbEntity
  8
dim
 62
     0
370
    -2
100
AcDbBlockReference
  2
_Open30
 10
284.455040558495
 20
338.9100430626788
 30
0.0
 41
2.0
 42
2.0
 43
2.0
  0
MTEXT
  5
9B2
330
639
100
AcDbEntity
  8
dim
 62
     3
100
AcDbMText
 10
147.2050405534864
 20
341.0350430626788
 30
0.0
 40
3.0
 41
0.0
 71
     5
 72
     1
  1
549（最長時）
  7
ATOM
 73
     1
 44
1.0
1001
ACAD
1000
MTEXTBEGIN
1070
    73
1070
     1
1070
    44
1040
1.0
1070
    74
1070
     0
1000
MTEXTEND
  0
POINT
  5
9B3
330
639
100
AcDbEntity
  8
Defpoints
 62
     0
100
AcDbPoint
 10
9.955040548477883
 20
374.338727776774
 30
0.0
  0
POINT
  5
9B4
330
639
100
AcDbEntity
  8
Defpoints
 62
     0
100
AcDbPoint
 10
284.455040558495
 20
376.0404807140242
 30
0.0
  0
POINT
  5
9B5
330
639
100
AcDbEntity
  8
Defpoints
 62
     0
100
AcDbPoint
 10
284.455040558495
 20
338.9100430626788
 30
0.0
  0
ENDBLK
  5
63B
330
639
100
AcDbEntity
  8
0
100
AcDbBlockEnd
  0
BLOCK
  5
646
330
645
100
AcDbEntity
  8
0
100
AcDbBlockBegin
  2
*D5
 70
     1
 10
0.0
 20
0.0
 30
0.0
  3
*D5
  1

  0
LINE
  5
9B6
330
645
100
AcDbEntity
  8
dim
 62
     0
370
    -2
100
AcDbLine
 10
-6.544959451521207
 20
387.588727763525
 30
0.0
 11
-30.7663115179148
 21
387.588727763525
 31
0.0
  0
LINE
  5
9B7
330
645
100
AcDbEntity
  8
dim
 62
     0
370
    -2
100
AcDbLine
 10
-6.544959451521207
 20
377.5887277635249
 30
0.0
 11
-30.7663115179148
 21
377.5887277635249
 31
0.0
  0
LINE
  5
9B8
330
645
100
AcDbEntity
  8
dim
 62
     0
370
    -2
100
AcDbLine
 10
-29.7663115179148
 20
385.5887277635249
 30
0.0
 11
-29.7663115179148
 21
379.5887277635249
 31
0.0
  0
INSERT
  5
9B9
330
645
100
AcDbEntity
  8
dim
 62
     0
370
    -2
100
AcDbBlockReference
  2
_Open30
 10
-29.7663115179148
 20
387.588727763525
 30
0.0
 41
2.0
 42
2.0
 43
2.0
 50
90.0
  0
INSERT
  5
9BA
330
645
100
AcDbEntity
  8
dim
 62
     0
370
    -2
100
AcDbBlockReference
  2
_Open30
 10
-29.7663115179148
 20
377.5887277635249
 30
0.0
 41
2.0
 42
2.0
 43
2.0
 50
270.0
  0
MTEXT
  5
9BB
330
645
100
AcDbEntity
  8
dim
 62
     3
100
AcDbMText
 10
-31.89131151791486
 20
382.588727763525
 30
0.0
 40
3.0
 41
0.0
 71
     5
 72
     1
  1
20
  7
ATOM
 11
0.0000000000000001
 21
1.0
 31
0.0
 73
     1
 44
1.0
1001
ACAD
1000
MTEXTBEGIN
1070
    73
1070
     1
1070
    44
1040
1.0
1070
    74
1070
     0
1000
MTEXTEND
  0
POINT
  5
9BC
330
645
100
AcDbEntity
  8
Defpoints
 62
     0
100
AcDbPoint
 10
-4.544959451521208
 20
387.588727763525
 30
0.0
  0
POINT
  5
9BD
330
645
100
AcDbEntity
  8
Defpoints
 62
     0
100
AcDbPoint
 10
-4.544959451521208
 20
377.5887277635249
 30
0.0
  0
POINT
  5
9BE
330
645
100
AcDbEntity
  8
Defpoints
 62
     0
100
AcDbPoint
 10
-29.7663115179148
 20
377.5887277635249
 30
0.0
  0
ENDBLK
  5
647
330
645
100
AcDbEntity
  8
0
100
AcDbBlockEnd
  0
BLOCK
  5
652
330
651
100
AcDbEntity
  8
0
100
AcDbBlockBegin
  2
*D6
 70
     1
 10
0.0
 20
0.0
 30
0.0
  3
*D6
  1

  0
LINE
  5
9BF
330
651
100
AcDbEntity
  8
dim
 62
     0
370
    -2
100
AcDbLine
 10
-6.044959451521207
 20
388.088727763525
 30
0.0
 11
-6.044959451521205
 21
417.7880691891761
 31
0.0
  0
LINE
  5
9C0
330
651
100
AcDbEntity
  8
dim
 62
     0
370
    -2
100
AcDbLine
 10
25.95504054847879
 20
388.088727763525
 30
0.0
 11
25.9550405484788
 21
417.7880691891761
 31
0.0
  0
LINE
  5
9C1
330
651
100
AcDbEntity
  8
dim
 62
     0
370
    -2
100
AcDbLine
 10
-4.044959451521205
 20
416.7880691891761
 30
0.0
 11
23.95504054847879
 21
416.7880691891761
 31
0.0
  0
INSERT
  5
9C2
330
651
100
AcDbEntity
  8
dim
 62
     0
370
    -2
100
AcDbBlockReference
  2
_Open30
 10
-6.044959451521205
 20
416.7880691891761
 30
0.0
 41
2.0
 42
2.0
 43
2.0
 50
180.0
  0
INSERT
  5
9C3
330
651
100
AcDbEntity
  8
dim
 62
     0
370
    -2
100
AcDbBlockReference
  2
_Open30
 10
25.9550405484788
 20
416.7880691891761
 30
0.0
 41
2.0
 42
2.0
 43
2.0
  0
MTEXT
  5
9C4
330
651
100
AcDbEntity
  8
dim
 62
     3
100
AcDbMText
 10
9.955040548478796
 20
418.9130691891761
 30
0.0
 40
3.0
 41
0.0
 71
     5
 72
     1
  1
64
  7
ATOM
 73
     1
 44
1.0
1001
ACAD
1000
MTEXTBEGIN
1070
    73
1070
     1
1070
    44
1040
1.0
1070
    74
1070
     0
1000
MTEXTEND
  0
POINT
  5
9C5
330
651
100
AcDbEntity
  8
Defpoints
 62
     0
100
AcDbPoint
 10
-6.044959451521207
 20
386.088727763525
 30
0.0
  0
POINT
  5
9C6
330
651
100
AcDbEntity
  8
Defpoints
 62
     0
100
AcDbPoint
 10
25.95504054847879
 20
386.088727763525
 30
0.0
  0
POINT
  5
9C7
330
651
100
AcDbEntity
  8
Defpoints
 62
     0
100
AcDbPoint
 10
25.9550405484788
 20
416.7880691891761
 30
0.0
  0
ENDBLK
  5
653
330
651
100
AcDbEntity
  8
0
100
AcDbBlockEnd
  0
BLOCK
  5
65E
330
65D
100
AcDbEntity
  8
0
100
AcDbBlockBegin
  2
*D7
 70
     1
 10
0.0
 20
0.0
 30
0.0
  3
*D7
  1

  0
LINE
  5
9C8
330
65D
100
AcDbEntity
  8
dim
 62
     0
370
    -2
100
AcDbLine
 10
-2.044959451521207
 20
387.2932124800247
 30
0.0
 11
-2.044959451521206
 21
411.0625625866417
 31
0.0
  0
LINE
  5
9C9
330
65D
100
AcDbEntity
  8
dim
 62
     0
370
    -2
100
AcDbLine
 10
21.95504054797857
 20
387.2932124810244
 30
0.0
 11
21.95504054797857
 21
411.0625625866417
 31
0.0
  0
LINE
  5
9CA
330
65D
100
AcDbEntity
  8
dim
 62
     0
370
    -2
100
AcDbLine
 10
-0.0449594515212071
 20
410.0625625866416
 30
0.0
 11
19.95504054797857
 21
410.0625625866416
 31
0.0
  0
INSERT
  5
9CB
330
65D
100
AcDbEntity
  8
dim
 62
     0
370
    -2
100
AcDbBlockReference
  2
_Open30
 10
-2.044959451521206
 20
410.0625625866416
 30
0.0
 41
2.0
 42
2.0
 43
2.0
 50
180.0
  0
INSERT
  5
9CC
330
65D
100
AcDbEntity
  8
dim
 62
     0
370
    -2
100
AcDbBlockReference
  2
_Open30
 10
21.95504054797857
 20
410.0625625866416
 30
0.0
 41
2.0
 42
2.0
 43
2.0
  0
MTEXT
  5
9CD
330
65D
100
AcDbEntity
  8
dim
 62
     3
100
AcDbMText
 10
9.95504054822868
 20
412.1875625866415
 30
0.0
 40
3.0
 41
0.0
 71
     5
 72
     1
  1
48
  7
ATOM
 73
     1
 44
1.0
1001
ACAD
1000
MTEXTBEGIN
1070
    73
1070
     1
1070
    44
1040
1.0
1070
    74
1070
     0
1000
MTEXTEND
  0
POINT
  5
9CE
330
65D
100
AcDbEntity
  8
Defpoints
 62
     0
100
AcDbPoint
 10
-2.044959451521207
 20
385.2932124800247
 30
0.0
  0
POINT
  5
9CF
330
65D
100
AcDbEntity
  8
Defpoints
 62
     0
100
AcDbPoint
 10
21.95504054797857
 20
385.2932124810243
 30
0.0
  0
POINT
  5
9D0
330
65D
100
AcDbEntity
  8
Defpoints
 62
     0
100
AcDbPoint
 10
21.95504054797857
 20
410.0625625866416
 30
0.0
  0
ENDBLK
  5
65F
330
65D
100
AcDbEntity
  8
0
100
AcDbBlockEnd
  0
BLOCK
  5
66A
330
669
100
AcDbEntity
  8
0
100
AcDbBlockBegin
  2
*D8
 70
     1
 10
0.0
 20
0.0
 30
0.0
  3
*D8
  1

  0
LINE
  5
9D1
330
669
100
AcDbEntity
  8
dim
 62
     0
370
    -2
100
AcDbLine
 10
80.66245556297872
 20
377.0887277765242
 30
0.0
 11
81.23394894289505
 21
377.0887277765242
 31
0.0
  0
LINE
  5
9D2
330
669
100
AcDbEntity
  8
dim
 62
     0
370
    -2
100
AcDbLine
 10
80.66245556297872
 20
388.0887277765241
 30
0.0
 11
81.23394894289505
 21
388.0887277765241
 31
0.0
  0
LINE
  5
9D3
330
669
100
AcDbEntity
  8
dim
 62
     0
370
    -2
100
AcDbLine
 10
82.23394894289503
 20
375.0887277765242
 30
0.0
 11
82.23394894289503
 21
373.0887277765241
 31
0.0
  0
LINE
  5
9D4
330
669
100
AcDbEntity
  8
dim
 62
     0
370
    -2
100
AcDbLine
 10
82.23394894289503
 20
390.0887277765241
 30
0.0
 11
82.23394894289503
 21
392.0887277765242
 31
0.0
  0
LINE
  5
9D5
330
669
100
AcDbEntity
  8
dim
 62
     0
370
    -2
100
AcDbLine
 10
82.23394894289503
 20
366.1602465879371
 30
0.0
 11
82.23394894289503
 21
377.0887277765242
 31
0.0
  0
MTEXT
  5
9D6
330
669
100
AcDbEntity
  8
dim
 62
     3
100
AcDbMText
 10
80.10894894289497
 20
369.0352465879371
 30
0.0
 40
3.0
 41
0.0
 71
     5
 72
     1
  1
22
  7
ATOM
 11
0.0000000000000001
 21
1.0
 31
0.0
 73
     1
 44
1.0
1001
ACAD
1000
MTEXTBEGIN
1070
    73
1070
     1
1070
    44
1040
1.0
1070
    74
1070
     0
1000
MTEXTEND
  0
LINE
  5
9D7
330
669
100
AcDbEntity
  8
dim
 62
     0
370
    -2
100
AcDbLine
 10
82.23394894289503
 20
377.0887277765242
 30
0.0
 11
82.23394894289503
 21
388.0887277765241
 31
0.0
  0
LINE
  5
9D8
330
669
100
AcDbEntity
  8
dim
 62
     0
370
    -2
100
AcDbLine
 10
82.23394894289503
 20
377.0887277765242
 30
0.0
 11
82.23394894289503
 21
388.0887277765241
 31
0.0
  0
INSERT
  5
9D9
330
669
100
AcDbEntity
  8
dim
 62
     0
370
    -2
100
AcDbBlockReference
  2
_Open30
 10
82.23394894289503
 20
377.0887277765242
 30
0.0
 41
2.0
 42
2.0
 43
2.0
 50
90.0
  0
INSERT
  5
9DA
330
669
100
AcDbEntity
  8
dim
 62
     0
370
    -2
100
AcDbBlockReference
  2
_Open30
 10
82.23394894289503
 20
388.0887277765241
 30
0.0
 41
2.0
 42
2.0
 43
2.0
 50
270.0
  0
POINT
  5
9DB
330
669
100
AcDbEntity
  8
Defpoints
 62
     0
100
AcDbPoint
 10
82.66245556297873
 20
377.0887277765242
 30
0.0
  0
POINT
  5
9DC
330
669
100
AcDbEntity
  8
Defpoints
 62
     0
100
AcDbPoint
 10
82.66245556297873
 20
388.0887277765241
 30
0.0
  0
POINT
  5
9DD
330
669
100
AcDbEntity
  8
Defpoints
 62
     0
100
AcDbPoint
 10
82.23394894289503
 20
388.0887277765241
 30
0.0
  0
ENDBLK
  5
66B
330
669
100
AcDbEntity
  8
0
100
AcDbBlockEnd
  0
BLOCK
  5
67A
330
679
100
AcDbEntity
  8
0
100
AcDbBlockBegin
  2
*D9
 70
     1
 10
0.0
 20
0.0
 30
0.0
  3
*D9
  1

  0
LINE
  5
9DE
330
679
100
AcDbEntity
  8
dim
 62
     0
370
    -2
100
AcDbLine
 10
243.1188342365921
 20
378.088727776024
 30
0.0
 11
240.7189219705615
 21
378.088727776024
 31
0.0
  0
LINE
  5
9DF
330
679
100
AcDbEntity
  8
dim
 62
     0
370
    -2
100
AcDbLine
 10
241.7085589724775
 20
387.0887277760242
 30
0.0
 11
240.7189219705615
 21
387.0887277760242
 31
0.0
  0
LINE
  5
9E0
330
679
100
AcDbEntity
  8
dim
 62
     0
370
    -2
100
AcDbLine
 10
241.7189219705615
 20
376.088727776024
 30
0.0
 11
241.7189219705615
 21
374.088727776024
 31
0.0
  0
LINE
  5
9E1
330
679
100
AcDbEntity
  8
dim
 62
     0
370
    -2
100
AcDbLine
 10
241.7189219705615
 20
389.0887277760242
 30
0.0
 11
241.7189219705615
 21
391.0887277760242
 31
0.0
  0
LINE
  5
9E2
330
679
100
AcDbEntity
  8
dim
 62
     0
370
    -2
100
AcDbLine
 10
241.7189219705615
 20
368.6000540658691
 30
0.0
 11
241.7189219705615
 21
378.088727776024
 31
0.0
  0
MTEXT
  5
9E3
330
679
100
AcDbEntity
  8
dim
 62
     3
100
AcDbMText
 10
239.5939219705614
 20
371.0250540658692
 30
0.0
 40
3.0
 41
0.0
 71
     5
 72
     1
  1
18
  7
ATOM
 11
0.0000000000000001
 21
1.0
 31
0.0
 73
     1
 44
1.0
1001
ACAD
1000
MTEXTBEGIN
1070
    73
1070
     1
1070
    44
1040
1.0
1070
    74
1070
     0
1000
MTEXTEND
  0
LINE
  5
9E4
330
679
100
AcDbEntity
  8
dim
 62
     0
370
    -2
100
AcDbLine
 10
241.7189219705615
 20
378.088727776024
 30
0.0
 11
241.7189219705615
 21
387.0887277760242
 31
0.0
  0
LINE
  5
9E5
330
679
100
AcDbEntity
  8
dim
 62
     0
370
    -2
100
AcDbLine
 10
241.7189219705615
 20
378.088727776024
 30
0.0
 11
241.7189219705615
 21
387.0887277760242
 31
0.0
  0
INSERT
  5
9E6
330
679
100
AcDbEntity
  8
dim
 62
     0
370
    -2
100
AcDbBlockReference
  2
_Open30
 10
241.7189219705615
 20
378.088727776024
 30
0.0
 41
2.0
 42
2.0
 43
2.0
 50
90.0
  0
INSERT
  5
9E7
330
679
100
AcDbEntity
  8
dim
 62
     0
370
    -2
100
AcDbBlockReference
  2
_Open30
 10
241.7189219705615
 20
387.0887277760242
 30
0.0
 41
2.0
 42
2.0
 43
2.0
 50
270.0
  0
POINT
  5
9E8
330
679
100
AcDbEntity
  8
Defpoints
 62
     0
100
AcDbPoint
 10
245.1188342365921
 20
378.088727776024
 30
0.0
  0
POINT
  5
9E9
330
679
100
AcDbEntity
  8
Defpoints
 62
     0
100
AcDbPoint
 10
243.7085589724775
 20
387.0887277760242
 30
0.0
  0
POINT
  5
9EA
330
679
100
AcDbEntity
  8
Defpoints
 62
     0
100
AcDbPoint
 10
241.7189219705615
 20
387.0887277760242
 30
0.0
  0
ENDBLK
  5
67B
330
679
100
AcDbEntity
  8
0
100
AcDbBlockEnd
  0
BLOCK
  5
68A
330
689
100
AcDbEntity
  8
0
100
AcDbBlockBegin
  2
*D10
 70
     1
 10
0.0
 20
0.0
 30
0.0
  3
*D10
  1

  0
LINE
  5
9EB
330
689
100
AcDbEntity
  8
dim
 62
     0
370
    -2
100
AcDbLine
 10
302.6214232652582
 20
371.5179521172239
 30
0.0
 11
290.4325331074892
 21
378.9459839183673
 31
0.0
  0
MTEXT
  5
9EC
330
689
100
AcDbEntity
  8
dim
 62
     3
100
AcDbMText
 10
300.6958135715963
 20
375.1799395977699
 30
0.0
 40
3.0
 41
0.0
 71
     5
 72
     1
  1
R10
  7
ATOM
 11
0.8539275071691388
 21
-0.520391979665233
 31
0.0
 73
     1
 44
1.0
1001
ACAD
1000
MTEXTBEGIN
1070
    73
1070
     1
1070
    44
1040
1.0
1070
    74
1070
     0
1000
MTEXTEND
  0
LINE
  5
9ED
330
689
100
AcDbEntity
  8
dim
 62
     0
370
    -2
100
AcDbLine
 10
284.4550405573055
 20
382.5887277760238
 30
0.0
 11
288.7246780931509
 21
379.9867678776977
 31
0.0
  0
INSERT
  5
9EE
330
689
100
AcDbEntity
  8
dim
 62
     0
370
    -2
100
AcDbBlockReference
  2
_Open30
 10
288.7246780931509
 20
379.9867678776977
 30
0.0
 41
2.0
 42
2.0
 43
2.0
 50
148.6414516087479
  0
POINT
  5
9EF
330
689
100
AcDbEntity
  8
Defpoints
 62
     0
100
AcDbPoint
 10
288.7246780931509
 20
379.9867678776977
 30
0.0
  0
POINT
  5
9F0
330
689
100
AcDbEntity
  8
Defpoints
 62
     0
100
AcDbPoint
 10
284.4550405573055
 20
382.5887277760238
 30
0.0
  0
ENDBLK
  5
68B
330
689
100
AcDbEntity
  8
0
100
AcDbBlockEnd
  0
BLOCK
  5
693
330
692
100
AcDbEntity
  8
0
100
AcDbBlockBegin
  2
*D11
 70
     1
 10
0.0
 20
0.0
 30
0.0
  3
*D11
  1

  0
LINE
  5
9F1
330
692
100
AcDbEntity
  8
dim
 62
     0
370
    -2
100
AcDbLine
 10
-8.044959451522116
 20
307.9936365083414
 30
0.0
 11
-9.413729310972485
 21
307.9936365083414
 31
0.0
  0
LINE
  5
9F2
330
692
100
AcDbEntity
  8
dim
 62
     0
370
    -2
100
AcDbLine
 10
5.105040548478426
 20
301.7436365083414
 30
0.0
 11
-9.413729310972485
 21
301.7436365083414
 31
0.0
  0
LINE
  5
9F3
330
692
100
AcDbEntity
  8
dim
 62
     0
370
    -2
100
AcDbLine
 10
-8.413729310972481
 20
309.9936365083414
 30
0.0
 11
-8.413729310972481
 21
311.9936365083414
 31
0.0
  0
LINE
  5
9F4
330
692
100
AcDbEntity
  8
dim
 62
     0
370
    -2
100
AcDbLine
 10
-8.413729310972486
 20
299.7436365083414
 30
0.0
 11
-8.413729310972486
 21
297.7436365083414
 31
0.0
  0
LINE
  5
9F5
330
692
100
AcDbEntity
  8
dim
 62
     0
370
    -2
100
AcDbLine
 10
-8.413729310972486
 20
288.7188303168019
 30
0.0
 11
-8.413729310972485
 21
301.7436365083414
 31
0.0
  0
MTEXT
  5
9F6
330
692
100
AcDbEntity
  8
dim
 62
     3
100
AcDbMText
 10
-10.53872931097253
 20
292.9438303168019
 30
0.0
 40
3.0
 41
0.0
 71
     5
 72
     1
  1
12.5
  7
ATOM
 11
0.0000000000000001
 21
1.0
 31
0.0
 73
     1
 44
1.0
1001
ACAD
1000
MTEXTBEGIN
1070
    73
1070
     1
1070
    44
1040
1.0
1070
    74
1070
     0
1000
MTEXTEND
  0
LINE
  5
9F7
330
692
100
AcDbEntity
  8
dim
 62
     0
370
    -2
100
AcDbLine
 10
-8.413729310972485
 20
307.9936365083414
 30
0.0
 11
-8.413729310972485
 21
301.7436365083414
 31
0.0
  0
LINE
  5
9F8
330
692
100
AcDbEntity
  8
dim
 62
     0
370
    -2
100
AcDbLine
 10
-8.413729310972485
 20
307.9936365083414
 30
0.0
 11
-8.413729310972485
 21
301.7436365083414
 31
0.0
  0
INSERT
  5
9F9
330
692
100
AcDbEntity
  8
dim
 62
     0
370
    -2
100
AcDbBlockReference
  2
_Open30
 10
-8.413729310972485
 20
307.9936365083414
 30
0.0
 41
2.0
 42
2.0
 43
2.0
 50
270.0
  0
INSERT
  5
9FA
330
692
100
AcDbEntity
  8
dim
 62
     0
370
    -2
100
AcDbBlockReference
  2
_Open30
 10
-8.413729310972485
 20
301.7436365083414
 30
0.0
 41
2.0
 42
2.0
 43
2.0
 50
90.0
  0
POINT
  5
9FB
330
692
100
AcDbEntity
  8
Defpoints
 62
     0
100
AcDbPoint
 10
-6.044959451522116
 20
307.9936365083414
 30
0.0
  0
POINT
  5
9FC
330
692
100
AcDbEntity
  8
Defpoints
 62
     0
100
AcDbPoint
 10
7.105040548478427
 20
301.7436365083414
 30
0.0
  0
POINT
  5
9FD
330
692
100
AcDbEntity
  8
Defpoints
 62
     0
100
AcDbPoint
 10
-8.413729310972485
 20
301.7436365083414
 30
0.0
  0
ENDBLK
  5
694
330
692
100
AcDbEntity
  8
0
100
AcDbBlockEnd
  0
BLOCK
  5
6A3
330
6A2
100
AcDbEntity
  8
0
100
AcDbBlockBegin
  2
*D12
 70
     1
 10
0.0
 20
0.0
 30
0.0
  3
*D12
  1

  0
LINE
  5
9FE
330
6A2
100
AcDbEntity
  8
dim
 62
     0
370
    -2
100
AcDbLine
 10
84.45504054919181
 20
302.2436365043411
 30
0.0
 11
136.8501233211846
 21
302.243636504341
 31
0.0
  0
LINE
  5
9FF
330
6A2
100
AcDbEntity
  8
dim
 62
     0
370
    -2
100
AcDbLine
 10
89.95754054719144
 20
306.6936365076073
 30
0.0
 11
136.8501233211846
 21
306.6936365076072
 31
0.0
  0
LINE
  5
A00
330
6A2
100
AcDbEntity
  8
dim
 62
     0
370
    -2
100
AcDbLine
 10
135.8501233211846
 20
300.243636504341
 30
0.0
 11
135.8501233211846
 21
298.243636504341
 31
0.0
  0
LINE
  5
A01
330
6A2
100
AcDbEntity
  8
dim
 62
     0
370
    -2
100
AcDbLine
 10
135.8501233211846
 20
308.6936365076072
 30
0.0
 11
135.8501233211846
 21
310.6936365076072
 31
0.0
  0
LINE
  5
A02
330
6A2
100
AcDbEntity
  8
dim
 62
     0
370
    -2
100
AcDbLine
 10
135.8501233211846
 20
291.4947297648213
 30
0.0
 11
135.8501233211846
 21
302.243636504341
 31
0.0
  0
MTEXT
  5
A03
330
6A2
100
AcDbEntity
  8
dim
 62
     3
100
AcDbMText
 10
133.7251233211845
 20
294.8197297648214
 30
0.0
 40
3.0
 41
0.0
 71
     5
 72
     1
  1
8.9
  7
ATOM
 11
0.0000000000000001
 21
1.0
 31
0.0
 73
     1
 44
1.0
1001
ACAD
1000
MTEXTBEGIN
1070
    73
1070
     1
1070
    44
1040
1.0
1070
    74
1070
     0
1000
MTEXTEND
  0
LINE
  5
A04
330
6A2
100
AcDbEntity
  8
dim
 62
     0
370
    -2
100
AcDbLine
 10
135.8501233211846
 20
302.243636504341
 30
0.0
 11
135.8501233211846
 21
306.6936365076072
 31
0.0
  0
LINE
  5
A05
330
6A2
100
AcDbEntity
  8
dim
 62
     0
370
    -2
100
AcDbLine
 10
135.8501233211846
 20
302.243636504341
 30
0.0
 11
135.8501233211846
 21
306.6936365076072
 31
0.0
  0
INSERT
  5
A06
330
6A2
100
AcDbEntity
  8
dim
 62
     0
370
    -2
100
AcDbBlockReference
  2
_Open30
 10
135.8501233211846
 20
302.243636504341
 30
0.0
 41
2.0
 42
2.0
 43
2.0
 50
90.0
  0
INSERT
  5
A07
330
6A2
100
AcDbEntity
  8
dim
 62
     0
370
    -2
100
AcDbBlockReference
  2
_Open30
 10
135.8501233211846
 20
306.6936365076072
 30
0.0
 41
2.0
 42
2.0
 43
2.0
 50
270.0
  0
POINT
  5
A08
330
6A2
100
AcDbEntity
  8
Defpoints
 62
     0
100
AcDbPoint
 10
82.45504054919186
 20
302.2436365043411
 30
0.0
  0
POINT
  5
A09
330
6A2
100
AcDbEntity
  8
Defpoints
 62
     0
100
AcDbPoint
 10
87.95754054719145
 20
306.6936365076073
 30
0.0
  0
POINT
  5
A0A
330
6A2
100
AcDbEntity
  8
Defpoints
 62
     0
100
AcDbPoint
 10
135.8501233211846
 20
306.6936365076072
 30
0.0
  0
ENDBLK
  5
6A4
330
6A2
100
AcDbEntity
  8
0
100
AcDbBlockEnd
  0
BLOCK
  5
6B3
330
6B2
100
AcDbEntity
  8
0
100
AcDbBlockBegin
  2
*D13
 70
     1
 10
0.0
 20
0.0
 30
0.0
  3
*D13
  1

  0
LINE
  5
A0B
330
6B2
100
AcDbEntity
  8
dim
 62
     0
370
    -2
100
AcDbLine
 10
183.555040564529
 20
300.1936365043408
 30
0.0
 11
202.2777142753748
 21
300.1936365043408
 31
0.0
  0
LINE
  5
A0C
330
6B2
100
AcDbEntity
  8
dim
 62
     0
370
    -2
100
AcDbLine
 10
193.0407573149978
 20
307.9936365083407
 30
0.0
 11
202.2777142753748
 21
307.9936365083407
 31
0.0
  0
LINE
  5
A0D
330
6B2
100
AcDbEntity
  8
dim
 62
     0
370
    -2
100
AcDbLine
 10
201.2777142753748
 20
298.1936365043408
 30
0.0
 11
201.2777142753748
 21
296.1936365043408
 31
0.0
  0
LINE
  5
A0E
330
6B2
100
AcDbEntity
  8
dim
 62
     0
370
    -2
100
AcDbLine
 10
201.2777142753748
 20
309.9936365083407
 30
0.0
 11
201.2777142753748
 21
311.9936365083407
 31
0.0
  0
LINE
  5
A0F
330
6B2
100
AcDbEntity
  8
dim
 62
     0
370
    -2
100
AcDbLine
 10
201.2777142753749
 20
321.1464044874181
 30
0.0
 11
201.2777142753748
 21
307.9936365083407
 31
0.0
  0
MTEXT
  5
A10
330
6B2
100
AcDbEntity
  8
dim
 62
     3
100
AcDbMText
 10
199.1527142753748
 20
316.9214044874181
 30
0.0
 40
3.0
 41
0.0
 71
     5
 72
     1
  1
15.6
  7
ATOM
 11
0.0000000000000001
 21
1.0
 31
0.0
 73
     1
 44
1.0
1001
ACAD
1000
MTEXTBEGIN
1070
    73
1070
     1
1070
    44
1040
1.0
1070
    74
1070
     0
1000
MTEXTEND
  0
LINE
  5
A11
330
6B2
100
AcDbEntity
  8
dim
 62
     0
370
    -2
100
AcDbLine
 10
201.2777142753748
 20
300.1936365043408
 30
0.0
 11
201.2777142753748
 21
307.9936365083407
 31
0.0
  0
LINE
  5
A12
330
6B2
100
AcDbEntity
  8
dim
 62
     0
370
    -2
100
AcDbLine
 10
201.2777142753748
 20
300.1936365043408
 30
0.0
 11
201.2777142753748
 21
307.9936365083407
 31
0.0
  0
INSERT
  5
A13
330
6B2
100
AcDbEntity
  8
dim
 62
     0
370
    -2
100
AcDbBlockReference
  2
_Open30
 10
201.2777142753748
 20
300.1936365043408
 30
0.0
 41
2.0
 42
2.0
 43
2.0
 50
90.0
  0
INSERT
  5
A14
330
6B2
100
AcDbEntity
  8
dim
 62
     0
370
    -2
100
AcDbBlockReference
  2
_Open30
 10
201.2777142753748
 20
307.9936365083407
 30
0.0
 41
2.0
 42
2.0
 43
2.0
 50
270.0
  0
POINT
  5
A15
330
6B2
100
AcDbEntity
  8
Defpoints
 62
     0
100
AcDbPoint
 10
181.555040564529
 20
300.1936365043408
 30
0.0
  0
POINT
  5
A16
330
6B2
100
AcDbEntity
  8
Defpoints
 62
     0
100
AcDbPoint
 10
191.0407573149978
 20
307.9936365083407
 30
0.0
  0
POINT
  5
A17
330
6B2
100
AcDbEntity
  8
Defpoints
 62
     0
100
AcDbPoint
 10
201.2777142753748
 20
307.9936365083407
 30
0.0
  0
ENDBLK
  5
6B4
330
6B2
100
AcDbEntity
  8
0
100
AcDbBlockEnd
  0
BLOCK
  5
6C3
330
6C2
100
AcDbEntity
  8
0
100
AcDbBlockBegin
  2
*D14
 70
     1
 10
0.0
 20
0.0
 30
0.0
  3
*D14
  1

  0
LINE
  5
A18
330
6C2
100
AcDbEntity
  8
dim
 62
     0
370
    -2
100
AcDbLine
 10
193.0407573149978
 20
307.9936365083407
 30
0.0
 11
210.7229274895271
 21
307.9936365083407
 31
0.0
  0
LINE
  5
A19
330
6C2
100
AcDbEntity
  8
dim
 62
     0
370
    -2
100
AcDbLine
 10
172.8048693844784
 20
298.4436365043409
 30
0.0
 11
210.7229274895271
 21
298.4436365043409
 31
0.0
  0
LINE
  5
A1A
330
6C2
100
AcDbEntity
  8
dim
 62
     0
370
    -2
100
AcDbLine
 10
209.7229274895271
 20
305.9936365083407
 30
0.0
 11
209.7229274895271
 21
300.4436365043409
 31
0.0
  0
INSERT
  5
A1B
330
6C2
100
AcDbEntity
  8
dim
 62
     0
370
    -2
100
AcDbBlockReference
  2
_Open30
 10
209.7229274895271
 20
307.9936365083407
 30
0.0
 41
2.0
 42
2.0
 43
2.0
 50
90.0
  0
INSERT
  5
A1C
330
6C2
100
AcDbEntity
  8
dim
 62
     0
370
    -2
100
AcDbBlockReference
  2
_Open30
 10
209.7229274895271
 20
298.4436365043409
 30
0.0
 41
2.0
 42
2.0
 43
2.0
 50
270.0
  0
MTEXT
  5
A1D
330
6C2
100
AcDbEntity
  8
dim
 62
     3
100
AcDbMText
 10
207.5979274895271
 20
303.2186365063409
 30
0.0
 40
3.0
 41
0.0
 71
     5
 72
     1
  1
19.1
  7
ATOM
 11
0.0000000000000001
 21
1.0
 31
0.0
 73
     1
 44
1.0
1001
ACAD
1000
MTEXTBEGIN
1070
    73
1070
     1
1070
    44
1040
1.0
1070
    74
1070
     0
1000
MTEXTEND
  0
POINT
  5
A1E
330
6C2
100
AcDbEntity
  8
Defpoints
 62
     0
100
AcDbPoint
 10
191.0407573149978
 20
307.9936365083407
 30
0.0
  0
POINT
  5
A1F
330
6C2
100
AcDbEntity
  8
Defpoints
 62
     0
100
AcDbPoint
 10
170.8048693844784
 20
298.4436365043409
 30
0.0
  0
POINT
  5
A20
330
6C2
100
AcDbEntity
  8
Defpoints
 62
     0
100
AcDbPoint
 10
209.7229274895271
 20
298.4436365043409
 30
0.0
  0
ENDBLK
  5
6C4
330
6C2
100
AcDbEntity
  8
0
100
AcDbBlockEnd
  0
BLOCK
  5
6CF
330
6CE
100
AcDbEntity
  8
0
100
AcDbBlockBegin
  2
*D15
 70
     1
 10
0.0
 20
0.0
 30
0.0
  3
*D15
  1

  0
LINE
  5
A21
330
6CE
100
AcDbEntity
  8
dim
 62
     0
370
    -2
100
AcDbLine
 10
162.9550405644777
 20
294.831136504341
 30
0.0
 11
162.9550405644777
 21
285.7924097424159
 31
0.0
  0
LINE
  5
A22
330
6CE
100
AcDbEntity
  8
dim
 62
     0
370
    -2
100
AcDbLine
 10
168.9550405644777
 20
294.831136504341
 30
0.0
 11
168.9550405644777
 21
285.7924097424159
 31
0.0
  0
LINE
  5
A23
330
6CE
100
AcDbEntity
  8
dim
 62
     0
370
    -2
100
AcDbLine
 10
164.9550405644777
 20
286.7924097424159
 30
0.0
 11
166.9550405644777
 21
286.7924097424159
 31
0.0
  0
INSERT
  5
A24
330
6CE
100
AcDbEntity
  8
dim
 62
     0
370
    -2
100
AcDbBlockReference
  2
_Open30
 10
162.9550405644777
 20
286.7924097424159
 30
0.0
 41
2.0
 42
2.0
 43
2.0
 50
180.0
  0
INSERT
  5
A25
330
6CE
100
AcDbEntity
  8
dim
 62
     0
370
    -2
100
AcDbBlockReference
  2
_Open30
 10
168.9550405644777
 20
286.7924097424159
 30
0.0
 41
2.0
 42
2.0
 43
2.0
  0
MTEXT
  5
A26
330
6CE
100
AcDbEntity
  8
dim
 62
     3
100
AcDbMText
 10
165.9550405644777
 20
288.9174097424159
 30
0.0
 40
3.0
 41
0.0
 71
     5
 72
     1
  1
12
  7
ATOM
 73
     1
 44
1.0
1001
ACAD
1000
MTEXTBEGIN
1070
    73
1070
     1
1070
    44
1040
1.0
1070
    74
1070
     0
1000
MTEXTEND
  0
POINT
  5
A27
330
6CE
100
AcDbEntity
  8
Defpoints
 62
     0
100
AcDbPoint
 10
162.9550405644777
 20
296.831136504341
 30
0.0
  0
POINT
  5
A28
330
6CE
100
AcDbEntity
  8
Defpoints
 62
     0
100
AcDbPoint
 10
168.9550405644777
 20
296.831136504341
 30
0.0
  0
POINT
  5
A29
330
6CE
100
AcDbEntity
  8
Defpoints
 62
     0
100
AcDbPoint
 10
168.9550405644777
 20
286.7924097424159
 30
0.0
  0
ENDBLK
  5
6D0
330
6CE
100
AcDbEntity
  8
0
100
AcDbBlockEnd
  0
BLOCK
  5
6DB
330
6DA
100
AcDbEntity
  8
0
100
AcDbBlockBegin
  2
*D16
 70
     1
 10
0.0
 20
0.0
 30
0.0
  3
*D16
  1

  0
LINE
  5
A2A
330
6DA
100
AcDbEntity
  8
dim
 62
     0
370
    -2
100
AcDbLine
 10
282.4550405608043
 20
297.3686365043409
 30
0.0
 11
281.5493036657263
 21
297.3686365043409
 31
0.0
  0
LINE
  5
A2B
330
6DA
100
AcDbEntity
  8
dim
 62
     0
370
    -2
100
AcDbLine
 10
282.4550405608043
 20
299.518636504341
 30
0.0
 11
281.5493036657263
 21
299.518636504341
 31
0.0
  0
LINE
  5
A2C
330
6DA
100
AcDbEntity
  8
dim
 62
     0
370
    -2
100
AcDbLine
 10
282.5493036657263
 20
295.3686365043409
 30
0.0
 11
282.5493036657263
 21
293.3686365043409
 31
0.0
  0
LINE
  5
A2D
330
6DA
100
AcDbEntity
  8
dim
 62
     0
370
    -2
100
AcDbLine
 10
282.5493036657263
 20
301.518636504341
 30
0.0
 11
282.5493036657263
 21
303.518636504341
 31
0.0
  0
LINE
  5
A2E
330
6DA
100
AcDbEntity
  8
dim
 62
     0
370
    -2
100
AcDbLine
 10
282.5493036657263
 20
285.3346295504007
 30
0.0
 11
282.5493036657263
 21
297.3686365043409
 31
0.0
  0
MTEXT
  5
A2F
330
6DA
100
AcDbEntity
  8
dim
 62
     3
100
AcDbMText
 10
280.4243036657262
 20
288.6596295504007
 30
0.0
 40
3.0
 41
0.0
 71
     5
 72
     1
  1
4.3
  7
ATOM
 11
0.0000000000000001
 21
1.0
 31
0.0
 73
     1
 44
1.0
1001
ACAD
1000
MTEXTBEGIN
1070
    73
1070
     1
1070
    44
1040
1.0
1070
    74
1070
     0
1000
MTEXTEND
  0
LINE
  5
A30
330
6DA
100
AcDbEntity
  8
dim
 62
     0
370
    -2
100
AcDbLine
 10
282.5493036657263
 20
297.3686365043409
 30
0.0
 11
282.5493036657263
 21
299.518636504341
 31
0.0
  0
LINE
  5
A31
330
6DA
100
AcDbEntity
  8
dim
 62
     0
370
    -2
100
AcDbLine
 10
282.5493036657263
 20
297.3686365043409
 30
0.0
 11
282.5493036657263
 21
299.518636504341
 31
0.0
  0
INSERT
  5
A32
330
6DA
100
AcDbEntity
  8
dim
 62
     0
370
    -2
100
AcDbBlockReference
  2
_Open30
 10
282.5493036657263
 20
297.3686365043409
 30
0.0
 41
2.0
 42
2.0
 43
2.0
 50
90.0
  0
INSERT
  5
A33
330
6DA
100
AcDbEntity
  8
dim
 62
     0
370
    -2
100
AcDbBlockReference
  2
_Open30
 10
282.5493036657263
 20
299.518636504341
 30
0.0
 41
2.0
 42
2.0
 43
2.0
 50
270.0
  0
POINT
  5
A34
330
6DA
100
AcDbEntity
  8
Defpoints
 62
     0
100
AcDbPoint
 10
284.4550405608043
 20
297.3686365043409
 30
0.0
  0
POINT
  5
A35
330
6DA
100
AcDbEntity
  8
Defpoints
 62
     0
100
AcDbPoint
 10
284.4550405608043
 20
299.518636504341
 30
0.0
  0
POINT
  5
A36
330
6DA
100
AcDbEntity
  8
Defpoints
 62
     0
100
AcDbPoint
 10
282.5493036657263
 20
299.518636504341
 30
0.0
  0
ENDBLK
  5
6DC
330
6DA
100
AcDbEntity
  8
0
100
AcDbBlockEnd
  0
BLOCK
  5
6EB
330
6EA
100
AcDbEntity
  8
0
100
AcDbBlockBegin
  2
*D17
 70
     1
 10
0.0
 20
0.0
 30
0.0
  3
*D17
  1

  0
LINE
  5
A37
330
6EA
100
AcDbEntity
  8
dim
 62
     0
370
    -2
100
AcDbLine
 10
156.4550405609789
 20
395.457156180562
 30
0.0
 11
156.4550405609789
 21
411.0625625866417
 31
0.0
  0
LINE
  5
A38
330
6EA
100
AcDbEntity
  8
dim
 62
     0
370
    -2
100
AcDbLine
 10
175.455040560978
 20
395.457156180562
 30
0.0
 11
175.455040560978
 21
411.0625625866417
 31
0.0
  0
LINE
  5
A39
330
6EA
100
AcDbEntity
  8
dim
 62
     0
370
    -2
100
AcDbLine
 10
158.4550405609789
 20
410.0625625866416
 30
0.0
 11
173.455040560978
 21
410.0625625866416
 31
0.0
  0
INSERT
  5
A3A
330
6EA
100
AcDbEntity
  8
dim
 62
     0
370
    -2
100
AcDbBlockReference
  2
_Open30
 10
156.4550405609789
 20
410.0625625866416
 30
0.0
 41
2.0
 42
2.0
 43
2.0
 50
180.0
  0
INSERT
  5
A3B
330
6EA
100
AcDbEntity
  8
dim
 62
     0
370
    -2
100
AcDbBlockReference
  2
_Open30
 10
175.455040560978
 20
410.0625625866416
 30
0.0
 41
2.0
 42
2.0
 43
2.0
  0
MTEXT
  5
A3C
330
6EA
100
AcDbEntity
  8
dim
 62
     3
100
AcDbMText
 10
165.9550405609784
 20
412.1875625866415
 30
0.0
 40
3.0
 41
0.0
 71
     5
 72
     1
  1
38
  7
ATOM
 73
     1
 44
1.0
1001
ACAD
1000
MTEXTBEGIN
1070
    73
1070
     1
1070
    44
1040
1.0
1070
    74
1070
     0
1000
MTEXTEND
  0
POINT
  5
A3D
330
6EA
100
AcDbEntity
  8
Defpoints
 62
     0
100
AcDbPoint
 10
156.4550405609789
 20
393.457156180562
 30
0.0
  0
POINT
  5
A3E
330
6EA
100
AcDbEntity
  8
Defpoints
 62
     0
100
AcDbPoint
 10
175.455040560978
 20
393.457156180562
 30
0.0
  0
POINT
  5
A3F
330
6EA
100
AcDbEntity
  8
Defpoints
 62
     0
100
AcDbPoint
 10
175.455040560978
 20
410.0625625866416
 30
0.0
  0
ENDBLK
  5
6EC
330
6EA
100
AcDbEntity
  8
0
100
AcDbBlockEnd
  0
BLOCK
  5
6F7
330
6F6
100
AcDbEntity
  8
0
100
AcDbBlockBegin
  2
*D18
 70
     1
 10
0.0
 20
0.0
 30
0.0
  3
*D18
  1

  0
LINE
  5
A40
330
6F6
100
AcDbEntity
  8
dim
 62
     0
370
    -2
100
AcDbLine
 10
178.9550405609789
 20
392.5887277760241
 30
0.0
 11
178.9550405609789
 21
417.7880691891761
 31
0.0
  0
LINE
  5
A41
330
6F6
100
AcDbEntity
  8
dim
 62
     0
370
    -2
100
AcDbLine
 10
152.9550405609789
 20
392.5887277760241
 30
0.0
 11
152.9550405609789
 21
417.7880691891761
 31
0.0
  0
LINE
  5
A42
330
6F6
100
AcDbEntity
  8
dim
 62
     0
370
    -2
100
AcDbLine
 10
176.9550405609789
 20
416.7880691891761
 30
0.0
 11
154.9550405609789
 21
416.7880691891761
 31
0.0
  0
INSERT
  5
A43
330
6F6
100
AcDbEntity
  8
dim
 62
     0
370
    -2
100
AcDbBlockReference
  2
_Open30
 10
178.9550405609789
 20
416.7880691891761
 30
0.0
 41
2.0
 42
2.0
 43
2.0
  0
INSERT
  5
A44
330
6F6
100
AcDbEntity
  8
dim
 62
     0
370
    -2
100
AcDbBlockReference
  2
_Open30
 10
152.9550405609789
 20
416.7880691891761
 30
0.0
 41
2.0
 42
2.0
 43
2.0
 50
180.0
  0
MTEXT
  5
A45
330
6F6
100
AcDbEntity
  8
dim
 62
     3
100
AcDbMText
 10
165.9550405609789
 20
418.9130691891761
 30
0.0
 40
3.0
 41
0.0
 71
     5
 72
     1
  1
52
  7
ATOM
 73
     1
 44
1.0
1001
ACAD
1000
MTEXTBEGIN
1070
    73
1070
     1
1070
    44
1040
1.0
1070
    74
1070
     0
1000
MTEXTEND
  0
POINT
  5
A46
330
6F6
100
AcDbEntity
  8
Defpoints
 62
     0
100
AcDbPoint
 10
178.9550405609789
 20
390.5887277760241
 30
0.0
  0
POINT
  5
A47
330
6F6
100
AcDbEntity
  8
Defpoints
 62
     0
100
AcDbPoint
 10
152.9550405609789
 20
390.5887277760241
 30
0.0
  0
POINT
  5
A48
330
6F6
100
AcDbEntity
  8
Defpoints
 62
     0
100
AcDbPoint
 10
152.9550405609789
 20
416.7880691891761
 30
0.0
  0
ENDBLK
  5
6F8
330
6F6
100
AcDbEntity
  8
0
100
AcDbBlockEnd
  0
BLOCK
  5
703
330
702
100
AcDbEntity
  8
0
100
AcDbBlockBegin
  2
*D19
 70
     1
 10
0.0
 20
0.0
 30
0.0
  3
*D19
  1

  0
LINE
  5
A49
330
702
100
AcDbEntity
  8
dim
 62
     0
370
    -2
100
AcDbLine
 10
-12.70468721686666
 20
382.5887277760241
 30
0.0
 11
-25.03118979744431
 21
382.5887277760241
 31
0.0
  0
LINE
  5
A4A
330
702
100
AcDbEntity
  8
dim
 62
     0
370
    -2
100
AcDbLine
 10
-16.97822844727489
 20
390.5887277760241
 30
0.0
 11
-25.03118979744431
 21
390.5887277760241
 31
0.0
  0
LINE
  5
A4B
330
702
100
AcDbEntity
  8
dim
 62
     0
370
    -2
100
AcDbLine
 10
-24.03118979744431
 20
380.5887277760242
 30
0.0
 11
-24.03118979744431
 21
378.5887277760242
 31
0.0
  0
LINE
  5
A4C
330
702
100
AcDbEntity
  8
dim
 62
     0
370
    -2
100
AcDbLine
 10
-24.03118979744431
 20
392.5887277760241
 30
0.0
 11
-24.03118979744431
 21
394.5887277760241
 31
0.0
  0
LINE
  5
A4D
330
702
100
AcDbEntity
  8
dim
 62
     0
370
    -2
100
AcDbLine
 10
-24.03118979744431
 20
399.8518340645688
 30
0.0
 11
-24.03118979744431
 21
390.5887277760241
 31
0.0
  0
MTEXT
  5
A4E
330
702
100
AcDbEntity
  8
dim
 62
     3
100
AcDbMText
 10
-26.15618979744438
 20
397.4268340645688
 30
0.0
 40
3.0
 41
0.0
 71
     5
 72
     1
  1
16
  7
ATOM
 11
0.0000000000000001
 21
1.0
 31
0.0
 73
     1
 44
1.0
1001
ACAD
1000
MTEXTBEGIN
1070
    73
1070
     1
1070
    44
1040
1.0
1070
    74
1070
     0
1000
MTEXTEND
  0
LINE
  5
A4F
330
702
100
AcDbEntity
  8
dim
 62
     0
370
    -2
100
AcDbLine
 10
-24.03118979744431
 20
382.5887277760241
 30
0.0
 11
-24.03118979744431
 21
390.5887277760241
 31
0.0
  0
LINE
  5
A50
330
702
100
AcDbEntity
  8
dim
 62
     0
370
    -2
100
AcDbLine
 10
-24.03118979744431
 20
382.5887277760241
 30
0.0
 11
-24.03118979744431
 21
390.5887277760241
 31
0.0
  0
INSERT
  5
A51
330
702
100
AcDbEntity
  8
dim
 62
     0
370
    -2
100
AcDbBlockReference
  2
_Open30
 10
-24.03118979744431
 20
382.5887277760241
 30
0.0
 41
2.0
 42
2.0
 43
2.0
 50
90.0
  0
INSERT
  5
A52
330
702
100
AcDbEntity
  8
dim
 62
     0
370
    -2
100
AcDbBlockReference
  2
_Open30
 10
-24.03118979744431
 20
390.5887277760241
 30
0.0
 41
2.0
 42
2.0
 43
2.0
 50
270.0
  0
POINT
  5
A53
330
702
100
AcDbEntity
  8
Defpoints
 62
     0
100
AcDbPoint
 10
-10.70468721686666
 20
382.5887277760241
 30
0.0
  0
POINT
  5
A54
330
702
100
AcDbEntity
  8
Defpoints
 62
     0
100
AcDbPoint
 10
-14.97822844727489
 20
390.5887277760241
 30
0.0
  0
POINT
  5
A55
330
702
100
AcDbEntity
  8
Defpoints
 62
     0
100
AcDbPoint
 10
-24.03118979744431
 20
390.5887277760241
 30
0.0
  0
ENDBLK
  5
704
330
702
100
AcDbEntity
  8
0
100
AcDbBlockEnd
  0
BLOCK
  5
713
330
712
100
AcDbEntity
  8
0
100
AcDbBlockBegin
  2
*D20
 70
     1
 10
0.0
 20
0.0
 30
0.0
  3
*D20
  1

  0
LINE
  5
A56
330
712
100
AcDbEntity
  8
dim
 62
     0
370
    -2
100
AcDbLine
 10
89.95754054719144
 20
306.6936365076073
 30
0.0
 11
129.3137277729456
 21
306.6936365076072
 31
0.0
  0
LINE
  5
A57
330
712
100
AcDbEntity
  8
dim
 62
     0
370
    -2
100
AcDbLine
 10
124.2971730036533
 20
307.9936365083411
 30
0.0
 11
129.3137277729456
 21
307.993636508341
 31
0.0
  0
LINE
  5
A58
330
712
100
AcDbEntity
  8
dim
 62
     0
370
    -2
100
AcDbLine
 10
128.3137277729456
 20
304.6936365076072
 30
0.0
 11
128.3137277729456
 21
302.6936365076072
 31
0.0
  0
LINE
  5
A59
330
712
100
AcDbEntity
  8
dim
 62
     0
370
    -2
100
AcDbLine
 10
128.3137277729456
 20
309.993636508341
 30
0.0
 11
128.3137277729456
 21
311.993636508341
 31
0.0
  0
LINE
  5
A5A
330
712
100
AcDbEntity
  8
dim
 62
     0
370
    -2
100
AcDbLine
 10
128.3137277729456
 20
291.458846797379
 30
0.0
 11
128.3137277729456
 21
306.6936365076072
 31
0.0
  0
MTEXT
  5
A5B
330
712
100
AcDbEntity
  8
dim
 62
     3
100
AcDbMText
 10
126.1887277729456
 20
294.7838467973791
 30
0.0
 40
3.0
 41
0.0
 71
     5
 72
     1
  1
2.6
  7
ATOM
 11
0.0000000000000001
 21
1.0
 31
0.0
 73
     1
 44
1.0
1001
ACAD
1000
MTEXTBEGIN
1070
    73
1070
     1
1070
    44
1040
1.0
1070
    74
1070
     0
1000
MTEXTEND
  0
LINE
  5
A5C
330
712
100
AcDbEntity
  8
dim
 62
     0
370
    -2
100
AcDbLine
 10
128.3137277729456
 20
306.6936365076072
 30
0.0
 11
128.3137277729456
 21
307.993636508341
 31
0.0
  0
LINE
  5
A5D
330
712
100
AcDbEntity
  8
dim
 62
     0
370
    -2
100
AcDbLine
 10
128.3137277729456
 20
306.6936365076072
 30
0.0
 11
128.3137277729456
 21
307.993636508341
 31
0.0
  0
INSERT
  5
A5E
330
712
100
AcDbEntity
  8
dim
 62
     0
370
    -2
100
AcDbBlockReference
  2
_Open30
 10
128.3137277729456
 20
306.6936365076072
 30
0.0
 41
2.0
 42
2.0
 43
2.0
 50
90.0
  0
INSERT
  5
A5F
330
712
100
AcDbEntity
  8
dim
 62
     0
370
    -2
100
AcDbBlockReference
  2
_Open30
 10
128.3137277729456
 20
307.993636508341
 30
0.0
 41
2.0
 42
2.0
 43
2.0
 50
270.0
  0
POINT
  5
A60
330
712
100
AcDbEntity
  8
Defpoints
 62
     0
100
AcDbPoint
 10
87.95754054719145
 20
306.6936365076073
 30
0.0
  0
POINT
  5
A61
330
712
100
AcDbEntity
  8
Defpoints
 62
     0
100
AcDbPoint
 10
122.2971730036533
 20
307.9936365083411
 30
0.0
  0
POINT
  5
A62
330
712
100
AcDbEntity
  8
Defpoints
 62
     0
100
AcDbPoint
 10
128.3137277729456
 20
307.993636508341
 30
0.0
  0
ENDBLK
  5
714
330
712
100
AcDbEntity
  8
0
100
AcDbBlockEnd
  0
BLOCK
  5
723
330
722
100
AcDbEntity
  8
0
100
AcDbBlockBegin
  2
*D21
 70
     1
 10
0.0
 20
0.0
 30
0.0
  3
*D21
  1

  0
LINE
  5
A63
330
722
100
AcDbEntity
  8
dim
 62
     0
370
    -2
100
AcDbLine
 10
179.4550405644786
 20
305.1936365043409
 30
0.0
 11
188.6824364529784
 21
305.1936365043409
 31
0.0
  0
LINE
  5
A64
330
722
100
AcDbEntity
  8
dim
 62
     0
370
    -2
100
AcDbLine
 10
179.4550405644786
 20
295.1936365043409
 30
0.0
 11
188.6824364529784
 21
295.1936365043409
 31
0.0
  0
LINE
  5
A65
330
722
100
AcDbEntity
  8
dim
 62
     0
370
    -2
100
AcDbLine
 10
187.6824364529784
 20
307.1936365043409
 30
0.0
 11
187.6824364529784
 21
309.1936365043409
 31
0.0
  0
LINE
  5
A66
330
722
100
AcDbEntity
  8
dim
 62
     0
370
    -2
100
AcDbLine
 10
187.6824364529784
 20
293.1936365043409
 30
0.0
 11
187.6824364529784
 21
291.1936365043409
 31
0.0
  0
LINE
  5
A67
330
722
100
AcDbEntity
  8
dim
 62
     0
370
    -2
100
AcDbLine
 10
187.6824364529784
 20
284.5304069728361
 30
0.0
 11
187.6824364529784
 21
295.1936365043409
 31
0.0
  0
MTEXT
  5
A68
330
722
100
AcDbEntity
  8
dim
 62
     3
100
AcDbMText
 10
185.5574364529784
 20
287.1804069728362
 30
0.0
 40
3.0
 41
0.0
 71
     5
 72
     1
  1
20
  7
ATOM
 11
0.0000000000000001
 21
1.0
 31
0.0
 73
     1
 44
1.0
1001
ACAD
1000
MTEXTBEGIN
1070
    73
1070
     1
1070
    44
1040
1.0
1070
    74
1070
     0
1000
MTEXTEND
  0
LINE
  5
A69
330
722
100
AcDbEntity
  8
dim
 62
     0
370
    -2
100
AcDbLine
 10
187.6824364529784
 20
305.1936365043409
 30
0.0
 11
187.6824364529784
 21
295.1936365043409
 31
0.0
  0
LINE
  5
A6A
330
722
100
AcDbEntity
  8
dim
 62
     0
370
    -2
100
AcDbLine
 10
187.6824364529784
 20
305.1936365043409
 30
0.0
 11
187.6824364529784
 21
295.1936365043409
 31
0.0
  0
INSERT
  5
A6B
330
722
100
AcDbEntity
  8
dim
 62
     0
370
    -2
100
AcDbBlockReference
  2
_Open30
 10
187.6824364529784
 20
305.1936365043409
 30
0.0
 41
2.0
 42
2.0
 43
2.0
 50
270.0
  0
INSERT
  5
A6C
330
722
100
AcDbEntity
  8
dim
 62
     0
370
    -2
100
AcDbBlockReference
  2
_Open30
 10
187.6824364529784
 20
295.1936365043409
 30
0.0
 41
2.0
 42
2.0
 43
2.0
 50
90.0
  0
POINT
  5
A6D
330
722
100
AcDbEntity
  8
Defpoints
 62
     0
100
AcDbPoint
 10
177.4550405644786
 20
305.1936365043409
 30
0.0
  0
POINT
  5
A6E
330
722
100
AcDbEntity
  8
Defpoints
 62
     0
100
AcDbPoint
 10
177.4550405644786
 20
295.1936365043409
 30
0.0
  0
POINT
  5
A6F
330
722
100
AcDbEntity
  8
Defpoints
 62
     0
100
AcDbPoint
 10
187.6824364529784
 20
295.1936365043409
 30
0.0
  0
ENDBLK
  5
724
330
722
100
AcDbEntity
  8
0
100
AcDbBlockEnd
  0
ENDSEC
  0
SECTION
  2
ENTITIES
  0
ARC
  5
266
330
6C
100
AcDbEntity
  8
# base
  6
Continuous
100
AcDbCircle
 10
158.4600405329784
 20
386.0887277760241
 30
0.0
 40
1.5
100
AcDbArc
 50
0.0
 51
90.0
  0
ARC
  5
26A
330
6C
100
AcDbEntity
  8
# base
  6
Continuous
100
AcDbCircle
 10
158.4600405329784
 20
379.0887277760242
 30
0.0
 40
1.5
100
AcDbArc
 50
270.0
 51
0.0
  0
LINE
  5
26B
330
6C
100
AcDbEntity
  8
# base
  6
Continuous
100
AcDbLine
 10
158.4600405454421
 20
302.7436365043411
 30
0.0
 11
159.9550405494419
 21
302.7436365043411
 31
0.0
  0
LINE
  5
26C
330
6C
100
AcDbEntity
  8
# base
  6
Continuous
100
AcDbLine
 10
159.9550405494419
 20
302.2436365043411
 30
0.0
 11
4.955040548942633
 21
302.2436365043411
 31
0.0
  0
LINE
  5
26D
330
6C
100
AcDbEntity
  8
# base
  6
Continuous
100
AcDbLine
 10
4.955040548942633
 20
302.7436365043411
 30
0.0
 11
6.864870605442773
 21
302.7436365043411
 31
0.0
  0
LINE
  5
26E
330
6C
100
AcDbEntity
  8
# base
  6
Continuous
100
AcDbLine
 10
158.4600405454421
 20
305.4436365053411
 30
0.0
 11
158.4600405454421
 21
302.7436365043411
 31
0.0
  0
LINE
  5
26F
330
6C
100
AcDbEntity
  8
# base
  6
Continuous
100
AcDbLine
 10
159.9550405494419
 20
302.7436365043411
 30
0.0
 11
159.9550405494419
 21
302.2436365043411
 31
0.0
  0
LINE
  5
270
330
6C
100
AcDbEntity
  8
# base
  6
Continuous
100
AcDbLine
 10
6.864870605442773
 20
305.4436365053411
 30
0.0
 11
6.864870605442773
 21
302.7436365043411
 31
0.0
  0
LINE
  5
271
330
6C
100
AcDbEntity
  8
# base
  6
Continuous
100
AcDbLine
 10
6.864870592979057
 20
377.0887277765242
 30
0.0
 11
6.864870592979057
 21
377.5887277760241
 31
0.0
  0
ARC
  5
272
330
6C
100
AcDbEntity
  8
hidden
100
AcDbCircle
 10
12.45504053647892
 20
382.5887277760241
 30
0.0
 40
7.5
100
AcDbArc
 50
138.1896851049958
 51
221.8103148940242
  0
LINE
  5
276
330
6C
100
AcDbEntity
  8
# base
  6
Continuous
100
AcDbLine
 10
158.4600405329784
 20
388.0887277765241
 30
0.0
 11
6.864870592979057
 21
388.0887277765241
 31
0.0
  0
LINE
  5
277
330
6C
100
AcDbEntity
  8
# base
  6
Continuous
100
AcDbLine
 10
158.4600405329784
 20
377.0887277765242
 30
0.0
 11
6.864870592979057
 21
377.0887277765242
 31
0.0
  0
LINE
  5
278
330
6C
100
AcDbEntity
  8
# base
  6
Continuous
100
AcDbLine
 10
6.864870592979057
 20
387.5887277760242
 30
0.0
 11
6.864870592979057
 21
388.0887277765241
 31
0.0
  0
LINE
  5
279
330
6C
100
AcDbEntity
  8
# base
  6
Continuous
100
AcDbLine
 10
158.4600405329784
 20
377.5887277760241
 30
0.0
 11
158.4600405329784
 21
377.0887277765242
 31
0.0
  0
LINE
  5
27A
330
6C
100
AcDbEntity
  8
# base
  6
Continuous
100
AcDbLine
 10
158.4600405329784
 20
387.5887277760242
 30
0.0
 11
158.4600405329784
 21
388.0887277765241
 31
0.0
  0
LINE
  5
27B
330
6C
100
AcDbEntity
  8
center
100
AcDbLine
 10
9.955040548941724
 20
308.6893425443411
 30
0.0
 11
9.955040548941724
 21
298.5962825333413
 31
0.0
  0
LINE
  5
27F
330
6C
100
AcDbEntity
  8
# base
  6
Continuous
100
AcDbLine
 10
159.9550405494419
 20
305.9436365043412
 30
0.0
 11
159.9550405494419
 21
305.4436365053411
 31
0.0
  0
LINE
  5
280
330
6C
100
AcDbEntity
  8
# base
  6
Continuous
100
AcDbLine
 10
6.331370486941522
 20
305.4436365053411
 30
0.0
 11
6.864870605442773
 21
305.4436365053411
 31
0.0
  0
LINE
  5
281
330
6C
100
AcDbEntity
  8
# base
  6
Continuous
100
AcDbLine
 10
6.331370486941522
 20
305.9436365043412
 30
0.0
 11
6.331370486941522
 21
305.4436365053411
 31
0.0
  0
LINE
  5
282
330
6C
100
AcDbEntity
  8
# base
  6
Continuous
100
AcDbLine
 10
159.9550405494419
 20
305.9436365043412
 30
0.0
 11
6.331370486941522
 21
305.9436365043412
 31
0.0
  0
LINE
  5
283
330
6C
100
AcDbEntity
  8
# base
  6
Continuous
100
AcDbLine
 10
4.955040548942633
 20
302.2436365043411
 30
0.0
 11
4.955040548942633
 21
302.7436365043411
 31
0.0
  0
LINE
  5
284
330
6C
100
AcDbEntity
  8
# base
  6
Continuous
100
AcDbLine
 10
158.4600405454421
 20
305.443636505341
 30
0.0
 11
159.9550405494419
 21
305.4436365053411
 31
0.0
  0
LINE
  5
285
330
6C
100
AcDbEntity
  8
# cover
  6
Continuous
100
AcDbLine
 10
159.9600405449781
 20
381.0887277760242
 30
0.0
 11
159.9600405449781
 21
379.5887277760241
 31
0.0
  0
ARC
  5
289
330
6C
100
AcDbEntity
  8
hidden
100
AcDbCircle
 10
18.95504054947832
 20
379.8387277760241
 30
0.0
 40
0.8500000005
100
AcDbArc
 50
180.0
 51
270.0
  0
LINE
  5
28A
330
6C
100
AcDbEntity
  8
hidden
100
AcDbLine
 10
18.10504054947887
 20
379.8387277760241
 30
0.0
 11
18.1050405479782
 21
385.3387277760242
 31
0.0
  0
ARC
  5
28B
330
6C
100
AcDbEntity
  8
hidden
100
AcDbCircle
 10
18.95504054797857
 20
385.3387277760242
 30
0.0
 40
0.8500000005
100
AcDbArc
 50
90.0
 51
180.0
  0
ARC
  5
28C
330
6C
100
AcDbEntity
  8
# cover
  6
Continuous
100
AcDbCircle
 10
156.9600405449781
 20
379.8387277760241
 30
0.0
 40
0.8500000005
100
AcDbArc
 50
270.0
 51
0.0
  0
LINE
  5
28D
330
6C
100
AcDbEntity
  8
# cover
  6
Continuous
100
AcDbLine
 10
157.8100405449786
 20
385.3387277760242
 30
0.0
 11
157.8100405449786
 21
379.8387277760241
 31
0.0
  0
ARC
  5
28E
330
6C
100
AcDbEntity
  8
# cover
  6
Continuous
100
AcDbCircle
 10
156.9600405449781
 20
385.3387277760242
 30
0.0
 40
0.8500000005
100
AcDbArc
 50
0.0
 51
90.0
  0
LINE
  5
28F
330
6C
100
AcDbEntity
  8
# cover
  6
Continuous
100
AcDbLine
 10
156.9600405449781
 20
386.188727776024
 30
0.0
 11
25.95170350235276
 21
386.188727776024
 31
0.0
  0
ARC
  5
290
330
6C
100
AcDbEntity
  8
# cover
  6
Continuous
100
AcDbCircle
 10
158.4600405449782
 20
385.5887277760242
 30
0.0
 40
1.5
100
AcDbArc
 50
0.0
 51
90.0
  0
ARC
  5
291
330
6C
100
AcDbEntity
  8
# cover
  6
Continuous
100
AcDbCircle
 10
158.4600405449782
 20
379.5887277760241
 30
0.0
 40
1.5
100
AcDbArc
 50
270.0
 51
0.0
  0
LINE
  5
292
330
6C
100
AcDbEntity
  8
# cover
  6
Continuous
100
AcDbLine
 10
159.9600405449781
 20
385.5887277760242
 30
0.0
 11
159.9600405449781
 21
384.0887277760241
 31
0.0
  0
ARC
  5
293
330
6C
100
AcDbEntity
  8
hidden
100
AcDbCircle
 10
9.955040548478793
 20
382.5887277760241
 30
0.0
 40
5.0
100
AcDbArc
 50
115.8419327630206
 51
244.1580672369794
  0
LINE
  5
294
330
6C
100
AcDbEntity
  8
hidden
100
AcDbLine
 10
7.775591076978344
 20
387.0887277760242
 30
0.0
 11
25.573074526048
 21
387.0887277760242
 31
0.0
  0
LINE
  5
295
330
6C
100
AcDbEntity
  8
# cover
  6
Continuous
100
AcDbLine
 10
25.573074526048
 20
387.0887277760242
 30
0.0
 11
158.4600405449782
 21
387.0887277760242
 31
0.0
  0
LINE
  5
296
330
6C
100
AcDbEntity
  8
# cover
  6
Continuous
100
AcDbLine
 10
159.1100405444777
 20
381.0887277760242
 30
0.0
 11
158.6100405444776
 21
381.5887277760241
 31
0.0
  0
LINE
  5
297
330
6C
100
AcDbEntity
  8
# cover
  6
Continuous
100
AcDbLine
 10
158.6100405444776
 20
383.5887277760241
 30
0.0
 11
159.1100405444777
 21
384.0887277760241
 31
0.0
  0
LINE
  5
298
330
6C
100
AcDbEntity
  8
# cover
  6
Continuous
100
AcDbLine
 10
158.4600405449782
 20
378.0887277760241
 30
0.0
 11
25.57307454840793
 21
378.0887277760241
 31
0.0
  0
LINE
  5
299
330
6C
100
AcDbEntity
  8
hidden
100
AcDbLine
 10
25.57307454840793
 20
378.0887277760241
 30
0.0
 11
7.775591076978344
 21
378.0887277760241
 31
0.0
  0
LINE
  5
29A
330
6C
100
AcDbEntity
  8
# cover
  6
Continuous
100
AcDbLine
 10
159.1100405444777
 20
384.0887277760241
 30
0.0
 11
160.1100405449779
 21
384.0887277760241
 31
0.0
  0
LINE
  5
29B
330
6C
100
AcDbEntity
  8
# cover
  6
Continuous
100
AcDbLine
 10
158.6100405444776
 20
383.5887277760241
 30
0.0
 11
158.6100405444776
 21
381.5887277760241
 31
0.0
  0
LINE
  5
29C
330
6C
100
AcDbEntity
  8
# cover
  6
Continuous
100
AcDbLine
 10
160.1100405449779
 20
381.0887277760242
 30
0.0
 11
159.1100405444777
 21
381.0887277760242
 31
0.0
  0
LINE
  5
29D
330
6C
100
AcDbEntity
  8
# cover
  6
Continuous
100
AcDbLine
 10
160.1100405449779
 20
384.0887277760241
 30
0.0
 11
160.1100405449779
 21
381.0887277760242
 31
0.0
  0
LINE
  5
29E
330
6C
100
AcDbEntity
  8
center
100
AcDbLine
 10
-10.70468721686666
 20
382.5887277760241
 30
0.0
 11
306.3420364855865
 21
382.5887277760241
 31
0.0
  0
LINE
  5
29F
330
6C
100
AcDbEntity
  8
# cover
  6
Continuous
100
AcDbLine
 10
156.9600405449781
 20
378.988727776024
 30
0.0
 11
25.95170350402259
 21
378.988727776024
 31
0.0
  0
ARC
  5
2A0
330
6C
100
AcDbEntity
  8
# cover
  6
Continuous
100
AcDbCircle
 10
18.55504054894118
 20
306.0936365078573
 30
0.0
 40
0.6
100
AcDbArc
 50
90.0
 51
180.0
  0
LINE
  5
2A1
330
6C
100
AcDbEntity
  8
# cover
  6
Continuous
100
AcDbLine
 10
18.55504054894118
 20
306.6936365078573
 30
0.0
 11
157.3600405454417
 21
306.6936365073573
 31
0.0
  0
ARC
  5
2A2
330
6C
100
AcDbEntity
  8
# cover
  6
Continuous
100
AcDbCircle
 10
157.3600405454417
 20
306.0936365073573
 30
0.0
 40
0.6
100
AcDbArc
 50
0.0
 51
90.0
  0
LINE
  5
2A3
330
6C
100
AcDbEntity
  8
# cover
  6
Continuous
100
AcDbLine
 10
160.1100405449415
 20
305.9436365073573
 30
0.0
 11
160.1100405449415
 21
304.9436365073573
 31
0.0
  0
LINE
  5
2A4
330
6C
100
AcDbEntity
  8
# cover
  6
Continuous
100
AcDbLine
 10
159.9600405454421
 20
306.0936365073573
 30
0.0
 11
159.9600405454421
 21
304.9436365073573
 31
0.0
  0
LINE
  5
2A5
330
6C
100
AcDbEntity
  8
# cover
  6
Continuous
100
AcDbLine
 10
159.9600405454421
 20
306.0936365073573
 30
0.0
 11
4.955040546941745
 21
306.0936365078573
 31
0.0
  0
LINE
  5
2A6
330
6C
100
AcDbEntity
  8
# cover
  6
Continuous
100
AcDbLine
 10
159.9550405494419
 20
305.9436365038573
 30
0.0
 11
4.955040546941745
 21
305.9436365043573
 31
0.0
  0
LINE
  5
2A7
330
6C
100
AcDbEntity
  8
# cover
  6
Continuous
100
AcDbLine
 10
159.9600405454421
 20
304.9436365073573
 30
0.0
 11
159.955040548979
 21
304.9436365073573
 31
0.0
  0
ARC
  5
2A8
330
6C
100
AcDbEntity
  8
# cover
  6
Continuous
100
AcDbCircle
 10
159.9600405454421
 20
305.9436365073573
 30
0.0
 40
0.1499999995
100
AcDbArc
 50
0.0
 51
90.0
  0
LINE
  5
2A9
330
6C
100
AcDbEntity
  8
# cover
  6
Continuous
100
AcDbLine
 10
4.955040546941745
 20
306.0936365078573
 30
0.0
 11
4.955040546941745
 21
305.9436365043573
 31
0.0
  0
LINE
  5
2AA
330
6C
100
AcDbEntity
  8
# holder_frm
  6
Continuous
100
AcDbLine
 10
6.331370486941522
 20
305.4436365034386
 30
0.0
 11
5.45504054847879
 21
305.4436365033412
 31
0.0
  0
LINE
  5
2AE
330
6C
100
AcDbEntity
  8
# holder_frm
  6
Continuous
100
AcDbLine
 10
13.60504054847843
 20
306.4436365033412
 30
0.0
 11
6.30504054747871
 21
306.4436365033412
 31
0.0
  0
LINE
  5
2AF
330
6C
100
AcDbEntity
  8
# holder_frm
  6
Continuous
100
AcDbLine
 10
13.60504054847843
 20
306.0936365078294
 30
0.0
 11
13.60504054847843
 21
306.4436365033412
 31
0.0
  0
LINE
  5
2B0
330
6C
100
AcDbEntity
  8
# holder_frm
  6
Continuous
100
AcDbLine
 10
6.305040548478244
 20
305.4436365033412
 30
0.0
 11
6.305040547978932
 21
305.9436365043529
 31
0.0
  0
LINE
  5
2B1
330
6C
100
AcDbEntity
  8
# holder_frm
  6
Continuous
100
AcDbLine
 10
6.305040547827956
 20
306.0936365078529
 30
0.0
 11
6.30504054747871
 21
306.4436365033412
 31
0.0
  0
ARC
  5
2B2
330
6C
100
AcDbEntity
  8
# holder_frm
  6
Continuous
100
AcDbCircle
 10
5.45504054847879
 20
304.9436365043411
 30
0.0
 40
0.5
100
AcDbArc
 50
90.0
 51
180.0
  0
ARC
  5
2B3
330
6C
100
AcDbEntity
  8
# holder_frm
  6
Continuous
100
AcDbCircle
 10
5.45504054847879
 20
303.2436365033411
 30
0.0
 40
0.5
100
AcDbArc
 50
180.0
 51
270.0
  0
LINE
  5
2B4
330
6C
100
AcDbEntity
  8
# holder_frm
  6
Continuous
100
AcDbLine
 10
4.95504054847879
 20
304.9436365043411
 30
0.0
 11
4.95504054847879
 21
303.2436365033411
 31
0.0
  0
LINE
  5
2B5
330
6C
100
AcDbEntity
  8
# holder_frm
  6
Continuous
100
AcDbLine
 10
6.766819942478831
 20
304.9436365033411
 30
0.0
 11
6.766819942478831
 21
303.2436365033411
 31
0.0
  0
ARC
  5
2B6
330
6C
100
AcDbEntity
  8
# holder_frm
  6
Continuous
100
AcDbCircle
 10
7.266819942478831
 20
303.2436365033411
 30
0.0
 40
0.5
100
AcDbArc
 50
180.0
 51
216.4959721645717
  0
ARC
  5
2B7
330
6C
100
AcDbEntity
  8
# holder_frm
  6
Continuous
100
AcDbCircle
 10
7.266819942478831
 20
304.9436365033411
 30
0.0
 40
0.5
100
AcDbArc
 50
143.5040278354282
 51
180.0
  0
ARC
  5
2B8
330
6C
100
AcDbEntity
  8
# holder_dr
  6
Continuous
100
AcDbCircle
 10
158.4600405329784
 20
386.5887277760241
 30
0.0
 40
1.5
100
AcDbArc
 50
0.0
 51
90.0
  0
LINE
  5
2BC
330
6C
100
AcDbEntity
  8
# holder_dr
  6
Continuous
100
AcDbLine
 10
159.9600405329784
 20
378.5887277757741
 30
0.0
 11
159.9600405329784
 21
381.088727776024
 31
0.0
  0
LINE
  5
2BD
330
6C
100
AcDbEntity
  8
# holder_dr
  6
Continuous
100
AcDbLine
 10
159.9600405329784
 20
384.0887277760241
 30
0.0
 11
159.9600405329784
 21
386.5887277760241
 31
0.0
  0
LINE
  5
2BE
330
6C
100
AcDbEntity
  8
# holder_dr
  6
Continuous
100
AcDbLine
 10
159.955040548979
 20
302.7436365043411
 30
0.0
 11
159.955040548979
 21
305.9436365045911
 31
0.0
  0
ARC
  5
2BF
330
6C
100
AcDbEntity
  8
# holder_dr
  6
Continuous
100
AcDbCircle
 10
158.4600405329784
 20
378.5887277757741
 30
0.0
 40
1.5
100
AcDbArc
 50
270.0
 51
0.0
  0
ARC
  5
2CA
330
6C
100
AcDbEntity
  8
# cover
  6
Continuous
100
AcDbCircle
 10
-28.75963772256
 20
306.0936365083412
 30
0.0
 40
0.6
100
AcDbArc
 50
0.0
 51
41.81031489579829
  0
ARC
  5
2CB
330
6C
100
AcDbEntity
  8
# cover
  6
Continuous
100
AcDbCircle
 10
-35.05963772255928
 20
306.0936365083412
 30
0.0
 40
0.6
100
AcDbArc
 50
138.1896851042017
 51
180.0
  0
LINE
  5
2CC
330
6C
100
AcDbEntity
  8
# cover
  6
Continuous
100
AcDbLine
 10
-30.40963772255965
 20
305.9436365053411
 30
0.0
 11
-27.40963772255965
 21
305.9436365053411
 31
0.0
  0
LINE
  5
2CD
330
6C
100
AcDbEntity
  8
# cover
  6
Continuous
100
AcDbLine
 10
-27.40963772255965
 20
305.9436365053411
 30
0.0
 11
-27.40963772255965
 21
306.0936365053412
 31
0.0
  0
LINE
  5
2CE
330
6C
100
AcDbEntity
  8
# cover
  6
Continuous
100
AcDbLine
 10
-36.40963772255965
 20
305.9436365053411
 30
0.0
 11
-36.40963772255965
 21
306.0936365053412
 31
0.0
  0
LINE
  5
2CF
330
6C
100
AcDbEntity
  8
# cover
  6
Continuous
100
AcDbLine
 10
-33.40963772255964
 20
304.7936365088412
 30
0.0
 11
-30.40963772255965
 21
304.7936365088412
 31
0.0
  0
LINE
  5
2D0
330
6C
100
AcDbEntity
  8
# cover
  6
Continuous
100
AcDbLine
 10
-30.40963772255965
 20
304.7936365088412
 30
0.0
 11
-30.40963772255965
 21
306.0936365053412
 31
0.0
  0
LINE
  5
2D1
330
6C
100
AcDbEntity
  8
# cover
  6
Continuous
100
AcDbLine
 10
-33.40963772255964
 20
306.0936365053412
 30
0.0
 11
-33.40963772255964
 21
304.7936365088412
 31
0.0
  0
LINE
  5
2D2
330
6C
100
AcDbEntity
  8
# cover
  6
Continuous
100
AcDbLine
 10
-36.40963772255965
 20
305.9436365053411
 30
0.0
 11
-33.40963772255964
 21
305.9436365053411
 31
0.0
  0
LINE
  5
2D3
330
6C
100
AcDbEntity
  8
# cover
  6
Continuous
100
AcDbLine
 10
-27.40963772255965
 20
306.0936365053412
 30
0.0
 11
-36.40963772255965
 21
306.0936365053412
 31
0.0
  0
LINE
  5
2D4
330
6C
100
AcDbEntity
  8
# base
  6
Continuous
100
AcDbLine
 10
-37.40963772305986
 20
302.7436365048411
 30
0.0
 11
-37.40963772405848
 21
305.4436365053411
 31
0.0
  0
LINE
  5
2D5
330
6C
100
AcDbEntity
  8
# base
  6
Continuous
100
AcDbLine
 10
-36.90963772405849
 20
305.9436365053411
 30
0.0
 11
-36.90963772305986
 21
302.2436365048411
 31
0.0
  0
LINE
  5
2D6
330
6C
100
AcDbEntity
  8
# base
  6
Continuous
100
AcDbLine
 10
-36.90963772305986
 20
302.7436365048411
 30
0.0
 11
-26.90963772355917
 21
302.7436365048411
 31
0.0
  0
ARC
  5
2D7
330
6C
100
AcDbEntity
  8
# base
  6
Continuous
100
AcDbCircle
 10
-36.90963772305986
 20
305.4436365058411
 30
0.0
 40
0.5
100
AcDbArc
 50
90.0
 51
180.0
  0
ARC
  5
2D8
330
6C
100
AcDbEntity
  8
# base
  6
Continuous
100
AcDbCircle
 10
-26.90963772355917
 20
305.4436365058411
 30
0.0
 40
0.5
100
AcDbArc
 50
0.0
 51
90.0
  0
LINE
  5
2D9
330
6C
100
AcDbEntity
  8
# base
  6
Continuous
100
AcDbLine
 10
-26.90963772355917
 20
305.4436365058411
 30
0.0
 11
-29.40963772305986
 21
305.4436365058411
 31
0.0
  0
LINE
  5
2DA
330
6C
100
AcDbEntity
  8
# base
  6
Continuous
100
AcDbLine
 10
-26.90963772355917
 20
305.9436365058411
 30
0.0
 11
-28.25963772305931
 21
305.9436365055711
 31
0.0
  0
LINE
  5
2DB
330
6C
100
AcDbEntity
  8
# base
  6
Continuous
100
AcDbLine
 10
-34.40963772305986
 20
305.4436365058411
 30
0.0
 11
-36.90963772305986
 21
305.4436365058411
 31
0.0
  0
LINE
  5
2DC
330
6C
100
AcDbEntity
  8
# base
  6
Continuous
100
AcDbLine
 10
-34.40963772305986
 20
305.9436365053411
 30
0.0
 11
-36.90963772405849
 21
305.9436365053411
 31
0.0
  0
ARC
  5
2DD
330
6C
100
AcDbEntity
  8
# base
  6
Continuous
100
AcDbCircle
 10
-26.90963772355917
 20
302.7436365048411
 30
0.0
 40
0.5
100
AcDbArc
 50
270.0
 51
0.0
  0
ARC
  5
2DE
330
6C
100
AcDbEntity
  8
# base
  6
Continuous
100
AcDbCircle
 10
-36.90963772305986
 20
302.7436365048411
 30
0.0
 40
0.5
100
AcDbArc
 50
180.0
 51
270.0
  0
LINE
  5
2DF
330
6C
100
AcDbEntity
  8
# base
  6
Continuous
100
AcDbLine
 10
-26.90963772355917
 20
302.2436365048411
 30
0.0
 11
-36.90963772305986
 21
302.2436365048411
 31
0.0
  0
LINE
  5
2E0
330
6C
100
AcDbEntity
  8
# base
  6
Continuous
100
AcDbLine
 10
-26.90963772355917
 20
305.9436365058411
 30
0.0
 11
-26.90963772355917
 21
302.2436365048411
 31
0.0
  0
LINE
  5
2E1
330
6C
100
AcDbEntity
  8
# base
  6
Continuous
100
AcDbLine
 10
-26.40963772355917
 20
305.4436365058411
 30
0.0
 11
-26.40963772355917
 21
302.7436365048411
 31
0.0
  0
ARC
  5
2E2
330
6C
100
AcDbEntity
  8
# holder_frm
  6
Continuous
100
AcDbCircle
 10
-27.45963772305913
 20
303.2436365038411
 30
0.0
 40
0.5
100
AcDbArc
 50
270.0
 51
0.0
  0
ARC
  5
2E3
330
6C
100
AcDbEntity
  8
# holder_frm
  6
Continuous
100
AcDbCircle
 10
-36.35963772305968
 20
303.2436365038411
 30
0.0
 40
0.5
100
AcDbArc
 50
180.0
 51
270.0
  0
LINE
  5
2E4
330
6C
100
AcDbEntity
  8
# holder_frm
  6
Continuous
100
AcDbLine
 10
-36.85963772305968
 20
303.2436365038411
 30
0.0
 11
-36.85963772305968
 21
304.9436365038411
 31
0.0
  0
LINE
  5
2E5
330
6C
100
AcDbEntity
  8
# holder_frm
  6
Continuous
100
AcDbLine
 10
-26.95963772305913
 20
303.2436365038411
 30
0.0
 11
-26.95963772305913
 21
304.9436365038411
 31
0.0
  0
LINE
  5
2E6
330
6C
100
AcDbEntity
  8
# holder_frm
  6
Continuous
100
AcDbLine
 10
-27.45963772305913
 20
302.7436365038411
 30
0.0
 11
-36.35963772305968
 21
302.7436365038411
 31
0.0
  0
LINE
  5
2E7
330
6C
100
AcDbEntity
  8
# holder_frm
  6
Continuous
100
AcDbLine
 10
-27.45963772305913
 20
305.4436365038412
 30
0.0
 11
-36.35963772305968
 21
305.4436365038412
 31
0.0
  0
LINE
  5
2E8
330
6C
100
AcDbEntity
  8
# holder_frm
  6
Continuous
100
AcDbLine
 10
-28.25963772305931
 20
306.4436365038412
 30
0.0
 11
-35.5596377230595
 21
306.4436365038412
 31
0.0
  0
ARC
  5
2E9
330
6C
100
AcDbEntity
  8
# holder_frm
  6
Continuous
100
AcDbCircle
 10
-27.45963772305913
 20
304.9436365038411
 30
0.0
 40
0.5
100
AcDbArc
 50
0.0
 51
90.0
  0
LINE
  5
2EA
330
6C
100
AcDbEntity
  8
# holder_frm
  6
Continuous
100
AcDbLine
 10
-28.25963772305931
 20
305.4436365038412
 30
0.0
 11
-28.25963772305931
 21
305.9436365053411
 31
0.0
  0
LINE
  5
2EB
330
6C
100
AcDbEntity
  8
# holder_frm
  6
Continuous
100
AcDbLine
 10
-28.25963772305931
 20
306.0936365053412
 30
0.0
 11
-28.25963772305931
 21
306.4436365038412
 31
0.0
  0
LINE
  5
2EC
330
6C
100
AcDbEntity
  8
# holder_frm
  6
Continuous
100
AcDbLine
 10
-35.5596377230595
 20
305.4436365038412
 30
0.0
 11
-35.5596377230595
 21
305.9436365053411
 31
0.0
  0
LINE
  5
2ED
330
6C
100
AcDbEntity
  8
# holder_frm
  6
Continuous
100
AcDbLine
 10
-35.5596377230595
 20
306.0936365053412
 30
0.0
 11
-35.5596377230595
 21
306.4436365038412
 31
0.0
  0
ARC
  5
2EE
330
6C
100
AcDbEntity
  8
# holder_frm
  6
Continuous
100
AcDbCircle
 10
-36.35963772305968
 20
304.9436365038411
 30
0.0
 40
0.5
100
AcDbArc
 50
90.0
 51
180.0
  0
LINE
  5
2EF
330
6C
100
AcDbEntity
  8
center
100
AcDbLine
 10
-31.90963772330906
 20
300.1104532845908
 30
0.0
 11
-31.90963772330906
 21
309.7080296468408
 31
0.0
  0
LINE
  5
2F0
330
6C
100
AcDbEntity
  8
center
100
AcDbLine
 10
-2.044959451521207
 20
385.2932124800247
 30
0.0
 11
-2.044959451521207
 21
379.8047326140243
 31
0.0
  0
LINE
  5
2F1
330
6C
100
AcDbEntity
  8
center
100
AcDbLine
 10
21.95504054797857
 20
385.2932124810243
 30
0.0
 11
21.95504054847879
 21
379.8361619025247
 31
0.0
  0
ARC
  5
2F2
330
6C
100
AcDbEntity
  8
# brkc_frm
  6
Continuous
100
AcDbCircle
 10
24.45504054847879
 20
379.088727763525
 30
0.0
 40
1.5
100
AcDbArc
 50
270.0
 51
0.0
  0
ARC
  5
2F6
330
6C
100
AcDbEntity
  8
# brkc_frm
  6
Continuous
100
AcDbCircle
 10
24.45504054847879
 20
386.088727763525
 30
0.0
 40
1.5
100
AcDbArc
 50
0.0
 51
90.0
  0
CIRCLE
  5
2F7
330
6C
100
AcDbEntity
  8
# brkc_frm
  6
Continuous
100
AcDbCircle
 10
21.95504054797857
 20
382.588727763525
 30
0.0
 40
1.35
  0
LINE
  5
2F8
330
6C
100
AcDbEntity
  8
# brkc_frm
  6
Continuous
100
AcDbLine
 10
-4.544959451521208
 20
377.5887277635249
 30
0.0
 11
24.45504054847879
 21
377.5887277635249
 31
0.0
  0
LINE
  5
2F9
330
6C
100
AcDbEntity
  8
# brkc_frm
  6
Continuous
100
AcDbLine
 10
-6.044959451521207
 20
386.088727763525
 30
0.0
 11
-6.044959451521207
 21
379.088727763525
 31
0.0
  0
CIRCLE
  5
2FA
330
6C
100
AcDbEntity
  8
# brkc_frm
  6
Continuous
100
AcDbCircle
 10
-2.044959451521207
 20
382.588727763525
 30
0.0
 40
1.35
  0
ARC
  5
2FB
330
6C
100
AcDbEntity
  8
# brkc_frm
  6
Continuous
100
AcDbCircle
 10
-4.544959451521208
 20
386.088727763525
 30
0.0
 40
1.5
100
AcDbArc
 50
90.0
 51
180.0
  0
ARC
  5
2FC
330
6C
100
AcDbEntity
  8
# brkc_frm
  6
Continuous
100
AcDbCircle
 10
-4.544959451521208
 20
379.088727763525
 30
0.0
 40
1.5
100
AcDbArc
 50
180.0
 51
270.0
  0
CIRCLE
  5
2FD
330
6C
100
AcDbEntity
  8
hidden
100
AcDbCircle
 10
21.95504054797857
 20
382.588727763525
 30
0.0
 40
2.149999999999999
  0
CIRCLE
  5
2FE
330
6C
100
AcDbEntity
  8
hidden
100
AcDbCircle
 10
-2.044959451521207
 20
382.588727763525
 30
0.0
 40
2.149999999999999
  0
CIRCLE
  5
2FF
330
6C
100
AcDbEntity
  8
# brkc_frm
  6
Continuous
100
AcDbCircle
 10
9.955040548478793
 20
382.588727763525
 30
0.0
 40
3.5
  0
LINE
  5
300
330
6C
100
AcDbEntity
  8
# brkc_frm
  6
Continuous
100
AcDbLine
 10
24.45504054847879
 20
387.588727763525
 30
0.0
 11
-4.544959451521208
 21
387.588727763525
 31
0.0
  0
LINE
  5
301
330
6C
100
AcDbEntity
  8
# brkc_frm
  6
Continuous
100
AcDbLine
 10
25.95504054847879
 20
386.088727763525
 30
0.0
 11
25.95504054847879
 21
379.088727763525
 31
0.0
  0
CIRCLE
  5
302
330
6C
100
AcDbEntity
  8
# shaft_frm
  6
Continuous
 62
     1
100
AcDbCircle
 10
9.955040535978694
 20
382.5887277760241
 30
0.0
 40
1.050000016
  0
CIRCLE
  5
306
330
6C
100
AcDbEntity
  8
# shaft_frm
  6
Continuous
 62
     1
100
AcDbCircle
 10
9.955040548478793
 20
382.5887277760241
 30
0.0
 40
1.9499999915
  0
LINE
  5
307
330
6C
100
AcDbEntity
  8
center
100
AcDbLine
 10
9.955040548477883
 20
374.338727776774
 30
0.0
 11
9.955040548477883
 21
390.838727776774
 31
0.0
  0
LINE
  5
308
330
6C
100
AcDbEntity
  8
center
100
AcDbLine
 10
165.9550405609789
 20
389.6557950725242
 30
0.0
 11
165.9550405609789
 21
376.0404807140242
 31
0.0
  0
LINE
  5
309
330
6C
100
AcDbEntity
  8
center
100
AcDbLine
 10
284.455040558495
 20
389.6557950725242
 30
0.0
 11
284.455040558495
 21
376.0404807140242
 31
0.0
  0
ARC
  5
30A
330
6C
100
AcDbEntity
  8
# shaft_frm
  6
Continuous
 62
     1
100
AcDbCircle
 10
-29.0596377230595
 20
301.8936365043412
 30
0.0
 40
0.1499999995
100
AcDbArc
 50
270.0
 51
0.0
  0
ARC
  5
30B
330
6C
100
AcDbEntity
  8
# shaft_frm
  6
Continuous
 62
     1
100
AcDbCircle
 10
-34.75963772305841
 20
301.8936365043412
 30
0.0
 40
0.1499999995
100
AcDbArc
 50
180.0
 51
270.0
  0
LINE
  5
30C
330
6C
100
AcDbEntity
  8
# shaft_frm
  6
Continuous
 62
     1
100
AcDbLine
 10
-34.90963772305986
 20
302.2436365048411
 30
0.0
 11
-34.90963772255965
 21
301.8936365043412
 31
0.0
  0
LINE
  5
30D
330
6C
100
AcDbEntity
  8
# shaft_frm
  6
Continuous
 62
     1
100
AcDbLine
 10
-29.0596377230595
 20
301.7436365043411
 30
0.0
 11
-34.75963772305841
 21
301.7436365043411
 31
0.0
  0
LINE
  5
30E
330
6C
100
AcDbEntity
  8
# shaft_frm
  6
Continuous
 62
     1
100
AcDbLine
 10
-28.90963772305986
 20
302.2436365048411
 30
0.0
 11
-28.90963772305986
 21
301.8936365043412
 31
0.0
  0
LINE
  5
30F
330
6C
100
AcDbEntity
  8
hidden
100
AcDbLine
 10
20.60504054847843
 20
307.7936365088413
 30
0.0
 11
19.80504054847824
 21
306.9936365083413
 31
0.0
  0
LINE
  5
310
330
6C
100
AcDbEntity
  8
# brkc_frm
  6
Continuous
100
AcDbLine
 10
25.95504054897811
 20
306.9936365083413
 30
0.0
 11
25.95504054847789
 21
307.9936365083414
 31
0.0
  0
LINE
  5
311
330
6C
100
AcDbEntity
  8
# brkc_frm
  6
Continuous
100
AcDbLine
 10
-6.044959451522116
 20
307.9936365083414
 30
0.0
 11
25.95504054847789
 21
307.9936365083414
 31
0.0
  0
LINE
  5
312
330
6C
100
AcDbEntity
  8
# brkc_frm
  6
Continuous
100
AcDbLine
 10
-6.044959451522116
 20
306.9936365083413
 30
0.0
 11
-6.044959451522116
 21
307.9936365083414
 31
0.0
  0
ARC
  5
313
330
6C
100
AcDbEntity
  8
# brkc_frm
  6
Continuous
100
AcDbCircle
 10
5.955040548477883
 20
306.9936365083413
 30
0.0
 40
0.5
100
AcDbArc
 50
180.0
 51
270.0
  0
LINE
  5
314
330
6C
100
AcDbEntity
  8
# brkc_frm
  6
Continuous
100
AcDbLine
 10
-6.044959451522116
 20
306.9936365083413
 30
0.0
 11
25.95504054897811
 21
306.9936365083413
 31
0.0
  0
ARC
  5
315
330
6C
100
AcDbEntity
  8
# brkc_frm
  6
Continuous
100
AcDbCircle
 10
13.95504054847788
 20
306.9936365083413
 30
0.0
 40
0.5
100
AcDbArc
 50
270.0
 51
0.0
  0
LINE
  5
316
330
6C
100
AcDbEntity
  8
center
100
AcDbLine
 10
21.95504054847788
 20
306.2436365083414
 30
0.0
 11
21.95504054847788
 21
308.7436365083414
 31
0.0
  0
LINE
  5
317
330
6C
100
AcDbEntity
  8
hidden
100
AcDbLine
 10
20.60504054847843
 20
307.7936365088413
 30
0.0
 11
23.30504054847825
 21
307.7936365088413
 31
0.0
  0
LINE
  5
318
330
6C
100
AcDbEntity
  8
hidden
100
AcDbLine
 10
23.30504054847825
 20
307.7936365088413
 30
0.0
 11
24.10504054897774
 21
306.9936365083413
 31
0.0
  0
LINE
  5
319
330
6C
100
AcDbEntity
  8
center
100
AcDbLine
 10
-2.044959451522116
 20
306.2436365083414
 30
0.0
 11
-2.044959451522116
 21
308.7436365083414
 31
0.0
  0
LINE
  5
31A
330
6C
100
AcDbEntity
  8
hidden
100
AcDbLine
 10
-0.6949594515217541
 20
307.7936365088413
 30
0.0
 11
-0.6949594515217541
 21
307.9936365088414
 31
0.0
  0
LINE
  5
31B
330
6C
100
AcDbEntity
  8
hidden
100
AcDbLine
 10
-3.394959451521571
 20
307.7936365088413
 30
0.0
 11
-3.394959451521571
 21
307.9936365088414
 31
0.0
  0
LINE
  5
31C
330
6C
100
AcDbEntity
  8
hidden
100
AcDbLine
 10
20.60504054847843
 20
307.7936365088413
 30
0.0
 11
20.60504054847843
 21
307.9936365088414
 31
0.0
  0
LINE
  5
31D
330
6C
100
AcDbEntity
  8
hidden
100
AcDbLine
 10
-0.6949594515217541
 20
307.7936365088413
 30
0.0
 11
-3.394959451521571
 21
307.7936365088413
 31
0.0
  0
LINE
  5
31E
330
6C
100
AcDbEntity
  8
hidden
100
AcDbLine
 10
23.30504054847825
 20
307.7936365088413
 30
0.0
 11
23.30504054847825
 21
307.9936365088414
 31
0.0
  0
LINE
  5
31F
330
6C
100
AcDbEntity
  8
hidden
100
AcDbLine
 10
-3.394959451521571
 20
307.7936365088413
 30
0.0
 11
-4.194959451521754
 21
306.9936365083413
 31
0.0
  0
LINE
  5
320
330
6C
100
AcDbEntity
  8
hidden
100
AcDbLine
 10
-0.6949594515217541
 20
307.7936365088413
 30
0.0
 11
0.1050405489777404
 21
306.9936365083413
 31
0.0
  0
ARC
  5
321
330
6C
100
AcDbEntity
  8
# shaft_frm
  6
Continuous
 62
     1
100
AcDbCircle
 10
7.105040548478427
 20
301.8936365078413
 30
0.0
 40
0.1499999995
100
AcDbArc
 50
180.0
 51
270.0
  0
ARC
  5
322
330
6C
100
AcDbEntity
  8
# shaft_frm
  6
Continuous
 62
     1
100
AcDbCircle
 10
12.80504054847733
 20
301.8936365078413
 30
0.0
 40
0.1499999995
100
AcDbArc
 50
270.0
 51
0.0
  0
LINE
  5
323
330
6C
100
AcDbEntity
  8
# shaft_frm
  6
Continuous
 62
     1
100
AcDbLine
 10
12.95504054847879
 20
302.2436365083412
 30
0.0
 11
12.95504054797857
 21
301.8936365078413
 31
0.0
  0
LINE
  5
324
330
6C
100
AcDbEntity
  8
# shaft_frm
  6
Continuous
 62
     1
100
AcDbLine
 10
12.95504054847879
 20
302.2436365083412
 30
0.0
 11
6.95504054847879
 21
302.2436365083412
 31
0.0
  0
LINE
  5
325
330
6C
100
AcDbEntity
  8
# shaft_frm
  6
Continuous
 62
     1
100
AcDbLine
 10
12.80504054847733
 20
301.7436365078412
 30
0.0
 11
7.105040548478427
 21
301.7436365078412
 31
0.0
  0
LINE
  5
326
330
6C
100
AcDbEntity
  8
# shaft_frm
  6
Continuous
 62
     1
100
AcDbLine
 10
6.95504054847879
 20
302.2436365083412
 30
0.0
 11
6.95504054847879
 21
301.8936365078413
 31
0.0
  0
LINE
  5
330
330
6C
100
AcDbEntity
  8
# brkc_frm
100
AcDbLine
 10
13.95504054847788
 20
306.4936365083414
 30
0.0
 11
5.955040548477883
 21
306.4936365083414
 31
0.0
  0
ARC
  5
331
330
6C
100
AcDbEntity
  8
# brkc_frm
  6
Continuous
100
AcDbCircle
 10
-27.90963772305986
 20
306.9936365083413
 30
0.0
 40
0.5
100
AcDbArc
 50
270.0
 51
0.0
  0
LINE
  5
332
330
6C
100
AcDbEntity
  8
# brkc_frm
  6
Continuous
100
AcDbLine
 10
-36.909637739559
 20
306.9936365083413
 30
0.0
 11
-26.90963773905969
 21
306.9936365083409
 31
0.0
  0
ARC
  5
333
330
6C
100
AcDbEntity
  8
# brkc_frm
  6
Continuous
100
AcDbCircle
 10
-35.90963772305896
 20
306.9936365083413
 30
0.0
 40
0.5
100
AcDbArc
 50
180.0
 51
270.0
  0
LINE
  5
334
330
6C
100
AcDbEntity
  8
# brkc_frm
  6
Continuous
100
AcDbLine
 10
-36.909637739559
 20
307.9936365083414
 30
0.0
 11
-26.909637739559
 21
307.9936365083414
 31
0.0
  0
LINE
  5
335
330
6C
100
AcDbEntity
  8
# brkc_frm
  6
Continuous
100
AcDbLine
 10
-26.90963773905969
 20
306.9936365083413
 30
0.0
 11
-26.909637739559
 21
307.9936365083414
 31
0.0
  0
LINE
  5
336
330
6C
100
AcDbEntity
  8
# brkc_frm
  6
Continuous
100
AcDbLine
 10
-36.909637739559
 20
306.9936365083413
 30
0.0
 11
-36.909637739559
 21
307.9936365083414
 31
0.0
  0
LINE
  5
337
330
6C
100
AcDbEntity
  8
# brkc_frm
100
AcDbLine
 10
-27.90963772305986
 20
306.4936365083414
 30
0.0
 11
-35.90963772305896
 21
306.4936365083414
 31
0.0
  0
LINE
  5
338
330
6C
100
AcDbEntity
  8
hidden
100
AcDbLine
 10
25.95170350235276
 20
386.188727776024
 30
0.0
 11
18.95504054797857
 21
386.1887277765242
 31
0.0
  0
LINE
  5
339
330
6C
100
AcDbEntity
  8
hidden
100
AcDbLine
 10
18.95504054947832
 20
378.9887277755241
 30
0.0
 11
25.95170350402259
 21
378.988727776024
 31
0.0
  0
LINE
  5
33A
330
6C
100
AcDbEntity
  8
# slider
  6
Continuous
100
AcDbLine
 10
169.6966979514782
 20
303.7436365043409
 30
0.0
 11
170.4550405649779
 21
303.7436365043409
 31
0.0
  0
LINE
  5
33E
330
6C
100
AcDbEntity
  8
# slider
  6
Continuous
100
AcDbLine
 10
159.955040560978
 20
303.2436365043409
 30
0.0
 11
170.4550405649779
 21
303.2436365043409
 31
0.0
  0
LINE
  5
33F
330
6C
100
AcDbEntity
  8
# slider
  6
Continuous
100
AcDbLine
 10
170.4550405649779
 20
303.2436365043409
 30
0.0
 11
170.4550405649779
 21
303.7436365043409
 31
0.0
  0
LINE
  5
340
330
6C
100
AcDbEntity
  8
# slider
  6
Continuous
100
AcDbLine
 10
159.955040560978
 20
304.9436365043409
 30
0.0
 11
169.6966979514782
 21
304.9436365043409
 31
0.0
  0
LINE
  5
341
330
6C
100
AcDbEntity
  8
# slider
  6
Continuous
100
AcDbLine
 10
159.955040560978
 20
304.4436365033409
 30
0.0
 11
169.6966979514782
 21
304.4436365033409
 31
0.0
  0
LINE
  5
342
330
6C
100
AcDbEntity
  8
# slider
  6
Continuous
100
AcDbLine
 10
168.1966979479784
 20
378.0887277760241
 30
0.0
 11
168.1344900327485
 21
378.0887277760241
 31
0.0
  0
LINE
  5
343
330
6C
100
AcDbEntity
  8
# slider
  6
Continuous
100
AcDbLine
 10
163.7755910892083
 20
378.0887277760241
 30
0.0
 11
159.8742541074407
 21
378.0887277760241
 31
0.0
  0
LINE
  5
344
330
6C
100
AcDbEntity
  8
# slider
  6
Continuous
100
AcDbLine
 10
160.955040560978
 20
387.0887277760242
 30
0.0
 11
159.8742541073516
 21
387.0887277760242
 31
0.0
  0
LINE
  5
345
330
6C
100
AcDbEntity
  8
# slider
  6
Continuous
100
AcDbLine
 10
160.9550405609789
 20
385.0887277760242
 30
0.0
 11
159.9600405449781
 21
385.0887277760242
 31
0.0
  0
LINE
  5
346
330
6C
100
AcDbEntity
  8
# slider
  6
Continuous
100
AcDbLine
 10
161.6249135420567
 20
380.0887277760241
 30
0.0
 11
159.9600405449781
 21
380.0887277760241
 31
0.0
  0
LINE
  5
347
330
6C
100
AcDbEntity
  8
# slider
  6
Continuous
100
AcDbLine
 10
169.6966979514782
 20
304.9436365043409
 30
0.0
 11
169.6966979514782
 21
303.2436365043409
 31
0.0
  0
ARC
  5
348
330
6C
100
AcDbEntity
  8
# slider
  6
Continuous
100
AcDbCircle
 10
168.1966979479784
 20
379.5887277760241
 30
0.0
 40
1.5
100
AcDbArc
 50
270.0
 51
345.8185188308864
  0
ARC
  5
349
330
6C
100
AcDbEntity
  8
# holder_dr
  6
Continuous
100
AcDbCircle
 10
158.5000405449791
 20
386.5887277760241
 30
0.0
 40
1.5
100
AcDbArc
 50
0.0
 51
90.0
  0
LINE
  5
34A
330
6C
100
AcDbEntity
  8
# holder_dr
  6
Continuous
100
AcDbLine
 10
159.9950405609779
 20
302.7436365043411
 30
0.0
 11
159.9950405609779
 21
305.9436365045911
 31
0.0
  0
ARC
  5
34B
330
6C
100
AcDbEntity
  8
# holder_dr
  6
Continuous
100
AcDbCircle
 10
158.5000405449791
 20
378.5887277757741
 30
0.0
 40
1.5
100
AcDbArc
 50
270.0
 51
0.0
  0
LINE
  5
34C
330
6C
100
AcDbEntity
  8
# slider
  6
Continuous
100
AcDbLine
 10
288.1966979478038
 20
303.7436365043409
 30
0.0
 11
288.9550405613045
 21
303.7436365043409
 31
0.0
  0
LINE
  5
34D
330
6C
100
AcDbEntity
  8
# slider
  6
Continuous
100
AcDbLine
 10
223.5219247179921
 20
303.2436365043407
 30
0.0
 11
288.9550405613045
 21
303.2436365043409
 31
0.0
  0
LINE
  5
34E
330
6C
100
AcDbEntity
  8
# slider
  6
Continuous
100
AcDbLine
 10
288.9550405613045
 20
303.2436365043409
 30
0.0
 11
288.9550405613045
 21
303.7436365043409
 31
0.0
  0
LINE
  5
34F
330
6C
100
AcDbEntity
  8
# slider
  6
Continuous
100
AcDbLine
 10
222.6852911124206
 20
304.9436365043409
 30
0.0
 11
288.1966979478038
 21
304.9436365043409
 31
0.0
  0
LINE
  5
350
330
6C
100
AcDbEntity
  8
# slider
  6
Continuous
100
AcDbLine
 10
222.6806401815538
 20
304.4436365033409
 30
0.0
 11
288.1966979478038
 21
304.4436365033409
 31
0.0
  0
LINE
  5
351
330
6C
100
AcDbEntity
  8
# slider
  6
Continuous
100
AcDbLine
 10
286.6966979443041
 20
378.0887277760241
 30
0.0
 11
286.6344900290751
 21
378.0887277760241
 31
0.0
  0
LINE
  5
352
330
6C
100
AcDbEntity
  8
# slider
  6
Continuous
100
AcDbLine
 10
282.275591085534
 20
378.0887277760241
 30
0.0
 11
207.9620773876504
 21
378.0887277760239
 31
0.0
  0
LINE
  5
353
330
6C
100
AcDbEntity
  8
# slider
  6
Continuous
100
AcDbLine
 10
279.4550405573045
 20
387.0887277760242
 30
0.0
 11
207.9620773876504
 21
387.0887277760242
 31
0.0
  0
LINE
  5
354
330
6C
100
AcDbEntity
  8
# slider
  6
Continuous
100
AcDbLine
 10
279.4550405573045
 20
385.0887277760242
 30
0.0
 11
206.6507560319669
 21
385.0887277760242
 31
0.0
  0
LINE
  5
355
330
6C
100
AcDbEntity
  8
# slider
  6
Continuous
100
AcDbLine
 10
280.1249135383823
 20
380.0887277760241
 30
0.0
 11
208.873182946565
 21
380.0887277760244
 31
0.0
  0
LINE
  5
356
330
6C
100
AcDbEntity
  8
# slider
  6
Continuous
100
AcDbLine
 10
288.1966979478038
 20
304.9436365043409
 30
0.0
 11
288.1966979478038
 21
303.2436365043409
 31
0.0
  0
ARC
  5
357
330
6C
100
AcDbEntity
  8
# slider
  6
Continuous
100
AcDbCircle
 10
286.6966979443041
 20
379.5887277760241
 30
0.0
 40
1.5
100
AcDbArc
 50
270.0
 51
345.8185188308864
  0
LINE
  5
358
330
6C
100
AcDbEntity
  8
# brkt_dr
  6
Continuous
100
AcDbLine
 10
287.4550405608043
 20
299.518636504341
 30
0.0
 11
281.4550405608043
 21
299.518636504341
 31
0.0
  0
ARC
  5
35C
330
6C
100
AcDbEntity
  8
# brkt_dr
  6
Continuous
100
AcDbCircle
 10
281.4550405608043
 20
298.4436365043409
 30
0.0
 40
1.074999999999999
100
AcDbArc
 50
90.0
 51
270.0
  0
ARC
  5
35D
330
6C
100
AcDbEntity
  8
# brkt_dr
  6
Continuous
100
AcDbCircle
 10
287.4550405608043
 20
298.4436365043409
 30
0.0
 40
1.074999999999999
100
AcDbArc
 50
270.0
 51
90.0
  0
LINE
  5
35E
330
6C
100
AcDbEntity
  8
# brkt_dr
  6
Continuous
100
AcDbLine
 10
287.4550405608043
 20
297.3686365043409
 30
0.0
 11
281.4550405608043
 21
297.3686365043409
 31
0.0
  0
ARC
  5
35F
330
6C
100
AcDbEntity
  8
# brkt_dr
  6
Continuous
100
AcDbCircle
 10
272.9550405608043
 20
296.6936365043409
 30
0.0
 40
1.5
100
AcDbArc
 50
180.0
 51
270.0
  0
LINE
  5
360
330
6C
100
AcDbEntity
  8
# brkt_dr
  6
Continuous
100
AcDbLine
 10
282.2050405608043
 20
304.9436365043409
 30
0.0
 11
281.9550405608043
 21
305.1936365043409
 31
0.0
  0
LINE
  5
361
330
6C
100
AcDbEntity
  8
# brkt_dr
  6
Continuous
100
AcDbLine
 10
286.7050405608043
 20
304.9436365043409
 30
0.0
 11
286.9550405608043
 21
305.1936365043409
 31
0.0
  0
LINE
  5
362
330
6C
100
AcDbEntity
  8
# brkt_dr
  6
Continuous
100
AcDbLine
 10
284.4550405573045
 20
388.0887277760241
 30
0.0
 11
281.9550405573045
 21
390.5887277760241
 31
0.0
  0
LINE
  5
363
330
6C
100
AcDbEntity
  8
# brkt_dr
  6
Continuous
100
AcDbLine
 10
284.4550405573045
 20
388.0887277760241
 30
0.0
 11
286.9550405573045
 21
390.5887277760241
 31
0.0
  0
LINE
  5
364
330
6C
100
AcDbEntity
  8
# brkt_dr
  6
Continuous
100
AcDbLine
 10
279.4550405573045
 20
382.5887277760241
 30
0.0
 11
279.4550405573045
 21
389.5887277760241
 31
0.0
  0
LINE
  5
365
330
6C
100
AcDbEntity
  8
# brkt_dr
  6
Continuous
100
AcDbLine
 10
289.4550405573045
 20
382.5887277760241
 30
0.0
 11
289.4550405573045
 21
389.5887277760241
 31
0.0
  0
LINE
  5
366
330
6C
100
AcDbEntity
  8
# brkt_dr
  6
Continuous
100
AcDbLine
 10
271.4550405573045
 20
389.5887277760241
 30
0.0
 11
279.4550405573045
 21
389.5887277760241
 31
0.0
  0
LINE
  5
367
330
6C
100
AcDbEntity
  8
# brkt_dr
  6
Continuous
100
AcDbLine
 10
289.4550405573045
 20
389.5887277760241
 30
0.0
 11
297.4550405573045
 21
389.5887277760241
 31
0.0
  0
LINE
  5
368
330
6C
100
AcDbEntity
  8
# brkt_dr
  6
Continuous
100
AcDbLine
 10
297.4550405573045
 20
389.5887277760241
 30
0.0
 11
297.4550405573045
 21
390.5887277760241
 31
0.0
  0
LINE
  5
369
330
6C
100
AcDbEntity
  8
# brkt_dr
  6
Continuous
100
AcDbLine
 10
297.4550405573045
 20
390.5887277760241
 30
0.0
 11
271.4550405573045
 21
390.5887277760241
 31
0.0
  0
LINE
  5
36A
330
6C
100
AcDbEntity
  8
# brkt_dr
  6
Continuous
100
AcDbLine
 10
271.4550405573045
 20
390.5887277760241
 30
0.0
 11
271.4550405573045
 21
389.5887277760241
 31
0.0
  0
ARC
  5
36B
330
6C
100
AcDbEntity
  8
# brkt_dr
  6
Continuous
100
AcDbCircle
 10
284.4550405573045
 20
382.5887277760241
 30
0.0
 40
5.0
100
AcDbArc
 50
180.0
 51
0.0
  0
LINE
  5
36C
330
6C
100
AcDbEntity
  8
hidden
100
AcDbLine
 10
295.3050405573049
 20
390.3887277765242
 30
0.0
 11
296.1050405578044
 21
389.5887277760241
 31
0.0
  0
LINE
  5
36D
330
6C
100
AcDbEntity
  8
hidden
100
AcDbLine
 10
292.6050405573042
 20
390.3887277765242
 30
0.0
 11
291.8050405573049
 21
389.5887277760241
 31
0.0
  0
LINE
  5
36E
330
6C
100
AcDbEntity
  8
hidden
100
AcDbLine
 10
295.3050405573049
 20
390.3887277765242
 30
0.0
 11
292.6050405573042
 21
390.3887277765242
 31
0.0
  0
LINE
  5
36F
330
6C
100
AcDbEntity
  8
hidden
100
AcDbLine
 10
292.6050405573042
 20
390.3887277765242
 30
0.0
 11
292.6050405573042
 21
390.5887277765241
 31
0.0
  0
LINE
  5
370
330
6C
100
AcDbEntity
  8
hidden
100
AcDbLine
 10
295.3050405573049
 20
390.3887277765242
 30
0.0
 11
295.3050405573049
 21
390.5887277765241
 31
0.0
  0
LINE
  5
371
330
6C
100
AcDbEntity
  8
hidden
100
AcDbLine
 10
276.3050405573049
 20
390.3887277765242
 30
0.0
 11
277.1050405578044
 21
389.5887277760241
 31
0.0
  0
LINE
  5
372
330
6C
100
AcDbEntity
  8
hidden
100
AcDbLine
 10
273.6050405573042
 20
390.3887277765242
 30
0.0
 11
272.8050405573049
 21
389.5887277760241
 31
0.0
  0
LINE
  5
373
330
6C
100
AcDbEntity
  8
hidden
100
AcDbLine
 10
276.3050405573049
 20
390.3887277765242
 30
0.0
 11
273.6050405573042
 21
390.3887277765242
 31
0.0
  0
LINE
  5
374
330
6C
100
AcDbEntity
  8
hidden
100
AcDbLine
 10
273.6050405573042
 20
390.3887277765242
 30
0.0
 11
273.6050405573042
 21
390.5887277765241
 31
0.0
  0
LINE
  5
375
330
6C
100
AcDbEntity
  8
hidden
100
AcDbLine
 10
276.3050405573049
 20
390.3887277765242
 30
0.0
 11
276.3050405573049
 21
390.5887277765241
 31
0.0
  0
LINE
  5
376
330
6C
100
AcDbEntity
  8
# brkt_dr
  6
Continuous
100
AcDbLine
 10
289.4550405608043
 20
305.1936365043409
 30
0.0
 11
272.9550405608043
 21
305.1936365043409
 31
0.0
  0
LINE
  5
377
330
6C
100
AcDbEntity
  8
# brkt_dr
  6
Continuous
100
AcDbLine
 10
289.4550405608043
 20
306.1936365043409
 30
0.0
 11
279.4550405608043
 21
306.1936365043409
 31
0.0
  0
LINE
  5
378
330
6C
100
AcDbEntity
  8
# brkt_dr
  6
Continuous
100
AcDbLine
 10
279.4550405608043
 20
306.1936365043409
 30
0.0
 11
279.4550405608043
 21
305.1936365043409
 31
0.0
  0
LINE
  5
379
330
6C
100
AcDbEntity
  8
# brkt_dr
  6
Continuous
100
AcDbLine
 10
289.4550405608043
 20
305.1936365043409
 30
0.0
 11
289.4550405608043
 21
306.1936365043409
 31
0.0
  0
LINE
  5
37A
330
6C
100
AcDbEntity
  8
# brkt_dr
  6
Continuous
100
AcDbLine
 10
272.9550405608043
 20
295.1936365043409
 30
0.0
 11
295.9550405608043
 21
295.1936365043409
 31
0.0
  0
LINE
  5
37B
330
6C
100
AcDbEntity
  8
# brkt_dr
  6
Continuous
100
AcDbLine
 10
297.4550405608042
 20
296.6936365043409
 30
0.0
 11
297.4550405608042
 21
303.693636504341
 31
0.0
  0
LINE
  5
37C
330
6C
100
AcDbEntity
  8
# brkt_dr
  6
Continuous
100
AcDbLine
 10
295.9550405608043
 20
305.1936365043409
 30
0.0
 11
272.9550405608043
 21
305.1936365043409
 31
0.0
  0
ARC
  5
37D
330
6C
100
AcDbEntity
  8
# brkt_dr
  6
Continuous
100
AcDbCircle
 10
295.9550405608043
 20
303.693636504341
 30
0.0
 40
1.5
100
AcDbArc
 50
0.0
 51
90.0
  0
LINE
  5
37E
330
6C
100
AcDbEntity
  8
# brkt_dr
  6
Continuous
100
AcDbLine
 10
271.4550405608043
 20
303.2436365043409
 30
0.0
 11
271.4550405608043
 21
296.6936365043409
 31
0.0
  0
ARC
  5
37F
330
6C
100
AcDbEntity
  8
# brkt_dr
  6
Continuous
100
AcDbCircle
 10
295.9550405608043
 20
296.6936365043409
 30
0.0
 40
1.5
100
AcDbArc
 50
270.0
 51
0.0
  0
CIRCLE
  5
380
330
6C
100
AcDbEntity
  8
# brkt_dr
  6
Continuous
100
AcDbCircle
 10
293.9550405608043
 20
300.1936365043409
 30
0.0
 40
1.35
  0
CIRCLE
  5
381
330
6C
100
AcDbEntity
  8
# brkt_dr
  6
Continuous
100
AcDbCircle
 10
293.9550405608043
 20
300.1936365043409
 30
0.0
 40
2.149999999999999
  0
CIRCLE
  5
382
330
6C
100
AcDbEntity
  8
# brkt_dr
  6
Continuous
100
AcDbCircle
 10
274.9550405608043
 20
300.1936365043409
 30
0.0
 40
1.35
  0
CIRCLE
  5
383
330
6C
100
AcDbEntity
  8
# brkt_dr
  6
Continuous
100
AcDbCircle
 10
274.9550405608043
 20
300.1936365043409
 30
0.0
 40
2.149999999999999
  0
ARC
  5
384
330
6C
100
AcDbEntity
  8
# brkt_dr
  6
Continuous
100
AcDbCircle
 10
272.9550405608043
 20
303.693636504341
 30
0.0
 40
1.5
100
AcDbArc
 50
90.0
 51
123.5573097619311
  0
LINE
  5
385
330
6C
100
AcDbEntity
  8
# brkt_dr
  6
Continuous
100
AcDbLine
 10
165.9550405609789
 20
388.0887277760241
 30
0.0
 11
163.4550405609789
 21
390.5887277760241
 31
0.0
  0
LINE
  5
386
330
6C
100
AcDbEntity
  8
# brkt_dr
  6
Continuous
100
AcDbLine
 10
165.9550405609789
 20
388.0887277760241
 30
0.0
 11
168.4550405609789
 21
390.5887277760241
 31
0.0
  0
LINE
  5
387
330
6C
100
AcDbEntity
  8
# brkt_dr
  6
Continuous
100
AcDbLine
 10
160.9550405609789
 20
382.5887277760241
 30
0.0
 11
160.9550405609789
 21
389.5887277760241
 31
0.0
  0
LINE
  5
388
330
6C
100
AcDbEntity
  8
# brkt_dr
  6
Continuous
100
AcDbLine
 10
170.9550405609789
 20
382.5887277760241
 30
0.0
 11
170.9550405609789
 21
389.5887277760241
 31
0.0
  0
LINE
  5
389
330
6C
100
AcDbEntity
  8
# brkt_dr
  6
Continuous
100
AcDbLine
 10
152.9550405609789
 20
389.5887277760241
 30
0.0
 11
160.9550405609789
 21
389.5887277760241
 31
0.0
  0
LINE
  5
38A
330
6C
100
AcDbEntity
  8
# brkt_dr
  6
Continuous
100
AcDbLine
 10
170.9550405609789
 20
389.5887277760241
 30
0.0
 11
178.9550405609789
 21
389.5887277760241
 31
0.0
  0
LINE
  5
38B
330
6C
100
AcDbEntity
  8
# brkt_dr
  6
Continuous
100
AcDbLine
 10
178.9550405609789
 20
389.5887277760241
 30
0.0
 11
178.9550405609789
 21
390.5887277760241
 31
0.0
  0
LINE
  5
38C
330
6C
100
AcDbEntity
  8
# brkt_dr
  6
Continuous
100
AcDbLine
 10
178.9550405609789
 20
390.5887277760241
 30
0.0
 11
152.9550405609789
 21
390.5887277760241
 31
0.0
  0
LINE
  5
38D
330
6C
100
AcDbEntity
  8
# brkt_dr
  6
Continuous
100
AcDbLine
 10
152.9550405609789
 20
390.5887277760241
 30
0.0
 11
152.9550405609789
 21
389.5887277760241
 31
0.0
  0
ARC
  5
38E
330
6C
100
AcDbEntity
  8
# brkt_dr
  6
Continuous
100
AcDbCircle
 10
165.9550405609789
 20
382.5887277760241
 30
0.0
 40
5.0
100
AcDbArc
 50
180.0
 51
0.0
  0
LINE
  5
38F
330
6C
100
AcDbEntity
  8
hidden
100
AcDbLine
 10
176.8050405609783
 20
390.3887277765242
 30
0.0
 11
177.6050405614787
 21
389.5887277760241
 31
0.0
  0
LINE
  5
390
330
6C
100
AcDbEntity
  8
hidden
100
AcDbLine
 10
174.1050405609785
 20
390.3887277765242
 30
0.0
 11
173.3050405609783
 21
389.5887277760241
 31
0.0
  0
LINE
  5
391
330
6C
100
AcDbEntity
  8
hidden
100
AcDbLine
 10
176.8050405609783
 20
390.3887277765242
 30
0.0
 11
174.1050405609785
 21
390.3887277765242
 31
0.0
  0
LINE
  5
392
330
6C
100
AcDbEntity
  8
hidden
100
AcDbLine
 10
174.1050405609785
 20
390.3887277765242
 30
0.0
 11
174.1050405609785
 21
390.5887277765241
 31
0.0
  0
LINE
  5
393
330
6C
100
AcDbEntity
  8
hidden
100
AcDbLine
 10
176.8050405609783
 20
390.3887277765242
 30
0.0
 11
176.8050405609783
 21
390.5887277765241
 31
0.0
  0
LINE
  5
394
330
6C
100
AcDbEntity
  8
hidden
100
AcDbLine
 10
157.8050405609783
 20
390.3887277765242
 30
0.0
 11
158.6050405614787
 21
389.5887277760241
 31
0.0
  0
LINE
  5
395
330
6C
100
AcDbEntity
  8
hidden
100
AcDbLine
 10
155.1050405609785
 20
390.3887277765242
 30
0.0
 11
154.3050405609783
 21
389.5887277760241
 31
0.0
  0
LINE
  5
396
330
6C
100
AcDbEntity
  8
hidden
100
AcDbLine
 10
157.8050405609783
 20
390.3887277765242
 30
0.0
 11
155.1050405609785
 21
390.3887277765242
 31
0.0
  0
LINE
  5
397
330
6C
100
AcDbEntity
  8
hidden
100
AcDbLine
 10
155.1050405609785
 20
390.3887277765242
 30
0.0
 11
155.1050405609785
 21
390.5887277765241
 31
0.0
  0
LINE
  5
398
330
6C
100
AcDbEntity
  8
hidden
100
AcDbLine
 10
157.8050405609783
 20
390.3887277765242
 30
0.0
 11
157.8050405609783
 21
390.5887277765241
 31
0.0
  0
LINE
  5
399
330
6C
100
AcDbEntity
  8
# brkt_dr
  6
Continuous
100
AcDbLine
 10
168.9550405644786
 20
299.518636504341
 30
0.0
 11
162.9550405644786
 21
299.518636504341
 31
0.0
  0
ARC
  5
39A
330
6C
100
AcDbEntity
  8
# brkt_dr
  6
Continuous
100
AcDbCircle
 10
162.9550405644786
 20
298.4436365043409
 30
0.0
 40
1.074999999999999
100
AcDbArc
 50
90.0
 51
270.0
  0
ARC
  5
39B
330
6C
100
AcDbEntity
  8
# brkt_dr
  6
Continuous
100
AcDbCircle
 10
168.9550405644786
 20
298.4436365043409
 30
0.0
 40
1.074999999999999
100
AcDbArc
 50
270.0
 51
90.0
  0
LINE
  5
39C
330
6C
100
AcDbEntity
  8
# brkt_dr
  6
Continuous
100
AcDbLine
 10
168.9550405644786
 20
297.3686365043409
 30
0.0
 11
162.9550405644786
 21
297.3686365043409
 31
0.0
  0
ARC
  5
39D
330
6C
100
AcDbEntity
  8
# brkt_dr
  6
Continuous
100
AcDbCircle
 10
154.4550405644786
 20
296.6936365043409
 30
0.0
 40
1.5
100
AcDbArc
 50
180.0
 51
270.0
  0
LINE
  5
39E
330
6C
100
AcDbEntity
  8
# brkt_dr
  6
Continuous
100
AcDbLine
 10
163.7050405644786
 20
304.9436365043409
 30
0.0
 11
163.4550405644786
 21
305.1936365043409
 31
0.0
  0
LINE
  5
39F
330
6C
100
AcDbEntity
  8
# brkt_dr
  6
Continuous
100
AcDbLine
 10
168.2050405644786
 20
304.9436365043409
 30
0.0
 11
168.4550405644786
 21
305.1936365043409
 31
0.0
  0
LINE
  5
3A0
330
6C
100
AcDbEntity
  8
# brkt_dr
  6
Continuous
100
AcDbLine
 10
165.9550405644786
 20
304.9436365043409
 30
0.0
 11
165.9550405644786
 21
305.1936365043409
 31
0.0
  0
LINE
  5
3A1
330
6C
100
AcDbEntity
  8
# brkt_dr
  6
Continuous
100
AcDbLine
 10
170.9550405644786
 20
305.1936365043409
 30
0.0
 11
160.1100405569414
 21
305.1936365043409
 31
0.0
  0
LINE
  5
3A2
330
6C
100
AcDbEntity
  8
# brkt_dr
  6
Continuous
100
AcDbLine
 10
170.9550405644786
 20
306.1936365043409
 30
0.0
 11
160.9550405644786
 21
306.1936365043409
 31
0.0
  0
LINE
  5
3A3
330
6C
100
AcDbEntity
  8
# brkt_dr
  6
Continuous
100
AcDbLine
 10
160.9550405644786
 20
306.1936365043409
 30
0.0
 11
160.9550405644786
 21
305.1936365043409
 31
0.0
  0
LINE
  5
3A4
330
6C
100
AcDbEntity
  8
# brkt_dr
  6
Continuous
100
AcDbLine
 10
170.9550405644786
 20
305.1936365043409
 30
0.0
 11
170.9550405644786
 21
306.1936365043409
 31
0.0
  0
LINE
  5
3A5
330
6C
100
AcDbEntity
  8
# brkt_dr
  6
Continuous
100
AcDbLine
 10
154.4550405644786
 20
295.1936365043409
 30
0.0
 11
177.4550405644786
 21
295.1936365043409
 31
0.0
  0
LINE
  5
3A6
330
6C
100
AcDbEntity
  8
# brkt_dr
  6
Continuous
100
AcDbLine
 10
178.9550405644786
 20
296.6936365043409
 30
0.0
 11
178.9550405644786
 21
303.693636504341
 31
0.0
  0
LINE
  5
3A7
330
6C
100
AcDbEntity
  8
# brkt_dr
  6
Continuous
100
AcDbLine
 10
177.4550405644786
 20
305.1936365043409
 30
0.0
 11
160.1100405569414
 21
305.1936365043409
 31
0.0
  0
ARC
  5
3A8
330
6C
100
AcDbEntity
  8
# brkt_dr
  6
Continuous
100
AcDbCircle
 10
177.4550405644786
 20
303.693636504341
 30
0.0
 40
1.5
100
AcDbArc
 50
0.0
 51
90.0
  0
LINE
  5
3A9
330
6C
100
AcDbEntity
  8
# brkt_dr
  6
Continuous
100
AcDbLine
 10
152.9550405644786
 20
302.2436365043411
 30
0.0
 11
152.9550405644786
 21
296.6936365043409
 31
0.0
  0
ARC
  5
3AA
330
6C
100
AcDbEntity
  8
# brkt_dr
  6
Continuous
100
AcDbCircle
 10
177.4550405644786
 20
296.6936365043409
 30
0.0
 40
1.5
100
AcDbArc
 50
270.0
 51
0.0
  0
CIRCLE
  5
3AB
330
6C
100
AcDbEntity
  8
# brkt_dr
  6
Continuous
100
AcDbCircle
 10
175.4550405644786
 20
300.1936365043409
 30
0.0
 40
1.35
  0
CIRCLE
  5
3AC
330
6C
100
AcDbEntity
  8
# brkt_dr
  6
Continuous
100
AcDbCircle
 10
175.4550405644786
 20
300.1936365043409
 30
0.0
 40
2.149999999999999
  0
CIRCLE
  5
3AD
330
6C
100
AcDbEntity
  8
# brkt_dr
  6
Continuous
100
AcDbCircle
 10
156.4550405644786
 20
300.1936365043409
 30
0.0
 40
1.35
  0
ARC
  5
3AE
330
6C
100
AcDbEntity
  8
# brkt_dr
  6
Continuous
100
AcDbCircle
 10
156.4550405644786
 20
300.1936365043409
 30
0.0
 40
2.149999999999999
100
AcDbArc
 50
107.5435004726564
 51
72.45649952734355
  0
LINE
  5
3ED
330
6C
100
AcDbEntity
  8
0
  6
Continuous
 62
     7
100
AcDbLine
 10
282.955040560304
 20
306.643636504341
 30
0.0
 11
285.9550405608043
 21
306.643636504341
 31
0.0
  0
ARC
  5
3EE
330
6C
100
AcDbEntity
  8
0
  6
Continuous
 62
     7
100
AcDbCircle
 10
285.9550405608043
 20
306.1936365043409
 30
0.0
 40
0.45
100
AcDbArc
 50
0.0
 51
90.0
  0
ARC
  5
3EF
330
6C
100
AcDbEntity
  8
0
  6
Continuous
 62
     7
100
AcDbCircle
 10
282.955040560304
 20
306.1936365043409
 30
0.0
 40
0.45
100
AcDbArc
 50
90.0
 51
180.0
  0
LINE
  5
3F0
330
6C
100
AcDbEntity
  8
0
  6
Continuous
 62
     7
100
AcDbLine
 10
164.4550405639784
 20
306.643636504341
 30
0.0
 11
167.4550405644786
 21
306.643636504341
 31
0.0
  0
ARC
  5
3F1
330
6C
100
AcDbEntity
  8
0
  6
Continuous
 62
     7
100
AcDbCircle
 10
167.4550405644786
 20
306.1936365043409
 30
0.0
 40
0.45
100
AcDbArc
 50
0.0
 51
90.0
  0
ARC
  5
3F2
330
6C
100
AcDbEntity
  8
0
  6
Continuous
 62
     7
100
AcDbCircle
 10
164.4550405639784
 20
306.1936365043409
 30
0.0
 40
0.45
100
AcDbArc
 50
90.0
 51
180.0
  0
LINE
  5
3F3
330
6C
100
AcDbEntity
  8
0
  6
Continuous
 62
     7
100
AcDbLine
 10
287.4550405603041
 20
303.143636503341
 30
0.0
 11
281.4550405608043
 21
303.143636503341
 31
0.0
  0
LINE
  5
3F4
330
6C
100
AcDbEntity
  8
0
  6
Continuous
 62
     7
100
AcDbLine
 10
287.205040560304
 20
302.393636503341
 30
0.0
 11
281.7050405608043
 21
302.393636503341
 31
0.0
  0
LINE
  5
3F5
330
6C
100
AcDbEntity
  8
0
  6
Continuous
 62
     7
100
AcDbLine
 10
281.4550405608043
 20
303.143636503341
 30
0.0
 11
281.4550405608043
 21
302.643636503341
 31
0.0
  0
ARC
  5
3F6
330
6C
100
AcDbEntity
  8
0
  6
Continuous
 62
     7
100
AcDbCircle
 10
287.205040560304
 20
302.643636503341
 30
0.0
 40
0.25
100
AcDbArc
 50
270.0
 51
0.0
  0
LINE
  5
3F7
330
6C
100
AcDbEntity
  8
0
  6
Continuous
 62
     7
100
AcDbLine
 10
287.4550405603041
 20
303.143636503341
 30
0.0
 11
287.4550405603041
 21
302.643636503341
 31
0.0
  0
ARC
  5
3F8
330
6C
100
AcDbEntity
  8
0
  6
Continuous
 62
     7
100
AcDbCircle
 10
281.7050405608043
 20
302.643636503341
 30
0.0
 40
0.25
100
AcDbArc
 50
180.0
 51
270.0
  0
LINE
  5
3F9
330
6C
100
AcDbEntity
  8
0
  6
Continuous
 62
     7
100
AcDbLine
 10
286.4550405608042
 20
303.2436365043409
 30
0.0
 11
286.4550405608042
 21
303.143636503341
 31
0.0
  0
LINE
  5
3FA
330
6C
100
AcDbEntity
  8
0
  6
Continuous
 62
     7
100
AcDbLine
 10
282.4550405608043
 20
303.2436365043409
 30
0.0
 11
282.4550405608043
 21
303.143636503341
 31
0.0
  0
LINE
  5
3FB
330
6C
100
AcDbEntity
  8
0
  6
Continuous
 62
     7
100
AcDbLine
 10
168.9550405639784
 20
303.143636503341
 30
0.0
 11
162.9550405644786
 21
303.143636503341
 31
0.0
  0
LINE
  5
3FC
330
6C
100
AcDbEntity
  8
0
  6
Continuous
 62
     7
100
AcDbLine
 10
168.7050405639784
 20
302.393636503341
 30
0.0
 11
163.2050405644786
 21
302.393636503341
 31
0.0
  0
LINE
  5
3FD
330
6C
100
AcDbEntity
  8
0
  6
Continuous
 62
     7
100
AcDbLine
 10
162.9550405644786
 20
303.143636503341
 30
0.0
 11
162.9550405644786
 21
302.643636503341
 31
0.0
  0
ARC
  5
3FE
330
6C
100
AcDbEntity
  8
0
  6
Continuous
 62
     7
100
AcDbCircle
 10
168.7050405639784
 20
302.643636503341
 30
0.0
 40
0.25
100
AcDbArc
 50
270.0
 51
0.0
  0
LINE
  5
3FF
330
6C
100
AcDbEntity
  8
0
  6
Continuous
 62
     7
100
AcDbLine
 10
168.9550405639784
 20
303.143636503341
 30
0.0
 11
168.9550405639784
 21
302.643636503341
 31
0.0
  0
ARC
  5
400
330
6C
100
AcDbEntity
  8
0
  6
Continuous
 62
     7
100
AcDbCircle
 10
163.2050405644786
 20
302.643636503341
 30
0.0
 40
0.25
100
AcDbArc
 50
180.0
 51
270.0
  0
LINE
  5
401
330
6C
100
AcDbEntity
  8
0
  6
Continuous
 62
     7
100
AcDbLine
 10
167.9550405644786
 20
303.2436365043409
 30
0.0
 11
167.9550405644786
 21
303.143636503341
 31
0.0
  0
LINE
  5
402
330
6C
100
AcDbEntity
  8
0
  6
Continuous
 62
     7
100
AcDbLine
 10
163.9550405644786
 20
303.2436365043409
 30
0.0
 11
163.9550405644786
 21
303.143636503341
 31
0.0
  0
CIRCLE
  5
403
330
6C
100
AcDbEntity
  8
0
  6
Continuous
 62
     7
100
AcDbCircle
 10
284.4550405573045
 20
382.5887277760241
 30
0.0
 40
1.950000000000045
  0
SPLINE
  5
40A
330
6C
100
AcDbEntity
  8
phantom
100
AcDbSpline
210
0.0
220
0.0
230
1.0
 70
     8
 71
     3
 72
    10
 73
     6
 74
     0
 42
0.000000001
 43
0.0000000001
 40
0.0
 40
0.0
 40
0.0
 40
0.0
 40
6.549202071942737
 40
13.93031764327634
 40
20.43920340733438
 40
20.43920340733438
 40
20.43920340733438
 40
20.43920340733438
 10
207.9620773876504
 20
387.0887277760242
 30
0.0
 10
207.1448358245261
 20
386.0554520080577
 30
0.0
 10
205.4065424506871
 20
383.8576484431719
 30
0.0
 10
209.8835622449442
 20
381.5378549127629
 30
0.0
 10
208.5751856112775
 20
379.1892767623141
 30
0.0
 10
207.9620773876504
 20
378.0887277760241
 30
0.0
  0
SPLINE
  5
40B
330
6C
100
AcDbEntity
  8
phantom
100
AcDbSpline
210
0.0
220
0.0
230
1.0
 70
     8
 71
     3
 72
    10
 73
     6
 74
     0
 42
0.000000001
 43
0.0000000001
 40
0.0
 40
0.0
 40
0.0
 40
0.0
 40
2.444306154832524
 40
5.281390762364151
 40
7.458796523823794
 40
7.458796523823794
 40
7.458796523823794
 40
7.458796523823794
 10
223.2243259801835
 20
305.6265235089662
 30
0.0
 10
222.8796434055075
 20
305.2571732803177
 30
0.0
 10
222.1348908047576
 20
304.4591214970728
 30
0.0
 10
223.9816248442057
 20
303.5970944670002
 30
0.0
 10
223.3046569824665
 20
302.8367187606128
 30
0.0
 10
223.0107021407966
 20
302.5065463358735
 30
0.0
  0
CIRCLE
  5
411
330
6C
100
AcDbEntity
  8
0
  6
Continuous
 62
     7
100
AcDbCircle
 10
165.9550405609789
 20
382.5887277760246
 30
0.0
 40
1.950000000000045
  0
LINE
  5
412
330
6C
100
AcDbEntity
  8
center
100
AcDbLine
 10
181.555040564529
 20
300.1936365043408
 30
0.0
 11
150.3550405645273
 21
300.1936365043407
 31
0.0
  0
LINE
  5
413
330
6C
100
AcDbEntity
  8
center
100
AcDbLine
 10
172.0675405644779
 20
298.4436365043409
 30
0.0
 11
159.8425405644784
 21
298.4436365043409
 31
0.0
  0
LINE
  5
414
330
6C
100
AcDbEntity
  8
center
100
AcDbLine
 10
175.4550405644777
 20
296.968636504341
 30
0.0
 11
175.4550405644777
 21
303.4186365043408
 31
0.0
  0
LINE
  5
415
330
6C
100
AcDbEntity
  8
center
100
AcDbLine
 10
156.4550405644786
 20
296.968636504341
 30
0.0
 11
156.4550405644786
 21
303.4186365043408
 31
0.0
  0
LINE
  5
416
330
6C
100
AcDbEntity
  8
center
100
AcDbLine
 10
175.455040560978
 20
387.0071561805622
 30
0.0
 11
175.455040560978
 21
393.457156180562
 31
0.0
  0
LINE
  5
417
330
6C
100
AcDbEntity
  8
center
100
AcDbLine
 10
156.4550405609789
 20
387.0071561805622
 30
0.0
 11
156.4550405609789
 21
393.457156180562
 31
0.0
  0
LINE
  5
418
330
6C
100
AcDbEntity
  8
center
100
AcDbLine
 10
162.9550405644777
 20
300.0561365043409
 30
0.0
 11
162.9550405644777
 21
296.831136504341
 31
0.0
  0
LINE
  5
419
330
6C
100
AcDbEntity
  8
center
100
AcDbLine
 10
168.9550405644777
 20
300.0561365043409
 30
0.0
 11
168.9550405644777
 21
296.831136504341
 31
0.0
  0
LINE
  5
41A
330
6C
100
AcDbEntity
  8
center
100
AcDbLine
 10
165.9550405642285
 20
309.506136504341
 30
0.0
 11
165.9550405642285
 21
292.331136504341
 31
0.0
  0
LINE
  5
41B
330
6C
100
AcDbEntity
  8
# brkt_dr
  6
Continuous
100
AcDbLine
 10
-39.90963772380928
 20
305.1936365043409
 30
0.0
 11
-39.90963772380928
 21
295.1936365043409
 31
0.0
  0
ARC
  5
41C
330
6C
100
AcDbEntity
  8
# brkt_dr
  6
Continuous
100
AcDbCircle
 10
-38.90963772380928
 20
305.1936365043409
 30
0.0
 40
1.0000000005
100
AcDbArc
 50
90.0
 51
180.0
  0
LINE
  5
41D
330
6C
100
AcDbEntity
  8
# brkt_dr
  6
Continuous
100
AcDbLine
 10
-39.90963772380928
 20
295.1936365043409
 30
0.0
 11
-38.90963772380928
 21
295.1936365043409
 31
0.0
  0
LINE
  5
41E
330
6C
100
AcDbEntity
  8
# brkt_dr
  6
Continuous
100
AcDbLine
 10
-38.90963772380928
 20
295.1936365043409
 30
0.0
 11
-38.90963772380928
 21
305.1936365043409
 31
0.0
  0
LINE
  5
41F
330
6C
100
AcDbEntity
  8
# brkt_dr
  6
Continuous
100
AcDbLine
 10
-38.90963772380928
 20
305.1936365043409
 30
0.0
 11
-37.40963772396572
 21
305.1936365043409
 31
0.0
  0
LINE
  5
420
330
6C
100
AcDbEntity
  8
# brkt_dr
  6
Continuous
100
AcDbLine
 10
-37.40963772359555
 20
304.1936365045537
 30
0.0
 11
-38.90963772380928
 21
302.6936365043409
 31
0.0
  0
LINE
  5
421
330
6C
100
AcDbEntity
  8
# brkt_dr
  6
Continuous
100
AcDbLine
 10
-35.65124570154512
 20
306.1936365043408
 30
0.0
 11
-38.90963772380928
 21
306.1936365043409
 31
0.0
  0
LINE
  5
422
330
6C
100
AcDbEntity
  8
hidden
100
AcDbLine
 10
-39.70963772380855
 20
298.8436365043408
 30
0.0
 11
-39.90963772380928
 21
298.8436365043408
 31
0.0
  0
LINE
  5
423
330
6C
100
AcDbEntity
  8
hidden
100
AcDbLine
 10
-39.70963772380855
 20
301.5436365043409
 30
0.0
 11
-39.90963772380928
 21
301.5436365043409
 31
0.0
  0
LINE
  5
424
330
6C
100
AcDbEntity
  8
center
100
AcDbLine
 10
-36.75963772380875
 20
300.1936365043409
 30
0.0
 11
-41.05963772380891
 21
300.1936365043409
 31
0.0
  0
LINE
  5
425
330
6C
100
AcDbEntity
  8
hidden
100
AcDbLine
 10
-38.90963772380928
 20
302.3436365043409
 30
0.0
 11
-39.70963772380855
 21
301.5436365043411
 31
0.0
  0
LINE
  5
426
330
6C
100
AcDbEntity
  8
hidden
100
AcDbLine
 10
-39.70963772380855
 20
301.5436365043409
 30
0.0
 11
-39.70963772380855
 21
298.8436365043408
 31
0.0
  0
LINE
  5
427
330
6C
100
AcDbEntity
  8
hidden
100
AcDbLine
 10
-39.70963772380855
 20
298.8436365043408
 30
0.0
 11
-38.90963772380928
 21
298.0436365043408
 31
0.0
  0
LINE
  5
428
330
6C
100
AcDbEntity
  8
center
100
AcDbLine
 10
297.1800405610538
 20
300.1936365043409
 30
0.0
 11
290.7300405610548
 21
300.1936365043409
 31
0.0
  0
LINE
  5
429
330
6C
100
AcDbEntity
  8
center
100
AcDbLine
 10
290.5675405610546
 20
298.4436365043409
 30
0.0
 11
278.3425405610542
 21
298.4436365043409
 31
0.0
  0
LINE
  5
42A
330
6C
100
AcDbEntity
  8
center
100
AcDbLine
 10
293.9550405610535
 20
296.968636504341
 30
0.0
 11
293.9550405610535
 21
303.4186365043408
 31
0.0
  0
LINE
  5
42B
330
6C
100
AcDbEntity
  8
center
100
AcDbLine
 10
278.1800405610547
 20
300.1936365043409
 30
0.0
 11
271.7300405610549
 21
300.1936365043409
 31
0.0
  0
LINE
  5
42C
330
6C
100
AcDbEntity
  8
center
100
AcDbLine
 10
274.9550405610544
 20
296.968636504341
 30
0.0
 11
274.9550405610544
 21
303.4186365043408
 31
0.0
  0
LINE
  5
42D
330
6C
100
AcDbEntity
  8
center
100
AcDbLine
 10
287.4550405610535
 20
300.0561365043409
 30
0.0
 11
287.4550405610535
 21
296.831136504341
 31
0.0
  0
LINE
  5
42E
330
6C
100
AcDbEntity
  8
center
100
AcDbLine
 10
284.4550405608043
 20
309.506136504341
 30
0.0
 11
284.4550405608043
 21
292.331136504341
 31
0.0
  0
LINE
  5
42F
330
6C
100
AcDbEntity
  8
center
100
AcDbLine
 10
281.4550405605551
 20
300.0561365043409
 30
0.0
 11
281.4550405605551
 21
296.831136504341
 31
0.0
  0
LINE
  5
436
330
6C
100
AcDbEntity
  8
center
100
AcDbLine
 10
293.9550405573045
 20
387.0071561805622
 30
0.0
 11
293.9550405573045
 21
393.457156180562
 31
0.0
  0
LINE
  5
437
330
6C
100
AcDbEntity
  8
center
100
AcDbLine
 10
274.9550405573045
 20
387.0071561805622
 30
0.0
 11
274.9550405573045
 21
393.457156180562
 31
0.0
  0
ENDSEC
  0
SECTION
  2
OBJECTS
  0
DICTIONARY
  5
C
330
0
100
AcDbDictionary
281
     1
  3
ACAD_CIP_PREVIOUS_PRODUCT_INFO
350
A7F
  3
ACAD_COLOR
350
63
  3
ACAD_DETAILVIEWSTYLE
350
AD1
  3
ACAD_GROUP
350
D
  3
ACAD_LAYOUT
350
62
  3
ACAD_MATERIAL
350
10
  3
ACAD_MLEADERSTYLE
350
66
  3
ACAD_MLINESTYLE
350
5F
  3
ACAD_PLOTSETTINGS
350
61
  3
ACAD_PLOTSTYLENAME
350
E
  3
ACAD_SCALELIST
350
42
  3
ACAD_SECTIONVIEWSTYLE
350
ACF
  3
ACAD_TABLESTYLE
350
64
  3
ACAD_VISUALSTYLE
350
29
  3
ACDB_RECOMPOSE_DATA
350
AD9
  3
AcDbVariableDictionary
350
A72
  3
DWGPROPS
350
ADA
  0
DICTIONARY
  5
A80
330
54
100
AcDbDictionary
280
     1
281
     1
  3
ADSK_XREC_LAYER_RECONCILED
360
A81
  0
DICTIONARY
  5
9F
330
9E
100
AcDbDictionary
280
     1
281
     1
  3
ADSK_XREC_LAYER_RECONCILED
360
A0
  0
DICTIONARY
  5
A4
330
A3
100
AcDbDictionary
280
     1
281
     1
  3
ADSK_XREC_LAYER_RECONCILED
360
A5
  0
DICTIONARY
  5
268
330
267
100
AcDbDictionary
280
     1
281
     1
  3
ADSK_XREC_LAYER_RECONCILED
360
269
  0
DICTIONARY
  5
274
330
273
100
AcDbDictionary
280
     1
281
     1
  3
ADSK_XREC_LAYER_RECONCILED
360
275
  0
DICTIONARY
  5
27D
330
27C
100
AcDbDictionary
280
     1
281
     1
  3
ADSK_XREC_LAYER_RECONCILED
360
27E
  0
DICTIONARY
  5
287
330
286
100
AcDbDictionary
280
     1
281
     1
  3
ADSK_XREC_LAYER_RECONCILED
360
288
  0
DICTIONARY
  5
2AC
330
2AB
100
AcDbDictionary
280
     1
281
     1
  3
ADSK_XREC_LAYER_RECONCILED
360
2AD
  0
DICTIONARY
  5
2BA
330
2B9
100
AcDbDictionary
280
     1
281
     1
  3
ADSK_XREC_LAYER_RECONCILED
360
2BB
  0
DICTIONARY
  5
2F4
330
2F3
100
AcDbDictionary
280
     1
281
     1
  3
ADSK_XREC_LAYER_RECONCILED
360
2F5
  0
DICTIONARY
  5
304
330
303
100
AcDbDictionary
280
     1
281
     1
  3
ADSK_XREC_LAYER_RECONCILED
360
305
  0
DICTIONARY
  5
33C
330
33B
100
AcDbDictionary
280
     1
281
     1
  3
ADSK_XREC_LAYER_RECONCILED
360
33D
  0
DICTIONARY
  5
35A
330
359
100
AcDbDictionary
280
     1
281
     1
  3
ADSK_XREC_LAYER_RECONCILED
360
35B
  0
DICTIONARY
  5
3B1
330
3B0
100
AcDbDictionary
280
     1
281
     1
  3
ADSK_XREC_LAYER_RECONCILED
360
3B2
  0
DICTIONARY
  5
43D
330
43C
100
AcDbDictionary
280
     1
281
     1
  3
ADSK_XREC_LAYER_RECONCILED
360
43E
  0
DICTIONARY
  5
47F
330
47E
100
AcDbDictionary
280
     1
281
     1
  3
ADSK_XREC_LAYER_RECONCILED
360
480
  0
DICTIONARY
  5
5E1
330
5E0
100
AcDbDictionary
280
     1
281
     1
  3
ADSK_XREC_LAYER_RECONCILED
360
5E2
  0
DICTIONARY
  5
629
330
628
100
AcDbDictionary
280
     1
281
     1
  3
ADSK_XREC_LAYER_RECONCILED
360
62A
  0
DICTIONARY
  5
9A0
330
6C
100
AcDbDictionary
280
     1
281
     1
  3
ACAD_SORTENTS
360
9A3
  0
DICTIONARY
  5
9A1
330
68
100
AcDbDictionary
280
     1
281
     1
  3
ACAD_SORTENTS
360
9A2
  0
XRECORD
  5
A7F
102
{ACAD_REACTORS
330
C
102
}
330
C
100
AcDbXrecord
280
     1
300
ACDLT
300
2017
300
ACDLT_F_S
  0
DICTIONARY
  5
63
102
{ACAD_REACTORS
330
C
102
}
330
C
100
AcDbDictionary
281
     1
  0
DICTIONARY
  5
AD1
102
{ACAD_REACTORS
330
C
102
}
330
C
100
AcDbDictionary
281
     1
  3
Metric50
350
AD2
  0
DICTIONARY
  5
D
102
{ACAD_REACTORS
330
C
102
}
330
C
100
AcDbDictionary
281
     1
  0
DICTIONARY
  5
62
102
{ACAD_REACTORS
330
C
102
}
330
C
100
AcDbDictionary
281
     1
  3
Model
350
6F
  3
レイアウト1
350
6B
  3
レイアウト2
350
73
  0
DICTIONARY
  5
10
102
{ACAD_REACTORS
330
C
102
}
330
C
100
AcDbDictionary
281
     1
  3
ByBlock
350
19
  3
ByLayer
350
11
  3
Global
350
21
  0
DICTIONARY
  5
66
102
{ACAD_REACTORS
330
C
102
}
330
C
100
AcDbDictionary
281
     1
  3
ATOM_balloon
350
483
  3
Standard
350
67
  0
DICTIONARY
  5
5F
102
{ACAD_REACTORS
330
C
102
}
330
C
100
AcDbDictionary
281
     1
  3
Standard
350
60
  0
DICTIONARY
  5
61
102
{ACAD_REACTORS
330
C
102
}
330
C
100
AcDbDictionary
281
     1
  0
ACDBDICTIONARYWDFLT
  5
E
102
{ACAD_REACTORS
330
C
102
}
330
C
100
AcDbDictionary
281
     1
  3
invisible
350
89
  3
Normal
350
F
  3
Style 1
350
8A
100
AcDbDictionaryWithDefault
340
F
  0
DICTIONARY
  5
42
102
{ACAD_REACTORS
330
C
102
}
330
C
100
AcDbDictionary
281
     1
  3
*A1
350
8B
  3
*A10
350
93
  3
*A11
350
94
  3
*A12
350
95
  3
*A13
350
96
  3
*A14
350
97
  3
*A15
350
98
  3
*A16
350
99
  3
*A17
350
9A
  3
*A18
350
9B
  3
*A2
350
9C
  3
*A3
350
8C
  3
*A4
350
8D
  3
*A5
350
8E
  3
*A6
350
8F
  3
*A7
350
90
  3
*A8
350
91
  3
*A9
350
92
  3
A0
350
43
  3
A1
350
44
  3
A2
350
45
  3
A3
350
46
  3
A4
350
47
  3
A5
350
48
  3
A6
350
49
  3
A7
350
4A
  3
A8
350
4B
  3
A9
350
4C
  3
B0
350
4D
  3
B1
350
4E
  3
B2
350
4F
  3
B3
350
50
  3
B4
350
51
  3
B5
350
52
  3
B6
350
53
  0
DICTIONARY
  5
ACF
102
{ACAD_REACTORS
330
C
102
}
330
C
100
AcDbDictionary
281
     1
  3
Metric50
350
AD0
  0
DICTIONARY
  5
64
102
{ACAD_REACTORS
330
C
102
}
330
C
100
AcDbDictionary
281
     1
  3
Standard
350
65
  0
DICTIONARY
  5
29
102
{ACAD_REACTORS
330
C
102
}
330
C
100
AcDbDictionary
281
     1
  3
2dWireframe
350
2F
  3
Basic
350
2E
  3
Brighten
350
35
  3
ColorChange
350
39
  3
Conceptual
350
32
  3
Dim
350
34
  3
EdgeColorOff
350
41
  3
Facepattern
350
38
  3
Flat
350
2A
  3
FlatWithEdges
350
2B
  3
Gouraud
350
2C
  3
GouraudWithEdges
350
2D
  3
Hidden
350
31
  3
JitterOff
350
3F
  3
Linepattern
350
37
  3
OverhangOff
350
40
  3
Realistic
350
33
  3
Shaded
350
3E
  3
Shaded with edges
350
3D
  3
Shades of Gray
350
3A
  3
Sketchy
350
3B
  3
Thicken
350
36
  3
Wireframe
350
30
  3
X-Ray
350
3C
  0
XRECORD
  5
AD9
102
{ACAD_REACTORS
330
C
102
}
330
C
100
AcDbXrecord
280
     1
 90
        1
330
65
  0
DICTIONARY
  5
A72
102
{ACAD_REACTORS
330
C
102
}
330
C
100
AcDbDictionary
281
     1
  3
ANNOALLVISIBLE
350
A75
  3
CANNOSCALE
350
A76
  3
CMLEADERSTYLE
350
A74
  3
CTABLESTYLE
350
A73
  3
CVIEWDETAILSTYLE
350
AD5
  3
CVIEWSECTIONSTYLE
350
AD6
  3
DIMASSOC
350
A88
  3
HIDETEXT
350
A86
  3
INDEXCTL
350
A85
  3
LAYEREVAL
350
A77
  3
LAYERNOTIFY
350
A78
  3
LIGHTINGUNITS
350
A83
  3
MSLTSCALE
350
A82
  3
SOLIDHIST
350
A89
  3
SORTENTS
350
A84
  3
XCLIPFRAME
350
AD7
  0
XRECORD
  5
ADA
102
{ACAD_REACTORS
330
C
102
}
330
C
100
AcDbXrecord
280
     1
  1
DWGPROPS COOKIE
  2

  3

  4

  6

  7

  8
0035sekine
  9

300
=
301
=
302
=
303
=
304
=
305
=
306
=
307
=
308
=
309
=
 40
0.0032210648148148
 41
2456618.421585648
 42
2457822.564606482
  1

 90
        0
  0
XRECORD
  5
A81
102
{ACAD_REACTORS
330
A80
102
}
330
A80
100
AcDbXrecord
280
     1
290
     1
  0
XRECORD
  5
A0
102
{ACAD_REACTORS
330
9F
102
}
330
9F
100
AcDbXrecord
280
     1
290
     1
  0
XRECORD
  5
A5
102
{ACAD_REACTORS
330
A4
102
}
330
A4
100
AcDbXrecord
280
     1
290
     1
  0
XRECORD
  5
269
102
{ACAD_REACTORS
330
268
102
}
330
268
100
AcDbXrecord
280
     1
290
     1
  0
XRECORD
  5
275
102
{ACAD_REACTORS
330
274
102
}
330
274
100
AcDbXrecord
280
     1
290
     1
  0
XRECORD
  5
27E
102
{ACAD_REACTORS
330
27D
102
}
330
27D
100
AcDbXrecord
280
     1
290
     1
  0
XRECORD
  5
288
102
{ACAD_REACTORS
330
287
102
}
330
287
100
AcDbXrecord
280
     1
290
     1
  0
XRECORD
  5
2AD
102
{ACAD_REACTORS
330
2AC
102
}
330
2AC
100
AcDbXrecord
280
     1
290
     1
  0
XRECORD
  5
2BB
102
{ACAD_REACTORS
330
2BA
102
}
330
2BA
100
AcDbXrecord
280
     1
290
     1
  0
XRECORD
  5
2F5
102
{ACAD_REACTORS
330
2F4
102
}
330
2F4
100
AcDbXrecord
280
     1
290
     1
  0
XRECORD
  5
305
102
{ACAD_REACTORS
330
304
102
}
330
304
100
AcDbXrecord
280
     1
290
     1
  0
XRECORD
  5
33D
102
{ACAD_REACTORS
330
33C
102
}
330
33C
100
AcDbXrecord
280
     1
290
     1
  0
XRECORD
  5
35B
102
{ACAD_REACTORS
330
35A
102
}
330
35A
100
AcDbXrecord
280
     1
290
     1
  0
XRECORD
  5
3B2
102
{ACAD_REACTORS
330
3B1
102
}
330
3B1
100
AcDbXrecord
280
     1
290
     1
  0
XRECORD
  5
43E
102
{ACAD_REACTORS
330
43D
102
}
330
43D
100
AcDbXrecord
280
     1
290
     1
  0
XRECORD
  5
480
102
{ACAD_REACTORS
330
47F
102
}
330
47F
100
AcDbXrecord
280
     1
290
     1
  0
XRECORD
  5
5E2
102
{ACAD_REACTORS
330
5E1
102
}
330
5E1
100
AcDbXrecord
280
     1
290
     1
  0
XRECORD
  5
62A
102
{ACAD_REACTORS
330
629
102
}
330
629
100
AcDbXrecord
280
     1
290
     1
  0
SORTENTSTABLE
  5
9A3
102
{ACAD_REACTORS
330
9A0
102
}
330
9A0
100
AcDbSortentsTable
330
6C
331
419
  5
41C
331
3A1
  5
3A2
331
41D
  5
421
331
3A5
  5
3A6
331
421
  5
424
331
3A9
  5
3AA
331
425
  5
428
331
3AD
  5
3AE
331
40A
  5
40C
331
392
  5
393
331
396
  5
397
331
412
  5
415
331
39A
  5
39B
331
416
  5
419
331
39E
  5
39F
331
3FA
  5
3FC
331
3FE
  5
400
331
38E
  5
38F
331
402
  5
404
331
42A
  5
42D
331
42E
  5
431
331
3F1
  5
3F3
331
3F5
  5
3F7
331
436
  5
44D
331
41A
  5
41D
331
3A2
  5
3A3
331
41E
  5
422
331
3A6
  5
3A7
331
422
  5
425
331
3ED
  5
3EF
331
426
  5
42A
331
3AA
  5
3AB
331
3AE
  5
3AF
331
40B
  5
40D
331
393
  5
394
331
413
  5
416
331
397
  5
398
331
39B
  5
39C
331
417
  5
41A
331
39F
  5
3A0
331
3FB
  5
3FD
331
3FF
  5
401
331
38F
  5
390
331
403
  5
405
331
42B
  5
42E
331
3F2
  5
3F4
331
42F
  5
432
331
3F6
  5
3F8
331
437
  5
45F
331
41B
  5
41E
331
3A3
  5
3A4
331
41F
  5
423
331
3EE
  5
3F0
331
3A7
  5
3A8
331
423
  5
426
331
427
  5
429
331
3AB
  5
3AC
331
390
  5
391
331
394
  5
395
331
398
  5
399
331
414
  5
417
331
39C
  5
39D
331
3F8
  5
3FA
331
3FC
  5
3FE
331
400
  5
402
331
38C
  5
38D
331
428
  5
42B
331
3F3
  5
3F5
331
42C
  5
42F
331
3F7
  5
3F9
331
418
  5
41B
331
3A0
  5
3A1
331
41C
  5
41F
331
3EF
  5
3F1
331
3A4
  5
3A5
331
424
  5
427
331
3A8
  5
3A9
331
3AC
  5
3AD
331
391
  5
392
331
411
  5
414
331
395
  5
396
331
399
  5
39A
331
415
  5
418
331
39D
  5
39E
331
3F9
  5
3FB
331
3FD
  5
3FF
331
401
  5
403
331
38D
  5
38E
331
429
  5
42C
331
3F0
  5
3F2
331
42D
  5
430
331
3F4
  5
3F6
  0
SORTENTSTABLE
  5
9A2
102
{ACAD_REACTORS
330
9A1
102
}
330
9A1
100
AcDbSortentsTable
330
68
  0
ACDBDETAILVIEWSTYLE
  5
AD2
102
{ACAD_XDICTIONARY
360
B16
102
}
102
{ACAD_REACTORS
330
AD1
102
}
330
AD1
100
AcDbModelDocViewStyle
 70
     0
  3
Metric50
290
     0
100
AcDbDetailViewStyle
 70
     0
 71
     0
 90
        3
 71
     1
340
55
 40
5.0
340
0
 40
5.0
300

 40
0.0
280
     1
 71
     2
340
5D
 90
       25
 71
     3
340
55
 40
5.0
 90
        0
 40
15.0
 90
        1
300
%<\AcVar ViewDetailId>% (%<\AcVar ViewScale \f "%sn">%)
 71
     4
340
5D
 90
       25
340
5D
 90
       25
280
     0
  0
LAYOUT
  5
6F
102
{ACAD_XDICTIONARY
360
B10
102
}
102
{ACAD_REACTORS
330
62
102
}
330
62
100
AcDbPlotSettings
  1

  2
Microsoft XPS Document Writer
  4
A4
  6

 40
3.174999952316283
 41
3.174999952316283
 42
3.175003051757812
 43
3.17498779296875
 44
210.0156707763672
 45
297.0106506347656
 46
-4.894741058349608
 47
-4.905582427978513
 48
0.0
 49
0.0
140
0.0
141
0.0
142
1.0
143
1.971639174336744
 70
 11954
 72
     1
 73
     1
 74
     0
  7
monochrome.stb
 75
     0
147
0.5071921947059092
148
141.0779511204577
149
-156.9544092289708
100
AcDbLayout
  1
Model
 70
     1
 71
     0
 10
0.0
 20
0.0
 11
12.0
 21
9.0
 12
0.0
 22
0.0
 32
0.0
 14
0.0
 24
0.0
 34
0.0
 15
0.0
 25
0.0
 35
0.0
146
0.0
 13
0.0
 23
0.0
 33
0.0
 16
1.0
 26
0.0
 36
0.0
 17
0.0
 27
1.0
 37
0.0
 76
     0
330
6C
331
57
1001
ACAD_PSEXT
1000
Microsoft XPS Document Writer
1000
Microsoft XPS Document Writer
1000
XPSPort:
1000

1070
     0
  0
LAYOUT
  5
6B
102
{ACAD_XDICTIONARY
360
B0E
102
}
102
{ACAD_REACTORS
330
62
102
}
330
62
100
AcDbPlotSettings
  1

  2
Microsoft XPS Document Writer
  4

  6

 40
0.0
 41
0.0
 42
0.0
 43
0.0
 44
0.0
 45
0.0
 46
0.0
 47
0.0
 48
0.0
 49
0.0
140
0.0
141
0.0
142
1.0
143
1.0
 70
   688
 72
     0
 73
     0
 74
     5
  7

 75
    16
147
1.0
148
0.0
149
0.0
100
AcDbLayout
  1
レイアウト1
 70
     1
 71
     1
 10
0.0
 20
0.0
 11
12.0
 21
9.0
 12
0.0
 22
0.0
 32
0.0
 14
1.000000000000000E+20
 24
1.000000000000000E+20
 34
1.000000000000000E+20
 15
-1.000000000000000E+20
 25
-1.000000000000000E+20
 35
-1.000000000000000E+20
146
0.0
 13
0.0
 23
0.0
 33
0.0
 16
1.0
 26
0.0
 36
0.0
 17
0.0
 27
1.0
 37
0.0
 76
     0
330
68
  0
LAYOUT
  5
73
102
{ACAD_XDICTIONARY
360
B12
102
}
102
{ACAD_REACTORS
330
62
102
}
330
62
100
AcDbPlotSettings
  1

  2
Microsoft XPS Document Writer
  4

  6

 40
0.0
 41
0.0
 42
0.0
 43
0.0
 44
0.0
 45
0.0
 46
0.0
 47
0.0
 48
0.0
 49
0.0
140
0.0
141
0.0
142
1.0
143
1.0
 70
   688
 72
     0
 73
     0
 74
     5
  7

 75
    16
147
1.0
148
0.0
149
0.0
100
AcDbLayout
  1
レイアウト2
 70
     1
 71
     2
 10
0.0
 20
0.0
 11
12.0
 21
9.0
 12
0.0
 22
0.0
 32
0.0
 14
0.0
 24
0.0
 34
0.0
 15
0.0
 25
0.0
 35
0.0
146
0.0
 13
0.0
 23
0.0
 33
0.0
 16
1.0
 26
0.0
 36
0.0
 17
0.0
 27
1.0
 37
0.0
 76
     0
330
70
  0
MATERIAL
  5
19
102
{ACAD_XDICTIONARY
360
1A
102
}
102
{ACAD_REACTORS
330
10
102
}
330
10
100
AcDbMaterial
  1
ByBlock
 72
     0
 43
0.0208333333333333
 43
0.0
 43
0.0
 43
0.0
 43
0.0
 43
0.0208333333333333
 43
0.0
 43
0.0
 43
0.0
 43
0.0
 43
1.0
 43
0.0
 43
0.0
 43
0.0
 43
0.0
 43
1.0
 77
     0
 47
0.0208333333333333
 47
0.0
 47
0.0
 47
0.0
 47
0.0
 47
0.0208333333333333
 47
0.0
 47
0.0
 47
0.0
 47
0.0
 47
1.0
 47
0.0
 47
0.0
 47
0.0
 47
0.0
 47
1.0
171
     0
 49
0.0208333333333333
 49
0.0
 49
0.0
 49
0.0
 49
0.0
 49
0.0208333333333333
 49
0.0
 49
0.0
 49
0.0
 49
0.0
 49
1.0
 49
0.0
 49
0.0
 49
0.0
 49
0.0
 49
1.0
175
     0
142
0.0208333333333333
142
0.0
142
0.0
142
0.0
142
0.0
142
0.0208333333333333
142
0.0
142
0.0
142
0.0
142
0.0
142
1.0
142
0.0
142
0.0
142
0.0
142
0.0
142
1.0
179
     0
144
0.0208333333333333
144
0.0
144
0.0
144
0.0
144
0.0
144
0.0208333333333333
144
0.0
144
0.0
144
0.0
144
0.0
144
1.0
144
0.0
144
0.0
144
0.0
144
0.0
144
1.0
147
0.0208333333333333
147
0.0
147
0.0
147
0.0
147
0.0
147
0.0208333333333333
147
0.0
147
0.0
147
0.0
147
0.0
147
1.0
147
0.0
147
0.0
147
0.0
147
0.0
147
1.0
  0
MATERIAL
  5
11
102
{ACAD_XDICTIONARY
360
12
102
}
102
{ACAD_REACTORS
330
10
102
}
330
10
100
AcDbMaterial
  1
ByLayer
 72
     0
 43
0.0208333333333333
 43
0.0
 43
0.0
 43
0.0
 43
0.0
 43
0.0208333333333333
 43
0.0
 43
0.0
 43
0.0
 43
0.0
 43
1.0
 43
0.0
 43
0.0
 43
0.0
 43
0.0
 43
1.0
 77
     0
 47
0.0208333333333333
 47
0.0
 47
0.0
 47
0.0
 47
0.0
 47
0.0208333333333333
 47
0.0
 47
0.0
 47
0.0
 47
0.0
 47
1.0
 47
0.0
 47
0.0
 47
0.0
 47
0.0
 47
1.0
171
     0
 49
0.0208333333333333
 49
0.0
 49
0.0
 49
0.0
 49
0.0
 49
0.0208333333333333
 49
0.0
 49
0.0
 49
0.0
 49
0.0
 49
1.0
 49
0.0
 49
0.0
 49
0.0
 49
0.0
 49
1.0
175
     0
142
0.0208333333333333
142
0.0
142
0.0
142
0.0
142
0.0
142
0.0208333333333333
142
0.0
142
0.0
142
0.0
142
0.0
142
1.0
142
0.0
142
0.0
142
0.0
142
0.0
142
1.0
179
     0
144
0.0208333333333333
144
0.0
144
0.0
144
0.0
144
0.0
144
0.0208333333333333
144
0.0
144
0.0
144
0.0
144
0.0
144
1.0
144
0.0
144
0.0
144
0.0
144
0.0
144
1.0
147
0.0208333333333333
147
0.0
147
0.0
147
0.0
147
0.0
147
0.0208333333333333
147
0.0
147
0.0
147
0.0
147
0.0
147
1.0
147
0.0
147
0.0
147
0.0
147
0.0
147
1.0
  0
MATERIAL
  5
21
102
{ACAD_XDICTIONARY
360
22
102
}
102
{ACAD_REACTORS
330
10
102
}
330
10
100
AcDbMaterial
  1
Global
 72
     0
 43
0.0208333333333333
 43
0.0
 43
0.0
 43
0.0
 43
0.0
 43
0.0208333333333333
 43
0.0
 43
0.0
 43
0.0
 43
0.0
 43
1.0
 43
0.0
 43
0.0
 43
0.0
 43
0.0
 43
1.0
 77
     0
 47
0.0208333333333333
 47
0.0
 47
0.0
 47
0.0
 47
0.0
 47
0.0208333333333333
 47
0.0
 47
0.0
 47
0.0
 47
0.0
 47
1.0
 47
0.0
 47
0.0
 47
0.0
 47
0.0
 47
1.0
171
     0
 49
0.0208333333333333
 49
0.0
 49
0.0
 49
0.0
 49
0.0
 49
0.0208333333333333
 49
0.0
 49
0.0
 49
0.0
 49
0.0
 49
1.0
 49
0.0
 49
0.0
 49
0.0
 49
0.0
 49
1.0
175
     0
142
0.0208333333333333
142
0.0
142
0.0
142
0.0
142
0.0
142
0.0208333333333333
142
0.0
142
0.0
142
0.0
142
0.0
142
1.0
142
0.0
142
0.0
142
0.0
142
0.0
142
1.0
179
     0
144
0.0208333333333333
144
0.0
144
0.0
144
0.0
144
0.0
144
0.0208333333333333
144
0.0
144
0.0
144
0.0
144
0.0
144
1.0
144
0.0
144
0.0
144
0.0
144
0.0
144
1.0
147
0.0208333333333333
147
0.0
147
0.0
147
0.0
147
0.0
147
0.0208333333333333
147
0.0
147
0.0
147
0.0
147
0.0
147
1.0
147
0.0
147
0.0
147
0.0
147
0.0
147
1.0
  0
MLEADERSTYLE
  5
483
102
{ACAD_REACTORS
330
66
102
}
330
66
100
AcDbMLeaderStyle
170
     1
171
     1
172
     0
 90
        2
 40
0.0
 41
0.0
173
     1
 91
-1073741824
 92
       -2
290
     1
 42
2.0
291
     0
 43
-0.36
  3
Standard
341
80
 44
2.399999999999999
300

342
76
174
     1
178
     6
175
     1
176
     0
 93
-1023410173
 45
3.0
292
     0
297
     0
 46
4.0
343
484
 94
-1073741824
 47
1.0
 49
1.0
140
1.0
293
     1
141
0.0
294
     1
177
     0
142
1.0
295
     0
296
     1
143
3.75
1001
ACAD_MLEADERVER
1070
     2
  0
MLEADERSTYLE
  5
67
102
{ACAD_XDICTIONARY
360
B0C
102
}
102
{ACAD_REACTORS
330
66
102
}
330
66
100
AcDbMLeaderStyle
170
     2
171
     1
172
     0
 90
        2
 40
0.0
 41
0.0
173
     1
 91
-1056964608
340
5B
 92
       -2
290
     1
 42
0.09
291
     1
 43
0.36
  3
Standard
 44
0.18
300

342
55
174
     1
178
     6
175
     1
176
     0
 93
-1056964608
 45
0.18
292
     0
297
     0
 46
0.18
 94
-1056964608
 47
1.0
 49
1.0
140
1.0
293
     1
141
0.0
294
     1
177
     0
142
1.0
295
     0
296
     0
143
0.125
1001
ACAD_MLEADERVER
1070
     2
  0
MLINESTYLE
  5
60
102
{ACAD_REACTORS
330
5F
102
}
330
5F
100
AcDbMlineStyle
  2
STANDARD
 70
     0
  3

 62
   256
 51
90.0
 52
90.0
 71
     2
 49
0.5
 62
   256
  6
BYLAYER
 49
-0.5
 62
   256
  6
BYLAYER
  0
ACDBPLACEHOLDER
  5
89
102
{ACAD_REACTORS
330
E
102
}
330
E
  0
ACDBPLACEHOLDER
  5
F
102
{ACAD_REACTORS
330
E
102
}
330
E
  0
ACDBPLACEHOLDER
  5
8A
102
{ACAD_REACTORS
330
E
102
}
330
E
  0
SCALE
  5
8B
102
{ACAD_REACTORS
330
42
102
}
330
42
100
AcDbScale
 70
     0
300
3:1
140
3.0
141
1.0
290
     0
  0
SCALE
  5
93
102
{ACAD_REACTORS
330
42
102
}
330
42
100
AcDbScale
 70
     0
300
3/16" = 1'-0"
140
0.1875
141
12.0
290
     0
  0
SCALE
  5
94
102
{ACAD_REACTORS
330
42
102
}
330
42
100
AcDbScale
 70
     0
300
1/4" = 1'-0"
140
0.25
141
12.0
290
     0
  0
SCALE
  5
95
102
{ACAD_REACTORS
330
42
102
}
330
42
100
AcDbScale
 70
     0
300
3/8" = 1'-0"
140
0.375
141
12.0
290
     0
  0
SCALE
  5
96
102
{ACAD_REACTORS
330
42
102
}
330
42
100
AcDbScale
 70
     0
300
1/2" = 1'-0"
140
0.5
141
12.0
290
     0
  0
SCALE
  5
97
102
{ACAD_REACTORS
330
42
102
}
330
42
100
AcDbScale
 70
     0
300
3/4" = 1'-0"
140
0.75
141
12.0
290
     0
  0
SCALE
  5
98
102
{ACAD_REACTORS
330
42
102
}
330
42
100
AcDbScale
 70
     0
300
1" = 1'-0"
140
1.0
141
12.0
290
     0
  0
SCALE
  5
99
102
{ACAD_REACTORS
330
42
102
}
330
42
100
AcDbScale
 70
     0
300
1-1/2" = 1'-0"
140
1.5
141
12.0
290
     0
  0
SCALE
  5
9A
102
{ACAD_REACTORS
330
42
102
}
330
42
100
AcDbScale
 70
     0
300
3" = 1'-0"
140
3.0
141
12.0
290
     0
  0
SCALE
  5
9B
102
{ACAD_REACTORS
330
42
102
}
330
42
100
AcDbScale
 70
     0
300
6" = 1'-0"
140
6.0
141
12.0
290
     0
  0
SCALE
  5
9C
102
{ACAD_REACTORS
330
42
102
}
330
42
100
AcDbScale
 70
     0
300
1'-0" = 1'-0"
140
12.0
141
12.0
290
     0
  0
SCALE
  5
8C
102
{ACAD_REACTORS
330
42
102
}
330
42
100
AcDbScale
 70
     0
300
5:1
140
5.0
141
1.0
290
     0
  0
SCALE
  5
8D
102
{ACAD_REACTORS
330
42
102
}
330
42
100
AcDbScale
 70
     0
300
1/128" = 1'-0"
140
0.0078125
141
12.0
290
     0
  0
SCALE
  5
8E
102
{ACAD_REACTORS
330
42
102
}
330
42
100
AcDbScale
 70
     0
300
1/64" = 1'-0"
140
0.015625
141
12.0
290
     0
  0
SCALE
  5
8F
102
{ACAD_REACTORS
330
42
102
}
330
42
100
AcDbScale
 70
     0
300
1/32" = 1'-0"
140
0.03125
141
12.0
290
     0
  0
SCALE
  5
90
102
{ACAD_REACTORS
330
42
102
}
330
42
100
AcDbScale
 70
     0
300
1/16" = 1'-0"
140
0.0625
141
12.0
290
     0
  0
SCALE
  5
91
102
{ACAD_REACTORS
330
42
102
}
330
42
100
AcDbScale
 70
     0
300
3/32" = 1'-0"
140
0.09375
141
12.0
290
     0
  0
SCALE
  5
92
102
{ACAD_REACTORS
330
42
102
}
330
42
100
AcDbScale
 70
     0
300
1/8" = 1'-0"
140
0.125
141
12.0
290
     0
  0
SCALE
  5
43
102
{ACAD_REACTORS
330
42
102
}
330
42
100
AcDbScale
 70
     0
300
1:1
140
1.0
141
1.0
290
     1
  0
SCALE
  5
44
102
{ACAD_REACTORS
330
42
102
}
330
42
100
AcDbScale
 70
     0
300
1:2
140
1.0
141
2.0
290
     0
  0
SCALE
  5
45
102
{ACAD_REACTORS
330
42
102
}
330
42
100
AcDbScale
 70
     0
300
1:4
140
1.0
141
4.0
290
     0
  0
SCALE
  5
46
102
{ACAD_REACTORS
330
42
102
}
330
42
100
AcDbScale
 70
     0
300
1:5
140
1.0
141
5.0
290
     0
  0
SCALE
  5
47
102
{ACAD_REACTORS
330
42
102
}
330
42
100
AcDbScale
 70
     0
300
1:8
140
1.0
141
8.0
290
     0
  0
SCALE
  5
48
102
{ACAD_REACTORS
330
42
102
}
330
42
100
AcDbScale
 70
     0
300
1:10
140
1.0
141
10.0
290
     0
  0
SCALE
  5
49
102
{ACAD_REACTORS
330
42
102
}
330
42
100
AcDbScale
 70
     0
300
1:16
140
1.0
141
16.0
290
     0
  0
SCALE
  5
4A
102
{ACAD_REACTORS
330
42
102
}
330
42
100
AcDbScale
 70
     0
300
1:20
140
1.0
141
20.0
290
     0
  0
SCALE
  5
4B
102
{ACAD_REACTORS
330
42
102
}
330
42
100
AcDbScale
 70
     0
300
1:30
140
1.0
141
30.0
290
     0
  0
SCALE
  5
4C
102
{ACAD_REACTORS
330
42
102
}
330
42
100
AcDbScale
 70
     0
300
1:40
140
1.0
141
40.0
290
     0
  0
SCALE
  5
4D
102
{ACAD_REACTORS
330
42
102
}
330
42
100
AcDbScale
 70
     0
300
1:50
140
1.0
141
50.0
290
     0
  0
SCALE
  5
4E
102
{ACAD_REACTORS
330
42
102
}
330
42
100
AcDbScale
 70
     0
300
1:100
140
1.0
141
100.0
290
     0
  0
SCALE
  5
4F
102
{ACAD_REACTORS
330
42
102
}
330
42
100
AcDbScale
 70
     0
300
2:1
140
2.0
141
1.0
290
     0
  0
SCALE
  5
50
102
{ACAD_REACTORS
330
42
102
}
330
42
100
AcDbScale
 70
     0
300
4:1
140
4.0
141
1.0
290
     0
  0
SCALE
  5
51
102
{ACAD_REACTORS
330
42
102
}
330
42
100
AcDbScale
 70
     0
300
8:1
140
8.0
141
1.0
290
     0
  0
SCALE
  5
52
102
{ACAD_REACTORS
330
42
102
}
330
42
100
AcDbScale
 70
     0
300
10:1
140
10.0
141
1.0
290
     0
  0
SCALE
  5
53
102
{ACAD_REACTORS
330
42
102
}
330
42
100
AcDbScale
 70
     0
300
100:1
140
100.0
141
1.0
290
     0
  0
ACDBSECTIONVIEWSTYLE
  5
AD0
102
{ACAD_XDICTIONARY
360
B14
102
}
102
{ACAD_REACTORS
330
ACF
102
}
330
ACF
100
AcDbModelDocViewStyle
 70
     0
  3
Metric50
290
     0
100
AcDbSectionViewStyle
 70
     0
 71
     0
 90
      102
 71
     1
340
55
 40
5.0
340
0
340
0
 40
5.0
300
I, O, Q, S, X, Z
 40
10.0
 90
        0
 40
2.5
 90
        0
 71
     2
340
5D
 90
       25
340
5D
 90
       50
 40
5.0
 40
2.5
 40
5.0
 71
     3
340
55
 40
5.0
 90
        0
 40
15.0
 90
        1
300
%<\AcVar ViewSectionStartId>%-%<\AcVar ViewSectionEndId>% (%<\AcVar ViewScale \f "%sn">%)
 71
     4
300
ANSI31
 40
1.0
 90
        0
290
     0
290
     0
 90
        6
 40
0.0
 40
1.570796326794896
 40
0.2617993877991494
 40
1.308996938995747
 40
-0.2617993877991494
 40
1.832595714594046
  0
TABLESTYLE
  5
65
102
{ACAD_XDICTIONARY
360
A8B
102
}
102
{ACAD_REACTORS
330
64
102
}
330
64
100
AcDbTableStyle
  3
Standard
 70
     0
 71
     3
 40
1.5
 41
1.5
280
     0
281
     0
  7
Standard
140
4.5
170
     2
 62
     0
 63
     7
283
     0
274
    -2
284
     1
 64
     0
275
    -2
285
     1
 65
     0
276
    -2
286
     1
 66
     0
277
    -2
287
     1
 67
     0
278
    -2
288
     1
 68
     0
279
    -2
289
     1
 69
     0
  7
Standard
140
6.0
170
     5
 62
     0
 63
     7
283
     0
274
    -2
284
     1
 64
     0
275
    -2
285
     1
 65
     0
276
    -2
286
     1
 66
     0
277
    -2
287
     1
 67
     0
278
    -2
288
     1
 68
     0
279
    -2
289
     1
 69
     0
  7
Standard
140
4.5
170
     5
 62
     0
 63
     7
283
     0
274
    -2
284
     1
 64
     0
275
    -2
285
     1
 65
     0
276
    -2
286
     1
 66
     0
277
    -2
287
     1
 67
     0
278
    -2
288
     1
 68
     0
279
    -2
289
     1
 69
     0
  0
VISUALSTYLE
  5
2F
102
{ACAD_XDICTIONARY
360
AE5
102
}
102
{ACAD_REACTORS
330
29
102
}
330
29
100
AcDbVisualStyle
  2

 70
     4
 71
     0
 72
     2
 73
     0
 90
        0
 40
-0.6
 41
-30.0
 62
     5
 63
     7
 74
     1
 91
        4
 64
     7
 65
   257
 75
     1
175
     1
 42
1.0
 92
        0
 66
   257
 43
1.0
 76
     1
 77
     6
 78
     2
 67
     7
 79
     5
170
     0
171
     0
290
     0
174
     0
 93
        1
 44
0.0
173
     0
291
     0
 45
0.0
1001
ACAD
1000
AcDbSavedByObjectVersion
1070
     0
  0
VISUALSTYLE
  5
2E
102
{ACAD_XDICTIONARY
360
AE3
102
}
102
{ACAD_REACTORS
330
29
102
}
330
29
100
AcDbVisualStyle
  2

 70
     7
 71
     1
 72
     0
 73
     1
 90
        0
 40
-0.6
 41
-30.0
 62
     5
 63
     7
 74
     0
 91
        4
 64
     7
 65
   257
 75
     1
175
     1
 42
1.0
 92
        8
 66
     7
 43
1.0
 76
     1
 77
     6
 78
     2
 67
     7
 79
     5
170
     0
171
     0
290
     0
174
     0
 93
        1
 44
0.0
173
     0
291
     1
 45
0.0
1001
ACAD
1000
AcDbSavedByObjectVersion
1070
     0
  0
VISUALSTYLE
  5
35
102
{ACAD_XDICTIONARY
360
AF1
102
}
102
{ACAD_REACTORS
330
29
102
}
330
29
100
AcDbVisualStyle
  2

 70
    12
 71
     2
 72
     2
 73
     0
 90
        0
 40
-0.6
 41
-30.0
 62
     5
 63
     7
 74
     1
 91
        4
 64
     7
 65
   257
 75
     1
175
     1
 42
1.0
 92
        8
 66
     7
 43
1.0
 76
     1
 77
     6
 78
     2
 67
     7
 79
     5
170
     0
171
     0
290
     0
174
     0
 93
        1
 44
50.0
173
     0
291
     1
 45
0.0
1001
ACAD
1000
AcDbSavedByObjectVersion
1070
     0
  0
VISUALSTYLE
  5
39
102
{ACAD_XDICTIONARY
360
AF9
102
}
102
{ACAD_REACTORS
330
29
102
}
330
29
100
AcDbVisualStyle
  2

 70
    16
 71
     2
 72
     2
 73
     3
 90
        0
 40
-0.6
 41
-30.0
 62
     5
 63
     8
 74
     1
 91
        4
 64
     7
 65
   257
 75
     1
175
     1
 42
1.0
 92
        8
 66
     8
 43
1.0
 76
     1
 77
     6
 78
     2
 67
     7
 79
     5
170
     0
171
     0
290
     0
174
     0
 93
        1
 44
0.0
173
     0
291
     1
 45
0.0
1001
ACAD
1000
AcDbSavedByObjectVersion
1070
     0
  0
VISUALSTYLE
  5
32
102
{ACAD_XDICTIONARY
360
AEB
102
}
102
{ACAD_REACTORS
330
29
102
}
330
29
100
AcDbVisualStyle
  2

 70
     9
 71
     3
 72
     2
 73
     0
 90
        0
 40
-0.6
 41
-30.0
 62
     5
 63
     7
 74
     2
 91
        2
 64
     7
 65
   257
 75
     1
175
     1
 42
179.0
 92
        8
 66
     7
 43
1.0
 76
     1
 77
     6
 78
     2
 67
     7
 79
     3
170
     0
171
     0
290
     0
174
     0
 93
        1
 44
0.0
173
     0
291
     0
 45
0.0
1001
ACAD
1000
AcDbSavedByObjectVersion
1070
     0
  0
VISUALSTYLE
  5
34
102
{ACAD_XDICTIONARY
360
AEF
102
}
102
{ACAD_REACTORS
330
29
102
}
330
29
100
AcDbVisualStyle
  2

 70
    11
 71
     2
 72
     2
 73
     0
 90
        0
 40
-0.6
 41
-30.0
 62
     5
 63
     7
 74
     1
 91
        4
 64
     7
 65
   257
 75
     1
175
     1
 42
1.0
 92
        8
 66
     7
 43
1.0
 76
     1
 77
     6
 78
     2
 67
     7
 79
     5
170
     0
171
     0
290
     0
174
     0
 93
        1
 44
-50.0
173
     0
291
     1
 45
0.0
1001
ACAD
1000
AcDbSavedByObjectVersion
1070
     0
  0
VISUALSTYLE
  5
41
102
{ACAD_XDICTIONARY
360
B09
102
}
102
{ACAD_REACTORS
330
29
102
}
330
29
100
AcDbVisualStyle
  2

 70
    22
 71
     2
 72
     2
 73
     0
 90
        0
 40
-0.6
 41
-30.0
 62
     5
 63
     7
 74
     1
 91
        4
 64
     7
 65
   257
 75
     1
175
     1
 42
1.0
 92
        8
 66
     7
 43
1.0
 76
     1
 77
     6
 78
     2
 67
     7
 79
     5
170
     0
171
     0
290
     0
174
     0
 93
        1
 44
0.0
173
     0
291
     1
 45
0.0
1001
ACAD
1000
AcDbSavedByObjectVersion
1070
     0
  0
VISUALSTYLE
  5
38
102
{ACAD_XDICTIONARY
360
AF7
102
}
102
{ACAD_REACTORS
330
29
102
}
330
29
100
AcDbVisualStyle
  2

 70
    15
 71
     2
 72
     2
 73
     0
 90
        0
 40
-0.6
 41
-30.0
 62
     5
 63
     7
 74
     1
 91
        4
 64
     7
 65
   257
 75
     1
175
     1
 42
1.0
 92
        8
 66
     7
 43
1.0
 76
     1
 77
     6
 78
     2
 67
     7
 79
     5
170
     0
171
     0
290
     0
174
     0
 93
        1
 44
0.0
173
     0
291
     1
 45
0.0
1001
ACAD
1000
AcDbSavedByObjectVersion
1070
     0
  0
VISUALSTYLE
  5
2A
102
{ACAD_XDICTIONARY
360
ADB
102
}
102
{ACAD_REACTORS
330
29
102
}
330
29
100
AcDbVisualStyle
  2

 70
     0
 71
     2
 72
     1
 73
     1
 90
        2
 40
-0.6
 41
30.0
 62
     5
 63
     7
 74
     0
 91
        0
 64
     7
 65
   257
 75
     1
175
     1
 42
1.0
 92
        8
 66
     7
 43
1.0
 76
     1
 77
     6
 78
     2
 67
     7
 79
     5
170
     0
171
     0
290
     0
174
     0
 93
       13
 44
0.0
173
     0
291
     1
 45
0.0
1001
ACAD
1000
AcDbSavedByObjectVersion
1070
     0
  0
VISUALSTYLE
  5
2B
102
{ACAD_XDICTIONARY
360
ADD
102
}
102
{ACAD_REACTORS
330
29
102
}
330
29
100
AcDbVisualStyle
  2

 70
     1
 71
     2
 72
     1
 73
     1
 90
        2
 40
-0.6
 41
30.0
 62
     5
 63
     7
 74
     1
 91
        0
 64
     7
 65
   257
 75
     1
175
     1
 42
1.0
 92
        0
 66
   257
 43
1.0
 76
     1
 77
     6
 78
     2
 67
     7
 79
     5
170
     0
171
     0
290
     0
174
     0
 93
       13
 44
0.0
173
     0
291
     1
 45
0.0
1001
ACAD
1000
AcDbSavedByObjectVersion
1070
     0
  0
VISUALSTYLE
  5
2C
102
{ACAD_XDICTIONARY
360
ADF
102
}
102
{ACAD_REACTORS
330
29
102
}
330
29
100
AcDbVisualStyle
  2

 70
     2
 71
     2
 72
     2
 73
     1
 90
        2
 40
-0.6
 41
30.0
 62
     5
 63
     7
 74
     0
 91
        0
 64
     7
 65
   257
 75
     1
175
     1
 42
1.0
 92
        0
 66
     7
 43
1.0
 76
     1
 77
     6
 78
     2
 67
     7
 79
     5
170
     0
171
     0
290
     0
174
     0
 93
       13
 44
0.0
173
     0
291
     1
 45
0.0
1001
ACAD
1000
AcDbSavedByObjectVersion
1070
     0
  0
VISUALSTYLE
  5
2D
102
{ACAD_XDICTIONARY
360
AE1
102
}
102
{ACAD_REACTORS
330
29
102
}
330
29
100
AcDbVisualStyle
  2

 70
     3
 71
     2
 72
     2
 73
     1
 90
        2
 40
-0.6
 41
30.0
 62
     5
 63
     7
 74
     1
 91
        0
 64
     7
 65
   257
 75
     1
175
     1
 42
1.0
 92
        0
 66
   257
 43
1.0
 76
     1
 77
     6
 78
     2
 67
     7
 79
     5
170
     0
171
     0
290
     0
174
     0
 93
       13
 44
0.0
173
     0
291
     1
 45
0.0
1001
ACAD
1000
AcDbSavedByObjectVersion
1070
     0
  0
VISUALSTYLE
  5
31
102
{ACAD_XDICTIONARY
360
AE9
102
}
102
{ACAD_REACTORS
330
29
102
}
330
29
100
AcDbVisualStyle
  2

 70
     6
 71
     1
 72
     2
 73
     2
 90
        0
 40
-0.6
 41
-30.0
 62
     5
 63
     7
 74
     2
 91
        2
 64
     7
 65
   257
 75
     2
175
     1
 42
40.0
 92
        0
 66
   257
 43
1.0
 76
     1
 77
     6
 78
     2
 67
     7
 79
     3
170
     0
171
     0
290
     0
174
     0
 93
        1
 44
0.0
173
     0
291
     0
 45
0.0
1001
ACAD
1000
AcDbSavedByObjectVersion
1070
     0
  0
VISUALSTYLE
  5
3F
102
{ACAD_XDICTIONARY
360
B05
102
}
102
{ACAD_REACTORS
330
29
102
}
330
29
100
AcDbVisualStyle
  2

 70
    20
 71
     2
 72
     2
 73
     0
 90
        0
 40
-0.6
 41
-30.0
 62
     5
 63
     7
 74
     1
 91
        4
 64
     7
 65
   257
 75
     1
175
     1
 42
1.0
 92
       10
 66
     7
 43
1.0
 76
     1
 77
     6
 78
     2
 67
     7
 79
     5
170
     0
171
     0
290
     0
174
     0
 93
        1
 44
0.0
173
     0
291
     1
 45
0.0
1001
ACAD
1000
AcDbSavedByObjectVersion
1070
     0
  0
VISUALSTYLE
  5
37
102
{ACAD_XDICTIONARY
360
AF5
102
}
102
{ACAD_REACTORS
330
29
102
}
330
29
100
AcDbVisualStyle
  2

 70
    14
 71
     2
 72
     2
 73
     0
 90
        0
 40
-0.6
 41
-30.0
 62
     5
 63
     7
 74
     1
 91
        4
 64
     7
 65
   257
 75
     7
175
     7
 42
1.0
 92
        8
 66
     7
 43
1.0
 76
     1
 77
     6
 78
     2
 67
     7
 79
     5
170
     0
171
     0
290
     0
174
     0
 93
        1
 44
0.0
173
     0
291
     1
 45
0.0
1001
ACAD
1000
AcDbSavedByObjectVersion
1070
     0
  0
VISUALSTYLE
  5
40
102
{ACAD_XDICTIONARY
360
B07
102
}
102
{ACAD_REACTORS
330
29
102
}
330
29
100
AcDbVisualStyle
  2

 70
    21
 71
     2
 72
     2
 73
     0
 90
        0
 40
-0.6
 41
-30.0
 62
     5
 63
     7
 74
     1
 91
        4
 64
     7
 65
   257
 75
     1
175
     1
 42
1.0
 92
        9
 66
     7
 43
1.0
 76
     1
 77
     6
 78
     2
 67
     7
 79
     5
170
     0
171
     0
290
     0
174
     0
 93
        1
 44
0.0
173
     0
291
     1
 45
0.0
1001
ACAD
1000
AcDbSavedByObjectVersion
1070
     0
  0
VISUALSTYLE
  5
33
102
{ACAD_XDICTIONARY
360
AED
102
}
102
{ACAD_REACTORS
330
29
102
}
330
29
100
AcDbVisualStyle
  2

 70
     8
 71
     2
 72
     3
 73
     0
 90
        2
 40
-0.6
 41
30.0
 62
     5
 63
     7
 74
     0
 91
        0
 64
     7
 65
   257
 75
     1
175
     1
 42
1.0
 92
        8
 66
   257
 43
1.0
 76
     1
 77
     6
 78
     2
 67
     7
 79
     3
170
     0
171
     0
290
     0
174
     0
 93
       13
 44
0.0
173
     0
291
     0
 45
0.0
1001
ACAD
1000
AcDbSavedByObjectVersion
1070
     0
  0
VISUALSTYLE
  5
3E
102
{ACAD_XDICTIONARY
360
B03
102
}
102
{ACAD_REACTORS
330
29
102
}
330
29
100
AcDbVisualStyle
  2

 70
    27
 71
     2
 72
     2
 73
     1
 90
        2
 40
-0.6
 41
30.0
 62
     5
 63
     7
 74
     0
 91
        4
 64
     7
 65
   257
 75
     1
175
     1
 42
1.0
 92
        8
 66
   257
 43
1.0
 76
     1
 77
     6
 78
     2
 67
     8
 79
     3
170
     0
171
     0
290
     0
174
     0
 93
        5
 44
0.0
173
     0
291
     0
 45
0.0
1001
ACAD
1000
AcDbSavedByObjectVersion
1070
     0
  0
VISUALSTYLE
  5
3D
102
{ACAD_XDICTIONARY
360
B01
102
}
102
{ACAD_REACTORS
330
29
102
}
330
29
100
AcDbVisualStyle
  2

 70
    26
 71
     2
 72
     2
 73
     1
 90
        2
 40
-0.6
 41
30.0
 62
     5
 63
     7
 74
     1
 91
       10
 64
     7
 65
   257
 75
     2
175
     1
 42
1.0
 92
        8
 66
   257
 43
1.0
 76
     1
 77
     6
 78
     2
 67
     7
 79
     3
170
     0
171
     0
290
     0
174
     0
 93
        5
 44
0.0
173
     0
291
     0
 45
0.0
1001
ACAD
1000
AcDbSavedByObjectVersion
1070
     0
  0
VISUALSTYLE
  5
3A
102
{ACAD_XDICTIONARY
360
AFB
102
}
102
{ACAD_REACTORS
330
29
102
}
330
29
100
AcDbVisualStyle
  2

 70
    23
 71
     2
 72
     2
 73
     3
 90
        0
 40
-0.6
 41
-30.0
 62
     5
 63
     7
 74
     2
 91
        2
 64
     7
 65
     7
 75
     1
175
     1
 42
40.0
 92
        8
 66
     7
 43
1.0
 76
     1
 77
     6
 78
     2
 67
     7
 79
     3
170
     0
171
     0
290
     0
174
     0
 93
        1
 44
0.0
173
     0
291
     0
 45
0.0
1001
ACAD
1000
AcDbSavedByObjectVersion
1070
     0
  0
VISUALSTYLE
  5
3B
102
{ACAD_XDICTIONARY
360
AFD
102
}
102
{ACAD_REACTORS
330
29
102
}
330
29
100
AcDbVisualStyle
  2

 70
    24
 71
     1
 72
     2
 73
     2
 90
        0
 40
-0.6
 41
-30.0
 62
     5
 63
     7
 74
     2
 91
        2
 64
     7
 65
     7
 75
     1
175
     1
 42
40.0
 92
       11
 66
     7
 43
1.0
 76
     1
 77
     6
 78
     2
 67
     7
 79
     6
170
     0
171
     0
290
     0
174
     0
 93
        1
 44
0.0
173
     0
291
     0
 45
0.0
1001
ACAD
1000
AcDbSavedByObjectVersion
1070
     0
  0
VISUALSTYLE
  5
36
102
{ACAD_XDICTIONARY
360
AF3
102
}
102
{ACAD_REACTORS
330
29
102
}
330
29
100
AcDbVisualStyle
  2

 70
    13
 71
     2
 72
     2
 73
     0
 90
        0
 40
-0.6
 41
-30.0
 62
     5
 63
     7
 74
     1
 91
        4
 64
     7
 65
   257
 75
     1
175
     1
 42
1.0
 92
       12
 66
     7
 43
1.0
 76
     1
 77
     6
 78
     2
 67
     7
 79
     5
170
     0
171
     0
290
     0
174
     0
 93
        1
 44
0.0
173
     0
291
     1
 45
0.0
1001
ACAD
1000
AcDbSavedByObjectVersion
1070
     0
  0
VISUALSTYLE
  5
30
102
{ACAD_XDICTIONARY
360
AE7
102
}
102
{ACAD_REACTORS
330
29
102
}
330
29
100
AcDbVisualStyle
  2

 70
     5
 71
     0
 72
     2
 73
     0
 90
        0
 40
-0.6
 41
-30.0
 62
     5
 63
     7
 74
     1
 91
        4
 64
     7
 65
   257
 75
     1
175
     1
 42
1.0
 92
        0
 66
   257
 43
1.0
 76
     1
 77
     6
 78
     2
 67
     7
 79
     3
170
     0
171
     0
290
     0
174
     0
 93
        1
 44
0.0
173
     0
291
     0
 45
0.0
1001
ACAD
1000
AcDbSavedByObjectVersion
1070
     0
  0
VISUALSTYLE
  5
3C
102
{ACAD_XDICTIONARY
360
AFF
102
}
102
{ACAD_REACTORS
330
29
102
}
330
29
100
AcDbVisualStyle
  2

 70
    25
 71
     2
 72
     2
 73
     1
 90
        1
 40
0.5
 41
-30.0
 62
     5
 63
     7
 74
     1
 91
        0
 64
     7
 65
   257
 75
     1
175
     1
 42
1.0
 92
        8
 66
     7
 43
1.0
 76
     1
 77
     6
 78
     2
 67
     7
 79
     3
170
     0
171
     0
290
     0
174
     0
 93
       13
 44
0.0
173
     0
291
     0
 45
0.0
1001
ACAD
1000
AcDbSavedByObjectVersion
1070
     0
  0
DICTIONARYVAR
  5
A75
102
{ACAD_REACTORS
330
A72
102
}
330
A72
100
DictionaryVariables
280
     0
  1
0
  0
DICTIONARYVAR
  5
A76
102
{ACAD_REACTORS
330
A72
102
}
330
A72
100
DictionaryVariables
280
     0
  1
1:1
  0
DICTIONARYVAR
  5
A74
102
{ACAD_REACTORS
330
A72
102
}
330
A72
100
DictionaryVariables
280
     0
  1
STANDARD
  0
DICTIONARYVAR
  5
A73
102
{ACAD_REACTORS
330
A72
102
}
330
A72
100
DictionaryVariables
280
     0
  1
STANDARD
  0
DICTIONARYVAR
  5
AD5
102
{ACAD_REACTORS
330
A72
102
}
330
A72
100
DictionaryVariables
280
     0
  1
Metric50
  0
DICTIONARYVAR
  5
AD6
102
{ACAD_REACTORS
330
A72
102
}
330
A72
100
DictionaryVariables
280
     0
  1
Metric50
  0
DICTIONARYVAR
  5
A88
102
{ACAD_REACTORS
330
A72
102
}
330
A72
100
DictionaryVariables
280
     0
  1
2
  0
DICTIONARYVAR
  5
A86
102
{ACAD_REACTORS
330
A72
102
}
330
A72
100
DictionaryVariables
280
     0
  1
1
  0
DICTIONARYVAR
  5
A85
102
{ACAD_REACTORS
330
A72
102
}
330
A72
100
DictionaryVariables
280
     0
  1
0
  0
DICTIONARYVAR
  5
A77
102
{ACAD_REACTORS
330
A72
102
}
330
A72
100
DictionaryVariables
280
     0
  1
1
  0
DICTIONARYVAR
  5
A78
102
{ACAD_REACTORS
330
A72
102
}
330
A72
100
DictionaryVariables
280
     0
  1
15
  0
DICTIONARYVAR
  5
A83
102
{ACAD_REACTORS
330
A72
102
}
330
A72
100
DictionaryVariables
280
     0
  1
2
  0
DICTIONARYVAR
  5
A82
102
{ACAD_REACTORS
330
A72
102
}
330
A72
100
DictionaryVariables
280
     0
  1
1
  0
DICTIONARYVAR
  5
A89
102
{ACAD_REACTORS
330
A72
102
}
330
A72
100
DictionaryVariables
280
     0
  1
1
  0
DICTIONARYVAR
  5
A84
102
{ACAD_REACTORS
330
A72
102
}
330
A72
100
DictionaryVariables
280
     0
  1
127
  0
DICTIONARYVAR
  5
AD7
102
{ACAD_REACTORS
330
A72
102
}
330
A72
100
DictionaryVariables
280
     0
  1
2
  0
DICTIONARY
  5
B16
330
AD2
100
AcDbDictionary
280
     1
281
     1
  3
ACAD_XREC_ROUNDTRIP
360
B17
  0
DICTIONARY
  5
B10
330
6F
100
AcDbDictionary
280
     1
281
     1
  3
ACAD_XREC_ROUNDTRIP
360
B11
  0
DICTIONARY
  5
B0E
330
6B
100
AcDbDictionary
280
     1
281
     1
  3
ACAD_XREC_ROUNDTRIP
360
B0F
  0
DICTIONARY
  5
B12
330
73
100
AcDbDictionary
280
     1
281
     1
  3
ACAD_XREC_ROUNDTRIP
360
B13
  0
DICTIONARY
  5
1A
330
19
100
AcDbDictionary
280
     1
281
     1
  3
ACAD_XREC_ROUNDTRIP
360
A92
  3
BUMPTILE
360
1C
  3
DIFFUSETILE
360
1B
  3
OPACITYTILE
360
1F
  3
REFLECTIONTILE
360
1E
  3
REFRACTIONTILE
360
20
  3
SPECULARTILE
360
1D
  0
DICTIONARY
  5
12
330
11
100
AcDbDictionary
280
     1
281
     1
  3
ACAD_XREC_ROUNDTRIP
360
A91
  3
BUMPTILE
360
14
  3
DIFFUSETILE
360
13
  3
OPACITYTILE
360
17
  3
REFLECTIONTILE
360
16
  3
REFRACTIONTILE
360
18
  3
SPECULARTILE
360
15
  0
DICTIONARY
  5
22
330
21
100
AcDbDictionary
280
     1
281
     1
  3
ACAD_XREC_ROUNDTRIP
360
A93
  3
BUMPTILE
360
24
  3
DIFFUSETILE
360
23
  3
OPACITYTILE
360
27
  3
REFLECTIONTILE
360
26
  3
REFRACTIONTILE
360
28
  3
SPECULARTILE
360
25
  0
DICTIONARY
  5
B0C
330
67
100
AcDbDictionary
280
     1
281
     1
  3
ACAD_XREC_ROUNDTRIP
360
B0D
  0
DICTIONARY
  5
B14
330
AD0
100
AcDbDictionary
280
     1
281
     1
  3
ACAD_XREC_ROUNDTRIP
360
B15
  0
DICTIONARY
  5
A8B
330
65
100
AcDbDictionary
280
     1
281
     1
  3
ACAD_ROUNDTRIP_2008_TABLESTYLE_CELLSTYLEMAP
360
AD8
  3
ACAD_XREC_ROUNDTRIP
360
B0B
  0
DICTIONARY
  5
AE5
330
2F
100
AcDbDictionary
280
     1
281
     1
  3
ACAD_XREC_ROUNDTRIP
360
AE6
  0
DICTIONARY
  5
AE3
330
2E
100
AcDbDictionary
280
     1
281
     1
  3
ACAD_XREC_ROUNDTRIP
360
AE4
  0
DICTIONARY
  5
AF1
330
35
100
AcDbDictionary
280
     1
281
     1
  3
ACAD_XREC_ROUNDTRIP
360
AF2
  0
DICTIONARY
  5
AF9
330
39
100
AcDbDictionary
280
     1
281
     1
  3
ACAD_XREC_ROUNDTRIP
360
AFA
  0
DICTIONARY
  5
AEB
330
32
100
AcDbDictionary
280
     1
281
     1
  3
ACAD_XREC_ROUNDTRIP
360
AEC
  0
DICTIONARY
  5
AEF
330
34
100
AcDbDictionary
280
     1
281
     1
  3
ACAD_XREC_ROUNDTRIP
360
AF0
  0
DICTIONARY
  5
B09
330
41
100
AcDbDictionary
280
     1
281
     1
  3
ACAD_XREC_ROUNDTRIP
360
B0A
  0
DICTIONARY
  5
AF7
330
38
100
AcDbDictionary
280
     1
281
     1
  3
ACAD_XREC_ROUNDTRIP
360
AF8
  0
DICTIONARY
  5
ADB
330
2A
100
AcDbDictionary
280
     1
281
     1
  3
ACAD_XREC_ROUNDTRIP
360
ADC
  0
DICTIONARY
  5
ADD
330
2B
100
AcDbDictionary
280
     1
281
     1
  3
ACAD_XREC_ROUNDTRIP
360
ADE
  0
DICTIONARY
  5
ADF
330
2C
100
AcDbDictionary
280
     1
281
     1
  3
ACAD_XREC_ROUNDTRIP
360
AE0
  0
DICTIONARY
  5
AE1
330
2D
100
AcDbDictionary
280
     1
281
     1
  3
ACAD_XREC_ROUNDTRIP
360
AE2
  0
DICTIONARY
  5
AE9
330
31
100
AcDbDictionary
280
     1
281
     1
  3
ACAD_XREC_ROUNDTRIP
360
AEA
  0
DICTIONARY
  5
B05
330
3F
100
AcDbDictionary
280
     1
281
     1
  3
ACAD_XREC_ROUNDTRIP
360
B06
  0
DICTIONARY
  5
AF5
330
37
100
AcDbDictionary
280
     1
281
     1
  3
ACAD_XREC_ROUNDTRIP
360
AF6
  0
DICTIONARY
  5
B07
330
40
100
AcDbDictionary
280
     1
281
     1
  3
ACAD_XREC_ROUNDTRIP
360
B08
  0
DICTIONARY
  5
AED
330
33
100
AcDbDictionary
280
     1
281
     1
  3
ACAD_XREC_ROUNDTRIP
360
AEE
  0
DICTIONARY
  5
B03
330
3E
100
AcDbDictionary
280
     1
281
     1
  3
ACAD_XREC_ROUNDTRIP
360
B04
  0
DICTIONARY
  5
B01
330
3D
100
AcDbDictionary
280
     1
281
     1
  3
ACAD_XREC_ROUNDTRIP
360
B02
  0
DICTIONARY
  5
AFB
330
3A
100
AcDbDictionary
280
     1
281
     1
  3
ACAD_XREC_ROUNDTRIP
360
AFC
  0
DICTIONARY
  5
AFD
330
3B
100
AcDbDictionary
280
     1
281
     1
  3
ACAD_XREC_ROUNDTRIP
360
AFE
  0
DICTIONARY
  5
AF3
330
36
100
AcDbDictionary
280
     1
281
     1
  3
ACAD_XREC_ROUNDTRIP
360
AF4
  0
DICTIONARY
  5
AE7
330
30
100
AcDbDictionary
280
     1
281
     1
  3
ACAD_XREC_ROUNDTRIP
360
AE8
  0
DICTIONARY
  5
AFF
330
3C
100
AcDbDictionary
280
     1
281
     1
  3
ACAD_XREC_ROUNDTRIP
360
B00
  0
XRECORD
  5
B17
102
{ACAD_REACTORS
330
B16
102
}
330
B16
100
AcDbXrecord
280
     1
102
DISPLAYNAME
  1
Metric50
102
FLAGS
 90
        0
  0
XRECORD
  5
B11
102
{ACAD_REACTORS
330
B10
102
}
330
B10
100
AcDbXrecord
280
     1
102
SHADEPLOT
 70
     0
102
SHADEPLOTRESLEVEL
 70
     2
102
SHADEPLOTCUSTOMDPI
 70
   300
  0
XRECORD
  5
B0F
102
{ACAD_REACTORS
330
B0E
102
}
330
B0E
100
AcDbXrecord
280
     1
102
SHADEPLOT
 70
     0
102
SHADEPLOTRESLEVEL
 70
     2
102
SHADEPLOTCUSTOMDPI
 70
   300
  0
XRECORD
  5
B13
102
{ACAD_REACTORS
330
B12
102
}
330
B12
100
AcDbXrecord
280
     1
102
SHADEPLOT
 70
     0
102
SHADEPLOTRESLEVEL
 70
     2
102
SHADEPLOTCUSTOMDPI
 70
   300
  0
XRECORD
  5
A92
102
{ACAD_REACTORS
330
1A
102
}
330
1A
100
AcDbXrecord
280
     1
102
MATERIAL
148
0.0
149
0.0
149
0.0
 93
        0
 94
      127
282
     0
 72
     0
 77
     0
171
     0
175
     0
179
     0
273
     0
  0
XRECORD
  5
1C
102
{ACAD_REACTORS
330
1A
102
}
330
1A
100
AcDbXrecord
280
     1
270
     1
271
     1
  0
XRECORD
  5
1B
102
{ACAD_REACTORS
330
1A
102
}
330
1A
100
AcDbXrecord
280
     1
270
     1
271
     1
  0
XRECORD
  5
1F
102
{ACAD_REACTORS
330
1A
102
}
330
1A
100
AcDbXrecord
280
     1
270
     1
271
     1
  0
XRECORD
  5
1E
102
{ACAD_REACTORS
330
1A
102
}
330
1A
100
AcDbXrecord
280
     1
270
     1
271
     1
  0
XRECORD
  5
20
102
{ACAD_REACTORS
330
1A
102
}
330
1A
100
AcDbXrecord
280
     1
270
     1
271
     1
  0
XRECORD
  5
1D
102
{ACAD_REACTORS
330
1A
102
}
330
1A
100
AcDbXrecord
280
     1
270
     1
271
     1
  0
XRECORD
  5
A91
102
{ACAD_REACTORS
330
12
102
}
330
12
100
AcDbXrecord
280
     1
102
MATERIAL
148
0.0
149
0.0
149
0.0
 93
        0
 94
      127
282
     0
 72
     0
 77
     0
171
     0
175
     0
179
     0
273
     0
  0
XRECORD
  5
14
102
{ACAD_REACTORS
330
12
102
}
330
12
100
AcDbXrecord
280
     1
270
     1
271
     1
  0
XRECORD
  5
13
102
{ACAD_REACTORS
330
12
102
}
330
12
100
AcDbXrecord
280
     1
270
     1
271
     1
  0
XRECORD
  5
17
102
{ACAD_REACTORS
330
12
102
}
330
12
100
AcDbXrecord
280
     1
270
     1
271
     1
  0
XRECORD
  5
16
102
{ACAD_REACTORS
330
12
102
}
330
12
100
AcDbXrecord
280
     1
270
     1
271
     1
  0
XRECORD
  5
18
102
{ACAD_REACTORS
330
12
102
}
330
12
100
AcDbXrecord
280
     1
270
     1
271
     1
  0
XRECORD
  5
15
102
{ACAD_REACTORS
330
12
102
}
330
12
100
AcDbXrecord
280
     1
270
     1
271
     1
  0
XRECORD
  5
A93
102
{ACAD_REACTORS
330
22
102
}
330
22
100
AcDbXrecord
280
     1
102
MATERIAL
148
0.0
149
0.0
149
0.0
 93
        0
 94
      127
282
     0
 72
     0
 77
     0
171
     0
175
     0
179
     0
273
     0
  0
XRECORD
  5
24
102
{ACAD_REACTORS
330
22
102
}
330
22
100
AcDbXrecord
280
     1
270
     1
271
     1
  0
XRECORD
  5
23
102
{ACAD_REACTORS
330
22
102
}
330
22
100
AcDbXrecord
280
     1
270
     1
271
     1
  0
XRECORD
  5
27
102
{ACAD_REACTORS
330
22
102
}
330
22
100
AcDbXrecord
280
     1
270
     1
271
     1
  0
XRECORD
  5
26
102
{ACAD_REACTORS
330
22
102
}
330
22
100
AcDbXrecord
280
     1
270
     1
271
     1
  0
XRECORD
  5
28
102
{ACAD_REACTORS
330
22
102
}
330
22
100
AcDbXrecord
280
     1
270
     1
271
     1
  0
XRECORD
  5
25
102
{ACAD_REACTORS
330
22
102
}
330
22
100
AcDbXrecord
280
     1
270
     1
271
     1
  0
XRECORD
  5
B0D
102
{ACAD_REACTORS
330
B0C
102
}
330
B0C
100
AcDbXrecord
280
     1
102
ACAD_ROUNDTRIP_2012_MLEADER_STYLE
298
     1
  0
XRECORD
  5
B15
102
{ACAD_REACTORS
330
B14
102
}
330
B14
100
AcDbXrecord
280
     1
102
DISPLAYNAME
  1
Metric50
102
FLAGS
 90
        0
  0
CELLSTYLEMAP
  5
AD8
102
{ACAD_REACTORS
330
A8B
102
}
330
A8B
100
AcDbCellStyleMap
 90
        3
300
CELLSTYLE
  1
TABLEFORMAT_BEGIN
 90
        5
170
     1
 91
        0
 92
    32768
 62
   257
 93
        1
300
CONTENTFORMAT
  1
CONTENTFORMAT_BEGIN
 90
        0
 91
        0
 92
      512
 93
        0
300

 40
0.0
140
1.0
 94
        5
 62
     0
340
55
144
6.0
309
CONTENTFORMAT_END
171
     1
301
MARGIN
  1
CELLMARGIN_BEGIN
 40
1.5
 40
1.5
 40
1.5
 40
1.5
 40
0.18
 40
0.18
309
CELLMARGIN_END
 94
        6
 95
        1
302
GRIDFORMAT
  1
GRIDFORMAT_BEGIN
 90
        0
 91
        1
 62
     0
 92
       -2
340
0
 93
        0
 40
1.125
309
GRIDFORMAT_END
 95
        2
302
GRIDFORMAT
  1
GRIDFORMAT_BEGIN
 90
        0
 91
        1
 62
     0
 92
       -2
340
0
 93
        0
 40
1.125
309
GRIDFORMAT_END
 95
        4
302
GRIDFORMAT
  1
GRIDFORMAT_BEGIN
 90
        0
 91
        1
 62
     0
 92
       -2
340
0
 93
        0
 40
1.125
309
GRIDFORMAT_END
 95
        8
302
GRIDFORMAT
  1
GRIDFORMAT_BEGIN
 90
        0
 91
        1
 62
     0
 92
       -2
340
0
 93
        0
 40
1.125
309
GRIDFORMAT_END
 95
       16
302
GRIDFORMAT
  1
GRIDFORMAT_BEGIN
 90
        0
 91
        1
 62
     0
 92
       -2
340
0
 93
        0
 40
1.125
309
GRIDFORMAT_END
 95
       32
302
GRIDFORMAT
  1
GRIDFORMAT_BEGIN
 90
        0
 91
        1
 62
     0
 92
       -2
340
0
 93
        0
 40
1.125
309
GRIDFORMAT_END
309
TABLEFORMAT_END
  1
CELLSTYLE_BEGIN
 90
        1
 91
        1
300
_TITLE
309
CELLSTYLE_END
300
CELLSTYLE
  1
TABLEFORMAT_BEGIN
 90
        5
170
     1
 91
        0
 92
        0
 62
   257
 93
        1
300
CONTENTFORMAT
  1
CONTENTFORMAT_BEGIN
 90
        0
 91
        0
 92
      512
 93
        0
300

 40
0.0
140
1.0
 94
        5
 62
     0
340
55
144
4.5
309
CONTENTFORMAT_END
171
     1
301
MARGIN
  1
CELLMARGIN_BEGIN
 40
1.5
 40
1.5
 40
1.5
 40
1.5
 40
0.18
 40
0.18
309
CELLMARGIN_END
 94
        6
 95
        1
302
GRIDFORMAT
  1
GRIDFORMAT_BEGIN
 90
        0
 91
        1
 62
     0
 92
       -2
340
0
 93
        0
 40
1.125
309
GRIDFORMAT_END
 95
        2
302
GRIDFORMAT
  1
GRIDFORMAT_BEGIN
 90
        0
 91
        1
 62
     0
 92
       -2
340
0
 93
        0
 40
1.125
309
GRIDFORMAT_END
 95
        4
302
GRIDFORMAT
  1
GRIDFORMAT_BEGIN
 90
        0
 91
        1
 62
     0
 92
       -2
340
0
 93
        0
 40
1.125
309
GRIDFORMAT_END
 95
        8
302
GRIDFORMAT
  1
GRIDFORMAT_BEGIN
 90
        0
 91
        1
 62
     0
 92
       -2
340
0
 93
        0
 40
1.125
309
GRIDFORMAT_END
 95
       16
302
GRIDFORMAT
  1
GRIDFORMAT_BEGIN
 90
        0
 91
        1
 62
     0
 92
       -2
340
0
 93
        0
 40
1.125
309
GRIDFORMAT_END
 95
       32
302
GRIDFORMAT
  1
GRIDFORMAT_BEGIN
 90
        0
 91
        1
 62
     0
 92
       -2
340
0
 93
        0
 40
1.125
309
GRIDFORMAT_END
309
TABLEFORMAT_END
  1
CELLSTYLE_BEGIN
 90
        2
 91
        1
300
_HEADER
309
CELLSTYLE_END
300
CELLSTYLE
  1
TABLEFORMAT_BEGIN
 90
        5
170
     1
 91
        0
 92
        0
 62
   257
 93
        1
300
CONTENTFORMAT
  1
CONTENTFORMAT_BEGIN
 90
        0
 91
        0
 92
      512
 93
        0
300

 40
0.0
140
1.0
 94
        2
 62
     0
340
55
144
4.5
309
CONTENTFORMAT_END
171
     1
301
MARGIN
  1
CELLMARGIN_BEGIN
 40
1.5
 40
1.5
 40
1.5
 40
1.5
 40
0.18
 40
0.18
309
CELLMARGIN_END
 94
        6
 95
        1
302
GRIDFORMAT
  1
GRIDFORMAT_BEGIN
 90
        0
 91
        1
 62
     0
 92
       -2
340
0
 93
        0
 40
1.125
309
GRIDFORMAT_END
 95
        2
302
GRIDFORMAT
  1
GRIDFORMAT_BEGIN
 90
        0
 91
        1
 62
     0
 92
       -2
340
0
 93
        0
 40
1.125
309
GRIDFORMAT_END
 95
        4
302
GRIDFORMAT
  1
GRIDFORMAT_BEGIN
 90
        0
 91
        1
 62
     0
 92
       -2
340
0
 93
        0
 40
1.125
309
GRIDFORMAT_END
 95
        8
302
GRIDFORMAT
  1
GRIDFORMAT_BEGIN
 90
        0
 91
        1
 62
     0
 92
       -2
340
0
 93
        0
 40
1.125
309
GRIDFORMAT_END
 95
       16
302
GRIDFORMAT
  1
GRIDFORMAT_BEGIN
 90
        0
 91
        1
 62
     0
 92
       -2
340
0
 93
        0
 40
1.125
309
GRIDFORMAT_END
 95
       32
302
GRIDFORMAT
  1
GRIDFORMAT_BEGIN
 90
        0
 91
        1
 62
     0
 92
       -2
340
0
 93
        0
 40
1.125
309
GRIDFORMAT_END
309
TABLEFORMAT_END
  1
CELLSTYLE_BEGIN
 90
        3
 91
        2
300
_DATA
309
CELLSTYLE_END
  0
XRECORD
  5
B0B
102
{ACAD_REACTORS
330
A8B
102
}
330
A8B
100
AcDbXrecord
280
     1
102
ACAD_ROUNDTRIP_PRE2007_TABLESTYLE
 90
      512
 91
        0
  1

 92
      512
 93
        0
  2

 94
      512
 95
        0
  3

  0
XRECORD
  5
AE6
102
{ACAD_REACTORS
330
AE5
102
}
330
AE5
100
AcDbXrecord
280
     1
102
RTVSPost2010Prop28
280
     1
102
RTVSPost2010PropOp28
 70
     1
102
RTVSPost2010Prop29
280
     1
102
RTVSPost2010PropOp29
 70
     1
102
RTVSPost2010Prop30
280
     0
102
RTVSPost2010PropOp30
 70
     1
102
RTVSPost2010Prop31
280
     0
102
RTVSPost2010PropOp31
 70
     1
102
RTVSPost2010Prop32
280
     0
102
RTVSPost2010PropOp32
 70
     1
102
RTVSPost2010Prop33
280
     0
102
RTVSPost2010PropOp33
 70
     1
102
RTVSPost2010Prop34
280
     0
102
RTVSPost2010PropOp34
 70
     1
102
RTVSPost2010Prop35
280
     0
102
RTVSPost2010PropOp35
 70
     1
102
RTVSPost2010Prop36
280
     0
102
RTVSPost2010PropOp36
 70
     1
102
RTVSPost2010Prop37
 90
       50
102
RTVSPost2010PropOp37
 70
     1
102
RTVSPost2010Prop38
140
0.0
102
RTVSPost2010PropOp38
 70
     1
102
RTVSPost2010Prop39
140
1.0
102
RTVSPost2010PropOp39
 70
     1
102
RTVSPost2010Prop40
 90
        0
102
RTVSPost2010PropOp40
 70
     1
102
RTVSPost2010Prop41ColorIndex
 90
       18
102
RTVSPost2010Prop41ColorRGB
 90
        0
102
RTVSPost2010PropOp41
 70
     1
102
RTVSPost2010Prop42
 90
       50
102
RTVSPost2010PropOp42
 70
     1
102
RTVSPost2010Prop43
 90
        3
102
RTVSPost2010PropOp43
 70
     1
102
RTVSPost2010Prop44ColorIndex
 90
        5
102
RTVSPost2010Prop44ColorRGB
 90
      255
102
RTVSPost2010PropOp44
 70
     1
102
RTVSPost2010Prop45
280
     0
102
RTVSPost2010PropOp45
 70
     1
102
RTVSPost2010Prop46
 90
       50
102
RTVSPost2010PropOp46
 70
     1
102
RTVSPost2010Prop47
 90
       50
102
RTVSPost2010PropOp47
 70
     1
102
RTVSPost2010Prop48
 90
       50
102
RTVSPost2010PropOp48
 70
     1
102
RTVSPost2010Prop49
280
     0
102
RTVSPost2010PropOp49
 70
     1
102
RTVSPost2010Prop50
 90
       50
102
RTVSPost2010PropOp50
 70
     1
102
RTVSPost2010Prop51ColorIndex
 90
      256
102
RTVSPost2010Prop51ColorRGB
 90
-16777216
102
RTVSPost2010PropOp51
 70
     0
102
RTVSPost2010Prop52
140
1.0
102
RTVSPost2010PropOp52
 70
     0
102
RTVSPost2010Prop53
 90
        2
102
RTVSPost2010PropOp53
 70
     1
102
RTVSPost2010Prop54
  1
strokes_ogs.tif
102
RTVSPost2010PropOp54
 70
     1
102
RTVSPost2010Prop55
280
     0
102
RTVSPost2010PropOp55
 70
     1
102
RTVSPost2010Prop56
140
1.0
102
RTVSPost2010PropOp56
 70
     1
102
RTVSPost2010Prop57
140
1.0
102
RTVSPost2010PropOp57
 70
     1
102
RTVSPropertyOp0
 70
     1
102
RTVSPropertyOp1
 70
     1
102
RTVSPropertyOp2
 70
     1
102
RTVSPropertyOp3
 70
     1
102
RTVSPropertyOp4
 70
     1
102
RTVSPropertyOp5
 70
     1
102
RTVSPropertyOp6
 70
     1
102
RTVSPropertyOp7
 70
     1
102
RTVSPropertyOp8
 70
     1
102
RTVSPropertyOp9
 70
     1
102
RTVSPropertyOp10
 70
     1
102
RTVSPropertyOp11
 70
     1
102
RTVSPropertyOp12
 70
     1
102
RTVSPropertyOp13
 70
     1
102
RTVSPropertyOp14
 70
     1
102
RTVSPropertyOp15
 70
     1
102
RTVSPropertyOp16
 70
     1
102
RTVSPropertyOp17
 70
     1
102
RTVSPropertyOp18
 70
     1
102
RTVSPropertyOp19
 70
     1
102
RTVSPropertyOp20
 70
     1
102
RTVSPropertyOp21
 70
     1
102
RTVSPropertyOp22
 70
     1
102
RTVSPropertyOp23
 70
     1
102
RTVSPropertyOp24
 70
     1
102
RTVSPropertyOp25
 70
     1
102
RTVSPropertyOp26
 70
     1
102
RTVSPropertyOp27
 70
     1
102
RTVSPropertyOp28
 70
     1
102
RTVSPropertyOp29
 70
     1
102
RTVSPropertyOp30
 70
     1
102
RTVSPropertyOp31
 70
     1
102
RTVSPropertyOp32
 70
     1
102
RTVSPropertyOp33
 70
     1
102
RTVSPropertyOp34
 70
     1
102
RTVSPropertyOp35
 70
     1
102
RTVSPropertyOp36
 70
     1
102
RTVSPropertyOp37
 70
     1
102
RTVSPropertyOp38
 70
     1
102
RTVSPropertyOp39
 70
     1
102
RTVSPropertyOp40
 70
     1
102
RTVSPropertyOp41
 70
     1
102
RTVSPropertyOp42
 70
     1
102
RTVSPropertyOp43
 70
     1
102
RTVSPropertyOp44
 70
     1
102
RTVSPropertyOp45
 70
     1
102
RTVSPropertyOp46
 70
     1
102
RTVSPropertyOp47
 70
     1
102
RTVSPropertyOp48
 70
     1
102
RTVSPropertyOp49
 70
     1
102
RTVSPropertyOp50
 70
     1
102
RTVSPropertyOp51
 70
     0
102
RTVSPropertyOp52
 70
     0
102
RTVSPropertyOp53
 70
     1
102
RTVSPropertyOp54
 70
     1
102
RTVSPropertyOp55
 70
     1
102
RTVSPropertyOp56
 70
     1
102
RTVSPropertyOp57
 70
     1
102
RTVSPropertyOp58
 70
     1
102
RTVSPropertyOp59
 70
     1
102
RTVSPropertyOp60
 70
     1
102
RTVSPropertyOp61
 70
     1
102
RTVSPropertyOp62
 70
     1
  0
XRECORD
  5
AE4
102
{ACAD_REACTORS
330
AE3
102
}
330
AE3
100
AcDbXrecord
280
     1
102
RTVSPost2010Prop28
280
     0
102
RTVSPost2010PropOp28
 70
     1
102
RTVSPost2010Prop29
280
     1
102
RTVSPost2010PropOp29
 70
     1
102
RTVSPost2010Prop30
280
     1
102
RTVSPost2010PropOp30
 70
     1
102
RTVSPost2010Prop31
280
     0
102
RTVSPost2010PropOp31
 70
     1
102
RTVSPost2010Prop32
280
     0
102
RTVSPost2010PropOp32
 70
     1
102
RTVSPost2010Prop33
280
     0
102
RTVSPost2010PropOp33
 70
     1
102
RTVSPost2010Prop34
280
     0
102
RTVSPost2010PropOp34
 70
     1
102
RTVSPost2010Prop35
280
     0
102
RTVSPost2010PropOp35
 70
     1
102
RTVSPost2010Prop36
280
     0
102
RTVSPost2010PropOp36
 70
     1
102
RTVSPost2010Prop37
 90
       50
102
RTVSPost2010PropOp37
 70
     1
102
RTVSPost2010Prop38
140
0.0
102
RTVSPost2010PropOp38
 70
     1
102
RTVSPost2010Prop39
140
1.0
102
RTVSPost2010PropOp39
 70
     1
102
RTVSPost2010Prop40
 90
        0
102
RTVSPost2010PropOp40
 70
     1
102
RTVSPost2010Prop41ColorIndex
 90
       18
102
RTVSPost2010Prop41ColorRGB
 90
        0
102
RTVSPost2010PropOp41
 70
     1
102
RTVSPost2010Prop42
 90
       50
102
RTVSPost2010PropOp42
 70
     1
102
RTVSPost2010Prop43
 90
        3
102
RTVSPost2010PropOp43
 70
     1
102
RTVSPost2010Prop44ColorIndex
 90
        5
102
RTVSPost2010Prop44ColorRGB
 90
      255
102
RTVSPost2010PropOp44
 70
     1
102
RTVSPost2010Prop45
280
     0
102
RTVSPost2010PropOp45
 70
     1
102
RTVSPost2010Prop46
 90
       50
102
RTVSPost2010PropOp46
 70
     1
102
RTVSPost2010Prop47
 90
       50
102
RTVSPost2010PropOp47
 70
     1
102
RTVSPost2010Prop48
 90
       50
102
RTVSPost2010PropOp48
 70
     1
102
RTVSPost2010Prop49
280
     0
102
RTVSPost2010PropOp49
 70
     1
102
RTVSPost2010Prop50
 90
       50
102
RTVSPost2010PropOp50
 70
     1
102
RTVSPost2010Prop51ColorIndex
 90
      256
102
RTVSPost2010Prop51ColorRGB
 90
-16777216
102
RTVSPost2010PropOp51
 70
     0
102
RTVSPost2010Prop52
140
1.0
102
RTVSPost2010PropOp52
 70
     0
102
RTVSPost2010Prop53
 90
        2
102
RTVSPost2010PropOp53
 70
     1
102
RTVSPost2010Prop54
  1
strokes_ogs.tif
102
RTVSPost2010PropOp54
 70
     1
102
RTVSPost2010Prop55
280
     0
102
RTVSPost2010PropOp55
 70
     1
102
RTVSPost2010Prop56
140
1.0
102
RTVSPost2010PropOp56
 70
     1
102
RTVSPost2010Prop57
140
1.0
102
RTVSPost2010PropOp57
 70
     1
102
RTVSPropertyOp0
 70
     1
102
RTVSPropertyOp1
 70
     1
102
RTVSPropertyOp2
 70
     1
102
RTVSPropertyOp3
 70
     1
102
RTVSPropertyOp4
 70
     1
102
RTVSPropertyOp5
 70
     1
102
RTVSPropertyOp6
 70
     1
102
RTVSPropertyOp7
 70
     1
102
RTVSPropertyOp8
 70
     1
102
RTVSPropertyOp9
 70
     1
102
RTVSPropertyOp10
 70
     1
102
RTVSPropertyOp11
 70
     1
102
RTVSPropertyOp12
 70
     1
102
RTVSPropertyOp13
 70
     1
102
RTVSPropertyOp14
 70
     1
102
RTVSPropertyOp15
 70
     1
102
RTVSPropertyOp16
 70
     1
102
RTVSPropertyOp17
 70
     1
102
RTVSPropertyOp18
 70
     1
102
RTVSPropertyOp19
 70
     1
102
RTVSPropertyOp20
 70
     1
102
RTVSPropertyOp21
 70
     1
102
RTVSPropertyOp22
 70
     1
102
RTVSPropertyOp23
 70
     1
102
RTVSPropertyOp24
 70
     1
102
RTVSPropertyOp25
 70
     1
102
RTVSPropertyOp26
 70
     1
102
RTVSPropertyOp27
 70
     1
102
RTVSPropertyOp28
 70
     1
102
RTVSPropertyOp29
 70
     1
102
RTVSPropertyOp30
 70
     1
102
RTVSPropertyOp31
 70
     1
102
RTVSPropertyOp32
 70
     1
102
RTVSPropertyOp33
 70
     1
102
RTVSPropertyOp34
 70
     1
102
RTVSPropertyOp35
 70
     1
102
RTVSPropertyOp36
 70
     1
102
RTVSPropertyOp37
 70
     1
102
RTVSPropertyOp38
 70
     1
102
RTVSPropertyOp39
 70
     1
102
RTVSPropertyOp40
 70
     1
102
RTVSPropertyOp41
 70
     1
102
RTVSPropertyOp42
 70
     1
102
RTVSPropertyOp43
 70
     1
102
RTVSPropertyOp44
 70
     1
102
RTVSPropertyOp45
 70
     1
102
RTVSPropertyOp46
 70
     1
102
RTVSPropertyOp47
 70
     1
102
RTVSPropertyOp48
 70
     1
102
RTVSPropertyOp49
 70
     1
102
RTVSPropertyOp50
 70
     1
102
RTVSPropertyOp51
 70
     0
102
RTVSPropertyOp52
 70
     0
102
RTVSPropertyOp53
 70
     1
102
RTVSPropertyOp54
 70
     1
102
RTVSPropertyOp55
 70
     1
102
RTVSPropertyOp56
 70
     1
102
RTVSPropertyOp57
 70
     1
102
RTVSPropertyOp58
 70
     1
102
RTVSPropertyOp59
 70
     1
102
RTVSPropertyOp60
 70
     1
102
RTVSPropertyOp61
 70
     1
102
RTVSPropertyOp62
 70
     1
  0
XRECORD
  5
AF2
102
{ACAD_REACTORS
330
AF1
102
}
330
AF1
100
AcDbXrecord
280
     1
102
RTVSPost2010Prop28
280
     0
102
RTVSPost2010PropOp28
 70
     1
102
RTVSPost2010Prop29
280
     1
102
RTVSPost2010PropOp29
 70
     1
102
RTVSPost2010Prop30
280
     1
102
RTVSPost2010PropOp30
 70
     1
102
RTVSPost2010Prop31
280
     0
102
RTVSPost2010PropOp31
 70
     1
102
RTVSPost2010Prop32
280
     0
102
RTVSPost2010PropOp32
 70
     1
102
RTVSPost2010Prop33
280
     0
102
RTVSPost2010PropOp33
 70
     1
102
RTVSPost2010Prop34
280
     0
102
RTVSPost2010PropOp34
 70
     1
102
RTVSPost2010Prop35
280
     0
102
RTVSPost2010PropOp35
 70
     1
102
RTVSPost2010Prop36
280
     0
102
RTVSPost2010PropOp36
 70
     1
102
RTVSPost2010Prop37
 90
       50
102
RTVSPost2010PropOp37
 70
     1
102
RTVSPost2010Prop38
140
0.0
102
RTVSPost2010PropOp38
 70
     1
102
RTVSPost2010Prop39
140
1.0
102
RTVSPost2010PropOp39
 70
     1
102
RTVSPost2010Prop40
 90
        0
102
RTVSPost2010PropOp40
 70
     1
102
RTVSPost2010Prop41ColorIndex
 90
       18
102
RTVSPost2010Prop41ColorRGB
 90
        0
102
RTVSPost2010PropOp41
 70
     1
102
RTVSPost2010Prop42
 90
       50
102
RTVSPost2010PropOp42
 70
     1
102
RTVSPost2010Prop43
 90
        3
102
RTVSPost2010PropOp43
 70
     1
102
RTVSPost2010Prop44ColorIndex
 90
        5
102
RTVSPost2010Prop44ColorRGB
 90
      255
102
RTVSPost2010PropOp44
 70
     1
102
RTVSPost2010Prop45
280
     0
102
RTVSPost2010PropOp45
 70
     1
102
RTVSPost2010Prop46
 90
       50
102
RTVSPost2010PropOp46
 70
     1
102
RTVSPost2010Prop47
 90
       50
102
RTVSPost2010PropOp47
 70
     1
102
RTVSPost2010Prop48
 90
       50
102
RTVSPost2010PropOp48
 70
     1
102
RTVSPost2010Prop49
280
     0
102
RTVSPost2010PropOp49
 70
     1
102
RTVSPost2010Prop50
 90
       50
102
RTVSPost2010PropOp50
 70
     1
102
RTVSPost2010Prop51ColorIndex
 90
      256
102
RTVSPost2010Prop51ColorRGB
 90
-16777216
102
RTVSPost2010PropOp51
 70
     0
102
RTVSPost2010Prop52
140
1.0
102
RTVSPost2010PropOp52
 70
     0
102
RTVSPost2010Prop53
 90
        2
102
RTVSPost2010PropOp53
 70
     1
102
RTVSPost2010Prop54
  1
strokes_ogs.tif
102
RTVSPost2010PropOp54
 70
     1
102
RTVSPost2010Prop55
280
     0
102
RTVSPost2010PropOp55
 70
     1
102
RTVSPost2010Prop56
140
1.0
102
RTVSPost2010PropOp56
 70
     1
102
RTVSPost2010Prop57
140
1.0
102
RTVSPost2010PropOp57
 70
     1
102
RTVSPropertyOp0
 70
     1
102
RTVSPropertyOp1
 70
     1
102
RTVSPropertyOp2
 70
     1
102
RTVSPropertyOp3
 70
     1
102
RTVSPropertyOp4
 70
     1
102
RTVSPropertyOp5
 70
     1
102
RTVSPropertyOp6
 70
     1
102
RTVSPropertyOp7
 70
     1
102
RTVSPropertyOp8
 70
     1
102
RTVSPropertyOp9
 70
     1
102
RTVSPropertyOp10
 70
     1
102
RTVSPropertyOp11
 70
     1
102
RTVSPropertyOp12
 70
     1
102
RTVSPropertyOp13
 70
     1
102
RTVSPropertyOp14
 70
     1
102
RTVSPropertyOp15
 70
     1
102
RTVSPropertyOp16
 70
     1
102
RTVSPropertyOp17
 70
     1
102
RTVSPropertyOp18
 70
     1
102
RTVSPropertyOp19
 70
     1
102
RTVSPropertyOp20
 70
     1
102
RTVSPropertyOp21
 70
     1
102
RTVSPropertyOp22
 70
     1
102
RTVSPropertyOp23
 70
     1
102
RTVSPropertyOp24
 70
     1
102
RTVSPropertyOp25
 70
     1
102
RTVSPropertyOp26
 70
     1
102
RTVSPropertyOp27
 70
     1
102
RTVSPropertyOp28
 70
     1
102
RTVSPropertyOp29
 70
     1
102
RTVSPropertyOp30
 70
     1
102
RTVSPropertyOp31
 70
     1
102
RTVSPropertyOp32
 70
     1
102
RTVSPropertyOp33
 70
     1
102
RTVSPropertyOp34
 70
     1
102
RTVSPropertyOp35
 70
     1
102
RTVSPropertyOp36
 70
     1
102
RTVSPropertyOp37
 70
     1
102
RTVSPropertyOp38
 70
     1
102
RTVSPropertyOp39
 70
     1
102
RTVSPropertyOp40
 70
     1
102
RTVSPropertyOp41
 70
     1
102
RTVSPropertyOp42
 70
     1
102
RTVSPropertyOp43
 70
     1
102
RTVSPropertyOp44
 70
     1
102
RTVSPropertyOp45
 70
     1
102
RTVSPropertyOp46
 70
     1
102
RTVSPropertyOp47
 70
     1
102
RTVSPropertyOp48
 70
     1
102
RTVSPropertyOp49
 70
     1
102
RTVSPropertyOp50
 70
     1
102
RTVSPropertyOp51
 70
     0
102
RTVSPropertyOp52
 70
     0
102
RTVSPropertyOp53
 70
     1
102
RTVSPropertyOp54
 70
     1
102
RTVSPropertyOp55
 70
     1
102
RTVSPropertyOp56
 70
     1
102
RTVSPropertyOp57
 70
     1
102
RTVSPropertyOp58
 70
     1
102
RTVSPropertyOp59
 70
     1
102
RTVSPropertyOp60
 70
     1
102
RTVSPropertyOp61
 70
     1
102
RTVSPropertyOp62
 70
     1
  0
XRECORD
  5
AFA
102
{ACAD_REACTORS
330
AF9
102
}
330
AF9
100
AcDbXrecord
280
     1
102
RTVSPost2010Prop28
280
     0
102
RTVSPost2010PropOp28
 70
     1
102
RTVSPost2010Prop29
280
     1
102
RTVSPost2010PropOp29
 70
     1
102
RTVSPost2010Prop30
280
     1
102
RTVSPost2010PropOp30
 70
     1
102
RTVSPost2010Prop31
280
     0
102
RTVSPost2010PropOp31
 70
     1
102
RTVSPost2010Prop32
280
     0
102
RTVSPost2010PropOp32
 70
     1
102
RTVSPost2010Prop33
280
     0
102
RTVSPost2010PropOp33
 70
     1
102
RTVSPost2010Prop34
280
     0
102
RTVSPost2010PropOp34
 70
     1
102
RTVSPost2010Prop35
280
     0
102
RTVSPost2010PropOp35
 70
     1
102
RTVSPost2010Prop36
280
     0
102
RTVSPost2010PropOp36
 70
     1
102
RTVSPost2010Prop37
 90
       50
102
RTVSPost2010PropOp37
 70
     1
102
RTVSPost2010Prop38
140
0.0
102
RTVSPost2010PropOp38
 70
     1
102
RTVSPost2010Prop39
140
1.0
102
RTVSPost2010PropOp39
 70
     1
102
RTVSPost2010Prop40
 90
        0
102
RTVSPost2010PropOp40
 70
     1
102
RTVSPost2010Prop41ColorIndex
 90
       18
102
RTVSPost2010Prop41ColorRGB
 90
        0
102
RTVSPost2010PropOp41
 70
     1
102
RTVSPost2010Prop42
 90
       50
102
RTVSPost2010PropOp42
 70
     1
102
RTVSPost2010Prop43
 90
        3
102
RTVSPost2010PropOp43
 70
     1
102
RTVSPost2010Prop44ColorIndex
 90
        5
102
RTVSPost2010Prop44ColorRGB
 90
      255
102
RTVSPost2010PropOp44
 70
     1
102
RTVSPost2010Prop45
280
     0
102
RTVSPost2010PropOp45
 70
     1
102
RTVSPost2010Prop46
 90
       50
102
RTVSPost2010PropOp46
 70
     1
102
RTVSPost2010Prop47
 90
       50
102
RTVSPost2010PropOp47
 70
     1
102
RTVSPost2010Prop48
 90
       50
102
RTVSPost2010PropOp48
 70
     1
102
RTVSPost2010Prop49
280
     0
102
RTVSPost2010PropOp49
 70
     1
102
RTVSPost2010Prop50
 90
       50
102
RTVSPost2010PropOp50
 70
     1
102
RTVSPost2010Prop51ColorIndex
 90
      256
102
RTVSPost2010Prop51ColorRGB
 90
-16777216
102
RTVSPost2010PropOp51
 70
     0
102
RTVSPost2010Prop52
140
1.0
102
RTVSPost2010PropOp52
 70
     0
102
RTVSPost2010Prop53
 90
        2
102
RTVSPost2010PropOp53
 70
     1
102
RTVSPost2010Prop54
  1
strokes_ogs.tif
102
RTVSPost2010PropOp54
 70
     1
102
RTVSPost2010Prop55
280
     0
102
RTVSPost2010PropOp55
 70
     1
102
RTVSPost2010Prop56
140
1.0
102
RTVSPost2010PropOp56
 70
     1
102
RTVSPost2010Prop57
140
1.0
102
RTVSPost2010PropOp57
 70
     1
102
RTVSPropertyOp0
 70
     1
102
RTVSPropertyOp1
 70
     1
102
RTVSPropertyOp2
 70
     1
102
RTVSPropertyOp3
 70
     1
102
RTVSPropertyOp4
 70
     1
102
RTVSPropertyOp5
 70
     1
102
RTVSPropertyOp6
 70
     1
102
RTVSPropertyOp7
 70
     1
102
RTVSPropertyOp8
 70
     1
102
RTVSPropertyOp9
 70
     1
102
RTVSPropertyOp10
 70
     1
102
RTVSPropertyOp11
 70
     1
102
RTVSPropertyOp12
 70
     1
102
RTVSPropertyOp13
 70
     1
102
RTVSPropertyOp14
 70
     1
102
RTVSPropertyOp15
 70
     1
102
RTVSPropertyOp16
 70
     1
102
RTVSPropertyOp17
 70
     1
102
RTVSPropertyOp18
 70
     1
102
RTVSPropertyOp19
 70
     1
102
RTVSPropertyOp20
 70
     1
102
RTVSPropertyOp21
 70
     1
102
RTVSPropertyOp22
 70
     1
102
RTVSPropertyOp23
 70
     1
102
RTVSPropertyOp24
 70
     1
102
RTVSPropertyOp25
 70
     1
102
RTVSPropertyOp26
 70
     1
102
RTVSPropertyOp27
 70
     1
102
RTVSPropertyOp28
 70
     1
102
RTVSPropertyOp29
 70
     1
102
RTVSPropertyOp30
 70
     1
102
RTVSPropertyOp31
 70
     1
102
RTVSPropertyOp32
 70
     1
102
RTVSPropertyOp33
 70
     1
102
RTVSPropertyOp34
 70
     1
102
RTVSPropertyOp35
 70
     1
102
RTVSPropertyOp36
 70
     1
102
RTVSPropertyOp37
 70
     1
102
RTVSPropertyOp38
 70
     1
102
RTVSPropertyOp39
 70
     1
102
RTVSPropertyOp40
 70
     1
102
RTVSPropertyOp41
 70
     1
102
RTVSPropertyOp42
 70
     1
102
RTVSPropertyOp43
 70
     1
102
RTVSPropertyOp44
 70
     1
102
RTVSPropertyOp45
 70
     1
102
RTVSPropertyOp46
 70
     1
102
RTVSPropertyOp47
 70
     1
102
RTVSPropertyOp48
 70
     1
102
RTVSPropertyOp49
 70
     1
102
RTVSPropertyOp50
 70
     1
102
RTVSPropertyOp51
 70
     0
102
RTVSPropertyOp52
 70
     0
102
RTVSPropertyOp53
 70
     1
102
RTVSPropertyOp54
 70
     1
102
RTVSPropertyOp55
 70
     1
102
RTVSPropertyOp56
 70
     1
102
RTVSPropertyOp57
 70
     1
102
RTVSPropertyOp58
 70
     1
102
RTVSPropertyOp59
 70
     1
102
RTVSPropertyOp60
 70
     1
102
RTVSPropertyOp61
 70
     1
102
RTVSPropertyOp62
 70
     1
  0
XRECORD
  5
AEC
102
{ACAD_REACTORS
330
AEB
102
}
330
AEB
100
AcDbXrecord
280
     1
102
RTVSPost2010Prop28
280
     0
102
RTVSPost2010PropOp28
 70
     1
102
RTVSPost2010Prop29
280
     1
102
RTVSPost2010PropOp29
 70
     1
102
RTVSPost2010Prop30
280
     1
102
RTVSPost2010PropOp30
 70
     1
102
RTVSPost2010Prop31
280
     0
102
RTVSPost2010PropOp31
 70
     1
102
RTVSPost2010Prop32
280
     0
102
RTVSPost2010PropOp32
 70
     1
102
RTVSPost2010Prop33
280
     0
102
RTVSPost2010PropOp33
 70
     1
102
RTVSPost2010Prop34
280
     0
102
RTVSPost2010PropOp34
 70
     1
102
RTVSPost2010Prop35
280
     0
102
RTVSPost2010PropOp35
 70
     1
102
RTVSPost2010Prop36
280
     0
102
RTVSPost2010PropOp36
 70
     1
102
RTVSPost2010Prop37
 90
       50
102
RTVSPost2010PropOp37
 70
     1
102
RTVSPost2010Prop38
140
0.0
102
RTVSPost2010PropOp38
 70
     1
102
RTVSPost2010Prop39
140
1.0
102
RTVSPost2010PropOp39
 70
     1
102
RTVSPost2010Prop40
 90
        0
102
RTVSPost2010PropOp40
 70
     1
102
RTVSPost2010Prop41ColorIndex
 90
       18
102
RTVSPost2010Prop41ColorRGB
 90
        0
102
RTVSPost2010PropOp41
 70
     1
102
RTVSPost2010Prop42
 90
       50
102
RTVSPost2010PropOp42
 70
     1
102
RTVSPost2010Prop43
 90
        3
102
RTVSPost2010PropOp43
 70
     1
102
RTVSPost2010Prop44ColorIndex
 90
        5
102
RTVSPost2010Prop44ColorRGB
 90
      255
102
RTVSPost2010PropOp44
 70
     1
102
RTVSPost2010Prop45
280
     0
102
RTVSPost2010PropOp45
 70
     1
102
RTVSPost2010Prop46
 90
       50
102
RTVSPost2010PropOp46
 70
     1
102
RTVSPost2010Prop47
 90
       50
102
RTVSPost2010PropOp47
 70
     1
102
RTVSPost2010Prop48
 90
       50
102
RTVSPost2010PropOp48
 70
     1
102
RTVSPost2010Prop49
280
     0
102
RTVSPost2010PropOp49
 70
     1
102
RTVSPost2010Prop50
 90
       50
102
RTVSPost2010PropOp50
 70
     1
102
RTVSPost2010Prop51ColorIndex
 90
      256
102
RTVSPost2010Prop51ColorRGB
 90
-16777216
102
RTVSPost2010PropOp51
 70
     0
102
RTVSPost2010Prop52
140
1.0
102
RTVSPost2010PropOp52
 70
     0
102
RTVSPost2010Prop53
 90
        2
102
RTVSPost2010PropOp53
 70
     1
102
RTVSPost2010Prop54
  1
strokes_ogs.tif
102
RTVSPost2010PropOp54
 70
     1
102
RTVSPost2010Prop55
280
     0
102
RTVSPost2010PropOp55
 70
     1
102
RTVSPost2010Prop56
140
1.0
102
RTVSPost2010PropOp56
 70
     1
102
RTVSPost2010Prop57
140
1.0
102
RTVSPost2010PropOp57
 70
     1
102
RTVSPropertyOp0
 70
     1
102
RTVSPropertyOp1
 70
     1
102
RTVSPropertyOp2
 70
     1
102
RTVSPropertyOp3
 70
     1
102
RTVSPropertyOp4
 70
     1
102
RTVSPropertyOp5
 70
     1
102
RTVSPropertyOp6
 70
     1
102
RTVSPropertyOp7
 70
     1
102
RTVSPropertyOp8
 70
     1
102
RTVSPropertyOp9
 70
     1
102
RTVSPropertyOp10
 70
     1
102
RTVSPropertyOp11
 70
     1
102
RTVSPropertyOp12
 70
     1
102
RTVSPropertyOp13
 70
     1
102
RTVSPropertyOp14
 70
     1
102
RTVSPropertyOp15
 70
     1
102
RTVSPropertyOp16
 70
     1
102
RTVSPropertyOp17
 70
     1
102
RTVSPropertyOp18
 70
     1
102
RTVSPropertyOp19
 70
     1
102
RTVSPropertyOp20
 70
     1
102
RTVSPropertyOp21
 70
     1
102
RTVSPropertyOp22
 70
     1
102
RTVSPropertyOp23
 70
     1
102
RTVSPropertyOp24
 70
     1
102
RTVSPropertyOp25
 70
     1
102
RTVSPropertyOp26
 70
     1
102
RTVSPropertyOp27
 70
     1
102
RTVSPropertyOp28
 70
     1
102
RTVSPropertyOp29
 70
     1
102
RTVSPropertyOp30
 70
     1
102
RTVSPropertyOp31
 70
     1
102
RTVSPropertyOp32
 70
     1
102
RTVSPropertyOp33
 70
     1
102
RTVSPropertyOp34
 70
     1
102
RTVSPropertyOp35
 70
     1
102
RTVSPropertyOp36
 70
     1
102
RTVSPropertyOp37
 70
     1
102
RTVSPropertyOp38
 70
     1
102
RTVSPropertyOp39
 70
     1
102
RTVSPropertyOp40
 70
     1
102
RTVSPropertyOp41
 70
     1
102
RTVSPropertyOp42
 70
     1
102
RTVSPropertyOp43
 70
     1
102
RTVSPropertyOp44
 70
     1
102
RTVSPropertyOp45
 70
     1
102
RTVSPropertyOp46
 70
     1
102
RTVSPropertyOp47
 70
     1
102
RTVSPropertyOp48
 70
     1
102
RTVSPropertyOp49
 70
     1
102
RTVSPropertyOp50
 70
     1
102
RTVSPropertyOp51
 70
     0
102
RTVSPropertyOp52
 70
     0
102
RTVSPropertyOp53
 70
     1
102
RTVSPropertyOp54
 70
     1
102
RTVSPropertyOp55
 70
     1
102
RTVSPropertyOp56
 70
     1
102
RTVSPropertyOp57
 70
     1
102
RTVSPropertyOp58
 70
     1
102
RTVSPropertyOp59
 70
     1
102
RTVSPropertyOp60
 70
     1
102
RTVSPropertyOp61
 70
     1
102
RTVSPropertyOp62
 70
     1
  0
XRECORD
  5
AF0
102
{ACAD_REACTORS
330
AEF
102
}
330
AEF
100
AcDbXrecord
280
     1
102
RTVSPost2010Prop28
280
     0
102
RTVSPost2010PropOp28
 70
     1
102
RTVSPost2010Prop29
280
     1
102
RTVSPost2010PropOp29
 70
     1
102
RTVSPost2010Prop30
280
     1
102
RTVSPost2010PropOp30
 70
     1
102
RTVSPost2010Prop31
280
     0
102
RTVSPost2010PropOp31
 70
     1
102
RTVSPost2010Prop32
280
     0
102
RTVSPost2010PropOp32
 70
     1
102
RTVSPost2010Prop33
280
     0
102
RTVSPost2010PropOp33
 70
     1
102
RTVSPost2010Prop34
280
     0
102
RTVSPost2010PropOp34
 70
     1
102
RTVSPost2010Prop35
280
     0
102
RTVSPost2010PropOp35
 70
     1
102
RTVSPost2010Prop36
280
     0
102
RTVSPost2010PropOp36
 70
     1
102
RTVSPost2010Prop37
 90
       50
102
RTVSPost2010PropOp37
 70
     1
102
RTVSPost2010Prop38
140
0.0
102
RTVSPost2010PropOp38
 70
     1
102
RTVSPost2010Prop39
140
1.0
102
RTVSPost2010PropOp39
 70
     1
102
RTVSPost2010Prop40
 90
        0
102
RTVSPost2010PropOp40
 70
     1
102
RTVSPost2010Prop41ColorIndex
 90
       18
102
RTVSPost2010Prop41ColorRGB
 90
        0
102
RTVSPost2010PropOp41
 70
     1
102
RTVSPost2010Prop42
 90
       50
102
RTVSPost2010PropOp42
 70
     1
102
RTVSPost2010Prop43
 90
        3
102
RTVSPost2010PropOp43
 70
     1
102
RTVSPost2010Prop44ColorIndex
 90
        5
102
RTVSPost2010Prop44ColorRGB
 90
      255
102
RTVSPost2010PropOp44
 70
     1
102
RTVSPost2010Prop45
280
     0
102
RTVSPost2010PropOp45
 70
     1
102
RTVSPost2010Prop46
 90
       50
102
RTVSPost2010PropOp46
 70
     1
102
RTVSPost2010Prop47
 90
       50
102
RTVSPost2010PropOp47
 70
     1
102
RTVSPost2010Prop48
 90
       50
102
RTVSPost2010PropOp48
 70
     1
102
RTVSPost2010Prop49
280
     0
102
RTVSPost2010PropOp49
 70
     1
102
RTVSPost2010Prop50
 90
       50
102
RTVSPost2010PropOp50
 70
     1
102
RTVSPost2010Prop51ColorIndex
 90
      256
102
RTVSPost2010Prop51ColorRGB
 90
-16777216
102
RTVSPost2010PropOp51
 70
     0
102
RTVSPost2010Prop52
140
1.0
102
RTVSPost2010PropOp52
 70
     0
102
RTVSPost2010Prop53
 90
        2
102
RTVSPost2010PropOp53
 70
     1
102
RTVSPost2010Prop54
  1
strokes_ogs.tif
102
RTVSPost2010PropOp54
 70
     1
102
RTVSPost2010Prop55
280
     0
102
RTVSPost2010PropOp55
 70
     1
102
RTVSPost2010Prop56
140
1.0
102
RTVSPost2010PropOp56
 70
     1
102
RTVSPost2010Prop57
140
1.0
102
RTVSPost2010PropOp57
 70
     1
102
RTVSPropertyOp0
 70
     1
102
RTVSPropertyOp1
 70
     1
102
RTVSPropertyOp2
 70
     1
102
RTVSPropertyOp3
 70
     1
102
RTVSPropertyOp4
 70
     1
102
RTVSPropertyOp5
 70
     1
102
RTVSPropertyOp6
 70
     1
102
RTVSPropertyOp7
 70
     1
102
RTVSPropertyOp8
 70
     1
102
RTVSPropertyOp9
 70
     1
102
RTVSPropertyOp10
 70
     1
102
RTVSPropertyOp11
 70
     1
102
RTVSPropertyOp12
 70
     1
102
RTVSPropertyOp13
 70
     1
102
RTVSPropertyOp14
 70
     1
102
RTVSPropertyOp15
 70
     1
102
RTVSPropertyOp16
 70
     1
102
RTVSPropertyOp17
 70
     1
102
RTVSPropertyOp18
 70
     1
102
RTVSPropertyOp19
 70
     1
102
RTVSPropertyOp20
 70
     1
102
RTVSPropertyOp21
 70
     1
102
RTVSPropertyOp22
 70
     1
102
RTVSPropertyOp23
 70
     1
102
RTVSPropertyOp24
 70
     1
102
RTVSPropertyOp25
 70
     1
102
RTVSPropertyOp26
 70
     1
102
RTVSPropertyOp27
 70
     1
102
RTVSPropertyOp28
 70
     1
102
RTVSPropertyOp29
 70
     1
102
RTVSPropertyOp30
 70
     1
102
RTVSPropertyOp31
 70
     1
102
RTVSPropertyOp32
 70
     1
102
RTVSPropertyOp33
 70
     1
102
RTVSPropertyOp34
 70
     1
102
RTVSPropertyOp35
 70
     1
102
RTVSPropertyOp36
 70
     1
102
RTVSPropertyOp37
 70
     1
102
RTVSPropertyOp38
 70
     1
102
RTVSPropertyOp39
 70
     1
102
RTVSPropertyOp40
 70
     1
102
RTVSPropertyOp41
 70
     1
102
RTVSPropertyOp42
 70
     1
102
RTVSPropertyOp43
 70
     1
102
RTVSPropertyOp44
 70
     1
102
RTVSPropertyOp45
 70
     1
102
RTVSPropertyOp46
 70
     1
102
RTVSPropertyOp47
 70
     1
102
RTVSPropertyOp48
 70
     1
102
RTVSPropertyOp49
 70
     1
102
RTVSPropertyOp50
 70
     1
102
RTVSPropertyOp51
 70
     0
102
RTVSPropertyOp52
 70
     0
102
RTVSPropertyOp53
 70
     1
102
RTVSPropertyOp54
 70
     1
102
RTVSPropertyOp55
 70
     1
102
RTVSPropertyOp56
 70
     1
102
RTVSPropertyOp57
 70
     1
102
RTVSPropertyOp58
 70
     1
102
RTVSPropertyOp59
 70
     1
102
RTVSPropertyOp60
 70
     1
102
RTVSPropertyOp61
 70
     1
102
RTVSPropertyOp62
 70
     1
  0
XRECORD
  5
B0A
102
{ACAD_REACTORS
330
B09
102
}
330
B09
100
AcDbXrecord
280
     1
102
RTVSPost2010Prop28
280
     0
102
RTVSPost2010PropOp28
 70
     1
102
RTVSPost2010Prop29
280
     1
102
RTVSPost2010PropOp29
 70
     1
102
RTVSPost2010Prop30
280
     1
102
RTVSPost2010PropOp30
 70
     1
102
RTVSPost2010Prop31
280
     0
102
RTVSPost2010PropOp31
 70
     1
102
RTVSPost2010Prop32
280
     0
102
RTVSPost2010PropOp32
 70
     1
102
RTVSPost2010Prop33
280
     0
102
RTVSPost2010PropOp33
 70
     1
102
RTVSPost2010Prop34
280
     0
102
RTVSPost2010PropOp34
 70
     1
102
RTVSPost2010Prop35
280
     0
102
RTVSPost2010PropOp35
 70
     1
102
RTVSPost2010Prop36
280
     0
102
RTVSPost2010PropOp36
 70
     1
102
RTVSPost2010Prop37
 90
       50
102
RTVSPost2010PropOp37
 70
     1
102
RTVSPost2010Prop38
140
0.0
102
RTVSPost2010PropOp38
 70
     1
102
RTVSPost2010Prop39
140
1.0
102
RTVSPost2010PropOp39
 70
     1
102
RTVSPost2010Prop40
 90
        0
102
RTVSPost2010PropOp40
 70
     1
102
RTVSPost2010Prop41ColorIndex
 90
       18
102
RTVSPost2010Prop41ColorRGB
 90
        0
102
RTVSPost2010PropOp41
 70
     1
102
RTVSPost2010Prop42
 90
       50
102
RTVSPost2010PropOp42
 70
     1
102
RTVSPost2010Prop43
 90
        3
102
RTVSPost2010PropOp43
 70
     1
102
RTVSPost2010Prop44ColorIndex
 90
        5
102
RTVSPost2010Prop44ColorRGB
 90
      255
102
RTVSPost2010PropOp44
 70
     1
102
RTVSPost2010Prop45
280
     0
102
RTVSPost2010PropOp45
 70
     1
102
RTVSPost2010Prop46
 90
       50
102
RTVSPost2010PropOp46
 70
     1
102
RTVSPost2010Prop47
 90
       50
102
RTVSPost2010PropOp47
 70
     1
102
RTVSPost2010Prop48
 90
       50
102
RTVSPost2010PropOp48
 70
     1
102
RTVSPost2010Prop49
280
     0
102
RTVSPost2010PropOp49
 70
     1
102
RTVSPost2010Prop50
 90
       50
102
RTVSPost2010PropOp50
 70
     1
102
RTVSPost2010Prop51ColorIndex
 90
      256
102
RTVSPost2010Prop51ColorRGB
 90
-16777216
102
RTVSPost2010PropOp51
 70
     0
102
RTVSPost2010Prop52
140
1.0
102
RTVSPost2010PropOp52
 70
     0
102
RTVSPost2010Prop53
 90
        2
102
RTVSPost2010PropOp53
 70
     1
102
RTVSPost2010Prop54
  1
strokes_ogs.tif
102
RTVSPost2010PropOp54
 70
     1
102
RTVSPost2010Prop55
280
     0
102
RTVSPost2010PropOp55
 70
     1
102
RTVSPost2010Prop56
140
1.0
102
RTVSPost2010PropOp56
 70
     1
102
RTVSPost2010Prop57
140
1.0
102
RTVSPost2010PropOp57
 70
     1
102
RTVSPropertyOp0
 70
     0
102
RTVSPropertyOp1
 70
     0
102
RTVSPropertyOp2
 70
     0
102
RTVSPropertyOp3
 70
     0
102
RTVSPropertyOp4
 70
     0
102
RTVSPropertyOp5
 70
     0
102
RTVSPropertyOp6
 70
     0
102
RTVSPropertyOp7
 70
     0
102
RTVSPropertyOp8
 70
     0
102
RTVSPropertyOp9
 70
     0
102
RTVSPropertyOp10
 70
     0
102
RTVSPropertyOp11
 70
     0
102
RTVSPropertyOp12
 70
     0
102
RTVSPropertyOp13
 70
     0
102
RTVSPropertyOp14
 70
     2
102
RTVSPropertyOp15
 70
     0
102
RTVSPropertyOp16
 70
     0
102
RTVSPropertyOp17
 70
     0
102
RTVSPropertyOp18
 70
     0
102
RTVSPropertyOp19
 70
     0
102
RTVSPropertyOp20
 70
     0
102
RTVSPropertyOp21
 70
     0
102
RTVSPropertyOp22
 70
     0
102
RTVSPropertyOp23
 70
     0
102
RTVSPropertyOp24
 70
     0
102
RTVSPropertyOp25
 70
     0
102
RTVSPropertyOp26
 70
     0
102
RTVSPropertyOp27
 70
     0
102
RTVSPropertyOp28
 70
     1
102
RTVSPropertyOp29
 70
     1
102
RTVSPropertyOp30
 70
     1
102
RTVSPropertyOp31
 70
     1
102
RTVSPropertyOp32
 70
     1
102
RTVSPropertyOp33
 70
     1
102
RTVSPropertyOp34
 70
     1
102
RTVSPropertyOp35
 70
     1
102
RTVSPropertyOp36
 70
     1
102
RTVSPropertyOp37
 70
     1
102
RTVSPropertyOp38
 70
     1
102
RTVSPropertyOp39
 70
     1
102
RTVSPropertyOp40
 70
     1
102
RTVSPropertyOp41
 70
     1
102
RTVSPropertyOp42
 70
     1
102
RTVSPropertyOp43
 70
     1
102
RTVSPropertyOp44
 70
     1
102
RTVSPropertyOp45
 70
     1
102
RTVSPropertyOp46
 70
     1
102
RTVSPropertyOp47
 70
     1
102
RTVSPropertyOp48
 70
     1
102
RTVSPropertyOp49
 70
     1
102
RTVSPropertyOp50
 70
     1
102
RTVSPropertyOp51
 70
     0
102
RTVSPropertyOp52
 70
     0
102
RTVSPropertyOp53
 70
     1
102
RTVSPropertyOp54
 70
     1
102
RTVSPropertyOp55
 70
     1
102
RTVSPropertyOp56
 70
     1
102
RTVSPropertyOp57
 70
     1
102
RTVSPropertyOp58
 70
     1
102
RTVSPropertyOp59
 70
     1
102
RTVSPropertyOp60
 70
     1
102
RTVSPropertyOp61
 70
     1
102
RTVSPropertyOp62
 70
     1
  0
XRECORD
  5
AF8
102
{ACAD_REACTORS
330
AF7
102
}
330
AF7
100
AcDbXrecord
280
     1
102
RTVSPost2010Prop28
280
     0
102
RTVSPost2010PropOp28
 70
     1
102
RTVSPost2010Prop29
280
     1
102
RTVSPost2010PropOp29
 70
     1
102
RTVSPost2010Prop30
280
     1
102
RTVSPost2010PropOp30
 70
     1
102
RTVSPost2010Prop31
280
     0
102
RTVSPost2010PropOp31
 70
     1
102
RTVSPost2010Prop32
280
     0
102
RTVSPost2010PropOp32
 70
     1
102
RTVSPost2010Prop33
280
     0
102
RTVSPost2010PropOp33
 70
     1
102
RTVSPost2010Prop34
280
     0
102
RTVSPost2010PropOp34
 70
     1
102
RTVSPost2010Prop35
280
     0
102
RTVSPost2010PropOp35
 70
     1
102
RTVSPost2010Prop36
280
     0
102
RTVSPost2010PropOp36
 70
     1
102
RTVSPost2010Prop37
 90
       50
102
RTVSPost2010PropOp37
 70
     1
102
RTVSPost2010Prop38
140
0.0
102
RTVSPost2010PropOp38
 70
     1
102
RTVSPost2010Prop39
140
1.0
102
RTVSPost2010PropOp39
 70
     1
102
RTVSPost2010Prop40
 90
        0
102
RTVSPost2010PropOp40
 70
     1
102
RTVSPost2010Prop41ColorIndex
 90
       18
102
RTVSPost2010Prop41ColorRGB
 90
        0
102
RTVSPost2010PropOp41
 70
     1
102
RTVSPost2010Prop42
 90
       50
102
RTVSPost2010PropOp42
 70
     1
102
RTVSPost2010Prop43
 90
        3
102
RTVSPost2010PropOp43
 70
     1
102
RTVSPost2010Prop44ColorIndex
 90
        5
102
RTVSPost2010Prop44ColorRGB
 90
      255
102
RTVSPost2010PropOp44
 70
     1
102
RTVSPost2010Prop45
280
     0
102
RTVSPost2010PropOp45
 70
     1
102
RTVSPost2010Prop46
 90
       50
102
RTVSPost2010PropOp46
 70
     1
102
RTVSPost2010Prop47
 90
       50
102
RTVSPost2010PropOp47
 70
     1
102
RTVSPost2010Prop48
 90
       50
102
RTVSPost2010PropOp48
 70
     1
102
RTVSPost2010Prop49
280
     0
102
RTVSPost2010PropOp49
 70
     1
102
RTVSPost2010Prop50
 90
       50
102
RTVSPost2010PropOp50
 70
     1
102
RTVSPost2010Prop51ColorIndex
 90
      256
102
RTVSPost2010Prop51ColorRGB
 90
-16777216
102
RTVSPost2010PropOp51
 70
     0
102
RTVSPost2010Prop52
140
1.0
102
RTVSPost2010PropOp52
 70
     0
102
RTVSPost2010Prop53
 90
        2
102
RTVSPost2010PropOp53
 70
     1
102
RTVSPost2010Prop54
  1
strokes_ogs.tif
102
RTVSPost2010PropOp54
 70
     1
102
RTVSPost2010Prop55
280
     0
102
RTVSPost2010PropOp55
 70
     1
102
RTVSPost2010Prop56
140
1.0
102
RTVSPost2010PropOp56
 70
     1
102
RTVSPost2010Prop57
140
1.0
102
RTVSPost2010PropOp57
 70
     1
102
RTVSPropertyOp0
 70
     1
102
RTVSPropertyOp1
 70
     1
102
RTVSPropertyOp2
 70
     1
102
RTVSPropertyOp3
 70
     1
102
RTVSPropertyOp4
 70
     1
102
RTVSPropertyOp5
 70
     1
102
RTVSPropertyOp6
 70
     1
102
RTVSPropertyOp7
 70
     1
102
RTVSPropertyOp8
 70
     1
102
RTVSPropertyOp9
 70
     1
102
RTVSPropertyOp10
 70
     1
102
RTVSPropertyOp11
 70
     1
102
RTVSPropertyOp12
 70
     1
102
RTVSPropertyOp13
 70
     1
102
RTVSPropertyOp14
 70
     1
102
RTVSPropertyOp15
 70
     1
102
RTVSPropertyOp16
 70
     1
102
RTVSPropertyOp17
 70
     1
102
RTVSPropertyOp18
 70
     1
102
RTVSPropertyOp19
 70
     1
102
RTVSPropertyOp20
 70
     1
102
RTVSPropertyOp21
 70
     1
102
RTVSPropertyOp22
 70
     1
102
RTVSPropertyOp23
 70
     1
102
RTVSPropertyOp24
 70
     1
102
RTVSPropertyOp25
 70
     1
102
RTVSPropertyOp26
 70
     1
102
RTVSPropertyOp27
 70
     1
102
RTVSPropertyOp28
 70
     1
102
RTVSPropertyOp29
 70
     1
102
RTVSPropertyOp30
 70
     1
102
RTVSPropertyOp31
 70
     1
102
RTVSPropertyOp32
 70
     1
102
RTVSPropertyOp33
 70
     1
102
RTVSPropertyOp34
 70
     1
102
RTVSPropertyOp35
 70
     1
102
RTVSPropertyOp36
 70
     1
102
RTVSPropertyOp37
 70
     1
102
RTVSPropertyOp38
 70
     1
102
RTVSPropertyOp39
 70
     1
102
RTVSPropertyOp40
 70
     1
102
RTVSPropertyOp41
 70
     1
102
RTVSPropertyOp42
 70
     1
102
RTVSPropertyOp43
 70
     1
102
RTVSPropertyOp44
 70
     1
102
RTVSPropertyOp45
 70
     1
102
RTVSPropertyOp46
 70
     1
102
RTVSPropertyOp47
 70
     1
102
RTVSPropertyOp48
 70
     1
102
RTVSPropertyOp49
 70
     1
102
RTVSPropertyOp50
 70
     1
102
RTVSPropertyOp51
 70
     0
102
RTVSPropertyOp52
 70
     0
102
RTVSPropertyOp53
 70
     1
102
RTVSPropertyOp54
 70
     1
102
RTVSPropertyOp55
 70
     1
102
RTVSPropertyOp56
 70
     1
102
RTVSPropertyOp57
 70
     1
102
RTVSPropertyOp58
 70
     1
102
RTVSPropertyOp59
 70
     1
102
RTVSPropertyOp60
 70
     1
102
RTVSPropertyOp61
 70
     1
102
RTVSPropertyOp62
 70
     1
  0
XRECORD
  5
ADC
102
{ACAD_REACTORS
330
ADB
102
}
330
ADB
100
AcDbXrecord
280
     1
102
RTVSPost2010Prop28
280
     0
102
RTVSPost2010PropOp28
 70
     1
102
RTVSPost2010Prop29
280
     1
102
RTVSPost2010PropOp29
 70
     1
102
RTVSPost2010Prop30
280
     1
102
RTVSPost2010PropOp30
 70
     1
102
RTVSPost2010Prop31
280
     0
102
RTVSPost2010PropOp31
 70
     1
102
RTVSPost2010Prop32
280
     0
102
RTVSPost2010PropOp32
 70
     1
102
RTVSPost2010Prop33
280
     0
102
RTVSPost2010PropOp33
 70
     1
102
RTVSPost2010Prop34
280
     0
102
RTVSPost2010PropOp34
 70
     1
102
RTVSPost2010Prop35
280
     0
102
RTVSPost2010PropOp35
 70
     1
102
RTVSPost2010Prop36
280
     0
102
RTVSPost2010PropOp36
 70
     1
102
RTVSPost2010Prop37
 90
       50
102
RTVSPost2010PropOp37
 70
     1
102
RTVSPost2010Prop38
140
0.0
102
RTVSPost2010PropOp38
 70
     1
102
RTVSPost2010Prop39
140
1.0
102
RTVSPost2010PropOp39
 70
     1
102
RTVSPost2010Prop40
 90
        0
102
RTVSPost2010PropOp40
 70
     1
102
RTVSPost2010Prop41ColorIndex
 90
       18
102
RTVSPost2010Prop41ColorRGB
 90
        0
102
RTVSPost2010PropOp41
 70
     1
102
RTVSPost2010Prop42
 90
       50
102
RTVSPost2010PropOp42
 70
     1
102
RTVSPost2010Prop43
 90
        3
102
RTVSPost2010PropOp43
 70
     1
102
RTVSPost2010Prop44ColorIndex
 90
        5
102
RTVSPost2010Prop44ColorRGB
 90
      255
102
RTVSPost2010PropOp44
 70
     1
102
RTVSPost2010Prop45
280
     0
102
RTVSPost2010PropOp45
 70
     1
102
RTVSPost2010Prop46
 90
       50
102
RTVSPost2010PropOp46
 70
     1
102
RTVSPost2010Prop47
 90
       50
102
RTVSPost2010PropOp47
 70
     1
102
RTVSPost2010Prop48
 90
       50
102
RTVSPost2010PropOp48
 70
     1
102
RTVSPost2010Prop49
280
     0
102
RTVSPost2010PropOp49
 70
     1
102
RTVSPost2010Prop50
 90
       50
102
RTVSPost2010PropOp50
 70
     1
102
RTVSPost2010Prop51ColorIndex
 90
      256
102
RTVSPost2010Prop51ColorRGB
 90
-16777216
102
RTVSPost2010PropOp51
 70
     0
102
RTVSPost2010Prop52
140
1.0
102
RTVSPost2010PropOp52
 70
     0
102
RTVSPost2010Prop53
 90
        2
102
RTVSPost2010PropOp53
 70
     1
102
RTVSPost2010Prop54
  1
strokes_ogs.tif
102
RTVSPost2010PropOp54
 70
     1
102
RTVSPost2010Prop55
280
     0
102
RTVSPost2010PropOp55
 70
     1
102
RTVSPost2010Prop56
140
1.0
102
RTVSPost2010PropOp56
 70
     1
102
RTVSPost2010Prop57
140
1.0
102
RTVSPost2010PropOp57
 70
     1
102
RTVSPropertyOp0
 70
     1
102
RTVSPropertyOp1
 70
     1
102
RTVSPropertyOp2
 70
     1
102
RTVSPropertyOp3
 70
     1
102
RTVSPropertyOp4
 70
     1
102
RTVSPropertyOp5
 70
     1
102
RTVSPropertyOp6
 70
     1
102
RTVSPropertyOp7
 70
     1
102
RTVSPropertyOp8
 70
     1
102
RTVSPropertyOp9
 70
     1
102
RTVSPropertyOp10
 70
     1
102
RTVSPropertyOp11
 70
     1
102
RTVSPropertyOp12
 70
     1
102
RTVSPropertyOp13
 70
     1
102
RTVSPropertyOp14
 70
     1
102
RTVSPropertyOp15
 70
     1
102
RTVSPropertyOp16
 70
     1
102
RTVSPropertyOp17
 70
     1
102
RTVSPropertyOp18
 70
     1
102
RTVSPropertyOp19
 70
     1
102
RTVSPropertyOp20
 70
     1
102
RTVSPropertyOp21
 70
     1
102
RTVSPropertyOp22
 70
     1
102
RTVSPropertyOp23
 70
     1
102
RTVSPropertyOp24
 70
     1
102
RTVSPropertyOp25
 70
     1
102
RTVSPropertyOp26
 70
     1
102
RTVSPropertyOp27
 70
     1
102
RTVSPropertyOp28
 70
     1
102
RTVSPropertyOp29
 70
     1
102
RTVSPropertyOp30
 70
     1
102
RTVSPropertyOp31
 70
     1
102
RTVSPropertyOp32
 70
     1
102
RTVSPropertyOp33
 70
     1
102
RTVSPropertyOp34
 70
     1
102
RTVSPropertyOp35
 70
     1
102
RTVSPropertyOp36
 70
     1
102
RTVSPropertyOp37
 70
     1
102
RTVSPropertyOp38
 70
     1
102
RTVSPropertyOp39
 70
     1
102
RTVSPropertyOp40
 70
     1
102
RTVSPropertyOp41
 70
     1
102
RTVSPropertyOp42
 70
     1
102
RTVSPropertyOp43
 70
     1
102
RTVSPropertyOp44
 70
     1
102
RTVSPropertyOp45
 70
     1
102
RTVSPropertyOp46
 70
     1
102
RTVSPropertyOp47
 70
     1
102
RTVSPropertyOp48
 70
     1
102
RTVSPropertyOp49
 70
     1
102
RTVSPropertyOp50
 70
     1
102
RTVSPropertyOp51
 70
     0
102
RTVSPropertyOp52
 70
     0
102
RTVSPropertyOp53
 70
     1
102
RTVSPropertyOp54
 70
     1
102
RTVSPropertyOp55
 70
     1
102
RTVSPropertyOp56
 70
     1
102
RTVSPropertyOp57
 70
     1
102
RTVSPropertyOp58
 70
     1
102
RTVSPropertyOp59
 70
     1
102
RTVSPropertyOp60
 70
     1
102
RTVSPropertyOp61
 70
     1
102
RTVSPropertyOp62
 70
     1
  0
XRECORD
  5
ADE
102
{ACAD_REACTORS
330
ADD
102
}
330
ADD
100
AcDbXrecord
280
     1
102
RTVSPost2010Prop28
280
     0
102
RTVSPost2010PropOp28
 70
     1
102
RTVSPost2010Prop29
280
     1
102
RTVSPost2010PropOp29
 70
     1
102
RTVSPost2010Prop30
280
     1
102
RTVSPost2010PropOp30
 70
     1
102
RTVSPost2010Prop31
280
     0
102
RTVSPost2010PropOp31
 70
     1
102
RTVSPost2010Prop32
280
     0
102
RTVSPost2010PropOp32
 70
     1
102
RTVSPost2010Prop33
280
     0
102
RTVSPost2010PropOp33
 70
     1
102
RTVSPost2010Prop34
280
     0
102
RTVSPost2010PropOp34
 70
     1
102
RTVSPost2010Prop35
280
     0
102
RTVSPost2010PropOp35
 70
     1
102
RTVSPost2010Prop36
280
     0
102
RTVSPost2010PropOp36
 70
     1
102
RTVSPost2010Prop37
 90
       50
102
RTVSPost2010PropOp37
 70
     1
102
RTVSPost2010Prop38
140
0.0
102
RTVSPost2010PropOp38
 70
     1
102
RTVSPost2010Prop39
140
1.0
102
RTVSPost2010PropOp39
 70
     1
102
RTVSPost2010Prop40
 90
        0
102
RTVSPost2010PropOp40
 70
     1
102
RTVSPost2010Prop41ColorIndex
 90
       18
102
RTVSPost2010Prop41ColorRGB
 90
        0
102
RTVSPost2010PropOp41
 70
     1
102
RTVSPost2010Prop42
 90
       50
102
RTVSPost2010PropOp42
 70
     1
102
RTVSPost2010Prop43
 90
        3
102
RTVSPost2010PropOp43
 70
     1
102
RTVSPost2010Prop44ColorIndex
 90
        5
102
RTVSPost2010Prop44ColorRGB
 90
      255
102
RTVSPost2010PropOp44
 70
     1
102
RTVSPost2010Prop45
280
     0
102
RTVSPost2010PropOp45
 70
     1
102
RTVSPost2010Prop46
 90
       50
102
RTVSPost2010PropOp46
 70
     1
102
RTVSPost2010Prop47
 90
       50
102
RTVSPost2010PropOp47
 70
     1
102
RTVSPost2010Prop48
 90
       50
102
RTVSPost2010PropOp48
 70
     1
102
RTVSPost2010Prop49
280
     0
102
RTVSPost2010PropOp49
 70
     1
102
RTVSPost2010Prop50
 90
       50
102
RTVSPost2010PropOp50
 70
     1
102
RTVSPost2010Prop51ColorIndex
 90
      256
102
RTVSPost2010Prop51ColorRGB
 90
-16777216
102
RTVSPost2010PropOp51
 70
     0
102
RTVSPost2010Prop52
140
1.0
102
RTVSPost2010PropOp52
 70
     0
102
RTVSPost2010Prop53
 90
        2
102
RTVSPost2010PropOp53
 70
     1
102
RTVSPost2010Prop54
  1
strokes_ogs.tif
102
RTVSPost2010PropOp54
 70
     1
102
RTVSPost2010Prop55
280
     0
102
RTVSPost2010PropOp55
 70
     1
102
RTVSPost2010Prop56
140
1.0
102
RTVSPost2010PropOp56
 70
     1
102
RTVSPost2010Prop57
140
1.0
102
RTVSPost2010PropOp57
 70
     1
102
RTVSPropertyOp0
 70
     1
102
RTVSPropertyOp1
 70
     1
102
RTVSPropertyOp2
 70
     1
102
RTVSPropertyOp3
 70
     1
102
RTVSPropertyOp4
 70
     1
102
RTVSPropertyOp5
 70
     1
102
RTVSPropertyOp6
 70
     1
102
RTVSPropertyOp7
 70
     1
102
RTVSPropertyOp8
 70
     1
102
RTVSPropertyOp9
 70
     1
102
RTVSPropertyOp10
 70
     1
102
RTVSPropertyOp11
 70
     1
102
RTVSPropertyOp12
 70
     1
102
RTVSPropertyOp13
 70
     1
102
RTVSPropertyOp14
 70
     1
102
RTVSPropertyOp15
 70
     1
102
RTVSPropertyOp16
 70
     1
102
RTVSPropertyOp17
 70
     1
102
RTVSPropertyOp18
 70
     1
102
RTVSPropertyOp19
 70
     1
102
RTVSPropertyOp20
 70
     1
102
RTVSPropertyOp21
 70
     1
102
RTVSPropertyOp22
 70
     1
102
RTVSPropertyOp23
 70
     1
102
RTVSPropertyOp24
 70
     1
102
RTVSPropertyOp25
 70
     1
102
RTVSPropertyOp26
 70
     1
102
RTVSPropertyOp27
 70
     1
102
RTVSPropertyOp28
 70
     1
102
RTVSPropertyOp29
 70
     1
102
RTVSPropertyOp30
 70
     1
102
RTVSPropertyOp31
 70
     1
102
RTVSPropertyOp32
 70
     1
102
RTVSPropertyOp33
 70
     1
102
RTVSPropertyOp34
 70
     1
102
RTVSPropertyOp35
 70
     1
102
RTVSPropertyOp36
 70
     1
102
RTVSPropertyOp37
 70
     1
102
RTVSPropertyOp38
 70
     1
102
RTVSPropertyOp39
 70
     1
102
RTVSPropertyOp40
 70
     1
102
RTVSPropertyOp41
 70
     1
102
RTVSPropertyOp42
 70
     1
102
RTVSPropertyOp43
 70
     1
102
RTVSPropertyOp44
 70
     1
102
RTVSPropertyOp45
 70
     1
102
RTVSPropertyOp46
 70
     1
102
RTVSPropertyOp47
 70
     1
102
RTVSPropertyOp48
 70
     1
102
RTVSPropertyOp49
 70
     1
102
RTVSPropertyOp50
 70
     1
102
RTVSPropertyOp51
 70
     0
102
RTVSPropertyOp52
 70
     0
102
RTVSPropertyOp53
 70
     1
102
RTVSPropertyOp54
 70
     1
102
RTVSPropertyOp55
 70
     1
102
RTVSPropertyOp56
 70
     1
102
RTVSPropertyOp57
 70
     1
102
RTVSPropertyOp58
 70
     1
102
RTVSPropertyOp59
 70
     1
102
RTVSPropertyOp60
 70
     1
102
RTVSPropertyOp61
 70
     1
102
RTVSPropertyOp62
 70
     1
  0
XRECORD
  5
AE0
102
{ACAD_REACTORS
330
ADF
102
}
330
ADF
100
AcDbXrecord
280
     1
102
RTVSPost2010Prop28
280
     0
102
RTVSPost2010PropOp28
 70
     1
102
RTVSPost2010Prop29
280
     1
102
RTVSPost2010PropOp29
 70
     1
102
RTVSPost2010Prop30
280
     1
102
RTVSPost2010PropOp30
 70
     1
102
RTVSPost2010Prop31
280
     0
102
RTVSPost2010PropOp31
 70
     1
102
RTVSPost2010Prop32
280
     0
102
RTVSPost2010PropOp32
 70
     1
102
RTVSPost2010Prop33
280
     0
102
RTVSPost2010PropOp33
 70
     1
102
RTVSPost2010Prop34
280
     0
102
RTVSPost2010PropOp34
 70
     1
102
RTVSPost2010Prop35
280
     0
102
RTVSPost2010PropOp35
 70
     1
102
RTVSPost2010Prop36
280
     0
102
RTVSPost2010PropOp36
 70
     1
102
RTVSPost2010Prop37
 90
       50
102
RTVSPost2010PropOp37
 70
     1
102
RTVSPost2010Prop38
140
0.0
102
RTVSPost2010PropOp38
 70
     1
102
RTVSPost2010Prop39
140
1.0
102
RTVSPost2010PropOp39
 70
     1
102
RTVSPost2010Prop40
 90
        0
102
RTVSPost2010PropOp40
 70
     1
102
RTVSPost2010Prop41ColorIndex
 90
       18
102
RTVSPost2010Prop41ColorRGB
 90
        0
102
RTVSPost2010PropOp41
 70
     1
102
RTVSPost2010Prop42
 90
       50
102
RTVSPost2010PropOp42
 70
     1
102
RTVSPost2010Prop43
 90
        3
102
RTVSPost2010PropOp43
 70
     1
102
RTVSPost2010Prop44ColorIndex
 90
        5
102
RTVSPost2010Prop44ColorRGB
 90
      255
102
RTVSPost2010PropOp44
 70
     1
102
RTVSPost2010Prop45
280
     0
102
RTVSPost2010PropOp45
 70
     1
102
RTVSPost2010Prop46
 90
       50
102
RTVSPost2010PropOp46
 70
     1
102
RTVSPost2010Prop47
 90
       50
102
RTVSPost2010PropOp47
 70
     1
102
RTVSPost2010Prop48
 90
       50
102
RTVSPost2010PropOp48
 70
     1
102
RTVSPost2010Prop49
280
     0
102
RTVSPost2010PropOp49
 70
     1
102
RTVSPost2010Prop50
 90
       50
102
RTVSPost2010PropOp50
 70
     1
102
RTVSPost2010Prop51ColorIndex
 90
      256
102
RTVSPost2010Prop51ColorRGB
 90
-16777216
102
RTVSPost2010PropOp51
 70
     0
102
RTVSPost2010Prop52
140
1.0
102
RTVSPost2010PropOp52
 70
     0
102
RTVSPost2010Prop53
 90
        2
102
RTVSPost2010PropOp53
 70
     1
102
RTVSPost2010Prop54
  1
strokes_ogs.tif
102
RTVSPost2010PropOp54
 70
     1
102
RTVSPost2010Prop55
280
     0
102
RTVSPost2010PropOp55
 70
     1
102
RTVSPost2010Prop56
140
1.0
102
RTVSPost2010PropOp56
 70
     1
102
RTVSPost2010Prop57
140
1.0
102
RTVSPost2010PropOp57
 70
     1
102
RTVSPropertyOp0
 70
     1
102
RTVSPropertyOp1
 70
     1
102
RTVSPropertyOp2
 70
     1
102
RTVSPropertyOp3
 70
     1
102
RTVSPropertyOp4
 70
     1
102
RTVSPropertyOp5
 70
     1
102
RTVSPropertyOp6
 70
     1
102
RTVSPropertyOp7
 70
     1
102
RTVSPropertyOp8
 70
     1
102
RTVSPropertyOp9
 70
     1
102
RTVSPropertyOp10
 70
     1
102
RTVSPropertyOp11
 70
     1
102
RTVSPropertyOp12
 70
     1
102
RTVSPropertyOp13
 70
     1
102
RTVSPropertyOp14
 70
     1
102
RTVSPropertyOp15
 70
     1
102
RTVSPropertyOp16
 70
     1
102
RTVSPropertyOp17
 70
     1
102
RTVSPropertyOp18
 70
     1
102
RTVSPropertyOp19
 70
     1
102
RTVSPropertyOp20
 70
     1
102
RTVSPropertyOp21
 70
     1
102
RTVSPropertyOp22
 70
     1
102
RTVSPropertyOp23
 70
     1
102
RTVSPropertyOp24
 70
     1
102
RTVSPropertyOp25
 70
     1
102
RTVSPropertyOp26
 70
     1
102
RTVSPropertyOp27
 70
     1
102
RTVSPropertyOp28
 70
     1
102
RTVSPropertyOp29
 70
     1
102
RTVSPropertyOp30
 70
     1
102
RTVSPropertyOp31
 70
     1
102
RTVSPropertyOp32
 70
     1
102
RTVSPropertyOp33
 70
     1
102
RTVSPropertyOp34
 70
     1
102
RTVSPropertyOp35
 70
     1
102
RTVSPropertyOp36
 70
     1
102
RTVSPropertyOp37
 70
     1
102
RTVSPropertyOp38
 70
     1
102
RTVSPropertyOp39
 70
     1
102
RTVSPropertyOp40
 70
     1
102
RTVSPropertyOp41
 70
     1
102
RTVSPropertyOp42
 70
     1
102
RTVSPropertyOp43
 70
     1
102
RTVSPropertyOp44
 70
     1
102
RTVSPropertyOp45
 70
     1
102
RTVSPropertyOp46
 70
     1
102
RTVSPropertyOp47
 70
     1
102
RTVSPropertyOp48
 70
     1
102
RTVSPropertyOp49
 70
     1
102
RTVSPropertyOp50
 70
     1
102
RTVSPropertyOp51
 70
     0
102
RTVSPropertyOp52
 70
     0
102
RTVSPropertyOp53
 70
     1
102
RTVSPropertyOp54
 70
     1
102
RTVSPropertyOp55
 70
     1
102
RTVSPropertyOp56
 70
     1
102
RTVSPropertyOp57
 70
     1
102
RTVSPropertyOp58
 70
     1
102
RTVSPropertyOp59
 70
     1
102
RTVSPropertyOp60
 70
     1
102
RTVSPropertyOp61
 70
     1
102
RTVSPropertyOp62
 70
     1
  0
XRECORD
  5
AE2
102
{ACAD_REACTORS
330
AE1
102
}
330
AE1
100
AcDbXrecord
280
     1
102
RTVSPost2010Prop28
280
     0
102
RTVSPost2010PropOp28
 70
     1
102
RTVSPost2010Prop29
280
     1
102
RTVSPost2010PropOp29
 70
     1
102
RTVSPost2010Prop30
280
     1
102
RTVSPost2010PropOp30
 70
     1
102
RTVSPost2010Prop31
280
     0
102
RTVSPost2010PropOp31
 70
     1
102
RTVSPost2010Prop32
280
     0
102
RTVSPost2010PropOp32
 70
     1
102
RTVSPost2010Prop33
280
     0
102
RTVSPost2010PropOp33
 70
     1
102
RTVSPost2010Prop34
280
     0
102
RTVSPost2010PropOp34
 70
     1
102
RTVSPost2010Prop35
280
     0
102
RTVSPost2010PropOp35
 70
     1
102
RTVSPost2010Prop36
280
     0
102
RTVSPost2010PropOp36
 70
     1
102
RTVSPost2010Prop37
 90
       50
102
RTVSPost2010PropOp37
 70
     1
102
RTVSPost2010Prop38
140
0.0
102
RTVSPost2010PropOp38
 70
     1
102
RTVSPost2010Prop39
140
1.0
102
RTVSPost2010PropOp39
 70
     1
102
RTVSPost2010Prop40
 90
        0
102
RTVSPost2010PropOp40
 70
     1
102
RTVSPost2010Prop41ColorIndex
 90
       18
102
RTVSPost2010Prop41ColorRGB
 90
        0
102
RTVSPost2010PropOp41
 70
     1
102
RTVSPost2010Prop42
 90
       50
102
RTVSPost2010PropOp42
 70
     1
102
RTVSPost2010Prop43
 90
        3
102
RTVSPost2010PropOp43
 70
     1
102
RTVSPost2010Prop44ColorIndex
 90
        5
102
RTVSPost2010Prop44ColorRGB
 90
      255
102
RTVSPost2010PropOp44
 70
     1
102
RTVSPost2010Prop45
280
     0
102
RTVSPost2010PropOp45
 70
     1
102
RTVSPost2010Prop46
 90
       50
102
RTVSPost2010PropOp46
 70
     1
102
RTVSPost2010Prop47
 90
       50
102
RTVSPost2010PropOp47
 70
     1
102
RTVSPost2010Prop48
 90
       50
102
RTVSPost2010PropOp48
 70
     1
102
RTVSPost2010Prop49
280
     0
102
RTVSPost2010PropOp49
 70
     1
102
RTVSPost2010Prop50
 90
       50
102
RTVSPost2010PropOp50
 70
     1
102
RTVSPost2010Prop51ColorIndex
 90
      256
102
RTVSPost2010Prop51ColorRGB
 90
-16777216
102
RTVSPost2010PropOp51
 70
     0
102
RTVSPost2010Prop52
140
1.0
102
RTVSPost2010PropOp52
 70
     0
102
RTVSPost2010Prop53
 90
        2
102
RTVSPost2010PropOp53
 70
     1
102
RTVSPost2010Prop54
  1
strokes_ogs.tif
102
RTVSPost2010PropOp54
 70
     1
102
RTVSPost2010Prop55
280
     0
102
RTVSPost2010PropOp55
 70
     1
102
RTVSPost2010Prop56
140
1.0
102
RTVSPost2010PropOp56
 70
     1
102
RTVSPost2010Prop57
140
1.0
102
RTVSPost2010PropOp57
 70
     1
102
RTVSPropertyOp0
 70
     1
102
RTVSPropertyOp1
 70
     1
102
RTVSPropertyOp2
 70
     1
102
RTVSPropertyOp3
 70
     1
102
RTVSPropertyOp4
 70
     1
102
RTVSPropertyOp5
 70
     1
102
RTVSPropertyOp6
 70
     1
102
RTVSPropertyOp7
 70
     1
102
RTVSPropertyOp8
 70
     1
102
RTVSPropertyOp9
 70
     1
102
RTVSPropertyOp10
 70
     1
102
RTVSPropertyOp11
 70
     1
102
RTVSPropertyOp12
 70
     1
102
RTVSPropertyOp13
 70
     1
102
RTVSPropertyOp14
 70
     1
102
RTVSPropertyOp15
 70
     1
102
RTVSPropertyOp16
 70
     1
102
RTVSPropertyOp17
 70
     1
102
RTVSPropertyOp18
 70
     1
102
RTVSPropertyOp19
 70
     1
102
RTVSPropertyOp20
 70
     1
102
RTVSPropertyOp21
 70
     1
102
RTVSPropertyOp22
 70
     1
102
RTVSPropertyOp23
 70
     1
102
RTVSPropertyOp24
 70
     1
102
RTVSPropertyOp25
 70
     1
102
RTVSPropertyOp26
 70
     1
102
RTVSPropertyOp27
 70
     1
102
RTVSPropertyOp28
 70
     1
102
RTVSPropertyOp29
 70
     1
102
RTVSPropertyOp30
 70
     1
102
RTVSPropertyOp31
 70
     1
102
RTVSPropertyOp32
 70
     1
102
RTVSPropertyOp33
 70
     1
102
RTVSPropertyOp34
 70
     1
102
RTVSPropertyOp35
 70
     1
102
RTVSPropertyOp36
 70
     1
102
RTVSPropertyOp37
 70
     1
102
RTVSPropertyOp38
 70
     1
102
RTVSPropertyOp39
 70
     1
102
RTVSPropertyOp40
 70
     1
102
RTVSPropertyOp41
 70
     1
102
RTVSPropertyOp42
 70
     1
102
RTVSPropertyOp43
 70
     1
102
RTVSPropertyOp44
 70
     1
102
RTVSPropertyOp45
 70
     1
102
RTVSPropertyOp46
 70
     1
102
RTVSPropertyOp47
 70
     1
102
RTVSPropertyOp48
 70
     1
102
RTVSPropertyOp49
 70
     1
102
RTVSPropertyOp50
 70
     1
102
RTVSPropertyOp51
 70
     0
102
RTVSPropertyOp52
 70
     0
102
RTVSPropertyOp53
 70
     1
102
RTVSPropertyOp54
 70
     1
102
RTVSPropertyOp55
 70
     1
102
RTVSPropertyOp56
 70
     1
102
RTVSPropertyOp57
 70
     1
102
RTVSPropertyOp58
 70
     1
102
RTVSPropertyOp59
 70
     1
102
RTVSPropertyOp60
 70
     1
102
RTVSPropertyOp61
 70
     1
102
RTVSPropertyOp62
 70
     1
  0
XRECORD
  5
AEA
102
{ACAD_REACTORS
330
AE9
102
}
330
AE9
100
AcDbXrecord
280
     1
102
RTVSPost2010Prop28
280
     0
102
RTVSPost2010PropOp28
 70
     1
102
RTVSPost2010Prop29
280
     1
102
RTVSPost2010PropOp29
 70
     1
102
RTVSPost2010Prop30
280
     1
102
RTVSPost2010PropOp30
 70
     1
102
RTVSPost2010Prop31
280
     0
102
RTVSPost2010PropOp31
 70
     1
102
RTVSPost2010Prop32
280
     0
102
RTVSPost2010PropOp32
 70
     1
102
RTVSPost2010Prop33
280
     0
102
RTVSPost2010PropOp33
 70
     1
102
RTVSPost2010Prop34
280
     0
102
RTVSPost2010PropOp34
 70
     1
102
RTVSPost2010Prop35
280
     0
102
RTVSPost2010PropOp35
 70
     1
102
RTVSPost2010Prop36
280
     0
102
RTVSPost2010PropOp36
 70
     1
102
RTVSPost2010Prop37
 90
       50
102
RTVSPost2010PropOp37
 70
     1
102
RTVSPost2010Prop38
140
0.0
102
RTVSPost2010PropOp38
 70
     1
102
RTVSPost2010Prop39
140
1.0
102
RTVSPost2010PropOp39
 70
     1
102
RTVSPost2010Prop40
 90
        0
102
RTVSPost2010PropOp40
 70
     1
102
RTVSPost2010Prop41ColorIndex
 90
       18
102
RTVSPost2010Prop41ColorRGB
 90
        0
102
RTVSPost2010PropOp41
 70
     1
102
RTVSPost2010Prop42
 90
       50
102
RTVSPost2010PropOp42
 70
     1
102
RTVSPost2010Prop43
 90
        3
102
RTVSPost2010PropOp43
 70
     1
102
RTVSPost2010Prop44ColorIndex
 90
        5
102
RTVSPost2010Prop44ColorRGB
 90
      255
102
RTVSPost2010PropOp44
 70
     1
102
RTVSPost2010Prop45
280
     0
102
RTVSPost2010PropOp45
 70
     1
102
RTVSPost2010Prop46
 90
       50
102
RTVSPost2010PropOp46
 70
     1
102
RTVSPost2010Prop47
 90
       50
102
RTVSPost2010PropOp47
 70
     1
102
RTVSPost2010Prop48
 90
       50
102
RTVSPost2010PropOp48
 70
     1
102
RTVSPost2010Prop49
280
     0
102
RTVSPost2010PropOp49
 70
     1
102
RTVSPost2010Prop50
 90
       50
102
RTVSPost2010PropOp50
 70
     1
102
RTVSPost2010Prop51ColorIndex
 90
      256
102
RTVSPost2010Prop51ColorRGB
 90
-16777216
102
RTVSPost2010PropOp51
 70
     0
102
RTVSPost2010Prop52
140
1.0
102
RTVSPost2010PropOp52
 70
     0
102
RTVSPost2010Prop53
 90
        2
102
RTVSPost2010PropOp53
 70
     1
102
RTVSPost2010Prop54
  1
strokes_ogs.tif
102
RTVSPost2010PropOp54
 70
     1
102
RTVSPost2010Prop55
280
     0
102
RTVSPost2010PropOp55
 70
     1
102
RTVSPost2010Prop56
140
1.0
102
RTVSPost2010PropOp56
 70
     1
102
RTVSPost2010Prop57
140
1.0
102
RTVSPost2010PropOp57
 70
     1
102
RTVSPropertyOp0
 70
     1
102
RTVSPropertyOp1
 70
     1
102
RTVSPropertyOp2
 70
     1
102
RTVSPropertyOp3
 70
     1
102
RTVSPropertyOp4
 70
     1
102
RTVSPropertyOp5
 70
     1
102
RTVSPropertyOp6
 70
     1
102
RTVSPropertyOp7
 70
     1
102
RTVSPropertyOp8
 70
     1
102
RTVSPropertyOp9
 70
     1
102
RTVSPropertyOp10
 70
     1
102
RTVSPropertyOp11
 70
     1
102
RTVSPropertyOp12
 70
     1
102
RTVSPropertyOp13
 70
     1
102
RTVSPropertyOp14
 70
     1
102
RTVSPropertyOp15
 70
     1
102
RTVSPropertyOp16
 70
     1
102
RTVSPropertyOp17
 70
     1
102
RTVSPropertyOp18
 70
     1
102
RTVSPropertyOp19
 70
     1
102
RTVSPropertyOp20
 70
     1
102
RTVSPropertyOp21
 70
     1
102
RTVSPropertyOp22
 70
     1
102
RTVSPropertyOp23
 70
     1
102
RTVSPropertyOp24
 70
     1
102
RTVSPropertyOp25
 70
     1
102
RTVSPropertyOp26
 70
     1
102
RTVSPropertyOp27
 70
     1
102
RTVSPropertyOp28
 70
     1
102
RTVSPropertyOp29
 70
     1
102
RTVSPropertyOp30
 70
     1
102
RTVSPropertyOp31
 70
     1
102
RTVSPropertyOp32
 70
     1
102
RTVSPropertyOp33
 70
     1
102
RTVSPropertyOp34
 70
     1
102
RTVSPropertyOp35
 70
     1
102
RTVSPropertyOp36
 70
     1
102
RTVSPropertyOp37
 70
     1
102
RTVSPropertyOp38
 70
     1
102
RTVSPropertyOp39
 70
     1
102
RTVSPropertyOp40
 70
     1
102
RTVSPropertyOp41
 70
     1
102
RTVSPropertyOp42
 70
     1
102
RTVSPropertyOp43
 70
     1
102
RTVSPropertyOp44
 70
     1
102
RTVSPropertyOp45
 70
     1
102
RTVSPropertyOp46
 70
     1
102
RTVSPropertyOp47
 70
     1
102
RTVSPropertyOp48
 70
     1
102
RTVSPropertyOp49
 70
     1
102
RTVSPropertyOp50
 70
     1
102
RTVSPropertyOp51
 70
     0
102
RTVSPropertyOp52
 70
     0
102
RTVSPropertyOp53
 70
     1
102
RTVSPropertyOp54
 70
     1
102
RTVSPropertyOp55
 70
     1
102
RTVSPropertyOp56
 70
     1
102
RTVSPropertyOp57
 70
     1
102
RTVSPropertyOp58
 70
     1
102
RTVSPropertyOp59
 70
     1
102
RTVSPropertyOp60
 70
     1
102
RTVSPropertyOp61
 70
     1
102
RTVSPropertyOp62
 70
     1
  0
XRECORD
  5
B06
102
{ACAD_REACTORS
330
B05
102
}
330
B05
100
AcDbXrecord
280
     1
102
RTVSPost2010Prop28
280
     0
102
RTVSPost2010PropOp28
 70
     1
102
RTVSPost2010Prop29
280
     1
102
RTVSPost2010PropOp29
 70
     1
102
RTVSPost2010Prop30
280
     1
102
RTVSPost2010PropOp30
 70
     1
102
RTVSPost2010Prop31
280
     0
102
RTVSPost2010PropOp31
 70
     1
102
RTVSPost2010Prop32
280
     0
102
RTVSPost2010PropOp32
 70
     1
102
RTVSPost2010Prop33
280
     0
102
RTVSPost2010PropOp33
 70
     1
102
RTVSPost2010Prop34
280
     0
102
RTVSPost2010PropOp34
 70
     1
102
RTVSPost2010Prop35
280
     0
102
RTVSPost2010PropOp35
 70
     1
102
RTVSPost2010Prop36
280
     0
102
RTVSPost2010PropOp36
 70
     1
102
RTVSPost2010Prop37
 90
       50
102
RTVSPost2010PropOp37
 70
     1
102
RTVSPost2010Prop38
140
0.0
102
RTVSPost2010PropOp38
 70
     1
102
RTVSPost2010Prop39
140
1.0
102
RTVSPost2010PropOp39
 70
     1
102
RTVSPost2010Prop40
 90
        0
102
RTVSPost2010PropOp40
 70
     1
102
RTVSPost2010Prop41ColorIndex
 90
       18
102
RTVSPost2010Prop41ColorRGB
 90
        0
102
RTVSPost2010PropOp41
 70
     1
102
RTVSPost2010Prop42
 90
       50
102
RTVSPost2010PropOp42
 70
     1
102
RTVSPost2010Prop43
 90
        3
102
RTVSPost2010PropOp43
 70
     1
102
RTVSPost2010Prop44ColorIndex
 90
        5
102
RTVSPost2010Prop44ColorRGB
 90
      255
102
RTVSPost2010PropOp44
 70
     1
102
RTVSPost2010Prop45
280
     0
102
RTVSPost2010PropOp45
 70
     1
102
RTVSPost2010Prop46
 90
       50
102
RTVSPost2010PropOp46
 70
     1
102
RTVSPost2010Prop47
 90
       50
102
RTVSPost2010PropOp47
 70
     1
102
RTVSPost2010Prop48
 90
       50
102
RTVSPost2010PropOp48
 70
     1
102
RTVSPost2010Prop49
280
     0
102
RTVSPost2010PropOp49
 70
     1
102
RTVSPost2010Prop50
 90
       50
102
RTVSPost2010PropOp50
 70
     1
102
RTVSPost2010Prop51ColorIndex
 90
      256
102
RTVSPost2010Prop51ColorRGB
 90
-16777216
102
RTVSPost2010PropOp51
 70
     0
102
RTVSPost2010Prop52
140
1.0
102
RTVSPost2010PropOp52
 70
     0
102
RTVSPost2010Prop53
 90
        2
102
RTVSPost2010PropOp53
 70
     1
102
RTVSPost2010Prop54
  1
strokes_ogs.tif
102
RTVSPost2010PropOp54
 70
     1
102
RTVSPost2010Prop55
280
     0
102
RTVSPost2010PropOp55
 70
     1
102
RTVSPost2010Prop56
140
1.0
102
RTVSPost2010PropOp56
 70
     1
102
RTVSPost2010Prop57
140
1.0
102
RTVSPost2010PropOp57
 70
     1
102
RTVSPropertyOp0
 70
     0
102
RTVSPropertyOp1
 70
     0
102
RTVSPropertyOp2
 70
     0
102
RTVSPropertyOp3
 70
     0
102
RTVSPropertyOp4
 70
     0
102
RTVSPropertyOp5
 70
     0
102
RTVSPropertyOp6
 70
     0
102
RTVSPropertyOp7
 70
     0
102
RTVSPropertyOp8
 70
     0
102
RTVSPropertyOp9
 70
     0
102
RTVSPropertyOp10
 70
     0
102
RTVSPropertyOp11
 70
     0
102
RTVSPropertyOp12
 70
     0
102
RTVSPropertyOp13
 70
     0
102
RTVSPropertyOp14
 70
     2
102
RTVSPropertyOp15
 70
     0
102
RTVSPropertyOp16
 70
     0
102
RTVSPropertyOp17
 70
     0
102
RTVSPropertyOp18
 70
     0
102
RTVSPropertyOp19
 70
     0
102
RTVSPropertyOp20
 70
     0
102
RTVSPropertyOp21
 70
     0
102
RTVSPropertyOp22
 70
     0
102
RTVSPropertyOp23
 70
     0
102
RTVSPropertyOp24
 70
     0
102
RTVSPropertyOp25
 70
     0
102
RTVSPropertyOp26
 70
     0
102
RTVSPropertyOp27
 70
     0
102
RTVSPropertyOp28
 70
     1
102
RTVSPropertyOp29
 70
     1
102
RTVSPropertyOp30
 70
     1
102
RTVSPropertyOp31
 70
     1
102
RTVSPropertyOp32
 70
     1
102
RTVSPropertyOp33
 70
     1
102
RTVSPropertyOp34
 70
     1
102
RTVSPropertyOp35
 70
     1
102
RTVSPropertyOp36
 70
     1
102
RTVSPropertyOp37
 70
     1
102
RTVSPropertyOp38
 70
     1
102
RTVSPropertyOp39
 70
     1
102
RTVSPropertyOp40
 70
     1
102
RTVSPropertyOp41
 70
     1
102
RTVSPropertyOp42
 70
     1
102
RTVSPropertyOp43
 70
     1
102
RTVSPropertyOp44
 70
     1
102
RTVSPropertyOp45
 70
     1
102
RTVSPropertyOp46
 70
     1
102
RTVSPropertyOp47
 70
     1
102
RTVSPropertyOp48
 70
     1
102
RTVSPropertyOp49
 70
     1
102
RTVSPropertyOp50
 70
     1
102
RTVSPropertyOp51
 70
     0
102
RTVSPropertyOp52
 70
     0
102
RTVSPropertyOp53
 70
     1
102
RTVSPropertyOp54
 70
     1
102
RTVSPropertyOp55
 70
     1
102
RTVSPropertyOp56
 70
     1
102
RTVSPropertyOp57
 70
     1
102
RTVSPropertyOp58
 70
     1
102
RTVSPropertyOp59
 70
     1
102
RTVSPropertyOp60
 70
     1
102
RTVSPropertyOp61
 70
     1
102
RTVSPropertyOp62
 70
     1
  0
XRECORD
  5
AF6
102
{ACAD_REACTORS
330
AF5
102
}
330
AF5
100
AcDbXrecord
280
     1
102
RTVSPost2010Prop28
280
     0
102
RTVSPost2010PropOp28
 70
     1
102
RTVSPost2010Prop29
280
     1
102
RTVSPost2010PropOp29
 70
     1
102
RTVSPost2010Prop30
280
     1
102
RTVSPost2010PropOp30
 70
     1
102
RTVSPost2010Prop31
280
     0
102
RTVSPost2010PropOp31
 70
     1
102
RTVSPost2010Prop32
280
     0
102
RTVSPost2010PropOp32
 70
     1
102
RTVSPost2010Prop33
280
     0
102
RTVSPost2010PropOp33
 70
     1
102
RTVSPost2010Prop34
280
     0
102
RTVSPost2010PropOp34
 70
     1
102
RTVSPost2010Prop35
280
     0
102
RTVSPost2010PropOp35
 70
     1
102
RTVSPost2010Prop36
280
     0
102
RTVSPost2010PropOp36
 70
     1
102
RTVSPost2010Prop37
 90
       50
102
RTVSPost2010PropOp37
 70
     1
102
RTVSPost2010Prop38
140
0.0
102
RTVSPost2010PropOp38
 70
     1
102
RTVSPost2010Prop39
140
1.0
102
RTVSPost2010PropOp39
 70
     1
102
RTVSPost2010Prop40
 90
        0
102
RTVSPost2010PropOp40
 70
     1
102
RTVSPost2010Prop41ColorIndex
 90
       18
102
RTVSPost2010Prop41ColorRGB
 90
        0
102
RTVSPost2010PropOp41
 70
     1
102
RTVSPost2010Prop42
 90
       50
102
RTVSPost2010PropOp42
 70
     1
102
RTVSPost2010Prop43
 90
        3
102
RTVSPost2010PropOp43
 70
     1
102
RTVSPost2010Prop44ColorIndex
 90
        5
102
RTVSPost2010Prop44ColorRGB
 90
      255
102
RTVSPost2010PropOp44
 70
     1
102
RTVSPost2010Prop45
280
     0
102
RTVSPost2010PropOp45
 70
     1
102
RTVSPost2010Prop46
 90
       50
102
RTVSPost2010PropOp46
 70
     1
102
RTVSPost2010Prop47
 90
       50
102
RTVSPost2010PropOp47
 70
     1
102
RTVSPost2010Prop48
 90
       50
102
RTVSPost2010PropOp48
 70
     1
102
RTVSPost2010Prop49
280
     0
102
RTVSPost2010PropOp49
 70
     1
102
RTVSPost2010Prop50
 90
       50
102
RTVSPost2010PropOp50
 70
     1
102
RTVSPost2010Prop51ColorIndex
 90
      256
102
RTVSPost2010Prop51ColorRGB
 90
-16777216
102
RTVSPost2010PropOp51
 70
     0
102
RTVSPost2010Prop52
140
1.0
102
RTVSPost2010PropOp52
 70
     0
102
RTVSPost2010Prop53
 90
        2
102
RTVSPost2010PropOp53
 70
     1
102
RTVSPost2010Prop54
  1
strokes_ogs.tif
102
RTVSPost2010PropOp54
 70
     1
102
RTVSPost2010Prop55
280
     0
102
RTVSPost2010PropOp55
 70
     1
102
RTVSPost2010Prop56
140
1.0
102
RTVSPost2010PropOp56
 70
     1
102
RTVSPost2010Prop57
140
1.0
102
RTVSPost2010PropOp57
 70
     1
102
RTVSPropertyOp0
 70
     1
102
RTVSPropertyOp1
 70
     1
102
RTVSPropertyOp2
 70
     1
102
RTVSPropertyOp3
 70
     1
102
RTVSPropertyOp4
 70
     1
102
RTVSPropertyOp5
 70
     1
102
RTVSPropertyOp6
 70
     1
102
RTVSPropertyOp7
 70
     1
102
RTVSPropertyOp8
 70
     1
102
RTVSPropertyOp9
 70
     1
102
RTVSPropertyOp10
 70
     1
102
RTVSPropertyOp11
 70
     1
102
RTVSPropertyOp12
 70
     1
102
RTVSPropertyOp13
 70
     1
102
RTVSPropertyOp14
 70
     1
102
RTVSPropertyOp15
 70
     1
102
RTVSPropertyOp16
 70
     1
102
RTVSPropertyOp17
 70
     1
102
RTVSPropertyOp18
 70
     1
102
RTVSPropertyOp19
 70
     1
102
RTVSPropertyOp20
 70
     1
102
RTVSPropertyOp21
 70
     1
102
RTVSPropertyOp22
 70
     1
102
RTVSPropertyOp23
 70
     1
102
RTVSPropertyOp24
 70
     1
102
RTVSPropertyOp25
 70
     1
102
RTVSPropertyOp26
 70
     1
102
RTVSPropertyOp27
 70
     1
102
RTVSPropertyOp28
 70
     1
102
RTVSPropertyOp29
 70
     1
102
RTVSPropertyOp30
 70
     1
102
RTVSPropertyOp31
 70
     1
102
RTVSPropertyOp32
 70
     1
102
RTVSPropertyOp33
 70
     1
102
RTVSPropertyOp34
 70
     1
102
RTVSPropertyOp35
 70
     1
102
RTVSPropertyOp36
 70
     1
102
RTVSPropertyOp37
 70
     1
102
RTVSPropertyOp38
 70
     1
102
RTVSPropertyOp39
 70
     1
102
RTVSPropertyOp40
 70
     1
102
RTVSPropertyOp41
 70
     1
102
RTVSPropertyOp42
 70
     1
102
RTVSPropertyOp43
 70
     1
102
RTVSPropertyOp44
 70
     1
102
RTVSPropertyOp45
 70
     1
102
RTVSPropertyOp46
 70
     1
102
RTVSPropertyOp47
 70
     1
102
RTVSPropertyOp48
 70
     1
102
RTVSPropertyOp49
 70
     1
102
RTVSPropertyOp50
 70
     1
102
RTVSPropertyOp51
 70
     0
102
RTVSPropertyOp52
 70
     0
102
RTVSPropertyOp53
 70
     1
102
RTVSPropertyOp54
 70
     1
102
RTVSPropertyOp55
 70
     1
102
RTVSPropertyOp56
 70
     1
102
RTVSPropertyOp57
 70
     1
102
RTVSPropertyOp58
 70
     1
102
RTVSPropertyOp59
 70
     1
102
RTVSPropertyOp60
 70
     1
102
RTVSPropertyOp61
 70
     1
102
RTVSPropertyOp62
 70
     1
  0
XRECORD
  5
B08
102
{ACAD_REACTORS
330
B07
102
}
330
B07
100
AcDbXrecord
280
     1
102
RTVSPost2010Prop28
280
     0
102
RTVSPost2010PropOp28
 70
     1
102
RTVSPost2010Prop29
280
     1
102
RTVSPost2010PropOp29
 70
     1
102
RTVSPost2010Prop30
280
     1
102
RTVSPost2010PropOp30
 70
     1
102
RTVSPost2010Prop31
280
     0
102
RTVSPost2010PropOp31
 70
     1
102
RTVSPost2010Prop32
280
     0
102
RTVSPost2010PropOp32
 70
     1
102
RTVSPost2010Prop33
280
     0
102
RTVSPost2010PropOp33
 70
     1
102
RTVSPost2010Prop34
280
     0
102
RTVSPost2010PropOp34
 70
     1
102
RTVSPost2010Prop35
280
     0
102
RTVSPost2010PropOp35
 70
     1
102
RTVSPost2010Prop36
280
     0
102
RTVSPost2010PropOp36
 70
     1
102
RTVSPost2010Prop37
 90
       50
102
RTVSPost2010PropOp37
 70
     1
102
RTVSPost2010Prop38
140
0.0
102
RTVSPost2010PropOp38
 70
     1
102
RTVSPost2010Prop39
140
1.0
102
RTVSPost2010PropOp39
 70
     1
102
RTVSPost2010Prop40
 90
        0
102
RTVSPost2010PropOp40
 70
     1
102
RTVSPost2010Prop41ColorIndex
 90
       18
102
RTVSPost2010Prop41ColorRGB
 90
        0
102
RTVSPost2010PropOp41
 70
     1
102
RTVSPost2010Prop42
 90
       50
102
RTVSPost2010PropOp42
 70
     1
102
RTVSPost2010Prop43
 90
        3
102
RTVSPost2010PropOp43
 70
     1
102
RTVSPost2010Prop44ColorIndex
 90
        5
102
RTVSPost2010Prop44ColorRGB
 90
      255
102
RTVSPost2010PropOp44
 70
     1
102
RTVSPost2010Prop45
280
     0
102
RTVSPost2010PropOp45
 70
     1
102
RTVSPost2010Prop46
 90
       50
102
RTVSPost2010PropOp46
 70
     1
102
RTVSPost2010Prop47
 90
       50
102
RTVSPost2010PropOp47
 70
     1
102
RTVSPost2010Prop48
 90
       50
102
RTVSPost2010PropOp48
 70
     1
102
RTVSPost2010Prop49
280
     0
102
RTVSPost2010PropOp49
 70
     1
102
RTVSPost2010Prop50
 90
       50
102
RTVSPost2010PropOp50
 70
     1
102
RTVSPost2010Prop51ColorIndex
 90
      256
102
RTVSPost2010Prop51ColorRGB
 90
-16777216
102
RTVSPost2010PropOp51
 70
     0
102
RTVSPost2010Prop52
140
1.0
102
RTVSPost2010PropOp52
 70
     0
102
RTVSPost2010Prop53
 90
        2
102
RTVSPost2010PropOp53
 70
     1
102
RTVSPost2010Prop54
  1
strokes_ogs.tif
102
RTVSPost2010PropOp54
 70
     1
102
RTVSPost2010Prop55
280
     0
102
RTVSPost2010PropOp55
 70
     1
102
RTVSPost2010Prop56
140
1.0
102
RTVSPost2010PropOp56
 70
     1
102
RTVSPost2010Prop57
140
1.0
102
RTVSPost2010PropOp57
 70
     1
102
RTVSPropertyOp0
 70
     0
102
RTVSPropertyOp1
 70
     0
102
RTVSPropertyOp2
 70
     0
102
RTVSPropertyOp3
 70
     0
102
RTVSPropertyOp4
 70
     0
102
RTVSPropertyOp5
 70
     0
102
RTVSPropertyOp6
 70
     0
102
RTVSPropertyOp7
 70
     0
102
RTVSPropertyOp8
 70
     0
102
RTVSPropertyOp9
 70
     0
102
RTVSPropertyOp10
 70
     0
102
RTVSPropertyOp11
 70
     0
102
RTVSPropertyOp12
 70
     0
102
RTVSPropertyOp13
 70
     0
102
RTVSPropertyOp14
 70
     2
102
RTVSPropertyOp15
 70
     0
102
RTVSPropertyOp16
 70
     0
102
RTVSPropertyOp17
 70
     0
102
RTVSPropertyOp18
 70
     0
102
RTVSPropertyOp19
 70
     0
102
RTVSPropertyOp20
 70
     0
102
RTVSPropertyOp21
 70
     0
102
RTVSPropertyOp22
 70
     0
102
RTVSPropertyOp23
 70
     0
102
RTVSPropertyOp24
 70
     0
102
RTVSPropertyOp25
 70
     0
102
RTVSPropertyOp26
 70
     0
102
RTVSPropertyOp27
 70
     0
102
RTVSPropertyOp28
 70
     1
102
RTVSPropertyOp29
 70
     1
102
RTVSPropertyOp30
 70
     1
102
RTVSPropertyOp31
 70
     1
102
RTVSPropertyOp32
 70
     1
102
RTVSPropertyOp33
 70
     1
102
RTVSPropertyOp34
 70
     1
102
RTVSPropertyOp35
 70
     1
102
RTVSPropertyOp36
 70
     1
102
RTVSPropertyOp37
 70
     1
102
RTVSPropertyOp38
 70
     1
102
RTVSPropertyOp39
 70
     1
102
RTVSPropertyOp40
 70
     1
102
RTVSPropertyOp41
 70
     1
102
RTVSPropertyOp42
 70
     1
102
RTVSPropertyOp43
 70
     1
102
RTVSPropertyOp44
 70
     1
102
RTVSPropertyOp45
 70
     1
102
RTVSPropertyOp46
 70
     1
102
RTVSPropertyOp47
 70
     1
102
RTVSPropertyOp48
 70
     1
102
RTVSPropertyOp49
 70
     1
102
RTVSPropertyOp50
 70
     1
102
RTVSPropertyOp51
 70
     0
102
RTVSPropertyOp52
 70
     0
102
RTVSPropertyOp53
 70
     1
102
RTVSPropertyOp54
 70
     1
102
RTVSPropertyOp55
 70
     1
102
RTVSPropertyOp56
 70
     1
102
RTVSPropertyOp57
 70
     1
102
RTVSPropertyOp58
 70
     1
102
RTVSPropertyOp59
 70
     1
102
RTVSPropertyOp60
 70
     1
102
RTVSPropertyOp61
 70
     1
102
RTVSPropertyOp62
 70
     1
  0
XRECORD
  5
AEE
102
{ACAD_REACTORS
330
AED
102
}
330
AED
100
AcDbXrecord
280
     1
102
RTVSPost2010Prop28
280
     0
102
RTVSPost2010PropOp28
 70
     1
102
RTVSPost2010Prop29
280
     1
102
RTVSPost2010PropOp29
 70
     1
102
RTVSPost2010Prop30
280
     1
102
RTVSPost2010PropOp30
 70
     1
102
RTVSPost2010Prop31
280
     0
102
RTVSPost2010PropOp31
 70
     1
102
RTVSPost2010Prop32
280
     0
102
RTVSPost2010PropOp32
 70
     1
102
RTVSPost2010Prop33
280
     0
102
RTVSPost2010PropOp33
 70
     1
102
RTVSPost2010Prop34
280
     0
102
RTVSPost2010PropOp34
 70
     1
102
RTVSPost2010Prop35
280
     0
102
RTVSPost2010PropOp35
 70
     1
102
RTVSPost2010Prop36
280
     0
102
RTVSPost2010PropOp36
 70
     1
102
RTVSPost2010Prop37
 90
       50
102
RTVSPost2010PropOp37
 70
     1
102
RTVSPost2010Prop38
140
0.0
102
RTVSPost2010PropOp38
 70
     1
102
RTVSPost2010Prop39
140
1.0
102
RTVSPost2010PropOp39
 70
     1
102
RTVSPost2010Prop40
 90
        0
102
RTVSPost2010PropOp40
 70
     1
102
RTVSPost2010Prop41ColorIndex
 90
       18
102
RTVSPost2010Prop41ColorRGB
 90
        0
102
RTVSPost2010PropOp41
 70
     1
102
RTVSPost2010Prop42
 90
       50
102
RTVSPost2010PropOp42
 70
     1
102
RTVSPost2010Prop43
 90
        3
102
RTVSPost2010PropOp43
 70
     1
102
RTVSPost2010Prop44ColorIndex
 90
        5
102
RTVSPost2010Prop44ColorRGB
 90
      255
102
RTVSPost2010PropOp44
 70
     1
102
RTVSPost2010Prop45
280
     0
102
RTVSPost2010PropOp45
 70
     1
102
RTVSPost2010Prop46
 90
       50
102
RTVSPost2010PropOp46
 70
     1
102
RTVSPost2010Prop47
 90
       50
102
RTVSPost2010PropOp47
 70
     1
102
RTVSPost2010Prop48
 90
       50
102
RTVSPost2010PropOp48
 70
     1
102
RTVSPost2010Prop49
280
     0
102
RTVSPost2010PropOp49
 70
     1
102
RTVSPost2010Prop50
 90
       50
102
RTVSPost2010PropOp50
 70
     1
102
RTVSPost2010Prop51ColorIndex
 90
      256
102
RTVSPost2010Prop51ColorRGB
 90
-16777216
102
RTVSPost2010PropOp51
 70
     0
102
RTVSPost2010Prop52
140
1.0
102
RTVSPost2010PropOp52
 70
     0
102
RTVSPost2010Prop53
 90
        2
102
RTVSPost2010PropOp53
 70
     1
102
RTVSPost2010Prop54
  1
strokes_ogs.tif
102
RTVSPost2010PropOp54
 70
     1
102
RTVSPost2010Prop55
280
     0
102
RTVSPost2010PropOp55
 70
     1
102
RTVSPost2010Prop56
140
1.0
102
RTVSPost2010PropOp56
 70
     1
102
RTVSPost2010Prop57
140
1.0
102
RTVSPost2010PropOp57
 70
     1
102
RTVSPropertyOp0
 70
     1
102
RTVSPropertyOp1
 70
     1
102
RTVSPropertyOp2
 70
     1
102
RTVSPropertyOp3
 70
     1
102
RTVSPropertyOp4
 70
     1
102
RTVSPropertyOp5
 70
     1
102
RTVSPropertyOp6
 70
     1
102
RTVSPropertyOp7
 70
     1
102
RTVSPropertyOp8
 70
     1
102
RTVSPropertyOp9
 70
     1
102
RTVSPropertyOp10
 70
     1
102
RTVSPropertyOp11
 70
     1
102
RTVSPropertyOp12
 70
     1
102
RTVSPropertyOp13
 70
     1
102
RTVSPropertyOp14
 70
     1
102
RTVSPropertyOp15
 70
     1
102
RTVSPropertyOp16
 70
     1
102
RTVSPropertyOp17
 70
     1
102
RTVSPropertyOp18
 70
     1
102
RTVSPropertyOp19
 70
     1
102
RTVSPropertyOp20
 70
     1
102
RTVSPropertyOp21
 70
     1
102
RTVSPropertyOp22
 70
     1
102
RTVSPropertyOp23
 70
     1
102
RTVSPropertyOp24
 70
     1
102
RTVSPropertyOp25
 70
     1
102
RTVSPropertyOp26
 70
     1
102
RTVSPropertyOp27
 70
     1
102
RTVSPropertyOp28
 70
     1
102
RTVSPropertyOp29
 70
     1
102
RTVSPropertyOp30
 70
     1
102
RTVSPropertyOp31
 70
     1
102
RTVSPropertyOp32
 70
     1
102
RTVSPropertyOp33
 70
     1
102
RTVSPropertyOp34
 70
     1
102
RTVSPropertyOp35
 70
     1
102
RTVSPropertyOp36
 70
     1
102
RTVSPropertyOp37
 70
     1
102
RTVSPropertyOp38
 70
     1
102
RTVSPropertyOp39
 70
     1
102
RTVSPropertyOp40
 70
     1
102
RTVSPropertyOp41
 70
     1
102
RTVSPropertyOp42
 70
     1
102
RTVSPropertyOp43
 70
     1
102
RTVSPropertyOp44
 70
     1
102
RTVSPropertyOp45
 70
     1
102
RTVSPropertyOp46
 70
     1
102
RTVSPropertyOp47
 70
     1
102
RTVSPropertyOp48
 70
     1
102
RTVSPropertyOp49
 70
     1
102
RTVSPropertyOp50
 70
     1
102
RTVSPropertyOp51
 70
     0
102
RTVSPropertyOp52
 70
     0
102
RTVSPropertyOp53
 70
     1
102
RTVSPropertyOp54
 70
     1
102
RTVSPropertyOp55
 70
     1
102
RTVSPropertyOp56
 70
     1
102
RTVSPropertyOp57
 70
     1
102
RTVSPropertyOp58
 70
     1
102
RTVSPropertyOp59
 70
     1
102
RTVSPropertyOp60
 70
     1
102
RTVSPropertyOp61
 70
     1
102
RTVSPropertyOp62
 70
     1
  0
XRECORD
  5
B04
102
{ACAD_REACTORS
330
B03
102
}
330
B03
100
AcDbXrecord
280
     1
102
RTVSPost2010Prop28
280
     0
102
RTVSPost2010PropOp28
 70
     1
102
RTVSPost2010Prop29
280
     1
102
RTVSPost2010PropOp29
 70
     1
102
RTVSPost2010Prop30
280
     1
102
RTVSPost2010PropOp30
 70
     1
102
RTVSPost2010Prop31
280
     0
102
RTVSPost2010PropOp31
 70
     1
102
RTVSPost2010Prop32
280
     0
102
RTVSPost2010PropOp32
 70
     1
102
RTVSPost2010Prop33
280
     0
102
RTVSPost2010PropOp33
 70
     1
102
RTVSPost2010Prop34
280
     0
102
RTVSPost2010PropOp34
 70
     1
102
RTVSPost2010Prop35
280
     0
102
RTVSPost2010PropOp35
 70
     1
102
RTVSPost2010Prop36
280
     0
102
RTVSPost2010PropOp36
 70
     1
102
RTVSPost2010Prop37
 90
       50
102
RTVSPost2010PropOp37
 70
     1
102
RTVSPost2010Prop38
140
0.0
102
RTVSPost2010PropOp38
 70
     1
102
RTVSPost2010Prop39
140
1.0
102
RTVSPost2010PropOp39
 70
     1
102
RTVSPost2010Prop40
 90
        0
102
RTVSPost2010PropOp40
 70
     1
102
RTVSPost2010Prop41ColorIndex
 90
       18
102
RTVSPost2010Prop41ColorRGB
 90
        0
102
RTVSPost2010PropOp41
 70
     1
102
RTVSPost2010Prop42
 90
       50
102
RTVSPost2010PropOp42
 70
     1
102
RTVSPost2010Prop43
 90
        3
102
RTVSPost2010PropOp43
 70
     1
102
RTVSPost2010Prop44ColorIndex
 90
        5
102
RTVSPost2010Prop44ColorRGB
 90
      255
102
RTVSPost2010PropOp44
 70
     1
102
RTVSPost2010Prop45
280
     0
102
RTVSPost2010PropOp45
 70
     1
102
RTVSPost2010Prop46
 90
       50
102
RTVSPost2010PropOp46
 70
     1
102
RTVSPost2010Prop47
 90
       50
102
RTVSPost2010PropOp47
 70
     1
102
RTVSPost2010Prop48
 90
       50
102
RTVSPost2010PropOp48
 70
     1
102
RTVSPost2010Prop49
280
     0
102
RTVSPost2010PropOp49
 70
     1
102
RTVSPost2010Prop50
 90
       50
102
RTVSPost2010PropOp50
 70
     1
102
RTVSPost2010Prop51ColorIndex
 90
      256
102
RTVSPost2010Prop51ColorRGB
 90
-16777216
102
RTVSPost2010PropOp51
 70
     0
102
RTVSPost2010Prop52
140
1.0
102
RTVSPost2010PropOp52
 70
     0
102
RTVSPost2010Prop53
 90
        2
102
RTVSPost2010PropOp53
 70
     1
102
RTVSPost2010Prop54
  1
strokes_ogs.tif
102
RTVSPost2010PropOp54
 70
     1
102
RTVSPost2010Prop55
280
     0
102
RTVSPost2010PropOp55
 70
     1
102
RTVSPost2010Prop56
140
1.0
102
RTVSPost2010PropOp56
 70
     1
102
RTVSPost2010Prop57
140
1.0
102
RTVSPost2010PropOp57
 70
     1
102
RTVSPropertyOp0
 70
     1
102
RTVSPropertyOp1
 70
     1
102
RTVSPropertyOp2
 70
     1
102
RTVSPropertyOp3
 70
     1
102
RTVSPropertyOp4
 70
     1
102
RTVSPropertyOp5
 70
     1
102
RTVSPropertyOp6
 70
     1
102
RTVSPropertyOp7
 70
     1
102
RTVSPropertyOp8
 70
     1
102
RTVSPropertyOp9
 70
     1
102
RTVSPropertyOp10
 70
     1
102
RTVSPropertyOp11
 70
     1
102
RTVSPropertyOp12
 70
     1
102
RTVSPropertyOp13
 70
     1
102
RTVSPropertyOp14
 70
     1
102
RTVSPropertyOp15
 70
     1
102
RTVSPropertyOp16
 70
     1
102
RTVSPropertyOp17
 70
     1
102
RTVSPropertyOp18
 70
     1
102
RTVSPropertyOp19
 70
     1
102
RTVSPropertyOp20
 70
     1
102
RTVSPropertyOp21
 70
     1
102
RTVSPropertyOp22
 70
     1
102
RTVSPropertyOp23
 70
     1
102
RTVSPropertyOp24
 70
     1
102
RTVSPropertyOp25
 70
     1
102
RTVSPropertyOp26
 70
     1
102
RTVSPropertyOp27
 70
     1
102
RTVSPropertyOp28
 70
     1
102
RTVSPropertyOp29
 70
     1
102
RTVSPropertyOp30
 70
     1
102
RTVSPropertyOp31
 70
     1
102
RTVSPropertyOp32
 70
     1
102
RTVSPropertyOp33
 70
     1
102
RTVSPropertyOp34
 70
     1
102
RTVSPropertyOp35
 70
     1
102
RTVSPropertyOp36
 70
     1
102
RTVSPropertyOp37
 70
     1
102
RTVSPropertyOp38
 70
     1
102
RTVSPropertyOp39
 70
     1
102
RTVSPropertyOp40
 70
     1
102
RTVSPropertyOp41
 70
     1
102
RTVSPropertyOp42
 70
     1
102
RTVSPropertyOp43
 70
     1
102
RTVSPropertyOp44
 70
     1
102
RTVSPropertyOp45
 70
     1
102
RTVSPropertyOp46
 70
     1
102
RTVSPropertyOp47
 70
     1
102
RTVSPropertyOp48
 70
     1
102
RTVSPropertyOp49
 70
     1
102
RTVSPropertyOp50
 70
     1
102
RTVSPropertyOp51
 70
     0
102
RTVSPropertyOp52
 70
     0
102
RTVSPropertyOp53
 70
     1
102
RTVSPropertyOp54
 70
     1
102
RTVSPropertyOp55
 70
     1
102
RTVSPropertyOp56
 70
     1
102
RTVSPropertyOp57
 70
     1
102
RTVSPropertyOp58
 70
     1
102
RTVSPropertyOp59
 70
     1
102
RTVSPropertyOp60
 70
     1
102
RTVSPropertyOp61
 70
     1
102
RTVSPropertyOp62
 70
     1
  0
XRECORD
  5
B02
102
{ACAD_REACTORS
330
B01
102
}
330
B01
100
AcDbXrecord
280
     1
102
RTVSPost2010Prop28
280
     0
102
RTVSPost2010PropOp28
 70
     1
102
RTVSPost2010Prop29
280
     1
102
RTVSPost2010PropOp29
 70
     1
102
RTVSPost2010Prop30
280
     1
102
RTVSPost2010PropOp30
 70
     1
102
RTVSPost2010Prop31
280
     0
102
RTVSPost2010PropOp31
 70
     1
102
RTVSPost2010Prop32
280
     0
102
RTVSPost2010PropOp32
 70
     1
102
RTVSPost2010Prop33
280
     0
102
RTVSPost2010PropOp33
 70
     1
102
RTVSPost2010Prop34
280
     0
102
RTVSPost2010PropOp34
 70
     1
102
RTVSPost2010Prop35
280
     0
102
RTVSPost2010PropOp35
 70
     1
102
RTVSPost2010Prop36
280
     0
102
RTVSPost2010PropOp36
 70
     1
102
RTVSPost2010Prop37
 90
       50
102
RTVSPost2010PropOp37
 70
     1
102
RTVSPost2010Prop38
140
0.0
102
RTVSPost2010PropOp38
 70
     1
102
RTVSPost2010Prop39
140
1.0
102
RTVSPost2010PropOp39
 70
     1
102
RTVSPost2010Prop40
 90
        0
102
RTVSPost2010PropOp40
 70
     1
102
RTVSPost2010Prop41ColorIndex
 90
       18
102
RTVSPost2010Prop41ColorRGB
 90
        0
102
RTVSPost2010PropOp41
 70
     1
102
RTVSPost2010Prop42
 90
       50
102
RTVSPost2010PropOp42
 70
     1
102
RTVSPost2010Prop43
 90
        3
102
RTVSPost2010PropOp43
 70
     1
102
RTVSPost2010Prop44ColorIndex
 90
        5
102
RTVSPost2010Prop44ColorRGB
 90
      255
102
RTVSPost2010PropOp44
 70
     1
102
RTVSPost2010Prop45
280
     0
102
RTVSPost2010PropOp45
 70
     1
102
RTVSPost2010Prop46
 90
       50
102
RTVSPost2010PropOp46
 70
     1
102
RTVSPost2010Prop47
 90
       50
102
RTVSPost2010PropOp47
 70
     1
102
RTVSPost2010Prop48
 90
       50
102
RTVSPost2010PropOp48
 70
     1
102
RTVSPost2010Prop49
280
     0
102
RTVSPost2010PropOp49
 70
     1
102
RTVSPost2010Prop50
 90
       50
102
RTVSPost2010PropOp50
 70
     1
102
RTVSPost2010Prop51ColorIndex
 90
      256
102
RTVSPost2010Prop51ColorRGB
 90
-16777216
102
RTVSPost2010PropOp51
 70
     0
102
RTVSPost2010Prop52
140
1.0
102
RTVSPost2010PropOp52
 70
     0
102
RTVSPost2010Prop53
 90
        2
102
RTVSPost2010PropOp53
 70
     1
102
RTVSPost2010Prop54
  1
strokes_ogs.tif
102
RTVSPost2010PropOp54
 70
     1
102
RTVSPost2010Prop55
280
     0
102
RTVSPost2010PropOp55
 70
     1
102
RTVSPost2010Prop56
140
1.0
102
RTVSPost2010PropOp56
 70
     1
102
RTVSPost2010Prop57
140
1.0
102
RTVSPost2010PropOp57
 70
     1
102
RTVSPropertyOp0
 70
     1
102
RTVSPropertyOp1
 70
     1
102
RTVSPropertyOp2
 70
     1
102
RTVSPropertyOp3
 70
     1
102
RTVSPropertyOp4
 70
     1
102
RTVSPropertyOp5
 70
     1
102
RTVSPropertyOp6
 70
     1
102
RTVSPropertyOp7
 70
     1
102
RTVSPropertyOp8
 70
     1
102
RTVSPropertyOp9
 70
     1
102
RTVSPropertyOp10
 70
     1
102
RTVSPropertyOp11
 70
     1
102
RTVSPropertyOp12
 70
     1
102
RTVSPropertyOp13
 70
     1
102
RTVSPropertyOp14
 70
     1
102
RTVSPropertyOp15
 70
     1
102
RTVSPropertyOp16
 70
     1
102
RTVSPropertyOp17
 70
     1
102
RTVSPropertyOp18
 70
     1
102
RTVSPropertyOp19
 70
     1
102
RTVSPropertyOp20
 70
     1
102
RTVSPropertyOp21
 70
     1
102
RTVSPropertyOp22
 70
     1
102
RTVSPropertyOp23
 70
     1
102
RTVSPropertyOp24
 70
     1
102
RTVSPropertyOp25
 70
     1
102
RTVSPropertyOp26
 70
     1
102
RTVSPropertyOp27
 70
     1
102
RTVSPropertyOp28
 70
     1
102
RTVSPropertyOp29
 70
     1
102
RTVSPropertyOp30
 70
     1
102
RTVSPropertyOp31
 70
     1
102
RTVSPropertyOp32
 70
     1
102
RTVSPropertyOp33
 70
     1
102
RTVSPropertyOp34
 70
     1
102
RTVSPropertyOp35
 70
     1
102
RTVSPropertyOp36
 70
     1
102
RTVSPropertyOp37
 70
     1
102
RTVSPropertyOp38
 70
     1
102
RTVSPropertyOp39
 70
     1
102
RTVSPropertyOp40
 70
     1
102
RTVSPropertyOp41
 70
     1
102
RTVSPropertyOp42
 70
     1
102
RTVSPropertyOp43
 70
     1
102
RTVSPropertyOp44
 70
     1
102
RTVSPropertyOp45
 70
     1
102
RTVSPropertyOp46
 70
     1
102
RTVSPropertyOp47
 70
     1
102
RTVSPropertyOp48
 70
     1
102
RTVSPropertyOp49
 70
     1
102
RTVSPropertyOp50
 70
     1
102
RTVSPropertyOp51
 70
     0
102
RTVSPropertyOp52
 70
     0
102
RTVSPropertyOp53
 70
     1
102
RTVSPropertyOp54
 70
     1
102
RTVSPropertyOp55
 70
     1
102
RTVSPropertyOp56
 70
     1
102
RTVSPropertyOp57
 70
     1
102
RTVSPropertyOp58
 70
     1
102
RTVSPropertyOp59
 70
     1
102
RTVSPropertyOp60
 70
     1
102
RTVSPropertyOp61
 70
     1
102
RTVSPropertyOp62
 70
     1
  0
XRECORD
  5
AFC
102
{ACAD_REACTORS
330
AFB
102
}
330
AFB
100
AcDbXrecord
280
     1
102
RTVSPost2010Prop28
280
     0
102
RTVSPost2010PropOp28
 70
     1
102
RTVSPost2010Prop29
280
     1
102
RTVSPost2010PropOp29
 70
     1
102
RTVSPost2010Prop30
280
     1
102
RTVSPost2010PropOp30
 70
     1
102
RTVSPost2010Prop31
280
     0
102
RTVSPost2010PropOp31
 70
     1
102
RTVSPost2010Prop32
280
     0
102
RTVSPost2010PropOp32
 70
     1
102
RTVSPost2010Prop33
280
     0
102
RTVSPost2010PropOp33
 70
     1
102
RTVSPost2010Prop34
280
     0
102
RTVSPost2010PropOp34
 70
     1
102
RTVSPost2010Prop35
280
     0
102
RTVSPost2010PropOp35
 70
     1
102
RTVSPost2010Prop36
280
     0
102
RTVSPost2010PropOp36
 70
     1
102
RTVSPost2010Prop37
 90
       50
102
RTVSPost2010PropOp37
 70
     1
102
RTVSPost2010Prop38
140
0.0
102
RTVSPost2010PropOp38
 70
     1
102
RTVSPost2010Prop39
140
1.0
102
RTVSPost2010PropOp39
 70
     1
102
RTVSPost2010Prop40
 90
        0
102
RTVSPost2010PropOp40
 70
     1
102
RTVSPost2010Prop41ColorIndex
 90
       18
102
RTVSPost2010Prop41ColorRGB
 90
        0
102
RTVSPost2010PropOp41
 70
     1
102
RTVSPost2010Prop42
 90
       50
102
RTVSPost2010PropOp42
 70
     1
102
RTVSPost2010Prop43
 90
        3
102
RTVSPost2010PropOp43
 70
     1
102
RTVSPost2010Prop44ColorIndex
 90
        5
102
RTVSPost2010Prop44ColorRGB
 90
      255
102
RTVSPost2010PropOp44
 70
     1
102
RTVSPost2010Prop45
280
     0
102
RTVSPost2010PropOp45
 70
     1
102
RTVSPost2010Prop46
 90
       50
102
RTVSPost2010PropOp46
 70
     1
102
RTVSPost2010Prop47
 90
       50
102
RTVSPost2010PropOp47
 70
     1
102
RTVSPost2010Prop48
 90
       50
102
RTVSPost2010PropOp48
 70
     1
102
RTVSPost2010Prop49
280
     0
102
RTVSPost2010PropOp49
 70
     1
102
RTVSPost2010Prop50
 90
       50
102
RTVSPost2010PropOp50
 70
     1
102
RTVSPost2010Prop51ColorIndex
 90
      256
102
RTVSPost2010Prop51ColorRGB
 90
-16777216
102
RTVSPost2010PropOp51
 70
     0
102
RTVSPost2010Prop52
140
1.0
102
RTVSPost2010PropOp52
 70
     0
102
RTVSPost2010Prop53
 90
        2
102
RTVSPost2010PropOp53
 70
     1
102
RTVSPost2010Prop54
  1
strokes_ogs.tif
102
RTVSPost2010PropOp54
 70
     1
102
RTVSPost2010Prop55
280
     0
102
RTVSPost2010PropOp55
 70
     1
102
RTVSPost2010Prop56
140
1.0
102
RTVSPost2010PropOp56
 70
     1
102
RTVSPost2010Prop57
140
1.0
102
RTVSPost2010PropOp57
 70
     1
102
RTVSPropertyOp0
 70
     1
102
RTVSPropertyOp1
 70
     1
102
RTVSPropertyOp2
 70
     1
102
RTVSPropertyOp3
 70
     1
102
RTVSPropertyOp4
 70
     1
102
RTVSPropertyOp5
 70
     1
102
RTVSPropertyOp6
 70
     1
102
RTVSPropertyOp7
 70
     1
102
RTVSPropertyOp8
 70
     1
102
RTVSPropertyOp9
 70
     1
102
RTVSPropertyOp10
 70
     1
102
RTVSPropertyOp11
 70
     1
102
RTVSPropertyOp12
 70
     1
102
RTVSPropertyOp13
 70
     1
102
RTVSPropertyOp14
 70
     1
102
RTVSPropertyOp15
 70
     1
102
RTVSPropertyOp16
 70
     1
102
RTVSPropertyOp17
 70
     1
102
RTVSPropertyOp18
 70
     1
102
RTVSPropertyOp19
 70
     1
102
RTVSPropertyOp20
 70
     1
102
RTVSPropertyOp21
 70
     1
102
RTVSPropertyOp22
 70
     1
102
RTVSPropertyOp23
 70
     1
102
RTVSPropertyOp24
 70
     1
102
RTVSPropertyOp25
 70
     1
102
RTVSPropertyOp26
 70
     1
102
RTVSPropertyOp27
 70
     1
102
RTVSPropertyOp28
 70
     1
102
RTVSPropertyOp29
 70
     1
102
RTVSPropertyOp30
 70
     1
102
RTVSPropertyOp31
 70
     1
102
RTVSPropertyOp32
 70
     1
102
RTVSPropertyOp33
 70
     1
102
RTVSPropertyOp34
 70
     1
102
RTVSPropertyOp35
 70
     1
102
RTVSPropertyOp36
 70
     1
102
RTVSPropertyOp37
 70
     1
102
RTVSPropertyOp38
 70
     1
102
RTVSPropertyOp39
 70
     1
102
RTVSPropertyOp40
 70
     1
102
RTVSPropertyOp41
 70
     1
102
RTVSPropertyOp42
 70
     1
102
RTVSPropertyOp43
 70
     1
102
RTVSPropertyOp44
 70
     1
102
RTVSPropertyOp45
 70
     1
102
RTVSPropertyOp46
 70
     1
102
RTVSPropertyOp47
 70
     1
102
RTVSPropertyOp48
 70
     1
102
RTVSPropertyOp49
 70
     1
102
RTVSPropertyOp50
 70
     1
102
RTVSPropertyOp51
 70
     0
102
RTVSPropertyOp52
 70
     0
102
RTVSPropertyOp53
 70
     1
102
RTVSPropertyOp54
 70
     1
102
RTVSPropertyOp55
 70
     1
102
RTVSPropertyOp56
 70
     1
102
RTVSPropertyOp57
 70
     1
102
RTVSPropertyOp58
 70
     1
102
RTVSPropertyOp59
 70
     1
102
RTVSPropertyOp60
 70
     1
102
RTVSPropertyOp61
 70
     1
102
RTVSPropertyOp62
 70
     1
  0
XRECORD
  5
AFE
102
{ACAD_REACTORS
330
AFD
102
}
330
AFD
100
AcDbXrecord
280
     1
102
RTVSPost2010Prop28
280
     0
102
RTVSPost2010PropOp28
 70
     1
102
RTVSPost2010Prop29
280
     1
102
RTVSPost2010PropOp29
 70
     1
102
RTVSPost2010Prop30
280
     1
102
RTVSPost2010PropOp30
 70
     1
102
RTVSPost2010Prop31
280
     0
102
RTVSPost2010PropOp31
 70
     1
102
RTVSPost2010Prop32
280
     0
102
RTVSPost2010PropOp32
 70
     1
102
RTVSPost2010Prop33
280
     0
102
RTVSPost2010PropOp33
 70
     1
102
RTVSPost2010Prop34
280
     0
102
RTVSPost2010PropOp34
 70
     1
102
RTVSPost2010Prop35
280
     0
102
RTVSPost2010PropOp35
 70
     1
102
RTVSPost2010Prop36
280
     0
102
RTVSPost2010PropOp36
 70
     1
102
RTVSPost2010Prop37
 90
       50
102
RTVSPost2010PropOp37
 70
     1
102
RTVSPost2010Prop38
140
0.0
102
RTVSPost2010PropOp38
 70
     1
102
RTVSPost2010Prop39
140
1.0
102
RTVSPost2010PropOp39
 70
     1
102
RTVSPost2010Prop40
 90
        0
102
RTVSPost2010PropOp40
 70
     1
102
RTVSPost2010Prop41ColorIndex
 90
       18
102
RTVSPost2010Prop41ColorRGB
 90
        0
102
RTVSPost2010PropOp41
 70
     1
102
RTVSPost2010Prop42
 90
       50
102
RTVSPost2010PropOp42
 70
     1
102
RTVSPost2010Prop43
 90
        3
102
RTVSPost2010PropOp43
 70
     1
102
RTVSPost2010Prop44ColorIndex
 90
        5
102
RTVSPost2010Prop44ColorRGB
 90
      255
102
RTVSPost2010PropOp44
 70
     1
102
RTVSPost2010Prop45
280
     0
102
RTVSPost2010PropOp45
 70
     1
102
RTVSPost2010Prop46
 90
       50
102
RTVSPost2010PropOp46
 70
     1
102
RTVSPost2010Prop47
 90
       50
102
RTVSPost2010PropOp47
 70
     1
102
RTVSPost2010Prop48
 90
       50
102
RTVSPost2010PropOp48
 70
     1
102
RTVSPost2010Prop49
280
     0
102
RTVSPost2010PropOp49
 70
     1
102
RTVSPost2010Prop50
 90
       50
102
RTVSPost2010PropOp50
 70
     1
102
RTVSPost2010Prop51ColorIndex
 90
      256
102
RTVSPost2010Prop51ColorRGB
 90
-16777216
102
RTVSPost2010PropOp51
 70
     0
102
RTVSPost2010Prop52
140
1.0
102
RTVSPost2010PropOp52
 70
     0
102
RTVSPost2010Prop53
 90
        2
102
RTVSPost2010PropOp53
 70
     1
102
RTVSPost2010Prop54
  1
strokes_ogs.tif
102
RTVSPost2010PropOp54
 70
     1
102
RTVSPost2010Prop55
280
     0
102
RTVSPost2010PropOp55
 70
     1
102
RTVSPost2010Prop56
140
1.0
102
RTVSPost2010PropOp56
 70
     1
102
RTVSPost2010Prop57
140
1.0
102
RTVSPost2010PropOp57
 70
     1
102
RTVSPropertyOp0
 70
     1
102
RTVSPropertyOp1
 70
     1
102
RTVSPropertyOp2
 70
     1
102
RTVSPropertyOp3
 70
     1
102
RTVSPropertyOp4
 70
     1
102
RTVSPropertyOp5
 70
     1
102
RTVSPropertyOp6
 70
     1
102
RTVSPropertyOp7
 70
     1
102
RTVSPropertyOp8
 70
     1
102
RTVSPropertyOp9
 70
     1
102
RTVSPropertyOp10
 70
     1
102
RTVSPropertyOp11
 70
     1
102
RTVSPropertyOp12
 70
     1
102
RTVSPropertyOp13
 70
     1
102
RTVSPropertyOp14
 70
     1
102
RTVSPropertyOp15
 70
     1
102
RTVSPropertyOp16
 70
     1
102
RTVSPropertyOp17
 70
     1
102
RTVSPropertyOp18
 70
     1
102
RTVSPropertyOp19
 70
     1
102
RTVSPropertyOp20
 70
     1
102
RTVSPropertyOp21
 70
     1
102
RTVSPropertyOp22
 70
     1
102
RTVSPropertyOp23
 70
     1
102
RTVSPropertyOp24
 70
     1
102
RTVSPropertyOp25
 70
     1
102
RTVSPropertyOp26
 70
     1
102
RTVSPropertyOp27
 70
     1
102
RTVSPropertyOp28
 70
     1
102
RTVSPropertyOp29
 70
     1
102
RTVSPropertyOp30
 70
     1
102
RTVSPropertyOp31
 70
     1
102
RTVSPropertyOp32
 70
     1
102
RTVSPropertyOp33
 70
     1
102
RTVSPropertyOp34
 70
     1
102
RTVSPropertyOp35
 70
     1
102
RTVSPropertyOp36
 70
     1
102
RTVSPropertyOp37
 70
     1
102
RTVSPropertyOp38
 70
     1
102
RTVSPropertyOp39
 70
     1
102
RTVSPropertyOp40
 70
     1
102
RTVSPropertyOp41
 70
     1
102
RTVSPropertyOp42
 70
     1
102
RTVSPropertyOp43
 70
     1
102
RTVSPropertyOp44
 70
     1
102
RTVSPropertyOp45
 70
     1
102
RTVSPropertyOp46
 70
     1
102
RTVSPropertyOp47
 70
     1
102
RTVSPropertyOp48
 70
     1
102
RTVSPropertyOp49
 70
     1
102
RTVSPropertyOp50
 70
     1
102
RTVSPropertyOp51
 70
     0
102
RTVSPropertyOp52
 70
     0
102
RTVSPropertyOp53
 70
     1
102
RTVSPropertyOp54
 70
     1
102
RTVSPropertyOp55
 70
     1
102
RTVSPropertyOp56
 70
     1
102
RTVSPropertyOp57
 70
     1
102
RTVSPropertyOp58
 70
     1
102
RTVSPropertyOp59
 70
     1
102
RTVSPropertyOp60
 70
     1
102
RTVSPropertyOp61
 70
     1
102
RTVSPropertyOp62
 70
     1
  0
XRECORD
  5
AF4
102
{ACAD_REACTORS
330
AF3
102
}
330
AF3
100
AcDbXrecord
280
     1
102
RTVSPost2010Prop28
280
     0
102
RTVSPost2010PropOp28
 70
     1
102
RTVSPost2010Prop29
280
     1
102
RTVSPost2010PropOp29
 70
     1
102
RTVSPost2010Prop30
280
     1
102
RTVSPost2010PropOp30
 70
     1
102
RTVSPost2010Prop31
280
     0
102
RTVSPost2010PropOp31
 70
     1
102
RTVSPost2010Prop32
280
     0
102
RTVSPost2010PropOp32
 70
     1
102
RTVSPost2010Prop33
280
     0
102
RTVSPost2010PropOp33
 70
     1
102
RTVSPost2010Prop34
280
     0
102
RTVSPost2010PropOp34
 70
     1
102
RTVSPost2010Prop35
280
     0
102
RTVSPost2010PropOp35
 70
     1
102
RTVSPost2010Prop36
280
     0
102
RTVSPost2010PropOp36
 70
     1
102
RTVSPost2010Prop37
 90
       50
102
RTVSPost2010PropOp37
 70
     1
102
RTVSPost2010Prop38
140
0.0
102
RTVSPost2010PropOp38
 70
     1
102
RTVSPost2010Prop39
140
1.0
102
RTVSPost2010PropOp39
 70
     1
102
RTVSPost2010Prop40
 90
        0
102
RTVSPost2010PropOp40
 70
     1
102
RTVSPost2010Prop41ColorIndex
 90
       18
102
RTVSPost2010Prop41ColorRGB
 90
        0
102
RTVSPost2010PropOp41
 70
     1
102
RTVSPost2010Prop42
 90
       50
102
RTVSPost2010PropOp42
 70
     1
102
RTVSPost2010Prop43
 90
        3
102
RTVSPost2010PropOp43
 70
     1
102
RTVSPost2010Prop44ColorIndex
 90
        5
102
RTVSPost2010Prop44ColorRGB
 90
      255
102
RTVSPost2010PropOp44
 70
     1
102
RTVSPost2010Prop45
280
     0
102
RTVSPost2010PropOp45
 70
     1
102
RTVSPost2010Prop46
 90
       50
102
RTVSPost2010PropOp46
 70
     1
102
RTVSPost2010Prop47
 90
       50
102
RTVSPost2010PropOp47
 70
     1
102
RTVSPost2010Prop48
 90
       50
102
RTVSPost2010PropOp48
 70
     1
102
RTVSPost2010Prop49
280
     0
102
RTVSPost2010PropOp49
 70
     1
102
RTVSPost2010Prop50
 90
       50
102
RTVSPost2010PropOp50
 70
     1
102
RTVSPost2010Prop51ColorIndex
 90
      256
102
RTVSPost2010Prop51ColorRGB
 90
-16777216
102
RTVSPost2010PropOp51
 70
     0
102
RTVSPost2010Prop52
140
1.0
102
RTVSPost2010PropOp52
 70
     0
102
RTVSPost2010Prop53
 90
        2
102
RTVSPost2010PropOp53
 70
     1
102
RTVSPost2010Prop54
  1
strokes_ogs.tif
102
RTVSPost2010PropOp54
 70
     1
102
RTVSPost2010Prop55
280
     0
102
RTVSPost2010PropOp55
 70
     1
102
RTVSPost2010Prop56
140
1.0
102
RTVSPost2010PropOp56
 70
     1
102
RTVSPost2010Prop57
140
1.0
102
RTVSPost2010PropOp57
 70
     1
102
RTVSPropertyOp0
 70
     1
102
RTVSPropertyOp1
 70
     1
102
RTVSPropertyOp2
 70
     1
102
RTVSPropertyOp3
 70
     1
102
RTVSPropertyOp4
 70
     1
102
RTVSPropertyOp5
 70
     1
102
RTVSPropertyOp6
 70
     1
102
RTVSPropertyOp7
 70
     1
102
RTVSPropertyOp8
 70
     1
102
RTVSPropertyOp9
 70
     1
102
RTVSPropertyOp10
 70
     1
102
RTVSPropertyOp11
 70
     1
102
RTVSPropertyOp12
 70
     1
102
RTVSPropertyOp13
 70
     1
102
RTVSPropertyOp14
 70
     1
102
RTVSPropertyOp15
 70
     1
102
RTVSPropertyOp16
 70
     1
102
RTVSPropertyOp17
 70
     1
102
RTVSPropertyOp18
 70
     1
102
RTVSPropertyOp19
 70
     1
102
RTVSPropertyOp20
 70
     1
102
RTVSPropertyOp21
 70
     1
102
RTVSPropertyOp22
 70
     1
102
RTVSPropertyOp23
 70
     1
102
RTVSPropertyOp24
 70
     1
102
RTVSPropertyOp25
 70
     1
102
RTVSPropertyOp26
 70
     1
102
RTVSPropertyOp27
 70
     1
102
RTVSPropertyOp28
 70
     1
102
RTVSPropertyOp29
 70
     1
102
RTVSPropertyOp30
 70
     1
102
RTVSPropertyOp31
 70
     1
102
RTVSPropertyOp32
 70
     1
102
RTVSPropertyOp33
 70
     1
102
RTVSPropertyOp34
 70
     1
102
RTVSPropertyOp35
 70
     1
102
RTVSPropertyOp36
 70
     1
102
RTVSPropertyOp37
 70
     1
102
RTVSPropertyOp38
 70
     1
102
RTVSPropertyOp39
 70
     1
102
RTVSPropertyOp40
 70
     1
102
RTVSPropertyOp41
 70
     1
102
RTVSPropertyOp42
 70
     1
102
RTVSPropertyOp43
 70
     1
102
RTVSPropertyOp44
 70
     1
102
RTVSPropertyOp45
 70
     1
102
RTVSPropertyOp46
 70
     1
102
RTVSPropertyOp47
 70
     1
102
RTVSPropertyOp48
 70
     1
102
RTVSPropertyOp49
 70
     1
102
RTVSPropertyOp50
 70
     1
102
RTVSPropertyOp51
 70
     0
102
RTVSPropertyOp52
 70
     0
102
RTVSPropertyOp53
 70
     1
102
RTVSPropertyOp54
 70
     1
102
RTVSPropertyOp55
 70
     1
102
RTVSPropertyOp56
 70
     1
102
RTVSPropertyOp57
 70
     1
102
RTVSPropertyOp58
 70
     1
102
RTVSPropertyOp59
 70
     1
102
RTVSPropertyOp60
 70
     1
102
RTVSPropertyOp61
 70
     1
102
RTVSPropertyOp62
 70
     1
  0
XRECORD
  5
AE8
102
{ACAD_REACTORS
330
AE7
102
}
330
AE7
100
AcDbXrecord
280
     1
102
RTVSPost2010Prop28
280
     0
102
RTVSPost2010PropOp28
 70
     1
102
RTVSPost2010Prop29
280
     1
102
RTVSPost2010PropOp29
 70
     1
102
RTVSPost2010Prop30
280
     1
102
RTVSPost2010PropOp30
 70
     1
102
RTVSPost2010Prop31
280
     0
102
RTVSPost2010PropOp31
 70
     1
102
RTVSPost2010Prop32
280
     0
102
RTVSPost2010PropOp32
 70
     1
102
RTVSPost2010Prop33
280
     0
102
RTVSPost2010PropOp33
 70
     1
102
RTVSPost2010Prop34
280
     0
102
RTVSPost2010PropOp34
 70
     1
102
RTVSPost2010Prop35
280
     0
102
RTVSPost2010PropOp35
 70
     1
102
RTVSPost2010Prop36
280
     0
102
RTVSPost2010PropOp36
 70
     1
102
RTVSPost2010Prop37
 90
       50
102
RTVSPost2010PropOp37
 70
     1
102
RTVSPost2010Prop38
140
0.0
102
RTVSPost2010PropOp38
 70
     1
102
RTVSPost2010Prop39
140
1.0
102
RTVSPost2010PropOp39
 70
     1
102
RTVSPost2010Prop40
 90
        0
102
RTVSPost2010PropOp40
 70
     1
102
RTVSPost2010Prop41ColorIndex
 90
       18
102
RTVSPost2010Prop41ColorRGB
 90
        0
102
RTVSPost2010PropOp41
 70
     1
102
RTVSPost2010Prop42
 90
       50
102
RTVSPost2010PropOp42
 70
     1
102
RTVSPost2010Prop43
 90
        3
102
RTVSPost2010PropOp43
 70
     1
102
RTVSPost2010Prop44ColorIndex
 90
        5
102
RTVSPost2010Prop44ColorRGB
 90
      255
102
RTVSPost2010PropOp44
 70
     1
102
RTVSPost2010Prop45
280
     0
102
RTVSPost2010PropOp45
 70
     1
102
RTVSPost2010Prop46
 90
       50
102
RTVSPost2010PropOp46
 70
     1
102
RTVSPost2010Prop47
 90
       50
102
RTVSPost2010PropOp47
 70
     1
102
RTVSPost2010Prop48
 90
       50
102
RTVSPost2010PropOp48
 70
     1
102
RTVSPost2010Prop49
280
     0
102
RTVSPost2010PropOp49
 70
     1
102
RTVSPost2010Prop50
 90
       50
102
RTVSPost2010PropOp50
 70
     1
102
RTVSPost2010Prop51ColorIndex
 90
      256
102
RTVSPost2010Prop51ColorRGB
 90
-16777216
102
RTVSPost2010PropOp51
 70
     0
102
RTVSPost2010Prop52
140
1.0
102
RTVSPost2010PropOp52
 70
     0
102
RTVSPost2010Prop53
 90
        2
102
RTVSPost2010PropOp53
 70
     1
102
RTVSPost2010Prop54
  1
strokes_ogs.tif
102
RTVSPost2010PropOp54
 70
     1
102
RTVSPost2010Prop55
280
     0
102
RTVSPost2010PropOp55
 70
     1
102
RTVSPost2010Prop56
140
1.0
102
RTVSPost2010PropOp56
 70
     1
102
RTVSPost2010Prop57
140
1.0
102
RTVSPost2010PropOp57
 70
     1
102
RTVSPropertyOp0
 70
     1
102
RTVSPropertyOp1
 70
     1
102
RTVSPropertyOp2
 70
     1
102
RTVSPropertyOp3
 70
     1
102
RTVSPropertyOp4
 70
     1
102
RTVSPropertyOp5
 70
     1
102
RTVSPropertyOp6
 70
     1
102
RTVSPropertyOp7
 70
     1
102
RTVSPropertyOp8
 70
     1
102
RTVSPropertyOp9
 70
     1
102
RTVSPropertyOp10
 70
     1
102
RTVSPropertyOp11
 70
     1
102
RTVSPropertyOp12
 70
     1
102
RTVSPropertyOp13
 70
     1
102
RTVSPropertyOp14
 70
     1
102
RTVSPropertyOp15
 70
     1
102
RTVSPropertyOp16
 70
     1
102
RTVSPropertyOp17
 70
     1
102
RTVSPropertyOp18
 70
     1
102
RTVSPropertyOp19
 70
     1
102
RTVSPropertyOp20
 70
     1
102
RTVSPropertyOp21
 70
     1
102
RTVSPropertyOp22
 70
     1
102
RTVSPropertyOp23
 70
     1
102
RTVSPropertyOp24
 70
     1
102
RTVSPropertyOp25
 70
     1
102
RTVSPropertyOp26
 70
     1
102
RTVSPropertyOp27
 70
     1
102
RTVSPropertyOp28
 70
     1
102
RTVSPropertyOp29
 70
     1
102
RTVSPropertyOp30
 70
     1
102
RTVSPropertyOp31
 70
     1
102
RTVSPropertyOp32
 70
     1
102
RTVSPropertyOp33
 70
     1
102
RTVSPropertyOp34
 70
     1
102
RTVSPropertyOp35
 70
     1
102
RTVSPropertyOp36
 70
     1
102
RTVSPropertyOp37
 70
     1
102
RTVSPropertyOp38
 70
     1
102
RTVSPropertyOp39
 70
     1
102
RTVSPropertyOp40
 70
     1
102
RTVSPropertyOp41
 70
     1
102
RTVSPropertyOp42
 70
     1
102
RTVSPropertyOp43
 70
     1
102
RTVSPropertyOp44
 70
     1
102
RTVSPropertyOp45
 70
     1
102
RTVSPropertyOp46
 70
     1
102
RTVSPropertyOp47
 70
     1
102
RTVSPropertyOp48
 70
     1
102
RTVSPropertyOp49
 70
     1
102
RTVSPropertyOp50
 70
     1
102
RTVSPropertyOp51
 70
     0
102
RTVSPropertyOp52
 70
     0
102
RTVSPropertyOp53
 70
     1
102
RTVSPropertyOp54
 70
     1
102
RTVSPropertyOp55
 70
     1
102
RTVSPropertyOp56
 70
     1
102
RTVSPropertyOp57
 70
     1
102
RTVSPropertyOp58
 70
     1
102
RTVSPropertyOp59
 70
     1
102
RTVSPropertyOp60
 70
     1
102
RTVSPropertyOp61
 70
     1
102
RTVSPropertyOp62
 70
     1
  0
XRECORD
  5
B00
102
{ACAD_REACTORS
330
AFF
102
}
330
AFF
100
AcDbXrecord
280
     1
102
RTVSPost2010Prop28
280
     0
102
RTVSPost2010PropOp28
 70
     1
102
RTVSPost2010Prop29
280
     1
102
RTVSPost2010PropOp29
 70
     1
102
RTVSPost2010Prop30
280
     1
102
RTVSPost2010PropOp30
 70
     1
102
RTVSPost2010Prop31
280
     0
102
RTVSPost2010PropOp31
 70
     1
102
RTVSPost2010Prop32
280
     0
102
RTVSPost2010PropOp32
 70
     1
102
RTVSPost2010Prop33
280
     0
102
RTVSPost2010PropOp33
 70
     1
102
RTVSPost2010Prop34
280
     0
102
RTVSPost2010PropOp34
 70
     1
102
RTVSPost2010Prop35
280
     0
102
RTVSPost2010PropOp35
 70
     1
102
RTVSPost2010Prop36
280
     0
102
RTVSPost2010PropOp36
 70
     1
102
RTVSPost2010Prop37
 90
       50
102
RTVSPost2010PropOp37
 70
     1
102
RTVSPost2010Prop38
140
0.0
102
RTVSPost2010PropOp38
 70
     1
102
RTVSPost2010Prop39
140
1.0
102
RTVSPost2010PropOp39
 70
     1
102
RTVSPost2010Prop40
 90
        0
102
RTVSPost2010PropOp40
 70
     1
102
RTVSPost2010Prop41ColorIndex
 90
       18
102
RTVSPost2010Prop41ColorRGB
 90
        0
102
RTVSPost2010PropOp41
 70
     1
102
RTVSPost2010Prop42
 90
       50
102
RTVSPost2010PropOp42
 70
     1
102
RTVSPost2010Prop43
 90
        3
102
RTVSPost2010PropOp43
 70
     1
102
RTVSPost2010Prop44ColorIndex
 90
        5
102
RTVSPost2010Prop44ColorRGB
 90
      255
102
RTVSPost2010PropOp44
 70
     1
102
RTVSPost2010Prop45
280
     0
102
RTVSPost2010PropOp45
 70
     1
102
RTVSPost2010Prop46
 90
       50
102
RTVSPost2010PropOp46
 70
     1
102
RTVSPost2010Prop47
 90
       50
102
RTVSPost2010PropOp47
 70
     1
102
RTVSPost2010Prop48
 90
       50
102
RTVSPost2010PropOp48
 70
     1
102
RTVSPost2010Prop49
280
     0
102
RTVSPost2010PropOp49
 70
     1
102
RTVSPost2010Prop50
 90
       50
102
RTVSPost2010PropOp50
 70
     1
102
RTVSPost2010Prop51ColorIndex
 90
      256
102
RTVSPost2010Prop51ColorRGB
 90
-16777216
102
RTVSPost2010PropOp51
 70
     0
102
RTVSPost2010Prop52
140
1.0
102
RTVSPost2010PropOp52
 70
     0
102
RTVSPost2010Prop53
 90
        2
102
RTVSPost2010PropOp53
 70
     1
102
RTVSPost2010Prop54
  1
strokes_ogs.tif
102
RTVSPost2010PropOp54
 70
     1
102
RTVSPost2010Prop55
280
     0
102
RTVSPost2010PropOp55
 70
     1
102
RTVSPost2010Prop56
140
1.0
102
RTVSPost2010PropOp56
 70
     1
102
RTVSPost2010Prop57
140
1.0
102
RTVSPost2010PropOp57
 70
     1
102
RTVSPropertyOp0
 70
     1
102
RTVSPropertyOp1
 70
     1
102
RTVSPropertyOp2
 70
     1
102
RTVSPropertyOp3
 70
     1
102
RTVSPropertyOp4
 70
     1
102
RTVSPropertyOp5
 70
     1
102
RTVSPropertyOp6
 70
     1
102
RTVSPropertyOp7
 70
     1
102
RTVSPropertyOp8
 70
     1
102
RTVSPropertyOp9
 70
     1
102
RTVSPropertyOp10
 70
     1
102
RTVSPropertyOp11
 70
     1
102
RTVSPropertyOp12
 70
     1
102
RTVSPropertyOp13
 70
     1
102
RTVSPropertyOp14
 70
     1
102
RTVSPropertyOp15
 70
     1
102
RTVSPropertyOp16
 70
     1
102
RTVSPropertyOp17
 70
     1
102
RTVSPropertyOp18
 70
     1
102
RTVSPropertyOp19
 70
     1
102
RTVSPropertyOp20
 70
     1
102
RTVSPropertyOp21
 70
     1
102
RTVSPropertyOp22
 70
     1
102
RTVSPropertyOp23
 70
     1
102
RTVSPropertyOp24
 70
     1
102
RTVSPropertyOp25
 70
     1
102
RTVSPropertyOp26
 70
     1
102
RTVSPropertyOp27
 70
     1
102
RTVSPropertyOp28
 70
     1
102
RTVSPropertyOp29
 70
     1
102
RTVSPropertyOp30
 70
     1
102
RTVSPropertyOp31
 70
     1
102
RTVSPropertyOp32
 70
     1
102
RTVSPropertyOp33
 70
     1
102
RTVSPropertyOp34
 70
     1
102
RTVSPropertyOp35
 70
     1
102
RTVSPropertyOp36
 70
     1
102
RTVSPropertyOp37
 70
     1
102
RTVSPropertyOp38
 70
     1
102
RTVSPropertyOp39
 70
     1
102
RTVSPropertyOp40
 70
     1
102
RTVSPropertyOp41
 70
     1
102
RTVSPropertyOp42
 70
     1
102
RTVSPropertyOp43
 70
     1
102
RTVSPropertyOp44
 70
     1
102
RTVSPropertyOp45
 70
     1
102
RTVSPropertyOp46
 70
     1
102
RTVSPropertyOp47
 70
     1
102
RTVSPropertyOp48
 70
     1
102
RTVSPropertyOp49
 70
     1
102
RTVSPropertyOp50
 70
     1
102
RTVSPropertyOp51
 70
     0
102
RTVSPropertyOp52
 70
     0
102
RTVSPropertyOp53
 70
     1
102
RTVSPropertyOp54
 70
     1
102
RTVSPropertyOp55
 70
     1
102
RTVSPropertyOp56
 70
     1
102
RTVSPropertyOp57
 70
     1
102
RTVSPropertyOp58
 70
     1
102
RTVSPropertyOp59
 70
     1
102
RTVSPropertyOp60
 70
     1
102
RTVSPropertyOp61
 70
     1
102
RTVSPropertyOp62
 70
     1
  0
ENDSEC
  0
EOF
