  0
SECTION
  2
HEADER
  9
$ACADVER
  1
AC1015
  9
$ACADMAINTVER
 70
    20
  9
$DWGCODEPAGE
  3
ANSI_932
  9
$INSBASE
 10
0.0
 20
0.0
 30
0.0
  9
$EXTMIN
 10
-68.82077502824039
 20
161.2867502856338
 30
0.0
  9
$EXTMAX
 10
351.1792249717597
 20
458.2867502856338
 30
0.0
  9
$LIMMIN
 10
-68.81994691660384
 20
161.2933151705781
  9
$LIMMAX
 10
351.169036237693
 20
458.2616379244844
  9
$ORTHOMODE
 70
     1
  9
$REGENMODE
 70
     1
  9
$FILLMODE
 70
     1
  9
$QTEXTMODE
 70
     0
  9
$MIRRTEXT
 70
     0
  9
$LTSCALE
 40
1.0
  9
$ATTMODE
 70
     1
  9
$TEXTSIZE
 40
3.0
  9
$TRACEWID
 40
1.0
  9
$TEXTSTYLE
  7
ATOM
  9
$CLAYER
  8
guide
  9
$CELTYPE
  6
ByLayer
  9
$CECOLOR
 62
   256
  9
$CELTSCALE
 40
1.0
  9
$DISPSILH
 70
     0
  9
$DIMSCALE
 40
0.0
  9
$DIMASZ
 40
2.0
  9
$DIMEXO
 40
2.0
  9
$DIMDLI
 40
7.0
  9
$DIMRND
 40
0.0
  9
$DIMDLE
 40
0.0
  9
$DIMEXE
 40
1.0
  9
$DIMTP
 40
0.1
  9
$DIMTM
 40
0.1
  9
$DIMTXT
 40
3.0
  9
$DIMCEN
 40
-2.5
  9
$DIMTSZ
 40
0.0
  9
$DIMTOL
 70
     0
  9
$DIMLIM
 70
     0
  9
$DIMTIH
 70
     0
  9
$DIMTOH
 70
     0
  9
$DIMSE1
 70
     0
  9
$DIMSE2
 70
     0
  9
$DIMTAD
 70
     1
  9
$DIMZIN
 70
     8
  9
$DIMBLK
  1
Open30
  9
$DIMASO
 70
     1
  9
$DIMSHO
 70
     1
  9
$DIMPOST
  1

  9
$DIMAPOST
  1

  9
$DIMALT
 70
     0
  9
$DIMALTD
 70
     3
  9
$DIMALTF
 40
0.03937007874016
  9
$DIMLFAC
 40
1.0
  9
$DIMTOFL
 70
     1
  9
$DIMTVP
 40
0.0
  9
$DIMTIX
 70
     0
  9
$DIMSOXD
 70
     0
  9
$DIMSAH
 70
     0
  9
$DIMBLK1
  1

  9
$DIMBLK2
  1

  9
$DIMSTYLE
  2
ATOM
  9
$DIMCLRD
 70
     0
  9
$DIMCLRE
 70
     0
  9
$DIMCLRT
 70
     3
  9
$DIMTFAC
 40
0.4999999999999998
  9
$DIMGAP
 40
0.625
  9
$DIMJUST
 70
     0
  9
$DIMSD1
 70
     0
  9
$DIMSD2
 70
     0
  9
$DIMTOLJ
 70
     0
  9
$DIMTZIN
 70
     8
  9
$DIMALTZ
 70
     0
  9
$DIMALTTZ
 70
     0
  9
$DIMUPT
 70
     0
  9
$DIMDEC
 70
     2
  9
$DIMTDEC
 70
     2
  9
$DIMALTU
 70
     2
  9
$DIMALTTD
 70
     3
  9
$DIMTXSTY
  7
ATOM
  9
$DIMAUNIT
 70
     0
  9
$DIMADEC
 70
     0
  9
$DIMALTRND
 40
0.0
  9
$DIMAZIN
 70
     0
  9
$DIMDSEP
 70
    46
  9
$DIMATFIT
 70
     0
  9
$DIMFRAC
 70
     2
  9
$DIMLDRBLK
  1
Open30
  9
$DIMLUNIT
 70
     2
  9
$DIMLWD
 70
    -2
  9
$DIMLWE
 70
    -2
  9
$DIMTMOVE
 70
     1
  9
$LUNITS
 70
     2
  9
$LUPREC
 70
     4
  9
$SKETCHINC
 40
1.0
  9
$FILLETRAD
 40
0.0
  9
$AUNITS
 70
     0
  9
$AUPREC
 70
     0
  9
$MENU
  1
.
  9
$ELEVATION
 40
0.0
  9
$PELEVATION
 40
0.0
  9
$THICKNESS
 40
0.0
  9
$LIMCHECK
 70
     0
  9
$CHAMFERA
 40
0.0
  9
$CHAMFERB
 40
0.0
  9
$CHAMFERC
 40
0.0
  9
$CHAMFERD
 40
0.0
  9
$SKPOLY
 70
     0
  9
$TDCREATE
 40
2456618.423515104
  9
$TDUCREATE
 40
2456618.048515104
  9
$TDUPDATE
 40
2457578.551168530
  9
$TDUUPDATE
 40
2457578.176168530
  9
$TDINDWG
 40
0.0037930556
  9
$TDUSRTIMER
 40
0.0037921528
  9
$USRTIMER
 70
     1
  9
$ANGBASE
 50
0.0
  9
$ANGDIR
 70
     0
  9
$PDMODE
 70
     0
  9
$PDSIZE
 40
0.0
  9
$PLINEWID
 40
0.0
  9
$SPLFRAME
 70
     0
  9
$SPLINETYPE
 70
     6
  9
$SPLINESEGS
 70
     8
  9
$HANDSEED
  5
A4B
  9
$SURFTAB1
 70
     6
  9
$SURFTAB2
 70
     6
  9
$SURFTYPE
 70
     6
  9
$SURFU
 70
     6
  9
$SURFV
 70
     6
  9
$UCSBASE
  2

  9
$UCSNAME
  2

  9
$UCSORG
 10
0.0
 20
0.0
 30
0.0
  9
$UCSXDIR
 10
1.0
 20
0.0
 30
0.0
  9
$UCSYDIR
 10
0.0
 20
1.0
 30
0.0
  9
$UCSORTHOREF
  2

  9
$UCSORTHOVIEW
 70
     0
  9
$UCSORGTOP
 10
0.0
 20
0.0
 30
0.0
  9
$UCSORGBOTTOM
 10
0.0
 20
0.0
 30
0.0
  9
$UCSORGLEFT
 10
0.0
 20
0.0
 30
0.0
  9
$UCSORGRIGHT
 10
0.0
 20
0.0
 30
0.0
  9
$UCSORGFRONT
 10
0.0
 20
0.0
 30
0.0
  9
$UCSORGBACK
 10
0.0
 20
0.0
 30
0.0
  9
$PUCSBASE
  2

  9
$PUCSNAME
  2

  9
$PUCSORG
 10
0.0
 20
0.0
 30
0.0
  9
$PUCSXDIR
 10
1.0
 20
0.0
 30
0.0
  9
$PUCSYDIR
 10
0.0
 20
1.0
 30
0.0
  9
$PUCSORTHOREF
  2

  9
$PUCSORTHOVIEW
 70
     0
  9
$PUCSORGTOP
 10
0.0
 20
0.0
 30
0.0
  9
$PUCSORGBOTTOM
 10
0.0
 20
0.0
 30
0.0
  9
$PUCSORGLEFT
 10
0.0
 20
0.0
 30
0.0
  9
$PUCSORGRIGHT
 10
0.0
 20
0.0
 30
0.0
  9
$PUCSORGFRONT
 10
0.0
 20
0.0
 30
0.0
  9
$PUCSORGBACK
 10
0.0
 20
0.0
 30
0.0
  9
$USERI1
 70
     0
  9
$USERI2
 70
     0
  9
$USERI3
 70
     0
  9
$USERI4
 70
     0
  9
$USERI5
 70
     0
  9
$USERR1
 40
0.0
  9
$USERR2
 40
0.0
  9
$USERR3
 40
0.0
  9
$USERR4
 40
0.0
  9
$USERR5
 40
0.0
  9
$WORLDVIEW
 70
     1
  9
$SHADEDGE
 70
     3
  9
$SHADEDIF
 70
    70
  9
$TILEMODE
 70
     1
  9
$MAXACTVP
 70
    64
  9
$PINSBASE
 10
0.0
 20
0.0
 30
0.0
  9
$PLIMCHECK
 70
     0
  9
$PEXTMIN
 10
1.000000000000000E+20
 20
1.000000000000000E+20
 30
1.000000000000000E+20
  9
$PEXTMAX
 10
-1.000000000000000E+20
 20
-1.000000000000000E+20
 30
-1.000000000000000E+20
  9
$PLIMMIN
 10
0.0
 20
0.0
  9
$PLIMMAX
 10
12.0
 20
9.0
  9
$UNITMODE
 70
     0
  9
$VISRETAIN
 70
     1
  9
$PLINEGEN
 70
     0
  9
$PSLTSCALE
 70
     1
  9
$TREEDEPTH
 70
  3020
  9
$CMLSTYLE
  2
Standard
  9
$CMLJUST
 70
     0
  9
$CMLSCALE
 40
10.0
  9
$PROXYGRAPHICS
 70
     1
  9
$MEASUREMENT
 70
     1
  9
$CELWEIGHT
370
    -1
  9
$ENDCAPS
280
     0
  9
$JOINSTYLE
280
     0
  9
$LWDISPLAY
290
     0
  9
$INSUNITS
 70
     4
  9
$HYPERLINKBASE
  1

  9
$STYLESHEET
  1

  9
$XEDIT
290
     1
  9
$CEPSNTYPE
380
     0
  9
$PSTYLEMODE
290
     0
  9
$FINGERPRINTGUID
  2
{4C787FF2-D033-489E-88B7-DEB2AB334DA1}
  9
$VERSIONGUID
  2
{C9C1B3FB-029A-4FE4-BE93-224575EAABE7}
  9
$EXTNAMES
290
     1
  9
$PSVPSCALE
 40
0.0
  9
$OLESTARTUP
290
     0
  0
ENDSEC
  0
SECTION
  2
CLASSES
  0
CLASS
  1
ACDBDICTIONARYWDFLT
  2
AcDbDictionaryWithDefault
  3
ObjectDBX Classes
 90
        0
280
     0
281
     0
  0
CLASS
  1
MATERIAL
  2
AcDbMaterial
  3
ObjectDBX Classes
 90
     1153
280
     0
281
     0
  0
CLASS
  1
VISUALSTYLE
  2
AcDbVisualStyle
  3
ObjectDBX Classes
 90
     4095
280
     0
281
     0
  0
CLASS
  1
SCALE
  2
AcDbScale
  3
ObjectDBX Classes
 90
     1153
280
     0
281
     0
  0
CLASS
  1
TABLESTYLE
  2
AcDbTableStyle
  3
ObjectDBX Classes
 90
     4095
280
     0
281
     0
  0
CLASS
  1
MLEADERSTYLE
  2
AcDbMLeaderStyle
  3
ACDB_MLEADERSTYLE_CLASS
 90
     4095
280
     0
281
     0
  0
CLASS
  1
DIMASSOC
  2
AcDbDimAssoc
  3
"AcDbDimAssoc|Product Desc:     AcDim ARX App For Dimension|Company:          Autodesk, Inc.|WEB Address:      www.autodesk.com"
 90
        0
280
     0
281
     0
  0
CLASS
  1
ACDB_ALDIMOBJECTCONTEXTDATA_CLASS
  2
AcDbAlignedDimensionObjectContextData
  3
ObjectDBX Classes
 90
    33921
280
     0
281
     0
  0
CLASS
  1
ACDB_LEADEROBJECTCONTEXTDATA_CLASS
  2
AcDbLeaderObjectContextData
  3
ObjectDBX Classes
 90
    33921
280
     0
281
     0
  0
CLASS
  1
ACDB_MTEXTOBJECTCONTEXTDATA_CLASS
  2
AcDbMTextObjectContextData
  3
ObjectDBX Classes
 90
    33921
280
     0
281
     0
  0
CLASS
  1
MULTILEADER
  2
AcDbMLeader
  3
ACDB_MLEADER_CLASS
 90
     1025
280
     0
281
     1
  0
CLASS
  1
ACDB_MLEADEROBJECTCONTEXTDATA_CLASS
  2
AcDbMLeaderObjectContextData
  3
ObjectDBX Classes
 90
    33921
280
     0
281
     0
  0
CLASS
  1
SORTENTSTABLE
  2
AcDbSortentsTable
  3
ObjectDBX Classes
 90
        0
280
     0
281
     0
  0
CLASS
  1
DICTIONARYVAR
  2
AcDbDictionaryVar
  3
ObjectDBX Classes
 90
        0
280
     0
281
     0
  0
CLASS
  1
CELLSTYLEMAP
  2
AcDbCellStyleMap
  3
ObjectDBX Classes
 90
     1152
280
     0
281
     0
  0
CLASS
  1
ACDBPLACEHOLDER
  2
AcDbPlaceHolder
  3
ObjectDBX Classes
 90
        0
280
     0
281
     0
  0
CLASS
  1
LAYOUT
  2
AcDbLayout
  3
ObjectDBX Classes
 90
        0
280
     0
281
     0
  0
ENDSEC
  0
SECTION
  2
TABLES
  0
TABLE
  2
VPORT
  5
8
330
0
100
AcDbSymbolTable
 70
     1
  0
VPORT
  5
57
330
8
100
AcDbSymbolTableRecord
100
AcDbViewportTableRecord
  2
*Active
 70
     0
 10
0.0
 20
0.0
 11
1.0
 21
1.0
 12
84.61618833541207
 22
323.9809305605581
 13
0.0
 23
0.0
 14
10.0
 24
10.0
 15
10.0
 25
10.0
 16
0.0
 26
0.0
 36
1.0
 17
0.0
 27
0.0
 37
0.0
 40
222.0731155960371
 41
2.01418439716312
 42
50.0
 43
0.0
 44
0.0
 50
0.0
 51
0.0
 71
     0
 72
  1000
 73
     1
 74
     1
 75
     0
 76
     0
 77
     0
 78
     0
281
     0
 65
     1
110
0.0
120
0.0
130
0.0
111
1.0
121
0.0
131
0.0
112
0.0
122
1.0
132
0.0
 79
     0
146
0.0
1001
ACAD_NAV_VCDISPLAY
1070
     3
  0
ENDTAB
  0
TABLE
  2
LTYPE
  5
5
330
0
100
AcDbSymbolTable
 70
     6
  0
LTYPE
  5
5B
330
5
100
AcDbSymbolTableRecord
100
AcDbLinetypeTableRecord
  2
ByBlock
 70
     0
  3

 72
    65
 73
     0
 40
0.0
  0
LTYPE
  5
5C
330
5
100
AcDbSymbolTableRecord
100
AcDbLinetypeTableRecord
  2
ByLayer
 70
     0
  3

 72
    65
 73
     0
 40
0.0
  0
LTYPE
  5
5D
330
5
100
AcDbSymbolTableRecord
100
AcDbLinetypeTableRecord
  2
Continuous
 70
     0
  3
Solid line
 72
    65
 73
     0
 40
0.0
  0
LTYPE
  5
78
330
5
100
AcDbSymbolTableRecord
100
AcDbLinetypeTableRecord
  2
JIS_08_15
 70
     0
  3
1SASEN15 ____ _ ____ _ ____ _ ____ _ ____
 72
    65
 73
     4
 40
17.25
 49
15.0
 74
     0
 49
-0.75
 74
     0
 49
0.75
 74
     0
 49
-0.75
 74
     0
  0
LTYPE
  5
79
330
5
100
AcDbSymbolTableRecord
100
AcDbLinetypeTableRecord
  2
JIS_02_1.0
 70
     0
  3
HIDDEN01 _ _ _ _ _ _ _ _ _ _ _ _ _ _ _ _ _
 72
    65
 73
     2
 40
2.0
 49
1.0
 74
     0
 49
-1.0
 74
     0
  0
LTYPE
  5
7A
330
5
100
AcDbSymbolTableRecord
100
AcDbLinetypeTableRecord
  2
JIS_09_15
 70
     0
  3
2SASEN15 ___ _ _ ___ _ _ ___ _ _ ___ _ _ ___
 72
    65
 73
     6
 40
18.9
 49
15.0
 74
     0
 49
-0.9
 74
     0
 49
0.6
 74
     0
 49
-0.9
 74
     0
 49
0.6
 74
     0
 49
-0.9
 74
     0
  0
LTYPE
  5
7B
330
5
100
AcDbSymbolTableRecord
100
AcDbLinetypeTableRecord
  2
CENTER
 70
     0
  3
___ _ ___ _ __
 72
    65
 73
     4
 40
13.0
 49
8.5
 74
     0
 49
-1.5
 74
     0
 49
1.5
 74
     0
 49
-1.5
 74
     0
  0
LTYPE
  5
7C
330
5
100
AcDbSymbolTableRecord
100
AcDbLinetypeTableRecord
  2
HIDDEN
 70
     0
  3
__ __ __ __ __
 72
    65
 73
     2
 40
3.0
 49
2.0
 74
     0
 49
-1.0
 74
     0
  0
ENDTAB
  0
TABLE
  2
LAYER
  5
2
330
0
100
AcDbSymbolTable
 70
    20
  0
LAYER
  5
54
102
{ACAD_XDICTIONARY
360
9B9
102
}
330
2
100
AcDbSymbolTableRecord
100
AcDbLayerTableRecord
  2
0
 70
     0
 62
     7
  6
Continuous
370
    35
390
8A
1001
AcAecLayerStandard
1000

1000

  0
LAYER
  5
75
330
2
100
AcDbSymbolTableRecord
100
AcDbLayerTableRecord
  2
Defpoints
 70
     0
 62
     7
  6
Continuous
290
     0
370
    -3
390
8A
1001
AcAecLayerStandard
1000

1000

  0
LAYER
  5
9E
102
{ACAD_XDICTIONARY
360
9F
102
}
330
2
100
AcDbSymbolTableRecord
100
AcDbLayerTableRecord
  2
viewports
 70
     0
 62
     5
  6
Continuous
290
     0
370
    18
390
8A
1001
AcAecLayerStandard
1000

1000

  0
LAYER
  5
A3
102
{ACAD_XDICTIONARY
360
A4
102
}
330
2
100
AcDbSymbolTableRecord
100
AcDbLayerTableRecord
  2
flame
 70
     0
 62
     4
  6
Continuous
370
    18
390
8A
1001
AcAecLayerStandard
1000

1000

  0
LAYER
  5
25B
102
{ACAD_XDICTIONARY
360
25C
102
}
330
2
100
AcDbSymbolTableRecord
100
AcDbLayerTableRecord
  2
# base
 70
     0
 62
    40
  6
Continuous
370
    35
390
8A
1001
AcAecLayerStandard
1000

1000

  0
LAYER
  5
267
102
{ACAD_XDICTIONARY
360
268
102
}
330
2
100
AcDbSymbolTableRecord
100
AcDbLayerTableRecord
  2
hidden
 70
     0
 62
     3
  6
JIS_02_1.0
370
    18
390
8A
1001
AcAecLayerStandard
1000

1000

  0
LAYER
  5
270
102
{ACAD_XDICTIONARY
360
271
102
}
330
2
100
AcDbSymbolTableRecord
100
AcDbLayerTableRecord
  2
center
 70
     0
 62
     2
  6
JIS_08_15
370
    18
390
8A
1001
AcAecLayerStandard
1000

1000

  0
LAYER
  5
27A
102
{ACAD_XDICTIONARY
360
27B
102
}
330
2
100
AcDbSymbolTableRecord
100
AcDbLayerTableRecord
  2
# cover
 70
     0
 62
    90
  6
Continuous
370
    35
390
8A
1001
AcAecLayerStandard
1000

1000

  0
LAYER
  5
29F
102
{ACAD_XDICTIONARY
360
2A0
102
}
330
2
100
AcDbSymbolTableRecord
100
AcDbLayerTableRecord
  2
# slider
 70
     0
 62
   130
  6
Continuous
370
    35
390
8A
1001
AcAecLayerStandard
1000

1000

  0
LAYER
  5
2B6
102
{ACAD_XDICTIONARY
360
2B7
102
}
330
2
100
AcDbSymbolTableRecord
100
AcDbLayerTableRecord
  2
# holder_frm
 70
     0
 62
   160
  6
Continuous
370
    35
390
8A
1001
AcAecLayerStandard
1000

1000

  0
LAYER
  5
2C4
102
{ACAD_XDICTIONARY
360
2C5
102
}
330
2
100
AcDbSymbolTableRecord
100
AcDbLayerTableRecord
  2
# holder_dr
 70
     0
 62
   220
  6
Continuous
370
    35
390
8A
1001
AcAecLayerStandard
1000

1000

  0
LAYER
  5
2FF
102
{ACAD_XDICTIONARY
360
300
102
}
330
2
100
AcDbSymbolTableRecord
100
AcDbLayerTableRecord
  2
# brkc_frm
 70
     0
 62
   220
  6
Continuous
370
    35
390
8A
1001
AcAecLayerStandard
1000

1000

  0
LAYER
  5
30F
102
{ACAD_XDICTIONARY
360
310
102
}
330
2
100
AcDbSymbolTableRecord
100
AcDbLayerTableRecord
  2
# brkt_dr
 70
     0
 62
   220
  6
Continuous
370
    35
390
8A
1001
AcAecLayerStandard
1000

1000

  0
LAYER
  5
313
102
{ACAD_XDICTIONARY
360
314
102
}
330
2
100
AcDbSymbolTableRecord
100
AcDbLayerTableRecord
  2
# shaft_frm
 70
     0
 62
   181
  6
Continuous
370
    35
390
8A
1001
AcAecLayerStandard
1000

1000

  0
LAYER
  5
357
102
{ACAD_XDICTIONARY
360
358
102
}
330
2
100
AcDbSymbolTableRecord
100
AcDbLayerTableRecord
  2
# shaft_dr
 70
     0
 62
   231
  6
Continuous
370
    35
390
8A
1001
AcAecLayerStandard
1000

1000

  0
LAYER
  5
37B
102
{ACAD_XDICTIONARY
360
37C
102
}
330
2
100
AcDbSymbolTableRecord
100
AcDbLayerTableRecord
  2
phantom
 70
     0
 62
     6
  6
JIS_09_15
370
    18
390
8A
1001
AcAecLayerStandard
1000

1000

  0
LAYER
  5
3DA
102
{ACAD_XDICTIONARY
360
3DB
102
}
330
2
100
AcDbSymbolTableRecord
100
AcDbLayerTableRecord
  2
dim
 70
     0
 62
     2
  6
Continuous
370
    18
390
8A
1001
AcAecLayerStandard
1000

1000

  0
LAYER
  5
3F3
102
{ACAD_XDICTIONARY
360
3F4
102
}
330
2
100
AcDbSymbolTableRecord
100
AcDbLayerTableRecord
  2
hatch
 70
     0
 62
     3
  6
Continuous
370
    18
390
8A
1001
AcAecLayerStandard
1000

1000

  0
LAYER
  5
546
102
{ACAD_XDICTIONARY
360
547
102
}
330
2
100
AcDbSymbolTableRecord
100
AcDbLayerTableRecord
  2
text
 70
     0
 62
     3
  6
Continuous
370
    18
390
8A
1001
AcAecLayerStandard
1000

1000

  0
LAYER
  5
5C6
102
{ACAD_XDICTIONARY
360
5C7
102
}
330
2
100
AcDbSymbolTableRecord
100
AcDbLayerTableRecord
  2
guide
 70
     0
 62
     1
  6
Continuous
290
     0
370
    18
390
8A
1001
AcAecLayerStandard
1000

1000

  0
ENDTAB
  0
TABLE
  2
STYLE
  5
3
330
0
100
AcDbSymbolTable
 70
     4
  0
STYLE
  5
55
330
3
100
AcDbSymbolTableRecord
100
AcDbTextStyleTableRecord
  2
Standard
 70
     0
 40
0.0
 41
1.0
 50
0.0
 71
     0
 42
2.5
  3
txt
  4

  0
STYLE
  5
5A
330
3
100
AcDbSymbolTableRecord
100
AcDbTextStyleTableRecord
  2
Annotative
 70
     0
 40
0.0
 41
1.0
 50
0.0
 71
     0
 42
0.2
  3
txt
  4

1001
AcadAnnotative
1000
AnnotativeData
1002
{
1070
     1
1070
     1
1002
}
  0
STYLE
  5
76
330
3
100
AcDbSymbolTableRecord
100
AcDbTextStyleTableRecord
  2
ATOM
 70
     0
 40
0.0
 41
0.9
 50
0.0
 71
     0
 42
3.0
  3
txt.shx
  4
extfont.shx
1001
AcadAnnotative
1000
AnnotativeData
1002
{
1070
     1
1070
     1
1002
}
  0
STYLE
  5
77
330
3
100
AcDbSymbolTableRecord
100
AcDbTextStyleTableRecord
  2
VISION_STANDARD
 70
     0
 40
0.0
 41
0.6
 50
0.0
 71
     0
 42
3.2
  3
TXT
  4
BIGFONT
  0
ENDTAB
  0
TABLE
  2
VIEW
  5
6
330
0
100
AcDbSymbolTable
 70
     0
  0
ENDTAB
  0
TABLE
  2
UCS
  5
7
330
0
100
AcDbSymbolTable
 70
     0
  0
ENDTAB
  0
TABLE
  2
APPID
  5
9
330
0
100
AcDbSymbolTable
 70
    11
  0
APPID
  5
56
330
9
100
AcDbSymbolTableRecord
100
AcDbRegAppTableRecord
  2
ACAD
 70
     0
  0
APPID
  5
5E
330
9
100
AcDbSymbolTableRecord
100
AcDbRegAppTableRecord
  2
AcadAnnotative
 70
     0
  0
APPID
  5
74
330
9
100
AcDbSymbolTableRecord
100
AcDbRegAppTableRecord
  2
ACAD_PSEXT
 70
     0
  0
APPID
  5
86
330
9
100
AcDbSymbolTableRecord
100
AcDbRegAppTableRecord
  2
ACAD_DSTYLE_DIMBREAK
 70
     0
  0
APPID
  5
87
330
9
100
AcDbSymbolTableRecord
100
AcDbRegAppTableRecord
  2
ACAD_DSTYLE_DIMJAG
 70
     0
  0
APPID
  5
88
330
9
100
AcDbSymbolTableRecord
100
AcDbRegAppTableRecord
  2
ACAD_DSTYLE_DIMTALN
 70
     0
  0
APPID
  5
A1
330
9
100
AcDbSymbolTableRecord
100
AcDbRegAppTableRecord
  2
AcAecLayerStandard
 70
     0
  0
APPID
  5
A6
330
9
100
AcDbSymbolTableRecord
100
AcDbRegAppTableRecord
  2
AcDbBlockRepETag
 70
     0
  0
APPID
  5
583
330
9
100
AcDbSymbolTableRecord
100
AcDbRegAppTableRecord
  2
ACAD_MLEADERVER
 70
     0
  0
APPID
  5
9C3
330
9
100
AcDbSymbolTableRecord
100
AcDbRegAppTableRecord
  2
ACAD_NAV_VCDISPLAY
 70
     0
  0
APPID
  5
A0C
330
9
100
AcDbSymbolTableRecord
100
AcDbRegAppTableRecord
  2
DCO15
 70
     0
  0
ENDTAB
  0
TABLE
  2
DIMSTYLE
  5
A
330
0
100
AcDbSymbolTable
 70
     3
100
AcDbDimStyleTable
 71
     1
340
7E
  0
DIMSTYLE
105
58
330
A
100
AcDbSymbolTableRecord
100
AcDbDimStyleTableRecord
  2
Standard
 70
     0
340
55
  0
DIMSTYLE
105
59
330
A
100
AcDbSymbolTableRecord
100
AcDbDimStyleTableRecord
  2
Annotative
 70
     0
340
55
1001
AcadAnnotative
1000
AnnotativeData
1002
{
1070
     1
1070
     1
1002
}
  0
DIMSTYLE
105
7E
330
A
100
AcDbSymbolTableRecord
100
AcDbDimStyleTableRecord
  2
ATOM
 70
     0
 40
0.0
 41
2.0
 42
2.0
 43
7.0
 44
1.0
 47
0.1
 48
0.1
 73
     0
 74
     0
 77
     1
 78
     8
140
3.0
141
-2.5
143
0.03937007874016
146
0.4999999999999998
147
0.625
171
     3
172
     1
178
     3
271
     2
272
     2
274
     3
276
     2
279
     1
283
     0
284
     8
289
     0
340
76
341
80
342
80
1001
ACAD_DSTYLE_DIMBREAK
1070
   391
1040
3.75
1001
AcadAnnotative
1000
AnnotativeData
1002
{
1070
     1
1070
     1
1002
}
1001
ACAD_DSTYLE_DIMJAG
1070
   388
1040
1.5
1001
ACAD_DSTYLE_DIMTALN
1070
   392
1070
     0
  0
ENDTAB
  0
TABLE
  2
BLOCK_RECORD
  5
1
330
0
100
AcDbSymbolTable
 70
    20
  0
BLOCK_RECORD
  5
6C
102
{ACAD_XDICTIONARY
360
8EA
102
}
330
1
100
AcDbSymbolTableRecord
100
AcDbBlockTableRecord
  2
*Model_Space
340
6F
  0
BLOCK_RECORD
  5
68
102
{ACAD_XDICTIONARY
360
8EB
102
}
330
1
100
AcDbSymbolTableRecord
100
AcDbBlockTableRecord
  2
*Paper_Space
340
6B
  0
BLOCK_RECORD
  5
70
330
1
100
AcDbSymbolTableRecord
100
AcDbBlockTableRecord
  2
*Paper_Space0
340
73
  0
BLOCK_RECORD
  5
80
330
1
100
AcDbSymbolTableRecord
100
AcDbBlockTableRecord
  2
_Open30
340
0
310
2800000020000000200000000100080000000000000400000000000000000000000000000000000000000000000080000080000000808000800000008000800080800000C0C0C000C0DCC000F0CAA6000020400000206000002080000020A0000020C0000020E00000400000004020000040400000406000004080000040A0
310
000040C0000040E00000600000006020000060400000606000006080000060A0000060C0000060E00000800000008020000080400000806000008080000080A0000080C0000080E00000A0000000A0200000A0400000A0600000A0800000A0A00000A0C00000A0E00000C0000000C0200000C0400000C0600000C0800000C0
310
A00000C0C00000C0E00000E0000000E0200000E0400000E0600000E0800000E0A00000E0C00000E0E00040000000400020004000400040006000400080004000A0004000C0004000E00040200000402020004020400040206000402080004020A0004020C0004020E000404000004040200040404000404060004040800040
310
40A0004040C0004040E00040600000406020004060400040606000406080004060A0004060C0004060E00040800000408020004080400040806000408080004080A0004080C0004080E00040A0000040A0200040A0400040A0600040A0800040A0A00040A0C00040A0E00040C0000040C0200040C0400040C0600040C08000
310
40C0A00040C0C00040C0E00040E0000040E0200040E0400040E0600040E0800040E0A00040E0C00040E0E00080000000800020008000400080006000800080008000A0008000C0008000E00080200000802020008020400080206000802080008020A0008020C0008020E00080400000804020008040400080406000804080
310
008040A0008040C0008040E00080600000806020008060400080606000806080008060A0008060C0008060E00080800000808020008080400080806000808080008080A0008080C0008080E00080A0000080A0200080A0400080A0600080A0800080A0A00080A0C00080A0E00080C0000080C0200080C0400080C0600080C0
310
800080C0A00080C0C00080C0E00080E0000080E0200080E0400080E0600080E0800080E0A00080E0C00080E0E000C0000000C0002000C0004000C0006000C0008000C000A000C000C000C000E000C0200000C0202000C0204000C0206000C0208000C020A000C020C000C020E000C0400000C0402000C0404000C0406000C0
310
408000C040A000C040C000C040E000C0600000C0602000C0604000C0606000C0608000C060A000C060C000C060E000C0800000C0802000C0804000C0806000C0808000C080A000C080C000C080E000C0A00000C0A02000C0A04000C0A06000C0A08000C0A0A000C0A0C000C0A0E000C0C00000C0C02000C0C04000C0C06000
310
C0C08000C0C0A000F0FBFF00A4A0A000808080000000FF0000FF000000FFFF00FF000000FF00FF00FFFF0000FFFFFF0000000000000000000000000000000000000000000000000000000000000000000000000000000000000000000000000000000000000000000000000000000000000000000000000000000000000000
310
00000000000000000000000000000000000000000000000000000000000000000000000000000000000000000000000000000000000000000000000000000000000000000000000000000000000000000000000000000000000000000000000000000000000000000000000000000000000000000000000000000000000000
310
000000000000000000000000000000000000000000000000000000000000000000000000000000000000000000000000000000FFFF0000000000000000000000000000000000000000000000000000000000000000FFFFFFFF0000000000000000000000000000000000000000000000000000000000000000FFFFFFFF0000
310
000000000000000000000000000000000000000000000000000000000000FFFFFF0000000000000000000000000000000000000000000000000000000000000000FFFFFFFF0000000000000000000000000000000000000000000000000000000000000000FFFFFF0000000000000000000000000000000000000000000000
310
000000000000000000FFFFFFFF0000000000000000000000000000000000000000000000000000000000000000FFFFFFFF00000000FFFFFFFFFFFFFFFFFFFFFFFFFFFFFFFFFFFFFFFFFFFFFFFFFFFFFFFFFFFF00000000000000000000000000000000000000000000000000FFFFFFFF000000000000000000000000000000
310
000000000000000000FFFFFFFF000000000000000000000000000000000000000000000000FFFFFFFF000000000000000000000000000000000000000000000000FFFFFFFF000000000000000000000000000000000000000000000000FFFFFFFF000000000000000000000000000000000000000000000000FFFFFFFF0000
310
0000000000000000000000000000000000000000000000FFFFFF0000000000000000000000000000000000000000000000000000000000000000000000000000000000000000000000000000000000000000000000000000000000000000000000000000000000000000000000000000000000000000000000000000000000
310
00000000000000000000000000000000000000000000000000000000000000000000000000000000000000000000000000000000000000000000000000000000000000000000000000000000000000000000000000000000000000000000000000000000000000000000000000000000000000000000000000000000000000
310
0000000000000000000000000000000000000000000000000000000000000000000000000000000000000000000000000000000000000000
102
{BLKREFS
331
981
331
982
331
98E
331
98F
331
99B
331
99C
331
9A4
331
9A5
331
8F1
331
8F2
331
8FA
331
8FB
331
903
331
904
331
911
331
912
331
919
331
91A
331
922
331
923
331
930
331
931
331
938
331
939
331
944
331
945
331
94C
331
94D
331
95A
331
95B
331
967
331
968
331
974
331
975
102
}
  0
BLOCK_RECORD
  5
54B
330
1
100
AcDbSymbolTableRecord
100
AcDbBlockTableRecord
  2
_TagCircle
340
0
1001
ACAD
1000
DesignCenter Data
1002
{
1070
     1
1070
     4
1002
}
  0
BLOCK_RECORD
  5
5C9
330
1
100
AcDbSymbolTableRecord
100
AcDbBlockTableRecord
  2
*D3
340
0
  0
BLOCK_RECORD
  5
5D5
330
1
100
AcDbSymbolTableRecord
100
AcDbBlockTableRecord
  2
*D4
340
0
  0
BLOCK_RECORD
  5
5E1
330
1
100
AcDbSymbolTableRecord
100
AcDbBlockTableRecord
  2
*D5
340
0
  0
BLOCK_RECORD
  5
5ED
330
1
100
AcDbSymbolTableRecord
100
AcDbBlockTableRecord
  2
*D6
340
0
  0
BLOCK_RECORD
  5
5FD
330
1
100
AcDbSymbolTableRecord
100
AcDbBlockTableRecord
  2
*D7
340
0
  0
BLOCK_RECORD
  5
609
330
1
100
AcDbSymbolTableRecord
100
AcDbBlockTableRecord
  2
*D8
340
0
  0
BLOCK_RECORD
  5
615
330
1
100
AcDbSymbolTableRecord
100
AcDbBlockTableRecord
  2
*D9
340
0
  0
BLOCK_RECORD
  5
625
330
1
100
AcDbSymbolTableRecord
100
AcDbBlockTableRecord
  2
*D10
340
0
  0
BLOCK_RECORD
  5
631
330
1
100
AcDbSymbolTableRecord
100
AcDbBlockTableRecord
  2
*D11
340
0
  0
BLOCK_RECORD
  5
63D
330
1
100
AcDbSymbolTableRecord
100
AcDbBlockTableRecord
  2
*D12
340
0
  0
BLOCK_RECORD
  5
649
330
1
100
AcDbSymbolTableRecord
100
AcDbBlockTableRecord
  2
*D13
340
0
  0
BLOCK_RECORD
  5
659
330
1
100
AcDbSymbolTableRecord
100
AcDbBlockTableRecord
  2
*D14
340
0
  0
BLOCK_RECORD
  5
669
330
1
100
AcDbSymbolTableRecord
100
AcDbBlockTableRecord
  2
*D15
340
0
  0
BLOCK_RECORD
  5
679
330
1
100
AcDbSymbolTableRecord
100
AcDbBlockTableRecord
  2
*D16
340
0
  0
BLOCK_RECORD
  5
689
330
1
100
AcDbSymbolTableRecord
100
AcDbBlockTableRecord
  2
*D17
340
0
  0
BLOCK_RECORD
  5
699
330
1
100
AcDbSymbolTableRecord
100
AcDbBlockTableRecord
  2
*D18
340
0
  0
BLOCK_RECORD
  5
6A9
330
1
100
AcDbSymbolTableRecord
100
AcDbBlockTableRecord
  2
*D19
340
0
  0
ENDTAB
  0
ENDSEC
  0
SECTION
  2
BLOCKS
  0
BLOCK
  5
6D
330
6C
100
AcDbEntity
  8
0
100
AcDbBlockBegin
  2
*Model_Space
 70
     0
 10
0.0
 20
0.0
 30
0.0
  3
*Model_Space
  1

  0
ENDBLK
  5
6E
330
6C
100
AcDbEntity
  8
0
100
AcDbBlockEnd
  0
BLOCK
  5
69
330
68
100
AcDbEntity
 67
     1
  8
0
100
AcDbBlockBegin
  2
*Paper_Space
 70
     0
 10
0.0
 20
0.0
 30
0.0
  3
*Paper_Space
  1

  0
ENDBLK
  5
6A
330
68
100
AcDbEntity
 67
     1
  8
0
100
AcDbBlockEnd
  0
BLOCK
  5
71
330
70
100
AcDbEntity
 67
     1
  8
0
100
AcDbBlockBegin
  2
*Paper_Space0
 70
     0
 10
0.0
 20
0.0
 30
0.0
  3
*Paper_Space0
  1

  0
ENDBLK
  5
72
330
70
100
AcDbEntity
 67
     1
  8
0
100
AcDbBlockEnd
  0
BLOCK
  5
81
330
80
100
AcDbEntity
  8
0
100
AcDbBlockBegin
  2
_Open30
 70
     0
 10
0.0
 20
0.0
 30
0.0
  3
_Open30
  1

  0
LINE
  5
82
330
80
100
AcDbEntity
  8
0
  6
ByBlock
 62
     0
370
    -2
100
AcDbLine
 10
-1.0
 20
0.26794919
 30
0.0
 11
0.0
 21
0.0
 31
0.0
  0
LINE
  5
83
330
80
100
AcDbEntity
  8
0
  6
ByBlock
 62
     0
370
    -2
100
AcDbLine
 10
0.0
 20
0.0
 30
0.0
 11
-1.0
 21
-0.26794919
 31
0.0
  0
LINE
  5
84
330
80
100
AcDbEntity
  8
0
  6
ByBlock
 62
     0
370
    -2
100
AcDbLine
 10
0.0
 20
0.0
 30
0.0
 11
-1.0
 21
0.0
 31
0.0
  0
ENDBLK
  5
85
330
80
100
AcDbEntity
  8
0
100
AcDbBlockEnd
  0
BLOCK
  5
54C
330
54B
100
AcDbEntity
  8
0
100
AcDbBlockBegin
  2
_TagCircle
 70
     2
 10
0.0
 20
0.0
 30
0.0
  3
_TagCircle
  1

  0
CIRCLE
  5
54D
330
54B
100
AcDbEntity
  8
0
  6
ByBlock
 62
     0
370
    -2
100
AcDbCircle
 10
0.0
 20
0.0
 30
0.0
 40
4.0
  0
ATTDEF
  5
54E
330
54B
100
AcDbEntity
  8
0
 62
     0
100
AcDbText
 10
-4.5
 20
-1.5
 30
0.0
 40
3.0
  1
タグ番号
 72
     1
 11
0.0
 21
-1.5
 31
0.0
100
AcDbAttributeDefinition
  3
タグ番号を入力
  2
タグ番号
 70
     0
  0
ENDBLK
  5
54F
330
54B
100
AcDbEntity
  8
0
100
AcDbBlockEnd
  0
BLOCK
  5
5CA
330
5C9
100
AcDbEntity
  8
0
100
AcDbBlockBegin
  2
*D3
 70
     1
 10
0.0
 20
0.0
 30
0.0
  3
*D3
  1

  0
LINE
  5
8EE
330
5C9
100
AcDbEntity
  8
dim
 62
     0
370
    -2
100
AcDbLine
 10
37.20863710025287
 20
390.9752999583472
 30
0.0
 11
37.20863710025287
 21
409.3295596684241
 31
0.0
  0
LINE
  5
8EF
330
5C9
100
AcDbEntity
  8
dim
 62
     0
370
    -2
100
AcDbLine
 10
5.208637100252872
 20
390.9752999583472
 30
0.0
 11
5.208637100252873
 21
409.3295596684241
 31
0.0
  0
LINE
  5
8F0
330
5C9
100
AcDbEntity
  8
dim
 62
     0
370
    -2
100
AcDbLine
 10
35.20863710025287
 20
408.329559668424
 30
0.0
 11
7.208637100252871
 21
408.329559668424
 31
0.0
  0
INSERT
  5
8F1
330
5C9
100
AcDbEntity
  8
dim
 62
     0
370
    -2
100
AcDbBlockReference
  2
_Open30
 10
37.20863710025287
 20
408.329559668424
 30
0.0
 41
2.0
 42
2.0
 43
2.0
  0
INSERT
  5
8F2
330
5C9
100
AcDbEntity
  8
dim
 62
     0
370
    -2
100
AcDbBlockReference
  2
_Open30
 10
5.208637100252873
 20
408.329559668424
 30
0.0
 41
2.0
 42
2.0
 43
2.0
 50
180.0
  0
MTEXT
  5
8F3
330
5C9
100
AcDbEntity
  8
dim
 62
     3
100
AcDbMText
 10
21.20863710025287
 20
410.4545596684239
 30
0.0
 40
3.0
 41
0.0
 71
     5
 72
     1
  1
64
  7
ATOM
 73
     1
 44
1.0
1001
ACAD
1000
MTEXTBEGIN
1070
    73
1070
     1
1070
    44
1040
1.0
1070
    74
1070
     0
1000
MTEXTEND
  0
POINT
  5
8F4
330
5C9
100
AcDbEntity
  8
Defpoints
 62
     0
100
AcDbPoint
 10
37.20863710025287
 20
388.9752999583473
 30
0.0
  0
POINT
  5
8F5
330
5C9
100
AcDbEntity
  8
Defpoints
 62
     0
100
AcDbPoint
 10
5.208637100252872
 20
388.9752999583473
 30
0.0
  0
POINT
  5
8F6
330
5C9
100
AcDbEntity
  8
Defpoints
 62
     0
100
AcDbPoint
 10
5.208637100252873
 20
408.329559668424
 30
0.0
  0
ENDBLK
  5
5CB
330
5C9
100
AcDbEntity
  8
0
100
AcDbBlockEnd
  0
BLOCK
  5
5D6
330
5D5
100
AcDbEntity
  8
0
100
AcDbBlockBegin
  2
*D4
 70
     1
 10
0.0
 20
0.0
 30
0.0
  3
*D4
  1

  0
LINE
  5
8F7
330
5D5
100
AcDbEntity
  8
dim
 62
     0
370
    -2
100
AcDbLine
 10
4.708637100252872
 20
390.4752999583473
 30
0.0
 11
-8.970834955976439
 21
390.4752999583473
 31
0.0
  0
LINE
  5
8F8
330
5D5
100
AcDbEntity
  8
dim
 62
     0
370
    -2
100
AcDbLine
 10
4.708637100252872
 20
380.4752999583472
 30
0.0
 11
-8.970834955976442
 21
380.4752999583472
 31
0.0
  0
LINE
  5
8F9
330
5D5
100
AcDbEntity
  8
dim
 62
     0
370
    -2
100
AcDbLine
 10
-7.970834955976441
 20
388.4752999583472
 30
0.0
 11
-7.970834955976441
 21
382.4752999583473
 31
0.0
  0
INSERT
  5
8FA
330
5D5
100
AcDbEntity
  8
dim
 62
     0
370
    -2
100
AcDbBlockReference
  2
_Open30
 10
-7.970834955976441
 20
390.4752999583473
 30
0.0
 41
2.0
 42
2.0
 43
2.0
 50
90.0
  0
INSERT
  5
8FB
330
5D5
100
AcDbEntity
  8
dim
 62
     0
370
    -2
100
AcDbBlockReference
  2
_Open30
 10
-7.970834955976441
 20
380.4752999583472
 30
0.0
 41
2.0
 42
2.0
 43
2.0
 50
270.0
  0
MTEXT
  5
8FC
330
5D5
100
AcDbEntity
  8
dim
 62
     3
100
AcDbMText
 10
-10.0958349559765
 20
385.4752999583472
 30
0.0
 40
3.0
 41
0.0
 71
     5
 72
     1
  1
20
  7
ATOM
 11
0.0000000000000001
 21
1.0
 31
0.0
 73
     1
 44
1.0
1001
ACAD
1000
MTEXTBEGIN
1070
    73
1070
     1
1070
    44
1040
1.0
1070
    74
1070
     0
1000
MTEXTEND
  0
POINT
  5
8FD
330
5D5
100
AcDbEntity
  8
Defpoints
 62
     0
100
AcDbPoint
 10
6.708637100252871
 20
390.4752999583473
 30
0.0
  0
POINT
  5
8FE
330
5D5
100
AcDbEntity
  8
Defpoints
 62
     0
100
AcDbPoint
 10
6.708637100252871
 20
380.4752999583472
 30
0.0
  0
POINT
  5
8FF
330
5D5
100
AcDbEntity
  8
Defpoints
 62
     0
100
AcDbPoint
 10
-7.970834955976441
 20
380.4752999583472
 30
0.0
  0
ENDBLK
  5
5D7
330
5D5
100
AcDbEntity
  8
0
100
AcDbBlockEnd
  0
BLOCK
  5
5E2
330
5E1
100
AcDbEntity
  8
0
100
AcDbBlockBegin
  2
*D5
 70
     1
 10
0.0
 20
0.0
 30
0.0
  3
*D5
  1

  0
LINE
  5
900
330
5E1
100
AcDbEntity
  8
dim
 62
     0
370
    -2
100
AcDbLine
 10
9.208637100252415
 20
391.5320270268474
 30
0.0
 11
9.208637100252415
 21
400.8935087152864
 31
0.0
  0
LINE
  5
901
330
5E1
100
AcDbEntity
  8
dim
 62
     0
370
    -2
100
AcDbLine
 10
33.20863709962805
 20
391.5440473204715
 30
0.0
 11
33.20863709962805
 21
400.8935087152864
 31
0.0
  0
LINE
  5
902
330
5E1
100
AcDbEntity
  8
dim
 62
     0
370
    -2
100
AcDbLine
 10
11.20863710025242
 20
399.8935087152867
 30
0.0
 11
31.20863709962805
 21
399.8935087152867
 31
0.0
  0
INSERT
  5
903
330
5E1
100
AcDbEntity
  8
dim
 62
     0
370
    -2
100
AcDbBlockReference
  2
_Open30
 10
9.208637100252415
 20
399.8935087152867
 30
0.0
 41
2.0
 42
2.0
 43
2.0
 50
180.0
  0
INSERT
  5
904
330
5E1
100
AcDbEntity
  8
dim
 62
     0
370
    -2
100
AcDbBlockReference
  2
_Open30
 10
33.20863709962805
 20
399.8935087152867
 30
0.0
 41
2.0
 42
2.0
 43
2.0
  0
MTEXT
  5
905
330
5E1
100
AcDbEntity
  8
dim
 62
     3
100
AcDbMText
 10
21.20863709994023
 20
402.0185087152865
 30
0.0
 40
3.0
 41
0.0
 71
     5
 72
     1
  1
48
  7
ATOM
 73
     1
 44
1.0
1001
ACAD
1000
MTEXTBEGIN
1070
    73
1070
     1
1070
    44
1040
1.0
1070
    74
1070
     0
1000
MTEXTEND
  0
POINT
  5
906
330
5E1
100
AcDbEntity
  8
Defpoints
 62
     0
100
AcDbPoint
 10
9.208637100252415
 20
389.5320270268474
 30
0.0
  0
POINT
  5
907
330
5E1
100
AcDbEntity
  8
Defpoints
 62
     0
100
AcDbPoint
 10
33.20863709962805
 20
389.5440473204715
 30
0.0
  0
POINT
  5
908
330
5E1
100
AcDbEntity
  8
Defpoints
 62
     0
100
AcDbPoint
 10
33.20863709962805
 20
399.8935087152867
 30
0.0
  0
ENDBLK
  5
5E3
330
5E1
100
AcDbEntity
  8
0
100
AcDbBlockEnd
  0
BLOCK
  5
5EE
330
5ED
100
AcDbEntity
  8
0
100
AcDbBlockBegin
  2
*D6
 70
     1
 10
0.0
 20
0.0
 30
0.0
  3
*D6
  1

  0
LINE
  5
909
330
5ED
100
AcDbEntity
  8
dim
 62
     0
370
    -2
100
AcDbLine
 10
95.91605211475323
 20
390.9752999713465
 30
0.0
 11
105.0284455751066
 21
390.9752999713465
 31
0.0
  0
LINE
  5
90A
330
5ED
100
AcDbEntity
  8
dim
 62
     0
370
    -2
100
AcDbLine
 10
95.91605211475323
 20
379.9752999713464
 30
0.0
 11
105.0284455751066
 21
379.9752999713464
 31
0.0
  0
LINE
  5
90B
330
5ED
100
AcDbEntity
  8
dim
 62
     0
370
    -2
100
AcDbLine
 10
104.0284455751066
 20
392.9752999713464
 30
0.0
 11
104.0284455751066
 21
394.9752999713465
 31
0.0
  0
LINE
  5
90C
330
5ED
100
AcDbEntity
  8
dim
 62
     0
370
    -2
100
AcDbLine
 10
104.0284455751066
 20
377.9752999713464
 30
0.0
 11
104.0284455751066
 21
375.9752999713464
 31
0.0
  0
LINE
  5
90D
330
5ED
100
AcDbEntity
  8
dim
 62
     0
370
    -2
100
AcDbLine
 10
104.0284455751066
 20
401.2672381277581
 30
0.0
 11
104.0284455751066
 21
390.9752999713465
 31
0.0
  0
MTEXT
  5
90E
330
5ED
100
AcDbEntity
  8
dim
 62
     3
100
AcDbMText
 10
101.9034455751065
 20
398.3922381277582
 30
0.0
 40
3.0
 41
0.0
 71
     5
 72
     1
  1
22
  7
ATOM
 11
0.0000000000000001
 21
1.0
 31
0.0
 73
     1
 44
1.0
1001
ACAD
1000
MTEXTBEGIN
1070
    73
1070
     1
1070
    44
1040
1.0
1070
    74
1070
     0
1000
MTEXTEND
  0
LINE
  5
90F
330
5ED
100
AcDbEntity
  8
dim
 62
     0
370
    -2
100
AcDbLine
 10
104.0284455751066
 20
390.9752999713465
 30
0.0
 11
104.0284455751066
 21
379.9752999713464
 31
0.0
  0
LINE
  5
910
330
5ED
100
AcDbEntity
  8
dim
 62
     0
370
    -2
100
AcDbLine
 10
104.0284455751066
 20
390.9752999713465
 30
0.0
 11
104.0284455751066
 21
379.9752999713464
 31
0.0
  0
INSERT
  5
911
330
5ED
100
AcDbEntity
  8
dim
 62
     0
370
    -2
100
AcDbBlockReference
  2
_Open30
 10
104.0284455751066
 20
390.9752999713465
 30
0.0
 41
2.0
 42
2.0
 43
2.0
 50
270.0
  0
INSERT
  5
912
330
5ED
100
AcDbEntity
  8
dim
 62
     0
370
    -2
100
AcDbBlockReference
  2
_Open30
 10
104.0284455751066
 20
379.9752999713464
 30
0.0
 41
2.0
 42
2.0
 43
2.0
 50
90.0
  0
POINT
  5
913
330
5ED
100
AcDbEntity
  8
Defpoints
 62
     0
100
AcDbPoint
 10
93.91605211475328
 20
390.9752999713465
 30
0.0
  0
POINT
  5
914
330
5ED
100
AcDbEntity
  8
Defpoints
 62
     0
100
AcDbPoint
 10
93.91605211475328
 20
379.9752999713464
 30
0.0
  0
POINT
  5
915
330
5ED
100
AcDbEntity
  8
Defpoints
 62
     0
100
AcDbPoint
 10
104.0284455751066
 20
379.9752999713464
 30
0.0
  0
ENDBLK
  5
5EF
330
5ED
100
AcDbEntity
  8
0
100
AcDbBlockEnd
  0
BLOCK
  5
5FE
330
5FD
100
AcDbEntity
  8
0
100
AcDbBlockBegin
  2
*D7
 70
     1
 10
0.0
 20
0.0
 30
0.0
  3
*D7
  1

  0
LINE
  5
916
330
5FD
100
AcDbEntity
  8
dim
 62
     0
370
    -2
100
AcDbLine
 10
21.20863710025242
 20
375.2252999715963
 30
0.0
 11
21.20863710025242
 21
357.9233001978303
 31
0.0
  0
LINE
  5
917
330
5FD
100
AcDbEntity
  8
dim
 62
     0
370
    -2
100
AcDbLine
 10
177.2086371127529
 20
376.9270529088465
 30
0.0
 11
177.2086371127529
 21
357.9233001978303
 31
0.0
  0
LINE
  5
918
330
5FD
100
AcDbEntity
  8
dim
 62
     0
370
    -2
100
AcDbLine
 10
23.20863710025243
 20
358.9233001978302
 30
0.0
 11
175.2086371127529
 21
358.9233001978302
 31
0.0
  0
INSERT
  5
919
330
5FD
100
AcDbEntity
  8
dim
 62
     0
370
    -2
100
AcDbBlockReference
  2
_Open30
 10
21.20863710025242
 20
358.9233001978302
 30
0.0
 41
2.0
 42
2.0
 43
2.0
 50
180.0
  0
INSERT
  5
91A
330
5FD
100
AcDbEntity
  8
dim
 62
     0
370
    -2
100
AcDbBlockReference
  2
_Open30
 10
177.2086371127529
 20
358.9233001978302
 30
0.0
 41
2.0
 42
2.0
 43
2.0
  0
MTEXT
  5
91B
330
5FD
100
AcDbEntity
  8
dim
 62
     3
100
AcDbMText
 10
99.20863710650269
 20
361.0483001978303
 30
0.0
 40
3.0
 41
0.0
 71
     5
 72
     1
  1
312（最短時）
  7
ATOM
 73
     1
 44
1.0
1001
ACAD
1000
MTEXTBEGIN
1070
    73
1070
     1
1070
    44
1040
1.0
1070
    74
1070
     0
1000
MTEXTEND
  0
POINT
  5
91C
330
5FD
100
AcDbEntity
  8
Defpoints
 62
     0
100
AcDbPoint
 10
21.20863710025242
 20
377.2252999715963
 30
0.0
  0
POINT
  5
91D
330
5FD
100
AcDbEntity
  8
Defpoints
 62
     0
100
AcDbPoint
 10
177.2086371127529
 20
378.9270529088465
 30
0.0
  0
POINT
  5
91E
330
5FD
100
AcDbEntity
  8
Defpoints
 62
     0
100
AcDbPoint
 10
177.2086371127529
 20
358.9233001978302
 30
0.0
  0
ENDBLK
  5
5FF
330
5FD
100
AcDbEntity
  8
0
100
AcDbBlockEnd
  0
BLOCK
  5
60A
330
609
100
AcDbEntity
  8
0
100
AcDbBlockBegin
  2
*D8
 70
     1
 10
0.0
 20
0.0
 30
0.0
  3
*D8
  1

  0
LINE
  5
91F
330
609
100
AcDbEntity
  8
dim
 62
     0
370
    -2
100
AcDbLine
 10
21.20863710025242
 20
375.2252999715963
 30
0.0
 11
21.20863710025242
 21
340.5935654343023
 31
0.0
  0
LINE
  5
920
330
609
100
AcDbEntity
  8
dim
 62
     0
370
    -2
100
AcDbLine
 10
295.7086371102696
 20
376.9270529088465
 30
0.0
 11
295.7086371102696
 21
340.5935654343023
 31
0.0
  0
LINE
  5
921
330
609
100
AcDbEntity
  8
dim
 62
     0
370
    -2
100
AcDbLine
 10
23.20863710025241
 20
341.5935654343023
 30
0.0
 11
293.7086371102696
 21
341.5935654343023
 31
0.0
  0
INSERT
  5
922
330
609
100
AcDbEntity
  8
dim
 62
     0
370
    -2
100
AcDbBlockReference
  2
_Open30
 10
21.20863710025242
 20
341.5935654343023
 30
0.0
 41
2.0
 42
2.0
 43
2.0
 50
180.0
  0
INSERT
  5
923
330
609
100
AcDbEntity
  8
dim
 62
     0
370
    -2
100
AcDbBlockReference
  2
_Open30
 10
295.7086371102696
 20
341.5935654343023
 30
0.0
 41
2.0
 42
2.0
 43
2.0
  0
MTEXT
  5
924
330
609
100
AcDbEntity
  8
dim
 62
     3
100
AcDbMText
 10
158.458637105261
 20
343.7185654343023
 30
0.0
 40
3.0
 41
0.0
 71
     5
 72
     1
  1
549（最長時）
  7
ATOM
 73
     1
 44
1.0
1001
ACAD
1000
MTEXTBEGIN
1070
    73
1070
     1
1070
    44
1040
1.0
1070
    74
1070
     0
1000
MTEXTEND
  0
POINT
  5
925
330
609
100
AcDbEntity
  8
Defpoints
 62
     0
100
AcDbPoint
 10
21.20863710025242
 20
377.2252999715963
 30
0.0
  0
POINT
  5
926
330
609
100
AcDbEntity
  8
Defpoints
 62
     0
100
AcDbPoint
 10
295.7086371102696
 20
378.9270529088465
 30
0.0
  0
POINT
  5
927
330
609
100
AcDbEntity
  8
Defpoints
 62
     0
100
AcDbPoint
 10
295.7086371102696
 20
341.5935654343023
 30
0.0
  0
ENDBLK
  5
60B
330
609
100
AcDbEntity
  8
0
100
AcDbBlockEnd
  0
BLOCK
  5
616
330
615
100
AcDbEntity
  8
0
100
AcDbBlockBegin
  2
*D9
 70
     1
 10
0.0
 20
0.0
 30
0.0
  3
*D9
  1

  0
LINE
  5
928
330
615
100
AcDbEntity
  8
dim
 62
     0
370
    -2
100
AcDbLine
 10
196.2086371007531
 20
380.4752999708465
 30
0.0
 11
212.0140504805609
 21
380.4752999708465
 31
0.0
  0
LINE
  5
929
330
615
100
AcDbEntity
  8
dim
 62
     0
370
    -2
100
AcDbLine
 10
196.2086371007531
 20
390.4752999708464
 30
0.0
 11
212.0140504805609
 21
390.4752999708464
 31
0.0
  0
LINE
  5
92A
330
615
100
AcDbEntity
  8
dim
 62
     0
370
    -2
100
AcDbLine
 10
211.0140504805609
 20
378.4752999708465
 30
0.0
 11
211.0140504805609
 21
376.4752999708464
 31
0.0
  0
LINE
  5
92B
330
615
100
AcDbEntity
  8
dim
 62
     0
370
    -2
100
AcDbLine
 10
211.0140504805609
 20
392.4752999708464
 30
0.0
 11
211.0140504805609
 21
394.4752999708464
 31
0.0
  0
LINE
  5
92C
330
615
100
AcDbEntity
  8
dim
 62
     0
370
    -2
100
AcDbLine
 10
211.0140504805609
 20
400.0265122789327
 30
0.0
 11
211.0140504805609
 21
390.4752999708464
 31
0.0
  0
MTEXT
  5
92D
330
615
100
AcDbEntity
  8
dim
 62
     3
100
AcDbMText
 10
208.8890504805608
 20
397.376512278933
 30
0.0
 40
3.0
 41
0.0
 71
     5
 72
     1
  1
20
  7
ATOM
 11
0.0000000000000001
 21
1.0
 31
0.0
 73
     1
 44
1.0
1001
ACAD
1000
MTEXTBEGIN
1070
    73
1070
     1
1070
    44
1040
1.0
1070
    74
1070
     0
1000
MTEXTEND
  0
LINE
  5
92E
330
615
100
AcDbEntity
  8
dim
 62
     0
370
    -2
100
AcDbLine
 10
211.0140504805609
 20
380.4752999708465
 30
0.0
 11
211.0140504805609
 21
390.4752999708464
 31
0.0
  0
LINE
  5
92F
330
615
100
AcDbEntity
  8
dim
 62
     0
370
    -2
100
AcDbLine
 10
211.0140504805609
 20
380.4752999708465
 30
0.0
 11
211.0140504805609
 21
390.4752999708464
 31
0.0
  0
INSERT
  5
930
330
615
100
AcDbEntity
  8
dim
 62
     0
370
    -2
100
AcDbBlockReference
  2
_Open30
 10
211.0140504805609
 20
380.4752999708465
 30
0.0
 41
2.0
 42
2.0
 43
2.0
 50
90.0
  0
INSERT
  5
931
330
615
100
AcDbEntity
  8
dim
 62
     0
370
    -2
100
AcDbBlockReference
  2
_Open30
 10
211.0140504805609
 20
390.4752999708464
 30
0.0
 41
2.0
 42
2.0
 43
2.0
 50
270.0
  0
POINT
  5
932
330
615
100
AcDbEntity
  8
Defpoints
 62
     0
100
AcDbPoint
 10
194.2086371007531
 20
380.4752999708465
 30
0.0
  0
POINT
  5
933
330
615
100
AcDbEntity
  8
Defpoints
 62
     0
100
AcDbPoint
 10
194.2086371007531
 20
390.4752999708464
 30
0.0
  0
POINT
  5
934
330
615
100
AcDbEntity
  8
Defpoints
 62
     0
100
AcDbPoint
 10
211.0140504805609
 20
390.4752999708464
 30
0.0
  0
ENDBLK
  5
617
330
615
100
AcDbEntity
  8
0
100
AcDbBlockEnd
  0
BLOCK
  5
626
330
625
100
AcDbEntity
  8
0
100
AcDbBlockBegin
  2
*D10
 70
     1
 10
0.0
 20
0.0
 30
0.0
  3
*D10
  1

  0
LINE
  5
935
330
625
100
AcDbEntity
  8
dim
 62
     0
370
    -2
100
AcDbLine
 10
188.7086371007531
 20
388.1837190658464
 30
0.0
 11
188.7086371007531
 21
400.8935087152864
 31
0.0
  0
LINE
  5
936
330
625
100
AcDbEntity
  8
dim
 62
     0
370
    -2
100
AcDbLine
 10
177.2086371127529
 20
394.5423672673463
 30
0.0
 11
177.2086371127529
 21
400.8935087152864
 31
0.0
  0
LINE
  5
937
330
625
100
AcDbEntity
  8
dim
 62
     0
370
    -2
100
AcDbLine
 10
186.7086371007531
 20
399.8935087152867
 30
0.0
 11
179.2086371127529
 21
399.8935087152867
 31
0.0
  0
INSERT
  5
938
330
625
100
AcDbEntity
  8
dim
 62
     0
370
    -2
100
AcDbBlockReference
  2
_Open30
 10
188.7086371007531
 20
399.8935087152867
 30
0.0
 41
2.0
 42
2.0
 43
2.0
  0
INSERT
  5
939
330
625
100
AcDbEntity
  8
dim
 62
     0
370
    -2
100
AcDbBlockReference
  2
_Open30
 10
177.2086371127529
 20
399.8935087152867
 30
0.0
 41
2.0
 42
2.0
 43
2.0
 50
180.0
  0
MTEXT
  5
93A
330
625
100
AcDbEntity
  8
dim
 62
     3
100
AcDbMText
 10
182.958637106753
 20
402.0185087152865
 30
0.0
 40
3.0
 41
0.0
 71
     5
 72
     1
  1
23
  7
ATOM
 73
     1
 44
1.0
1001
ACAD
1000
MTEXTBEGIN
1070
    73
1070
     1
1070
    44
1040
1.0
1070
    74
1070
     0
1000
MTEXTEND
  0
POINT
  5
93B
330
625
100
AcDbEntity
  8
Defpoints
 62
     0
100
AcDbPoint
 10
188.7086371007531
 20
386.1837190658464
 30
0.0
  0
POINT
  5
93C
330
625
100
AcDbEntity
  8
Defpoints
 62
     0
100
AcDbPoint
 10
177.2086371127529
 20
392.5423672673463
 30
0.0
  0
POINT
  5
93D
330
625
100
AcDbEntity
  8
Defpoints
 62
     0
100
AcDbPoint
 10
177.2086371127529
 20
399.8935087152867
 30
0.0
  0
ENDBLK
  5
627
330
625
100
AcDbEntity
  8
0
100
AcDbBlockEnd
  0
BLOCK
  5
632
330
631
100
AcDbEntity
  8
0
100
AcDbBlockBegin
  2
*D11
 70
     1
 10
0.0
 20
0.0
 30
0.0
  3
*D11
  1

  0
LINE
  5
93E
330
631
100
AcDbEntity
  8
dim
 62
     0
370
    -2
100
AcDbLine
 10
188.7086371007531
 20
388.1837190658464
 30
0.0
 11
188.7086371007531
 21
400.8935087152864
 31
0.0
  0
LINE
  5
93F
330
631
100
AcDbEntity
  8
dim
 62
     0
370
    -2
100
AcDbLine
 10
192.7086371007531
 20
392.2139141923464
 30
0.0
 11
192.7086371007531
 21
400.8935087152864
 31
0.0
  0
LINE
  5
940
330
631
100
AcDbEntity
  8
dim
 62
     0
370
    -2
100
AcDbLine
 10
186.7086371007531
 20
399.8935087152867
 30
0.0
 11
184.7086371007531
 21
399.8935087152867
 31
0.0
  0
LINE
  5
941
330
631
100
AcDbEntity
  8
dim
 62
     0
370
    -2
100
AcDbLine
 10
194.7086371007531
 20
399.8935087152867
 30
0.0
 11
196.7086371007531
 21
399.8935087152867
 31
0.0
  0
MTEXT
  5
942
330
631
100
AcDbEntity
  8
dim
 62
     3
100
AcDbMText
 10
190.7086371007531
 20
402.0185087152865
 30
0.0
 40
3.0
 41
0.0
 71
     5
 72
     1
  1
8
  7
ATOM
 73
     1
 44
1.0
1001
ACAD
1000
MTEXTBEGIN
1070
    73
1070
     1
1070
    44
1040
1.0
1070
    74
1070
     0
1000
MTEXTEND
  0
LINE
  5
943
330
631
100
AcDbEntity
  8
dim
 62
     0
370
    -2
100
AcDbLine
 10
188.7086371007531
 20
399.8935087152867
 30
0.0
 11
192.7086371007531
 21
399.8935087152867
 31
0.0
  0
INSERT
  5
944
330
631
100
AcDbEntity
  8
dim
 62
     0
370
    -2
100
AcDbBlockReference
  2
_Open30
 10
188.7086371007531
 20
399.8935087152867
 30
0.0
 41
2.0
 42
2.0
 43
2.0
  0
INSERT
  5
945
330
631
100
AcDbEntity
  8
dim
 62
     0
370
    -2
100
AcDbBlockReference
  2
_Open30
 10
192.7086371007531
 20
399.8935087152867
 30
0.0
 41
2.0
 42
2.0
 43
2.0
 50
180.0
  0
POINT
  5
946
330
631
100
AcDbEntity
  8
Defpoints
 62
     0
100
AcDbPoint
 10
188.7086371007531
 20
386.1837190658464
 30
0.0
  0
POINT
  5
947
330
631
100
AcDbEntity
  8
Defpoints
 62
     0
100
AcDbPoint
 10
192.7086371007531
 20
390.2139141923465
 30
0.0
  0
POINT
  5
948
330
631
100
AcDbEntity
  8
Defpoints
 62
     0
100
AcDbPoint
 10
192.7086371007531
 20
399.8935087152867
 30
0.0
  0
ENDBLK
  5
633
330
631
100
AcDbEntity
  8
0
100
AcDbBlockEnd
  0
BLOCK
  5
63E
330
63D
100
AcDbEntity
  8
0
100
AcDbBlockBegin
  2
*D12
 70
     1
 10
0.0
 20
0.0
 30
0.0
  3
*D12
  1

  0
LINE
  5
949
330
63D
100
AcDbEntity
  8
dim
 62
     0
370
    -2
100
AcDbLine
 10
195.7086371007531
 20
390.9752999708464
 30
0.0
 11
195.7086371007531
 21
409.3295596684241
 31
0.0
  0
LINE
  5
94A
330
63D
100
AcDbEntity
  8
dim
 62
     0
370
    -2
100
AcDbLine
 10
177.2086371127529
 20
394.5423672673463
 30
0.0
 11
177.2086371127529
 21
409.3295596684241
 31
0.0
  0
LINE
  5
94B
330
63D
100
AcDbEntity
  8
dim
 62
     0
370
    -2
100
AcDbLine
 10
193.7086371007531
 20
408.329559668424
 30
0.0
 11
179.2086371127529
 21
408.329559668424
 31
0.0
  0
INSERT
  5
94C
330
63D
100
AcDbEntity
  8
dim
 62
     0
370
    -2
100
AcDbBlockReference
  2
_Open30
 10
195.7086371007531
 20
408.329559668424
 30
0.0
 41
2.0
 42
2.0
 43
2.0
  0
INSERT
  5
94D
330
63D
100
AcDbEntity
  8
dim
 62
     0
370
    -2
100
AcDbBlockReference
  2
_Open30
 10
177.2086371127529
 20
408.329559668424
 30
0.0
 41
2.0
 42
2.0
 43
2.0
 50
180.0
  0
MTEXT
  5
94E
330
63D
100
AcDbEntity
  8
dim
 62
     3
100
AcDbMText
 10
186.458637106753
 20
410.4545596684239
 30
0.0
 40
3.0
 41
0.0
 71
     5
 72
     1
  1
37
  7
ATOM
 73
     1
 44
1.0
1001
ACAD
1000
MTEXTBEGIN
1070
    73
1070
     1
1070
    44
1040
1.0
1070
    74
1070
     0
1000
MTEXTEND
  0
POINT
  5
94F
330
63D
100
AcDbEntity
  8
Defpoints
 62
     0
100
AcDbPoint
 10
195.7086371007531
 20
388.9752999708464
 30
0.0
  0
POINT
  5
950
330
63D
100
AcDbEntity
  8
Defpoints
 62
     0
100
AcDbPoint
 10
177.2086371127529
 20
392.5423672673463
 30
0.0
  0
POINT
  5
951
330
63D
100
AcDbEntity
  8
Defpoints
 62
     0
100
AcDbPoint
 10
177.2086371127529
 20
408.329559668424
 30
0.0
  0
ENDBLK
  5
63F
330
63D
100
AcDbEntity
  8
0
100
AcDbBlockEnd
  0
BLOCK
  5
64A
330
649
100
AcDbEntity
  8
0
100
AcDbBlockBegin
  2
*D13
 70
     1
 10
0.0
 20
0.0
 30
0.0
  3
*D13
  1

  0
LINE
  5
952
330
649
100
AcDbEntity
  8
dim
 62
     0
370
    -2
100
AcDbLine
 10
193.4119275692533
 20
383.4752999708464
 30
0.0
 11
204.3216210001324
 21
383.4752999708464
 31
0.0
  0
LINE
  5
953
330
649
100
AcDbEntity
  8
dim
 62
     0
370
    -2
100
AcDbLine
 10
197.250208641753
 20
387.4752999708464
 30
0.0
 11
204.3216210001324
 21
387.4752999708464
 31
0.0
  0
LINE
  5
954
330
649
100
AcDbEntity
  8
dim
 62
     0
370
    -2
100
AcDbLine
 10
203.3216210001324
 20
381.4752999708464
 30
0.0
 11
203.3216210001324
 21
379.4752999708464
 31
0.0
  0
LINE
  5
955
330
649
100
AcDbEntity
  8
dim
 62
     0
370
    -2
100
AcDbLine
 10
203.3216210001324
 20
389.4752999708464
 30
0.0
 11
203.3216210001324
 21
391.4752999708464
 31
0.0
  0
LINE
  5
956
330
649
100
AcDbEntity
  8
dim
 62
     0
370
    -2
100
AcDbLine
 10
203.3216210001324
 20
397.8204354619803
 30
0.0
 11
203.3216210001324
 21
387.4752999708464
 31
0.0
  0
MTEXT
  5
957
330
649
100
AcDbEntity
  8
dim
 62
     3
100
AcDbMText
 10
201.1966210001323
 20
396.2954354619803
 30
0.0
 40
3.0
 41
0.0
 71
     5
 72
     1
  1
8
  7
ATOM
 11
0.0000000000000001
 21
1.0
 31
0.0
 73
     1
 44
1.0
1001
ACAD
1000
MTEXTBEGIN
1070
    73
1070
     1
1070
    44
1040
1.0
1070
    74
1070
     0
1000
MTEXTEND
  0
LINE
  5
958
330
649
100
AcDbEntity
  8
dim
 62
     0
370
    -2
100
AcDbLine
 10
203.3216210001324
 20
383.4752999708464
 30
0.0
 11
203.3216210001324
 21
387.4752999708464
 31
0.0
  0
LINE
  5
959
330
649
100
AcDbEntity
  8
dim
 62
     0
370
    -2
100
AcDbLine
 10
203.3216210001324
 20
383.4752999708464
 30
0.0
 11
203.3216210001324
 21
387.4752999708464
 31
0.0
  0
INSERT
  5
95A
330
649
100
AcDbEntity
  8
dim
 62
     0
370
    -2
100
AcDbBlockReference
  2
_Open30
 10
203.3216210001324
 20
383.4752999708464
 30
0.0
 41
2.0
 42
2.0
 43
2.0
 50
90.0
  0
INSERT
  5
95B
330
649
100
AcDbEntity
  8
dim
 62
     0
370
    -2
100
AcDbBlockReference
  2
_Open30
 10
203.3216210001324
 20
387.4752999708464
 30
0.0
 41
2.0
 42
2.0
 43
2.0
 50
270.0
  0
POINT
  5
95C
330
649
100
AcDbEntity
  8
Defpoints
 62
     0
100
AcDbPoint
 10
191.4119275692533
 20
383.4752999708464
 30
0.0
  0
POINT
  5
95D
330
649
100
AcDbEntity
  8
Defpoints
 62
     0
100
AcDbPoint
 10
195.250208641753
 20
387.4752999708464
 30
0.0
  0
POINT
  5
95E
330
649
100
AcDbEntity
  8
Defpoints
 62
     0
100
AcDbPoint
 10
203.3216210001324
 20
387.4752999708464
 30
0.0
  0
ENDBLK
  5
64B
330
649
100
AcDbEntity
  8
0
100
AcDbBlockEnd
  0
BLOCK
  5
65A
330
659
100
AcDbEntity
  8
0
100
AcDbBlockBegin
  2
*D14
 70
     1
 10
0.0
 20
0.0
 30
0.0
  3
*D14
  1

  0
LINE
  5
95F
330
659
100
AcDbEntity
  8
dim
 62
     0
370
    -2
100
AcDbLine
 10
255.6793267085391
 20
380.9752999708464
 30
0.0
 11
255.0131837749795
 21
380.9752999708464
 31
0.0
  0
LINE
  5
960
330
659
100
AcDbEntity
  8
dim
 62
     0
370
    -2
100
AcDbLine
 10
255.6793267085391
 20
389.9752999708464
 30
0.0
 11
255.0131837749795
 21
389.9752999708464
 31
0.0
  0
LINE
  5
961
330
659
100
AcDbEntity
  8
dim
 62
     0
370
    -2
100
AcDbLine
 10
256.0131837749795
 20
378.9752999708464
 30
0.0
 11
256.0131837749795
 21
376.9752999708464
 31
0.0
  0
LINE
  5
962
330
659
100
AcDbEntity
  8
dim
 62
     0
370
    -2
100
AcDbLine
 10
256.0131837749795
 20
391.9752999708464
 30
0.0
 11
256.0131837749795
 21
393.9752999708464
 31
0.0
  0
LINE
  5
963
330
659
100
AcDbEntity
  8
dim
 62
     0
370
    -2
100
AcDbLine
 10
256.0131837749795
 20
400.0259675743418
 30
0.0
 11
256.0131837749795
 21
389.9752999708464
 31
0.0
  0
MTEXT
  5
964
330
659
100
AcDbEntity
  8
dim
 62
     3
100
AcDbMText
 10
253.8881837749795
 20
397.6009675743419
 30
0.0
 40
3.0
 41
0.0
 71
     5
 72
     1
  1
18
  7
ATOM
 11
0.0000000000000001
 21
1.0
 31
0.0
 73
     1
 44
1.0
1001
ACAD
1000
MTEXTBEGIN
1070
    73
1070
     1
1070
    44
1040
1.0
1070
    74
1070
     0
1000
MTEXTEND
  0
LINE
  5
965
330
659
100
AcDbEntity
  8
dim
 62
     0
370
    -2
100
AcDbLine
 10
256.0131837749795
 20
380.9752999708464
 30
0.0
 11
256.0131837749795
 21
389.9752999708464
 31
0.0
  0
LINE
  5
966
330
659
100
AcDbEntity
  8
dim
 62
     0
370
    -2
100
AcDbLine
 10
256.0131837749795
 20
380.9752999708464
 30
0.0
 11
256.0131837749795
 21
389.9752999708464
 31
0.0
  0
INSERT
  5
967
330
659
100
AcDbEntity
  8
dim
 62
     0
370
    -2
100
AcDbBlockReference
  2
_Open30
 10
256.0131837749795
 20
380.9752999708464
 30
0.0
 41
2.0
 42
2.0
 43
2.0
 50
90.0
  0
INSERT
  5
968
330
659
100
AcDbEntity
  8
dim
 62
     0
370
    -2
100
AcDbBlockReference
  2
_Open30
 10
256.0131837749795
 20
389.9752999708464
 30
0.0
 41
2.0
 42
2.0
 43
2.0
 50
270.0
  0
POINT
  5
969
330
659
100
AcDbEntity
  8
Defpoints
 62
     0
100
AcDbPoint
 10
257.6793267085391
 20
380.9752999708464
 30
0.0
  0
POINT
  5
96A
330
659
100
AcDbEntity
  8
Defpoints
 62
     0
100
AcDbPoint
 10
257.6793267085391
 20
389.9752999708464
 30
0.0
  0
POINT
  5
96B
330
659
100
AcDbEntity
  8
Defpoints
 62
     0
100
AcDbPoint
 10
256.0131837749795
 20
389.9752999708464
 30
0.0
  0
ENDBLK
  5
65B
330
659
100
AcDbEntity
  8
0
100
AcDbBlockEnd
  0
BLOCK
  5
66A
330
669
100
AcDbEntity
  8
0
100
AcDbBlockBegin
  2
*D15
 70
     1
 10
0.0
 20
0.0
 30
0.0
  3
*D15
  1

  0
LINE
  5
96C
330
669
100
AcDbEntity
  8
dim
 62
     0
370
    -2
100
AcDbLine
 10
97.21113709896645
 20
317.3395213238495
 30
0.0
 11
96.22952077229138
 21
317.3395213238495
 31
0.0
  0
LINE
  5
96D
330
669
100
AcDbEntity
  8
dim
 62
     0
370
    -2
100
AcDbLine
 10
97.21113709896645
 20
312.8895213205833
 30
0.0
 11
96.22952077229138
 21
312.8895213205833
 31
0.0
  0
LINE
  5
96E
330
669
100
AcDbEntity
  8
dim
 62
     0
370
    -2
100
AcDbLine
 10
97.22952077229138
 20
319.3395213238495
 30
0.0
 11
97.22952077229138
 21
321.3395213238495
 31
0.0
  0
LINE
  5
96F
330
669
100
AcDbEntity
  8
dim
 62
     0
370
    -2
100
AcDbLine
 10
97.22952077229138
 20
310.8895213205833
 30
0.0
 11
97.22952077229138
 21
308.8895213205833
 31
0.0
  0
LINE
  5
970
330
669
100
AcDbEntity
  8
dim
 62
     0
370
    -2
100
AcDbLine
 10
97.22952077229138
 20
301.6055749567996
 30
0.0
 11
97.22952077229138
 21
312.8895213205833
 31
0.0
  0
MTEXT
  5
971
330
669
100
AcDbEntity
  8
dim
 62
     3
100
AcDbMText
 10
95.10452077229132
 20
304.9305749567996
 30
0.0
 40
3.0
 41
0.0
 71
     5
 72
     1
  1
8.9
  7
ATOM
 11
0.0000000000000001
 21
1.0
 31
0.0
 73
     1
 44
1.0
1001
ACAD
1000
MTEXTBEGIN
1070
    73
1070
     1
1070
    44
1040
1.0
1070
    74
1070
     0
1000
MTEXTEND
  0
LINE
  5
972
330
669
100
AcDbEntity
  8
dim
 62
     0
370
    -2
100
AcDbLine
 10
97.22952077229138
 20
317.3395213238495
 30
0.0
 11
97.22952077229138
 21
312.8895213205833
 31
0.0
  0
LINE
  5
973
330
669
100
AcDbEntity
  8
dim
 62
     0
370
    -2
100
AcDbLine
 10
97.22952077229138
 20
317.3395213238495
 30
0.0
 11
97.22952077229138
 21
312.8895213205833
 31
0.0
  0
INSERT
  5
974
330
669
100
AcDbEntity
  8
dim
 62
     0
370
    -2
100
AcDbBlockReference
  2
_Open30
 10
97.22952077229138
 20
317.3395213238495
 30
0.0
 41
2.0
 42
2.0
 43
2.0
 50
270.0
  0
INSERT
  5
975
330
669
100
AcDbEntity
  8
dim
 62
     0
370
    -2
100
AcDbBlockReference
  2
_Open30
 10
97.22952077229138
 20
312.8895213205833
 30
0.0
 41
2.0
 42
2.0
 43
2.0
 50
90.0
  0
POINT
  5
976
330
669
100
AcDbEntity
  8
Defpoints
 62
     0
100
AcDbPoint
 10
99.21113709896644
 20
317.3395213238495
 30
0.0
  0
POINT
  5
977
330
669
100
AcDbEntity
  8
Defpoints
 62
     0
100
AcDbPoint
 10
99.21113709896644
 20
312.8895213205833
 30
0.0
  0
POINT
  5
978
330
669
100
AcDbEntity
  8
Defpoints
 62
     0
100
AcDbPoint
 10
97.22952077229138
 20
312.8895213205833
 30
0.0
  0
ENDBLK
  5
66B
330
669
100
AcDbEntity
  8
0
100
AcDbBlockEnd
  0
BLOCK
  5
67A
330
679
100
AcDbEntity
  8
0
100
AcDbBlockBegin
  2
*D16
 70
     1
 10
0.0
 20
0.0
 30
0.0
  3
*D16
  1

  0
LINE
  5
979
330
679
100
AcDbEntity
  8
dim
 62
     0
370
    -2
100
AcDbLine
 10
19.20863710071626
 20
312.3895213240834
 30
0.0
 11
-0.3563913857401547
 21
312.3895213240834
 31
0.0
  0
LINE
  5
97A
330
679
100
AcDbEntity
  8
dim
 62
     0
370
    -2
100
AcDbLine
 10
3.208637100252416
 20
318.6395213245835
 30
0.0
 11
-0.3563913857401533
 21
318.6395213245835
 31
0.0
  0
LINE
  5
97B
330
679
100
AcDbEntity
  8
dim
 62
     0
370
    -2
100
AcDbLine
 10
0.6436086142598452
 20
310.3895213240834
 30
0.0
 11
0.6436086142598449
 21
308.3895213240834
 31
0.0
  0
LINE
  5
97C
330
679
100
AcDbEntity
  8
dim
 62
     0
370
    -2
100
AcDbLine
 10
0.6436086142598474
 20
320.6395213245835
 30
0.0
 11
0.643608614259848
 21
322.6395213245835
 31
0.0
  0
LINE
  5
97D
330
679
100
AcDbEntity
  8
dim
 62
     0
370
    -2
100
AcDbLine
 10
0.643608614259843
 20
299.8216284687743
 30
0.0
 11
0.6436086142598457
 21
312.3895213240834
 31
0.0
  0
MTEXT
  5
97E
330
679
100
AcDbEntity
  8
dim
 62
     3
100
AcDbMText
 10
-1.481391385740205
 20
304.0466284687744
 30
0.0
 40
3.0
 41
0.0
 71
     5
 72
     1
  1
12.5
  7
ATOM
 11
0.0000000000000001
 21
1.0
 31
0.0
 73
     1
 44
1.0
1001
ACAD
1000
MTEXTBEGIN
1070
    73
1070
     1
1070
    44
1040
1.0
1070
    74
1070
     0
1000
MTEXTEND
  0
LINE
  5
97F
330
679
100
AcDbEntity
  8
dim
 62
     0
370
    -2
100
AcDbLine
 10
0.6436086142598457
 20
312.3895213240834
 30
0.0
 11
0.6436086142598471
 21
318.6395213245835
 31
0.0
  0
LINE
  5
980
330
679
100
AcDbEntity
  8
dim
 62
     0
370
    -2
100
AcDbLine
 10
0.6436086142598457
 20
312.3895213240834
 30
0.0
 11
0.6436086142598471
 21
318.6395213245835
 31
0.0
  0
INSERT
  5
981
330
679
100
AcDbEntity
  8
dim
 62
     0
370
    -2
100
AcDbBlockReference
  2
_Open30
 10
0.6436086142598457
 20
312.3895213240834
 30
0.0
 41
2.0
 42
2.0
 43
2.0
 50
90.0
  0
INSERT
  5
982
330
679
100
AcDbEntity
  8
dim
 62
     0
370
    -2
100
AcDbBlockReference
  2
_Open30
 10
0.6436086142598471
 20
318.6395213245835
 30
0.0
 41
2.0
 42
2.0
 43
2.0
 50
270.0
  0
POINT
  5
983
330
679
100
AcDbEntity
  8
Defpoints
 62
     0
100
AcDbPoint
 10
21.20863710071626
 20
312.3895213240834
 30
0.0
  0
POINT
  5
984
330
679
100
AcDbEntity
  8
Defpoints
 62
     0
100
AcDbPoint
 10
5.208637100252416
 20
318.6395213245835
 30
0.0
  0
POINT
  5
985
330
679
100
AcDbEntity
  8
Defpoints
 62
     0
100
AcDbPoint
 10
0.6436086142598471
 20
318.6395213245835
 30
0.0
  0
ENDBLK
  5
67B
330
679
100
AcDbEntity
  8
0
100
AcDbBlockEnd
  0
BLOCK
  5
68A
330
689
100
AcDbEntity
  8
0
100
AcDbBlockBegin
  2
*D17
 70
     1
 10
0.0
 20
0.0
 30
0.0
  3
*D17
  1

  0
LINE
  5
986
330
689
100
AcDbEntity
  8
dim
 62
     0
370
    -2
100
AcDbLine
 10
197.7086371087521
 20
311.8895213205833
 30
0.0
 11
204.5008809973847
 21
311.8895213205833
 31
0.0
  0
LINE
  5
987
330
689
100
AcDbEntity
  8
dim
 62
     0
370
    -2
100
AcDbLine
 10
198.900646550966
 20
318.6395213245835
 30
0.0
 11
204.5008809973847
 21
318.6395213245835
 31
0.0
  0
LINE
  5
988
330
689
100
AcDbEntity
  8
dim
 62
     0
370
    -2
100
AcDbLine
 10
203.5008809973847
 20
309.8895213205833
 30
0.0
 11
203.5008809973847
 21
307.8895213205833
 31
0.0
  0
LINE
  5
989
330
689
100
AcDbEntity
  8
dim
 62
     0
370
    -2
100
AcDbLine
 10
203.5008809973847
 20
320.6395213245835
 30
0.0
 11
203.5008809973847
 21
322.6395213245835
 31
0.0
  0
LINE
  5
98A
330
689
100
AcDbEntity
  8
dim
 62
     0
370
    -2
100
AcDbLine
 10
203.5008809973847
 20
297.6034257505967
 30
0.0
 11
203.5008809973847
 21
311.8895213205833
 31
0.0
  0
MTEXT
  5
98B
330
689
100
AcDbEntity
  8
dim
 62
     3
100
AcDbMText
 10
201.3758809973846
 20
301.8284257505968
 30
0.0
 40
3.0
 41
0.0
 71
     5
 72
     1
  1
13.5
  7
ATOM
 11
0.0000000000000001
 21
1.0
 31
0.0
 73
     1
 44
1.0
1001
ACAD
1000
MTEXTBEGIN
1070
    73
1070
     1
1070
    44
1040
1.0
1070
    74
1070
     0
1000
MTEXTEND
  0
LINE
  5
98C
330
689
100
AcDbEntity
  8
dim
 62
     0
370
    -2
100
AcDbLine
 10
203.5008809973847
 20
311.8895213205833
 30
0.0
 11
203.5008809973847
 21
318.6395213245835
 31
0.0
  0
LINE
  5
98D
330
689
100
AcDbEntity
  8
dim
 62
     0
370
    -2
100
AcDbLine
 10
203.5008809973847
 20
311.8895213205833
 30
0.0
 11
203.5008809973847
 21
318.6395213245835
 31
0.0
  0
INSERT
  5
98E
330
689
100
AcDbEntity
  8
dim
 62
     0
370
    -2
100
AcDbBlockReference
  2
_Open30
 10
203.5008809973847
 20
311.8895213205833
 30
0.0
 41
2.0
 42
2.0
 43
2.0
 50
90.0
  0
INSERT
  5
98F
330
689
100
AcDbEntity
  8
dim
 62
     0
370
    -2
100
AcDbBlockReference
  2
_Open30
 10
203.5008809973847
 20
318.6395213245835
 30
0.0
 41
2.0
 42
2.0
 43
2.0
 50
270.0
  0
POINT
  5
990
330
689
100
AcDbEntity
  8
Defpoints
 62
     0
100
AcDbPoint
 10
195.7086371087521
 20
311.8895213205833
 30
0.0
  0
POINT
  5
991
330
689
100
AcDbEntity
  8
Defpoints
 62
     0
100
AcDbPoint
 10
196.900646550966
 20
318.6395213245835
 30
0.0
  0
POINT
  5
992
330
689
100
AcDbEntity
  8
Defpoints
 62
     0
100
AcDbPoint
 10
203.5008809973847
 20
318.6395213245835
 30
0.0
  0
ENDBLK
  5
68B
330
689
100
AcDbEntity
  8
0
100
AcDbBlockEnd
  0
BLOCK
  5
69A
330
699
100
AcDbEntity
  8
0
100
AcDbBlockBegin
  2
*D18
 70
     1
 10
0.0
 20
0.0
 30
0.0
  3
*D18
  1

  0
LINE
  5
993
330
699
100
AcDbEntity
  8
dim
 62
     0
370
    -2
100
AcDbLine
 10
-24.31258058338381
 20
311.8895213205833
 30
0.0
 11
-8.786836516313995
 21
311.8895213205833
 31
0.0
  0
LINE
  5
994
330
699
100
AcDbEntity
  8
dim
 62
     0
370
    -2
100
AcDbLine
 10
-23.81258058338335
 20
310.3895213205833
 30
0.0
 11
-8.786836516313995
 21
310.3895213205833
 31
0.0
  0
LINE
  5
995
330
699
100
AcDbEntity
  8
dim
 62
     0
370
    -2
100
AcDbLine
 10
-9.786836516313996
 20
313.8895213205833
 30
0.0
 11
-9.786836516313996
 21
315.8895213205833
 31
0.0
  0
LINE
  5
996
330
699
100
AcDbEntity
  8
dim
 62
     0
370
    -2
100
AcDbLine
 10
-9.786836516313996
 20
308.3895213205833
 30
0.0
 11
-9.786836516313996
 21
306.3895213205833
 31
0.0
  0
LINE
  5
997
330
699
100
AcDbEntity
  8
dim
 62
     0
370
    -2
100
AcDbLine
 10
-9.786836516314002
 20
289.3979956393263
 30
0.0
 11
-9.786836516313996
 21
310.3895213205833
 31
0.0
  0
MTEXT
  5
998
330
699
100
AcDbEntity
  8
dim
 62
     3
100
AcDbMText
 10
-11.91183651631405
 20
297.467281353612
 30
0.0
 40
3.0
 41
0.0
 71
     5
 72
     1
  1
推奨2以上
  7
ATOM
 11
0.0000000000000001
 21
1.0
 31
0.0
 73
     1
 44
1.0
1001
ACAD
1000
MTEXTBEGIN
1070
    73
1070
     1
1070
    44
1040
1.0
1070
    74
1070
     0
1000
MTEXTEND
  0
LINE
  5
999
330
699
100
AcDbEntity
  8
dim
 62
     0
370
    -2
100
AcDbLine
 10
-9.786836516313996
 20
311.8895213205833
 30
0.0
 11
-9.786836516313996
 21
310.3895213205833
 31
0.0
  0
LINE
  5
99A
330
699
100
AcDbEntity
  8
dim
 62
     0
370
    -2
100
AcDbLine
 10
-9.786836516313996
 20
311.8895213205833
 30
0.0
 11
-9.786836516313996
 21
310.3895213205833
 31
0.0
  0
INSERT
  5
99B
330
699
100
AcDbEntity
  8
dim
 62
     0
370
    -2
100
AcDbBlockReference
  2
_Open30
 10
-9.786836516313996
 20
311.8895213205833
 30
0.0
 41
2.0
 42
2.0
 43
2.0
 50
270.0
  0
INSERT
  5
99C
330
699
100
AcDbEntity
  8
dim
 62
     0
370
    -2
100
AcDbBlockReference
  2
_Open30
 10
-9.786836516313996
 20
310.3895213205833
 30
0.0
 41
2.0
 42
2.0
 43
2.0
 50
90.0
  0
POINT
  5
99D
330
699
100
AcDbEntity
  8
Defpoints
 62
     0
100
AcDbPoint
 10
-26.31258058338381
 20
311.8895213205833
 30
0.0
  0
POINT
  5
99E
330
699
100
AcDbEntity
  8
Defpoints
 62
     0
100
AcDbPoint
 10
-25.81258058338335
 20
310.3895213205833
 30
0.0
  0
POINT
  5
99F
330
699
100
AcDbEntity
  8
Defpoints
 62
     0
100
AcDbPoint
 10
-9.786836516313996
 20
310.3895213205833
 30
0.0
  0
ENDBLK
  5
69B
330
699
100
AcDbEntity
  8
0
100
AcDbBlockEnd
  0
BLOCK
  5
6AA
330
6A9
100
AcDbEntity
  8
0
100
AcDbBlockBegin
  2
*D19
 70
     1
 10
0.0
 20
0.0
 30
0.0
  3
*D19
  1

  0
LINE
  5
9A0
330
6A9
100
AcDbEntity
  8
dim
 62
     0
370
    -2
100
AcDbLine
 10
-38.31258058338381
 20
309.8895213205833
 30
0.0
 11
-38.31258058338381
 21
284.8636139593739
 31
0.0
  0
LINE
  5
9A1
330
6A9
100
AcDbEntity
  8
dim
 62
     0
370
    -2
100
AcDbLine
 10
-26.31258058338381
 20
309.8895213205833
 30
0.0
 11
-26.31258058338381
 21
284.8636139593739
 31
0.0
  0
LINE
  5
9A2
330
6A9
100
AcDbEntity
  8
dim
 62
     0
370
    -2
100
AcDbLine
 10
-36.31258058338381
 20
285.8636139593739
 30
0.0
 11
-28.31258058338381
 21
285.8636139593739
 31
0.0
  0
MTEXT
  5
9A3
330
6A9
100
AcDbEntity
  8
dim
 62
     3
100
AcDbMText
 10
-32.31258058338381
 20
287.9886139593739
 30
0.0
 40
3.0
 41
0.0
 71
     5
 72
     1
  1
24以上
  7
ATOM
 73
     1
 44
1.0
1001
ACAD
1000
MTEXTBEGIN
1070
    73
1070
     1
1070
    44
1040
1.0
1070
    74
1070
     0
1000
MTEXTEND
  0
INSERT
  5
9A4
330
6A9
100
AcDbEntity
  8
dim
 62
     0
370
    -2
100
AcDbBlockReference
  2
_Open30
 10
-38.31258058338381
 20
285.8636139593739
 30
0.0
 41
2.0
 42
2.0
 43
2.0
 50
180.0
  0
INSERT
  5
9A5
330
6A9
100
AcDbEntity
  8
dim
 62
     0
370
    -2
100
AcDbBlockReference
  2
_Open30
 10
-26.31258058338381
 20
285.8636139593739
 30
0.0
 41
2.0
 42
2.0
 43
2.0
  0
POINT
  5
9A6
330
6A9
100
AcDbEntity
  8
Defpoints
 62
     0
100
AcDbPoint
 10
-38.31258058338381
 20
311.8895213205833
 30
0.0
  0
POINT
  5
9A7
330
6A9
100
AcDbEntity
  8
Defpoints
 62
     0
100
AcDbPoint
 10
-26.31258058338381
 20
311.8895213205833
 30
0.0
  0
POINT
  5
9A8
330
6A9
100
AcDbEntity
  8
Defpoints
 62
     0
100
AcDbPoint
 10
-26.31258058338381
 20
285.8636139593739
 30
0.0
  0
ENDBLK
  5
6AB
330
6A9
100
AcDbEntity
  8
0
100
AcDbBlockEnd
  0
ENDSEC
  0
SECTION
  2
ENTITIES
  0
ARC
  5
25A
330
6C
100
AcDbEntity
  8
# base
  6
Continuous
100
AcDbCircle
 10
169.7136370847533
 20
388.9752999708464
 30
0.0
 40
1.5
100
AcDbArc
 50
0.0
 51
90.0
  0
ARC
  5
25E
330
6C
100
AcDbEntity
  8
# base
  6
Continuous
100
AcDbCircle
 10
169.7136370847533
 20
381.9752999708464
 30
0.0
 40
1.5
100
AcDbArc
 50
270.0
 51
0.0
  0
LINE
  5
25F
330
6C
100
AcDbEntity
  8
# base
  6
Continuous
100
AcDbLine
 10
169.7136370972166
 20
313.3895213205833
 30
0.0
 11
171.2086371012165
 21
313.3895213205833
 31
0.0
  0
LINE
  5
260
330
6C
100
AcDbEntity
  8
# base
  6
Continuous
100
AcDbLine
 10
171.2086371012165
 20
312.8895213205833
 30
0.0
 11
16.20863710071671
 21
312.8895213205833
 31
0.0
  0
LINE
  5
261
330
6C
100
AcDbEntity
  8
# base
  6
Continuous
100
AcDbLine
 10
16.20863710071671
 20
313.3895213205833
 30
0.0
 11
18.11846715721685
 21
313.3895213205833
 31
0.0
  0
LINE
  5
262
330
6C
100
AcDbEntity
  8
# base
  6
Continuous
100
AcDbLine
 10
169.7136370972166
 20
316.0895213215833
 30
0.0
 11
169.7136370972166
 21
313.3895213205833
 31
0.0
  0
LINE
  5
263
330
6C
100
AcDbEntity
  8
# base
  6
Continuous
100
AcDbLine
 10
171.2086371012165
 20
313.3895213205833
 30
0.0
 11
171.2086371012165
 21
312.8895213205833
 31
0.0
  0
LINE
  5
264
330
6C
100
AcDbEntity
  8
# base
  6
Continuous
100
AcDbLine
 10
18.11846715721685
 20
316.0895213215833
 30
0.0
 11
18.11846715721685
 21
313.3895213205833
 31
0.0
  0
LINE
  5
265
330
6C
100
AcDbEntity
  8
# base
  6
Continuous
100
AcDbLine
 10
18.11846714475314
 20
379.9752999713464
 30
0.0
 11
18.11846714475314
 21
380.4752999708465
 31
0.0
  0
LINE
  5
26A
330
6C
100
AcDbEntity
  8
# base
  6
Continuous
100
AcDbLine
 10
169.7136370847533
 20
390.9752999713465
 30
0.0
 11
18.11846714475314
 21
390.9752999713465
 31
0.0
  0
LINE
  5
26B
330
6C
100
AcDbEntity
  8
# base
  6
Continuous
100
AcDbLine
 10
169.7136370847533
 20
379.9752999713464
 30
0.0
 11
18.11846714475314
 21
379.9752999713464
 31
0.0
  0
LINE
  5
26C
330
6C
100
AcDbEntity
  8
# base
  6
Continuous
100
AcDbLine
 10
18.11846714475314
 20
390.4752999708464
 30
0.0
 11
18.11846714475314
 21
390.9752999713465
 31
0.0
  0
LINE
  5
26D
330
6C
100
AcDbEntity
  8
# base
  6
Continuous
100
AcDbLine
 10
169.7136370847533
 20
380.4752999708465
 30
0.0
 11
169.7136370847533
 21
379.9752999713464
 31
0.0
  0
LINE
  5
26E
330
6C
100
AcDbEntity
  8
# base
  6
Continuous
100
AcDbLine
 10
169.7136370847533
 20
390.4752999708464
 30
0.0
 11
169.7136370847533
 21
390.9752999713465
 31
0.0
  0
LINE
  5
26F
330
6C
100
AcDbEntity
  8
center
100
AcDbLine
 10
21.20863710071626
 20
320.2270213247085
 30
0.0
 11
21.20863710071626
 21
310.7020213239585
 31
0.0
  0
LINE
  5
273
330
6C
100
AcDbEntity
  8
# base
  6
Continuous
100
AcDbLine
 10
171.2086371012165
 20
316.5895213205833
 30
0.0
 11
171.2086371012165
 21
316.0895213215833
 31
0.0
  0
LINE
  5
274
330
6C
100
AcDbEntity
  8
# base
  6
Continuous
100
AcDbLine
 10
17.58496703871651
 20
316.0895213215833
 30
0.0
 11
18.11846715721685
 21
316.0895213215833
 31
0.0
  0
LINE
  5
275
330
6C
100
AcDbEntity
  8
# base
  6
Continuous
100
AcDbLine
 10
17.58496703871651
 20
316.5895213205833
 30
0.0
 11
17.58496703871651
 21
316.0895213215833
 31
0.0
  0
LINE
  5
276
330
6C
100
AcDbEntity
  8
# base
  6
Continuous
100
AcDbLine
 10
171.2086371012165
 20
316.5895213205833
 30
0.0
 11
17.58496703871651
 21
316.5895213205833
 31
0.0
  0
LINE
  5
277
330
6C
100
AcDbEntity
  8
# base
  6
Continuous
100
AcDbLine
 10
16.20863710071671
 20
312.8895213205833
 30
0.0
 11
16.20863710071671
 21
313.3895213205833
 31
0.0
  0
LINE
  5
278
330
6C
100
AcDbEntity
  8
# base
  6
Continuous
100
AcDbLine
 10
169.7136370972166
 20
316.0895213215832
 30
0.0
 11
171.2086371012165
 21
316.0895213215833
 31
0.0
  0
LINE
  5
279
330
6C
100
AcDbEntity
  8
# cover
  6
Continuous
100
AcDbLine
 10
171.2136370967528
 20
383.9752999708464
 30
0.0
 11
171.2136370967528
 21
382.4752999708465
 31
0.0
  0
ARC
  5
280
330
6C
100
AcDbEntity
  8
# cover
  6
Continuous
100
AcDbCircle
 10
168.2136370967528
 20
382.7252999708464
 30
0.0
 40
0.8500000005
100
AcDbArc
 50
270.0
 51
0.0
  0
LINE
  5
281
330
6C
100
AcDbEntity
  8
# cover
  6
Continuous
100
AcDbLine
 10
169.0636370967526
 20
388.2252999708464
 30
0.0
 11
169.0636370967526
 21
382.7252999708464
 31
0.0
  0
ARC
  5
282
330
6C
100
AcDbEntity
  8
# cover
  6
Continuous
100
AcDbCircle
 10
168.2136370967528
 20
388.2252999708464
 30
0.0
 40
0.8500000005
100
AcDbArc
 50
0.0
 51
90.0
  0
LINE
  5
283
330
6C
100
AcDbEntity
  8
# cover
  6
Continuous
100
AcDbLine
 10
168.2136370967528
 20
389.0752999708464
 30
0.0
 11
37.20530005412729
 21
389.0752999708464
 31
0.0
  0
ARC
  5
284
330
6C
100
AcDbEntity
  8
# cover
  6
Continuous
100
AcDbCircle
 10
169.7136370967528
 20
388.4752999708465
 30
0.0
 40
1.5
100
AcDbArc
 50
0.0
 51
90.0
  0
ARC
  5
285
330
6C
100
AcDbEntity
  8
# cover
  6
Continuous
100
AcDbCircle
 10
169.7136370967528
 20
382.4752999708465
 30
0.0
 40
1.5
100
AcDbArc
 50
270.0
 51
0.0
  0
LINE
  5
286
330
6C
100
AcDbEntity
  8
# cover
  6
Continuous
100
AcDbLine
 10
171.2136370967528
 20
388.4752999708465
 30
0.0
 11
171.2136370967528
 21
386.9752999708465
 31
0.0
  0
LINE
  5
289
330
6C
100
AcDbEntity
  8
# cover
  6
Continuous
100
AcDbLine
 10
36.82667107782299
 20
389.9752999708464
 30
0.0
 11
169.7136370967528
 21
389.9752999708464
 31
0.0
  0
LINE
  5
28A
330
6C
100
AcDbEntity
  8
# cover
  6
Continuous
100
AcDbLine
 10
170.3636370962526
 20
383.9752999708464
 30
0.0
 11
169.8636370962526
 21
384.4752999708465
 31
0.0
  0
LINE
  5
28B
330
6C
100
AcDbEntity
  8
# cover
  6
Continuous
100
AcDbLine
 10
169.8636370962526
 20
386.4752999708464
 30
0.0
 11
170.3636370962526
 21
386.9752999708465
 31
0.0
  0
LINE
  5
28C
330
6C
100
AcDbEntity
  8
# cover
  6
Continuous
100
AcDbLine
 10
169.7136370967528
 20
380.9752999708464
 30
0.0
 11
36.82667110018247
 21
380.9752999708464
 31
0.0
  0
LINE
  5
28E
330
6C
100
AcDbEntity
  8
# cover
  6
Continuous
100
AcDbLine
 10
170.3636370962526
 20
386.9752999708465
 30
0.0
 11
171.3636370967529
 21
386.9752999708465
 31
0.0
  0
LINE
  5
28F
330
6C
100
AcDbEntity
  8
# cover
  6
Continuous
100
AcDbLine
 10
169.8636370962526
 20
386.4752999708464
 30
0.0
 11
169.8636370962526
 21
384.4752999708465
 31
0.0
  0
LINE
  5
290
330
6C
100
AcDbEntity
  8
# cover
  6
Continuous
100
AcDbLine
 10
171.3636370967529
 20
383.9752999708464
 30
0.0
 11
170.3636370962526
 21
383.9752999708464
 31
0.0
  0
LINE
  5
291
330
6C
100
AcDbEntity
  8
# cover
  6
Continuous
100
AcDbLine
 10
171.3636370967529
 20
386.9752999708465
 30
0.0
 11
171.3636370967529
 21
383.9752999708464
 31
0.0
  0
LINE
  5
293
330
6C
100
AcDbEntity
  8
# cover
  6
Continuous
100
AcDbLine
 10
168.2136370967528
 20
381.8752999708463
 30
0.0
 11
37.20530005579758
 21
381.8752999708463
 31
0.0
  0
ARC
  5
294
330
6C
100
AcDbEntity
  8
# cover
  6
Continuous
100
AcDbCircle
 10
29.80863710071617
 20
316.7395213240995
 30
0.0
 40
0.6
100
AcDbArc
 50
90.0
 51
180.0
  0
LINE
  5
295
330
6C
100
AcDbEntity
  8
# cover
  6
Continuous
100
AcDbLine
 10
29.80863710071617
 20
317.3395213240994
 30
0.0
 11
168.6136370972167
 21
317.3395213235995
 31
0.0
  0
ARC
  5
296
330
6C
100
AcDbEntity
  8
# cover
  6
Continuous
100
AcDbCircle
 10
168.6136370972167
 20
316.7395213235995
 30
0.0
 40
0.6
100
AcDbArc
 50
0.0
 51
90.0
  0
LINE
  5
297
330
6C
100
AcDbEntity
  8
# cover
  6
Continuous
100
AcDbLine
 10
171.3636370967165
 20
316.5895213235994
 30
0.0
 11
171.3636370967165
 21
315.5895213235995
 31
0.0
  0
LINE
  5
298
330
6C
100
AcDbEntity
  8
# cover
  6
Continuous
100
AcDbLine
 10
171.2136370972161
 20
316.7395213235995
 30
0.0
 11
171.2136370972161
 21
315.5895213235995
 31
0.0
  0
LINE
  5
299
330
6C
100
AcDbEntity
  8
# cover
  6
Continuous
100
AcDbLine
 10
171.2136370972161
 20
316.7395213235995
 30
0.0
 11
16.20863709871673
 21
316.7395213240995
 31
0.0
  0
LINE
  5
29A
330
6C
100
AcDbEntity
  8
# cover
  6
Continuous
100
AcDbLine
 10
171.2086371012165
 20
316.5895213200995
 30
0.0
 11
16.20863709871673
 21
316.5895213205995
 31
0.0
  0
LINE
  5
29B
330
6C
100
AcDbEntity
  8
# cover
  6
Continuous
100
AcDbLine
 10
171.2136370972161
 20
315.5895213235995
 30
0.0
 11
171.2086371007531
 21
315.5895213235995
 31
0.0
  0
ARC
  5
29C
330
6C
100
AcDbEntity
  8
# cover
  6
Continuous
100
AcDbCircle
 10
171.2136370972161
 20
316.5895213235994
 30
0.0
 40
0.1499999995
100
AcDbArc
 50
0.0
 51
90.0
  0
LINE
  5
29D
330
6C
100
AcDbEntity
  8
# cover
  6
Continuous
100
AcDbLine
 10
16.20863709871673
 20
316.7395213240995
 30
0.0
 11
16.20863709871673
 21
316.5895213205995
 31
0.0
  0
LINE
  5
2B5
330
6C
100
AcDbEntity
  8
# holder_frm
  6
Continuous
100
AcDbLine
 10
17.58496703871651
 20
316.0895213196809
 30
0.0
 11
16.70863710025287
 21
316.0895213195833
 31
0.0
  0
LINE
  5
2B9
330
6C
100
AcDbEntity
  8
# holder_frm
  6
Continuous
100
AcDbLine
 10
24.85863710025296
 20
317.0895213195834
 30
0.0
 11
17.55863709925279
 21
317.0895213195834
 31
0.0
  0
LINE
  5
2BA
330
6C
100
AcDbEntity
  8
# holder_frm
  6
Continuous
100
AcDbLine
 10
24.85863710025252
 20
316.7395213240717
 30
0.0
 11
24.85863710025296
 21
317.0895213195834
 31
0.0
  0
LINE
  5
2BB
330
6C
100
AcDbEntity
  8
# holder_frm
  6
Continuous
100
AcDbLine
 10
17.55863710025278
 20
316.0895213195833
 30
0.0
 11
17.55863709975301
 21
316.5895213205951
 31
0.0
  0
LINE
  5
2BC
330
6C
100
AcDbEntity
  8
# holder_frm
  6
Continuous
100
AcDbLine
 10
17.55863709960294
 20
316.7395213240951
 30
0.0
 11
17.55863709925279
 21
317.0895213195834
 31
0.0
  0
ARC
  5
2BD
330
6C
100
AcDbEntity
  8
# holder_frm
  6
Continuous
100
AcDbCircle
 10
16.70863710025287
 20
315.5895213205833
 30
0.0
 40
0.5
100
AcDbArc
 50
90.0
 51
180.0
  0
ARC
  5
2BE
330
6C
100
AcDbEntity
  8
# holder_frm
  6
Continuous
100
AcDbCircle
 10
16.70863710025287
 20
313.8895213195833
 30
0.0
 40
0.5
100
AcDbArc
 50
180.0
 51
270.0
  0
LINE
  5
2BF
330
6C
100
AcDbEntity
  8
# holder_frm
  6
Continuous
100
AcDbLine
 10
16.20863710025287
 20
315.5895213205833
 30
0.0
 11
16.20863710025287
 21
313.8895213195833
 31
0.0
  0
LINE
  5
2C0
330
6C
100
AcDbEntity
  8
# holder_frm
  6
Continuous
100
AcDbLine
 10
18.02041649425291
 20
315.5895213195833
 30
0.0
 11
18.02041649425291
 21
313.8895213195833
 31
0.0
  0
ARC
  5
2C1
330
6C
100
AcDbEntity
  8
# holder_frm
  6
Continuous
100
AcDbCircle
 10
18.52041649425291
 20
313.8895213195833
 30
0.0
 40
0.5
100
AcDbArc
 50
180.0
 51
216.4959721645717
  0
ARC
  5
2C2
330
6C
100
AcDbEntity
  8
# holder_frm
  6
Continuous
100
AcDbCircle
 10
18.52041649425291
 20
315.5895213195833
 30
0.0
 40
0.5
100
AcDbArc
 50
143.5040278354282
 51
180.0
  0
ARC
  5
2C3
330
6C
100
AcDbEntity
  8
# holder_dr
  6
Continuous
100
AcDbCircle
 10
169.7136370847533
 20
389.4752999708464
 30
0.0
 40
1.5
100
AcDbArc
 50
0.0
 51
90.0
  0
LINE
  5
2C7
330
6C
100
AcDbEntity
  8
# holder_dr
  6
Continuous
100
AcDbLine
 10
171.2136370847533
 20
381.4752999705963
 30
0.0
 11
171.2136370847533
 21
383.9752999708463
 31
0.0
  0
LINE
  5
2C8
330
6C
100
AcDbEntity
  8
# holder_dr
  6
Continuous
100
AcDbLine
 10
171.2136370847533
 20
386.9752999708465
 30
0.0
 11
171.2136370847533
 21
389.4752999708464
 31
0.0
  0
LINE
  5
2C9
330
6C
100
AcDbEntity
  8
# holder_dr
  6
Continuous
100
AcDbLine
 10
171.2086371007531
 20
313.3895213205833
 30
0.0
 11
171.2086371007531
 21
316.5895213208334
 31
0.0
  0
ARC
  5
2CA
330
6C
100
AcDbEntity
  8
# holder_dr
  6
Continuous
100
AcDbCircle
 10
169.7136370847533
 20
381.4752999705963
 30
0.0
 40
1.5
100
AcDbArc
 50
270.0
 51
0.0
  0
LINE
  5
2FD
330
6C
100
AcDbEntity
  8
center
100
AcDbLine
 10
33.20863709962805
 20
389.5440473204715
 30
0.0
 11
33.20863710037747
 21
381.3584714527221
 31
0.0
  0
ARC
  5
2FE
330
6C
100
AcDbEntity
  8
# brkc_frm
  6
Continuous
100
AcDbCircle
 10
35.70863710025288
 20
381.9752999583473
 30
0.0
 40
1.5
100
AcDbArc
 50
270.0
 51
0.0
  0
ARC
  5
302
330
6C
100
AcDbEntity
  8
# brkc_frm
  6
Continuous
100
AcDbCircle
 10
35.70863710025288
 20
388.9752999583473
 30
0.0
 40
1.5
100
AcDbArc
 50
0.0
 51
90.0
  0
CIRCLE
  5
303
330
6C
100
AcDbEntity
  8
# brkc_frm
  6
Continuous
100
AcDbCircle
 10
33.20863709975311
 20
385.4752999583472
 30
0.0
 40
1.35
  0
LINE
  5
304
330
6C
100
AcDbEntity
  8
# brkc_frm
  6
Continuous
100
AcDbLine
 10
6.708637100252871
 20
380.4752999583472
 30
0.0
 11
35.70863710025288
 21
380.4752999583472
 31
0.0
  0
LINE
  5
305
330
6C
100
AcDbEntity
  8
# brkc_frm
  6
Continuous
100
AcDbLine
 10
5.208637100252872
 20
388.9752999583473
 30
0.0
 11
5.208637100252872
 21
381.9752999583473
 31
0.0
  0
CIRCLE
  5
306
330
6C
100
AcDbEntity
  8
# brkc_frm
  6
Continuous
100
AcDbCircle
 10
9.208637100252872
 20
385.4752999583472
 30
0.0
 40
1.35
  0
ARC
  5
307
330
6C
100
AcDbEntity
  8
# brkc_frm
  6
Continuous
100
AcDbCircle
 10
6.708637100252871
 20
388.9752999583473
 30
0.0
 40
1.5
100
AcDbArc
 50
90.0
 51
180.0
  0
ARC
  5
308
330
6C
100
AcDbEntity
  8
# brkc_frm
  6
Continuous
100
AcDbCircle
 10
6.708637100252871
 20
381.9752999583473
 30
0.0
 40
1.5
100
AcDbArc
 50
180.0
 51
270.0
  0
CIRCLE
  5
30B
330
6C
100
AcDbEntity
  8
# brkc_frm
  6
Continuous
100
AcDbCircle
 10
21.20863710025287
 20
385.4752999583472
 30
0.0
 40
3.5
  0
LINE
  5
30C
330
6C
100
AcDbEntity
  8
# brkc_frm
  6
Continuous
100
AcDbLine
 10
35.70863710025288
 20
390.4752999583473
 30
0.0
 11
6.708637100252871
 21
390.4752999583473
 31
0.0
  0
LINE
  5
30D
330
6C
100
AcDbEntity
  8
# brkc_frm
  6
Continuous
100
AcDbLine
 10
37.20863710025287
 20
388.9752999583473
 30
0.0
 11
37.20863710025287
 21
381.9752999583473
 31
0.0
  0
CIRCLE
  5
30E
330
6C
100
AcDbEntity
  8
# brkt_dr
  6
Continuous
100
AcDbCircle
 10
177.2086371007531
 20
385.4752999708464
 30
0.0
 40
1.050000016
  0
CIRCLE
  5
312
330
6C
100
AcDbEntity
  8
# shaft_frm
  6
Continuous
 62
     1
100
AcDbCircle
 10
21.20863708775369
 20
385.4752999708464
 30
0.0
 40
1.050000016
  0
CIRCLE
  5
316
330
6C
100
AcDbEntity
  8
# shaft_frm
  6
Continuous
 62
     1
100
AcDbCircle
 10
21.20863710025287
 20
385.4752999708464
 30
0.0
 40
1.9499999915
  0
LINE
  5
318
330
6C
100
AcDbEntity
  8
center
100
AcDbLine
 10
192.7086371007531
 20
390.2139141923465
 30
0.0
 11
192.7086371007531
 21
384.8829682578464
 31
0.0
  0
ARC
  5
319
330
6C
100
AcDbEntity
  8
# brkt_dr
  6
Continuous
100
AcDbCircle
 10
194.2086371007531
 20
388.9752999708464
 30
0.0
 40
1.5
100
AcDbArc
 50
0.0
 51
90.0
  0
CIRCLE
  5
31A
330
6C
100
AcDbEntity
  8
# brkt_dr
  6
Continuous
100
AcDbCircle
 10
188.7086371007531
 20
383.4752999708464
 30
0.0
 40
1.074999999999999
  0
CIRCLE
  5
31B
330
6C
100
AcDbEntity
  8
# brkt_dr
  6
Continuous
100
AcDbCircle
 10
188.7086371007531
 20
383.4752999708464
 30
0.0
 40
2.149999999999999
  0
CIRCLE
  5
31C
330
6C
100
AcDbEntity
  8
# brkt_dr
  6
Continuous
100
AcDbCircle
 10
192.7086371007531
 20
387.4752999708464
 30
0.0
 40
2.149999999999999
  0
CIRCLE
  5
31D
330
6C
100
AcDbEntity
  8
# brkt_dr
  6
Continuous
100
AcDbCircle
 10
192.7086371007531
 20
387.4752999708464
 30
0.0
 40
1.074999999999999
  0
ARC
  5
31E
330
6C
100
AcDbEntity
  8
# brkt_dr
  6
Continuous
100
AcDbCircle
 10
177.2086371007531
 20
385.4752999708464
 30
0.0
 40
5.0
100
AcDbArc
 50
90.0
 51
270.0
  0
LINE
  5
320
330
6C
100
AcDbEntity
  8
# brkt_dr
  6
Continuous
100
AcDbLine
 10
185.2086371007531
 20
390.4752999708464
 30
0.0
 11
185.2086371007531
 21
380.4752999708465
 31
0.0
  0
ARC
  5
321
330
6C
100
AcDbEntity
  8
# brkt_dr
  6
Continuous
100
AcDbCircle
 10
194.2086371007531
 20
381.9752999708464
 30
0.0
 40
1.5
100
AcDbArc
 50
270.0
 51
0.0
  0
LINE
  5
322
330
6C
100
AcDbEntity
  8
# brkt_dr
  6
Continuous
100
AcDbLine
 10
195.7086371007531
 20
381.9752999708464
 30
0.0
 11
195.7086371007531
 21
388.9752999708464
 31
0.0
  0
LINE
  5
323
330
6C
100
AcDbEntity
  8
# brkt_dr
  6
Continuous
100
AcDbLine
 10
177.2086371007531
 20
380.4752999708465
 30
0.0
 11
194.2086371007531
 21
380.4752999708465
 31
0.0
  0
LINE
  5
324
330
6C
100
AcDbEntity
  8
# brkt_dr
  6
Continuous
100
AcDbLine
 10
177.2086371007531
 20
390.4752999708464
 30
0.0
 11
194.2086371007531
 21
390.4752999708464
 31
0.0
  0
LINE
  5
325
330
6C
100
AcDbEntity
  8
center
100
AcDbLine
 10
188.7086371007531
 20
380.8101255638464
 30
0.0
 11
188.7086371007531
 21
386.1837190658464
 31
0.0
  0
LINE
  5
326
330
6C
100
AcDbEntity
  8
center
100
AcDbLine
 10
186.1023054182528
 20
383.4752999708464
 30
0.0
 11
191.4119275692533
 21
383.4752999708464
 31
0.0
  0
LINE
  5
327
330
6C
100
AcDbEntity
  8
center
100
AcDbLine
 10
195.250208641753
 20
387.4752999708464
 30
0.0
 11
189.8339675727534
 21
387.4752999708464
 31
0.0
  0
LINE
  5
328
330
6C
100
AcDbEntity
  8
center
100
AcDbLine
 10
177.2086371127529
 20
392.5423672673463
 30
0.0
 11
177.2086371127529
 21
378.9270529088465
 31
0.0
  0
LINE
  5
33F
330
6C
100
AcDbEntity
  8
# brkc_frm
  6
Continuous
100
AcDbLine
 10
37.20863710075264
 20
317.6395213245835
 30
0.0
 11
37.20863710025243
 21
318.6395213245835
 31
0.0
  0
LINE
  5
340
330
6C
100
AcDbEntity
  8
# brkc_frm
  6
Continuous
100
AcDbLine
 10
5.208637100252416
 20
318.6395213245835
 30
0.0
 11
37.20863710025243
 21
318.6395213245835
 31
0.0
  0
LINE
  5
341
330
6C
100
AcDbEntity
  8
# brkc_frm
  6
Continuous
100
AcDbLine
 10
5.208637100252416
 20
317.6395213245835
 30
0.0
 11
5.208637100252416
 21
318.6395213245835
 31
0.0
  0
ARC
  5
342
330
6C
100
AcDbEntity
  8
# brkc_frm
  6
Continuous
100
AcDbCircle
 10
17.20863710025241
 20
317.6395213245835
 30
0.0
 40
0.5
100
AcDbArc
 50
180.0
 51
270.0
  0
LINE
  5
343
330
6C
100
AcDbEntity
  8
# brkc_frm
  6
Continuous
100
AcDbLine
 10
5.208637100252416
 20
317.6395213245835
 30
0.0
 11
37.20863710075264
 21
317.6395213245835
 31
0.0
  0
ARC
  5
344
330
6C
100
AcDbEntity
  8
# brkc_frm
  6
Continuous
100
AcDbCircle
 10
25.20863710025242
 20
317.6395213245835
 30
0.0
 40
0.5
100
AcDbArc
 50
270.0
 51
0.0
  0
ARC
  5
350
330
6C
100
AcDbEntity
  8
# shaft_frm
  6
Continuous
 62
     1
100
AcDbCircle
 10
18.35863710025251
 20
312.5395213240835
 30
0.0
 40
0.1499999995
100
AcDbArc
 50
180.0
 51
270.0
  0
ARC
  5
351
330
6C
100
AcDbEntity
  8
# shaft_frm
  6
Continuous
 62
     1
100
AcDbCircle
 10
24.05863710025233
 20
312.5395213240835
 30
0.0
 40
0.1499999995
100
AcDbArc
 50
270.0
 51
0.0
  0
LINE
  5
352
330
6C
100
AcDbEntity
  8
# shaft_frm
  6
Continuous
 62
     1
100
AcDbLine
 10
24.20863710025287
 20
312.8895213245834
 30
0.0
 11
24.20863709975265
 21
312.5395213240835
 31
0.0
  0
LINE
  5
353
330
6C
100
AcDbEntity
  8
# shaft_frm
  6
Continuous
 62
     1
100
AcDbLine
 10
24.20863710025287
 20
312.8895213245834
 30
0.0
 11
18.20863710025287
 21
312.8895213245834
 31
0.0
  0
LINE
  5
354
330
6C
100
AcDbEntity
  8
# shaft_frm
  6
Continuous
 62
     1
100
AcDbLine
 10
24.05863710025233
 20
312.3895213240834
 30
0.0
 11
18.35863710025251
 21
312.3895213240834
 31
0.0
  0
LINE
  5
355
330
6C
100
AcDbEntity
  8
# shaft_frm
  6
Continuous
 62
     1
100
AcDbLine
 10
18.20863710025287
 20
312.8895213245834
 30
0.0
 11
18.20863710025287
 21
312.5395213240835
 31
0.0
  0
ARC
  5
356
330
6C
100
AcDbEntity
  8
# shaft_dr
  6
Continuous
100
AcDbCircle
 10
174.458637112752
 20
313.2895213200834
 30
0.0
 40
0.25
100
AcDbArc
 50
180.0
 51
270.0
  0
LINE
  5
35A
330
6C
100
AcDbEntity
  8
# shaft_dr
  6
Continuous
100
AcDbLine
 10
180.2086371122527
 20
313.7895213195833
 30
0.0
 11
180.2086371122527
 21
313.2895213200834
 31
0.0
  0
LINE
  5
35B
330
6C
100
AcDbEntity
  8
# shaft_dr
  6
Continuous
100
AcDbLine
 10
179.208637112752
 20
315.8395213205833
 30
0.0
 11
179.208637112752
 21
315.5895213205832
 31
0.0
  0
LINE
  5
35C
330
6C
100
AcDbEntity
  8
# shaft_dr
  6
Continuous
100
AcDbLine
 10
179.2086371127515
 20
313.8895213205832
 30
0.0
 11
179.208637112752
 21
313.7895213195833
 31
0.0
  0
ARC
  5
35D
330
6C
100
AcDbEntity
  8
# shaft_dr
  6
Continuous
100
AcDbCircle
 10
179.9586371122527
 20
313.2895213200834
 30
0.0
 40
0.25
100
AcDbArc
 50
270.0
 51
0.0
  0
LINE
  5
35E
330
6C
100
AcDbEntity
  8
# shaft_dr
  6
Continuous
100
AcDbLine
 10
174.208637112752
 20
313.7895213195833
 30
0.0
 11
174.208637112752
 21
313.2895213200834
 31
0.0
  0
LINE
  5
35F
330
6C
100
AcDbEntity
  8
# shaft_dr
  6
Continuous
100
AcDbLine
 10
175.208637112752
 20
315.8395213205833
 30
0.0
 11
175.208637112752
 21
315.5895213205831
 31
0.0
  0
LINE
  5
360
330
6C
100
AcDbEntity
  8
# shaft_dr
  6
Continuous
100
AcDbLine
 10
175.208637112752
 20
313.8895213205833
 30
0.0
 11
175.208637112752
 21
313.7895213195833
 31
0.0
  0
LINE
  5
361
330
6C
100
AcDbEntity
  8
# shaft_dr
  6
Continuous
100
AcDbLine
 10
179.9586371122527
 20
313.0395213200834
 30
0.0
 11
174.458637112752
 21
313.0395213200834
 31
0.0
  0
LINE
  5
362
330
6C
100
AcDbEntity
  8
# shaft_dr
  6
Continuous
100
AcDbLine
 10
180.2086371122527
 20
313.7895213195833
 30
0.0
 11
174.208637112752
 21
313.7895213195833
 31
0.0
  0
LINE
  5
363
330
6C
100
AcDbEntity
  8
# brkt_dr
  6
Continuous
100
AcDbLine
 10
185.2086371087521
 20
312.8895213205833
 30
0.0
 11
195.7086371087521
 21
312.8895213205833
 31
0.0
  0
LINE
  5
364
330
6C
100
AcDbEntity
  8
# brkt_dr
  6
Continuous
100
AcDbLine
 10
184.2086371087521
 20
315.8395213205833
 30
0.0
 11
184.2086371087521
 21
312.8895213205833
 31
0.0
  0
LINE
  5
365
330
6C
100
AcDbEntity
  8
# brkt_dr
  6
Continuous
100
AcDbLine
 10
172.2086371212521
 20
316.8395213205834
 30
0.0
 11
184.2086371087521
 21
316.8395213205834
 31
0.0
  0
LINE
  5
366
330
6C
100
AcDbEntity
  8
# brkt_dr
  6
Continuous
100
AcDbLine
 10
195.7086371087521
 20
312.8895213205833
 30
0.0
 11
195.7086371087521
 21
311.8895213205833
 31
0.0
  0
LINE
  5
367
330
6C
100
AcDbEntity
  8
# brkt_dr
  6
Continuous
100
AcDbLine
 10
195.7086371087521
 20
311.8895213205833
 30
0.0
 11
185.2086371087521
 21
311.8895213205833
 31
0.0
  0
LINE
  5
368
330
6C
100
AcDbEntity
  8
# brkt_dr
  6
Continuous
100
AcDbLine
 10
172.2086371212521
 20
315.8395213205833
 30
0.0
 11
172.2086371212521
 21
316.8395213205834
 31
0.0
  0
LINE
  5
369
330
6C
100
AcDbEntity
  8
# brkt_dr
  6
Continuous
100
AcDbLine
 10
185.2086371087521
 20
315.8395213205833
 30
0.0
 11
185.2086371087521
 21
312.8895213205833
 31
0.0
  0
LINE
  5
36A
330
6C
100
AcDbEntity
  8
# brkt_dr
  6
Continuous
100
AcDbLine
 10
172.2086371212521
 20
315.8395213205833
 30
0.0
 11
184.2086371087521
 21
315.8395213205833
 31
0.0
  0
ARC
  5
36B
330
6C
100
AcDbEntity
  8
# brkt_dr
  6
Continuous
100
AcDbCircle
 10
184.2086371087521
 20
315.8395213205833
 30
0.0
 40
1.0000000005
100
AcDbArc
 50
0.0
 51
90.0
  0
ARC
  5
36C
330
6C
100
AcDbEntity
  8
# brkt_dr
  6
Continuous
100
AcDbCircle
 10
185.2086371087521
 20
312.8895213205833
 30
0.0
 40
1.0000000005
100
AcDbArc
 50
180.0
 51
270.0
  0
LINE
  5
380
330
6C
100
AcDbEntity
  8
# slider
  6
Continuous
100
AcDbLine
 10
175.029187628983
 20
380.9752999708464
 30
0.0
 11
171.1278506472149
 21
380.9752999708464
 31
0.0
  0
LINE
  5
382
330
6C
100
AcDbEntity
  8
# slider
  6
Continuous
100
AcDbLine
 10
175.0291876289825
 20
389.9752999708463
 30
0.0
 11
171.1278506471261
 21
389.9752999708464
 31
0.0
  0
LINE
  5
385
330
6C
100
AcDbEntity
  8
# slider
  6
Continuous
100
AcDbLine
 10
172.8785100818309
 20
387.9752999708464
 30
0.0
 11
171.2136370847533
 21
387.9752999708464
 31
0.0
  0
LINE
  5
387
330
6C
100
AcDbEntity
  8
# slider
  6
Continuous
100
AcDbLine
 10
172.8785100818309
 20
382.9752999708464
 30
0.0
 11
171.2136370847533
 21
382.9752999708465
 31
0.0
  0
LINE
  5
38C
330
6C
100
AcDbEntity
  8
# slider
  6
Continuous
100
AcDbLine
 10
180.9502944872529
 20
314.3895213205832
 30
0.0
 11
181.7086371007526
 21
314.3895213205832
 31
0.0
  0
LINE
  5
38D
330
6C
100
AcDbEntity
  8
# slider
  6
Continuous
100
AcDbLine
 10
171.2086371007526
 20
313.8895213205832
 30
0.0
 11
181.7086371007526
 21
313.8895213205832
 31
0.0
  0
LINE
  5
38E
330
6C
100
AcDbEntity
  8
# slider
  6
Continuous
100
AcDbLine
 10
181.7086371007526
 20
313.8895213205832
 30
0.0
 11
181.7086371007526
 21
314.3895213205832
 31
0.0
  0
LINE
  5
38F
330
6C
100
AcDbEntity
  8
# slider
  6
Continuous
100
AcDbLine
 10
171.2086371007531
 20
315.5895213205832
 30
0.0
 11
180.9502944872529
 21
315.5895213205832
 31
0.0
  0
LINE
  5
390
330
6C
100
AcDbEntity
  8
# slider
  6
Continuous
100
AcDbLine
 10
171.2086371007531
 20
315.0895213195832
 30
0.0
 11
180.9502944872529
 21
315.0895213195832
 31
0.0
  0
LINE
  5
391
330
6C
100
AcDbEntity
  8
# slider
  6
Continuous
100
AcDbLine
 10
180.9502944872529
 20
315.5895213205832
 30
0.0
 11
180.9502944872529
 21
313.8895213205832
 31
0.0
  0
LINE
  5
39D
330
6C
100
AcDbEntity
  8
# brkc_frm
100
AcDbLine
 10
25.20863710025242
 20
317.1395213245835
 30
0.0
 11
17.20863710025241
 21
317.1395213245835
 31
0.0
  0
LINE
  5
3BD
330
6C
100
AcDbEntity
  8
hidden
100
AcDbLine
 10
190.0586371019435
 20
312.0895213205835
 30
0.0
 11
190.0586371019435
 21
311.8895213205833
 31
0.0
  0
LINE
  5
3BE
330
6C
100
AcDbEntity
  8
hidden
100
AcDbLine
 10
187.3586371019437
 20
312.0895213342001
 30
0.0
 11
187.3586371019437
 21
311.8895213205833
 31
0.0
  0
LINE
  5
3BF
330
6C
100
AcDbEntity
  8
hidden
100
AcDbLine
 10
186.5586371155605
 20
312.8895213205833
 30
0.0
 11
187.3586371019437
 21
312.0895213342001
 31
0.0
  0
LINE
  5
3C0
330
6C
100
AcDbEntity
  8
hidden
100
AcDbLine
 10
190.0586371019435
 20
312.0895213205835
 30
0.0
 11
190.8586371019437
 21
312.8895213205833
 31
0.0
  0
LINE
  5
3C1
330
6C
100
AcDbEntity
  8
hidden
100
AcDbLine
 10
190.0586371019435
 20
312.0895213205835
 30
0.0
 11
187.3586371019437
 21
312.0895213342001
 31
0.0
  0
LINE
  5
3C2
330
6C
100
AcDbEntity
  8
hidden
100
AcDbLine
 10
194.0586371019431
 20
312.0895213205835
 30
0.0
 11
194.0586371019431
 21
311.8895213205833
 31
0.0
  0
LINE
  5
3C3
330
6C
100
AcDbEntity
  8
hidden
100
AcDbLine
 10
191.3586371019432
 20
312.0895213342001
 30
0.0
 11
191.3586371019432
 21
311.8895213205833
 31
0.0
  0
LINE
  5
3C4
330
6C
100
AcDbEntity
  8
hidden
100
AcDbLine
 10
190.55863711556
 20
312.8895213205833
 30
0.0
 11
191.3586371019432
 21
312.0895213342001
 31
0.0
  0
LINE
  5
3C5
330
6C
100
AcDbEntity
  8
hidden
100
AcDbLine
 10
194.0586371019431
 20
312.0895213205835
 30
0.0
 11
194.8586371019431
 21
312.8895213205833
 31
0.0
  0
LINE
  5
3C6
330
6C
100
AcDbEntity
  8
hidden
100
AcDbLine
 10
194.0586371019431
 20
312.0895213205835
 30
0.0
 11
191.3586371019432
 21
312.0895213342001
 31
0.0
  0
LINE
  5
3D5
330
6C
100
AcDbEntity
  8
center
100
AcDbLine
 10
192.7086371087525
 20
314.5230827445833
 30
0.0
 11
192.7086371087525
 21
310.1931378045835
 31
0.0
  0
LINE
  5
3D6
330
6C
100
AcDbEntity
  8
center
100
AcDbLine
 10
188.708637108753
 20
314.5230827445833
 30
0.0
 11
188.708637108753
 21
310.1931378045835
 31
0.0
  0
LINE
  5
3D7
330
6C
100
AcDbEntity
  8
center
100
AcDbLine
 10
177.2086371042537
 20
318.1953225265831
 30
0.0
 11
177.2086371042537
 21
310.4912867695832
 31
0.0
  0
ENDSEC
  0
SECTION
  2
OBJECTS
  0
DICTIONARY
  5
C
330
0
100
AcDbDictionary
281
     1
  3
ACAD_CIP_PREVIOUS_PRODUCT_INFO
350
9B8
  3
ACAD_COLOR
350
63
  3
ACAD_GROUP
350
D
  3
ACAD_LAYOUT
350
62
  3
ACAD_MATERIAL
350
10
  3
ACAD_MLEADERSTYLE
350
66
  3
ACAD_MLINESTYLE
350
5F
  3
ACAD_PLOTSETTINGS
350
61
  3
ACAD_PLOTSTYLENAME
350
E
  3
ACAD_SCALELIST
350
42
  3
ACAD_TABLESTYLE
350
64
  3
ACAD_VISUALSTYLE
350
29
  3
ACDB_RECOMPOSE_DATA
350
A12
  3
AcDbVariableDictionary
350
9AB
  3
ASE_INDEX_DICTIONARY
350
A0B
  3
DWGPROPS
350
A13
  0
DICTIONARY
  5
9B9
330
54
100
AcDbDictionary
280
     1
281
     1
  3
ADSK_XREC_LAYER_RECONCILED
360
9BA
  0
DICTIONARY
  5
9F
330
9E
100
AcDbDictionary
280
     1
281
     1
  3
ADSK_XREC_LAYER_RECONCILED
360
A0
  0
DICTIONARY
  5
A4
330
A3
100
AcDbDictionary
280
     1
281
     1
  3
ADSK_XREC_LAYER_RECONCILED
360
A5
  0
DICTIONARY
  5
25C
330
25B
100
AcDbDictionary
280
     1
281
     1
  3
ADSK_XREC_LAYER_RECONCILED
360
25D
  0
DICTIONARY
  5
268
330
267
100
AcDbDictionary
280
     1
281
     1
  3
ADSK_XREC_LAYER_RECONCILED
360
269
  0
DICTIONARY
  5
271
330
270
100
AcDbDictionary
280
     1
281
     1
  3
ADSK_XREC_LAYER_RECONCILED
360
272
  0
DICTIONARY
  5
27B
330
27A
100
AcDbDictionary
280
     1
281
     1
  3
ADSK_XREC_LAYER_RECONCILED
360
27C
  0
DICTIONARY
  5
2A0
330
29F
100
AcDbDictionary
280
     1
281
     1
  3
ADSK_XREC_LAYER_RECONCILED
360
2A1
  0
DICTIONARY
  5
2B7
330
2B6
100
AcDbDictionary
280
     1
281
     1
  3
ADSK_XREC_LAYER_RECONCILED
360
2B8
  0
DICTIONARY
  5
2C5
330
2C4
100
AcDbDictionary
280
     1
281
     1
  3
ADSK_XREC_LAYER_RECONCILED
360
2C6
  0
DICTIONARY
  5
300
330
2FF
100
AcDbDictionary
280
     1
281
     1
  3
ADSK_XREC_LAYER_RECONCILED
360
301
  0
DICTIONARY
  5
310
330
30F
100
AcDbDictionary
280
     1
281
     1
  3
ADSK_XREC_LAYER_RECONCILED
360
311
  0
DICTIONARY
  5
314
330
313
100
AcDbDictionary
280
     1
281
     1
  3
ADSK_XREC_LAYER_RECONCILED
360
315
  0
DICTIONARY
  5
358
330
357
100
AcDbDictionary
280
     1
281
     1
  3
ADSK_XREC_LAYER_RECONCILED
360
359
  0
DICTIONARY
  5
37C
330
37B
100
AcDbDictionary
280
     1
281
     1
  3
ADSK_XREC_LAYER_RECONCILED
360
37D
  0
DICTIONARY
  5
3DB
330
3DA
100
AcDbDictionary
280
     1
281
     1
  3
ADSK_XREC_LAYER_RECONCILED
360
3DC
  0
DICTIONARY
  5
3F4
330
3F3
100
AcDbDictionary
280
     1
281
     1
  3
ADSK_XREC_LAYER_RECONCILED
360
3F5
  0
DICTIONARY
  5
547
330
546
100
AcDbDictionary
280
     1
281
     1
  3
ADSK_XREC_LAYER_RECONCILED
360
548
  0
DICTIONARY
  5
5C7
330
5C6
100
AcDbDictionary
280
     1
281
     1
  3
ADSK_XREC_LAYER_RECONCILED
360
5C8
  0
DICTIONARY
  5
8EA
330
6C
100
AcDbDictionary
280
     1
281
     1
  3
ACAD_SORTENTS
360
8ED
  0
DICTIONARY
  5
8EB
330
68
100
AcDbDictionary
280
     1
281
     1
  3
ACAD_SORTENTS
360
8EC
  0
XRECORD
  5
9B8
102
{ACAD_REACTORS
330
C
102
}
330
C
100
AcDbXrecord
280
     1
300
ACD
300
2012
300
ACD_F_S
  0
DICTIONARY
  5
63
102
{ACAD_REACTORS
330
C
102
}
330
C
100
AcDbDictionary
281
     1
  0
DICTIONARY
  5
D
102
{ACAD_REACTORS
330
C
102
}
330
C
100
AcDbDictionary
281
     1
  0
DICTIONARY
  5
62
102
{ACAD_REACTORS
330
C
102
}
330
C
100
AcDbDictionary
281
     1
  3
Model
350
6F
  3
レイアウト1
350
6B
  3
レイアウト2
350
73
  0
DICTIONARY
  5
10
102
{ACAD_REACTORS
330
C
102
}
330
C
100
AcDbDictionary
281
     1
  3
ByBlock
350
19
  3
ByLayer
350
11
  3
Global
350
21
  0
DICTIONARY
  5
66
102
{ACAD_REACTORS
330
C
102
}
330
C
100
AcDbDictionary
281
     1
  3
ATOM_balloon
350
54A
  3
Standard
350
67
  0
DICTIONARY
  5
5F
102
{ACAD_REACTORS
330
C
102
}
330
C
100
AcDbDictionary
281
     1
  3
Standard
350
60
  0
DICTIONARY
  5
61
102
{ACAD_REACTORS
330
C
102
}
330
C
100
AcDbDictionary
281
     1
  0
ACDBDICTIONARYWDFLT
  5
E
102
{ACAD_REACTORS
330
C
102
}
330
C
100
AcDbDictionary
281
     1
  3
invisible
350
89
  3
Normal
350
F
  3
Style 1
350
8A
100
AcDbDictionaryWithDefault
340
F
  0
DICTIONARY
  5
42
102
{ACAD_REACTORS
330
C
102
}
330
C
100
AcDbDictionary
281
     1
  3
*A1
350
8B
  3
*A10
350
93
  3
*A11
350
94
  3
*A12
350
95
  3
*A13
350
96
  3
*A14
350
97
  3
*A15
350
98
  3
*A16
350
99
  3
*A17
350
9A
  3
*A18
350
9B
  3
*A2
350
9C
  3
*A3
350
8C
  3
*A4
350
8D
  3
*A5
350
8E
  3
*A6
350
8F
  3
*A7
350
90
  3
*A8
350
91
  3
*A9
350
92
  3
A0
350
43
  3
A1
350
44
  3
A2
350
45
  3
A3
350
46
  3
A4
350
47
  3
A5
350
48
  3
A6
350
49
  3
A7
350
4A
  3
A8
350
4B
  3
A9
350
4C
  3
B0
350
4D
  3
B1
350
4E
  3
B2
350
4F
  3
B3
350
50
  3
B4
350
51
  3
B5
350
52
  3
B6
350
53
  0
DICTIONARY
  5
64
102
{ACAD_REACTORS
330
C
102
}
330
C
100
AcDbDictionary
281
     1
  3
Standard
350
65
  0
DICTIONARY
  5
29
102
{ACAD_REACTORS
330
C
102
}
330
C
100
AcDbDictionary
281
     1
  3
2dWireframe
350
2F
  3
Basic
350
2E
  3
Brighten
350
35
  3
ColorChange
350
39
  3
Conceptual
350
32
  3
Dim
350
34
  3
EdgeColorOff
350
41
  3
Facepattern
350
38
  3
Flat
350
2A
  3
FlatWithEdges
350
2B
  3
Gouraud
350
2C
  3
GouraudWithEdges
350
2D
  3
Hidden
350
31
  3
JitterOff
350
3F
  3
Linepattern
350
37
  3
OverhangOff
350
40
  3
Realistic
350
33
  3
Shaded
350
3E
  3
Shaded with edges
350
3D
  3
Shades of Gray
350
3A
  3
Sketchy
350
3B
  3
Thicken
350
36
  3
Wireframe
350
30
  3
X-Ray
350
3C
  0
XRECORD
  5
A12
102
{ACAD_REACTORS
330
C
102
}
330
C
100
AcDbXrecord
280
     1
 90
        1
330
65
  0
DICTIONARY
  5
9AB
102
{ACAD_REACTORS
330
C
102
}
330
C
100
AcDbDictionary
281
     1
  3
ANNOALLVISIBLE
350
9AE
  3
CANNOSCALE
350
9AF
  3
CMLEADERSTYLE
350
9AD
  3
CTABLESTYLE
350
9AC
  3
DIMASSOC
350
9C1
  3
HIDETEXT
350
9BF
  3
INDEXCTL
350
9BE
  3
LAYEREVAL
350
9B0
  3
LAYERNOTIFY
350
9B1
  3
LIGHTINGUNITS
350
9BC
  3
MSLTSCALE
350
9BB
  3
SOLIDHIST
350
9C2
  3
SORTENTS
350
9BD
  3
XCLIPFRAME
350
A0E
  0
DICTIONARY
  5
A0B
102
{ACAD_REACTORS
330
C
102
}
330
C
100
AcDbDictionary
281
     1
  3
ASEBlockHierarchyIndexRecord
350
A0D
1001
DCO15
1040
1881389316.961
  0
XRECORD
  5
A13
102
{ACAD_REACTORS
330
C
102
}
330
C
100
AcDbXrecord
280
     1
  1
DWGPROPS COOKIE
  2

  3

  4

  6

  7

  8
0035sekine
  9

300
=
301
=
302
=
303
=
304
=
305
=
306
=
307
=
308
=
309
=
 40
0.0037899884259259
 41
2456618.423515104
 42
2457578.55116853
  1

 90
        0
  0
XRECORD
  5
9BA
102
{ACAD_REACTORS
330
9B9
102
}
330
9B9
100
AcDbXrecord
280
     1
290
     1
  0
XRECORD
  5
A0
102
{ACAD_REACTORS
330
9F
102
}
330
9F
100
AcDbXrecord
280
     1
290
     1
  0
XRECORD
  5
A5
102
{ACAD_REACTORS
330
A4
102
}
330
A4
100
AcDbXrecord
280
     1
290
     1
  0
XRECORD
  5
25D
102
{ACAD_REACTORS
330
25C
102
}
330
25C
100
AcDbXrecord
280
     1
290
     1
  0
XRECORD
  5
269
102
{ACAD_REACTORS
330
268
102
}
330
268
100
AcDbXrecord
280
     1
290
     1
  0
XRECORD
  5
272
102
{ACAD_REACTORS
330
271
102
}
330
271
100
AcDbXrecord
280
     1
290
     1
  0
XRECORD
  5
27C
102
{ACAD_REACTORS
330
27B
102
}
330
27B
100
AcDbXrecord
280
     1
290
     1
  0
XRECORD
  5
2A1
102
{ACAD_REACTORS
330
2A0
102
}
330
2A0
100
AcDbXrecord
280
     1
290
     1
  0
XRECORD
  5
2B8
102
{ACAD_REACTORS
330
2B7
102
}
330
2B7
100
AcDbXrecord
280
     1
290
     1
  0
XRECORD
  5
2C6
102
{ACAD_REACTORS
330
2C5
102
}
330
2C5
100
AcDbXrecord
280
     1
290
     1
  0
XRECORD
  5
301
102
{ACAD_REACTORS
330
300
102
}
330
300
100
AcDbXrecord
280
     1
290
     1
  0
XRECORD
  5
311
102
{ACAD_REACTORS
330
310
102
}
330
310
100
AcDbXrecord
280
     1
290
     1
  0
XRECORD
  5
315
102
{ACAD_REACTORS
330
314
102
}
330
314
100
AcDbXrecord
280
     1
290
     1
  0
XRECORD
  5
359
102
{ACAD_REACTORS
330
358
102
}
330
358
100
AcDbXrecord
280
     1
290
     1
  0
XRECORD
  5
37D
102
{ACAD_REACTORS
330
37C
102
}
330
37C
100
AcDbXrecord
280
     1
290
     1
  0
XRECORD
  5
3DC
102
{ACAD_REACTORS
330
3DB
102
}
330
3DB
100
AcDbXrecord
280
     1
290
     1
  0
XRECORD
  5
3F5
102
{ACAD_REACTORS
330
3F4
102
}
330
3F4
100
AcDbXrecord
280
     1
290
     1
  0
XRECORD
  5
548
102
{ACAD_REACTORS
330
547
102
}
330
547
100
AcDbXrecord
280
     1
290
     1
  0
XRECORD
  5
5C8
102
{ACAD_REACTORS
330
5C7
102
}
330
5C7
100
AcDbXrecord
280
     1
290
     1
  0
SORTENTSTABLE
  5
8ED
102
{ACAD_REACTORS
330
8EA
102
}
330
8EA
100
AcDbSortentsTable
330
6C
331
3C0
  5
3C3
331
3D5
  5
3D8
331
3C1
  5
3C4
331
3D6
  5
3D9
331
3C2
  5
3C5
331
3D7
  5
3DD
331
3C3
  5
3C6
331
3C4
  5
3C7
331
3C5
  5
3C8
331
3C6
  5
3C9
331
3BD
  5
3C0
331
3BE
  5
3C1
331
3BF
  5
3C2
  0
SORTENTSTABLE
  5
8EC
102
{ACAD_REACTORS
330
8EB
102
}
330
8EB
100
AcDbSortentsTable
330
68
  0
LAYOUT
  5
6F
102
{ACAD_XDICTIONARY
360
A47
102
}
102
{ACAD_REACTORS
330
62
102
}
330
62
100
AcDbPlotSettings
  1

  2
Microsoft XPS Document Writer
  4
A4
  6

 40
3.174999952316283
 41
3.174999952316283
 42
3.175003051757812
 43
3.17498779296875
 44
210.0156707763672
 45
297.0106506347656
 46
-4.894741058349608
 47
-4.905582427978513
 48
0.0
 49
0.0
140
0.0
141
0.0
142
1.0
143
1.971639174336744
 70
 11954
 72
     1
 73
     1
 74
     0
  7
monochrome.stb
 75
     0
147
0.5071921947059092
148
141.6539642116878
149
-156.9544092289708
100
AcDbLayout
  1
Model
 70
     1
 71
     0
 10
0.0
 20
0.0
 11
12.0
 21
9.0
 12
0.0
 22
0.0
 32
0.0
 14
0.0
 24
0.0
 34
0.0
 15
0.0
 25
0.0
 35
0.0
146
0.0
 13
0.0
 23
0.0
 33
0.0
 16
1.0
 26
0.0
 36
0.0
 17
0.0
 27
1.0
 37
0.0
 76
     0
330
6C
331
57
1001
ACAD_PSEXT
1000
Microsoft XPS Document Writer
1000
Microsoft XPS Document Writer
1000
XPSPort:
1000

1070
     0
  0
LAYOUT
  5
6B
102
{ACAD_XDICTIONARY
360
A45
102
}
102
{ACAD_REACTORS
330
62
102
}
330
62
100
AcDbPlotSettings
  1

  2
Microsoft XPS Document Writer
  4

  6

 40
0.0
 41
0.0
 42
0.0
 43
0.0
 44
0.0
 45
0.0
 46
0.0
 47
0.0
 48
0.0
 49
0.0
140
0.0
141
0.0
142
1.0
143
1.0
 70
   688
 72
     0
 73
     0
 74
     5
  7

 75
    16
147
1.0
148
0.0
149
0.0
100
AcDbLayout
  1
レイアウト1
 70
     1
 71
     1
 10
0.0
 20
0.0
 11
12.0
 21
9.0
 12
0.0
 22
0.0
 32
0.0
 14
1.000000000000000E+20
 24
1.000000000000000E+20
 34
1.000000000000000E+20
 15
-1.000000000000000E+20
 25
-1.000000000000000E+20
 35
-1.000000000000000E+20
146
0.0
 13
0.0
 23
0.0
 33
0.0
 16
1.0
 26
0.0
 36
0.0
 17
0.0
 27
1.0
 37
0.0
 76
     0
330
68
  0
LAYOUT
  5
73
102
{ACAD_XDICTIONARY
360
A49
102
}
102
{ACAD_REACTORS
330
62
102
}
330
62
100
AcDbPlotSettings
  1

  2
Microsoft XPS Document Writer
  4

  6

 40
0.0
 41
0.0
 42
0.0
 43
0.0
 44
0.0
 45
0.0
 46
0.0
 47
0.0
 48
0.0
 49
0.0
140
0.0
141
0.0
142
1.0
143
1.0
 70
   688
 72
     0
 73
     0
 74
     5
  7

 75
    16
147
1.0
148
0.0
149
0.0
100
AcDbLayout
  1
レイアウト2
 70
     1
 71
     2
 10
0.0
 20
0.0
 11
12.0
 21
9.0
 12
0.0
 22
0.0
 32
0.0
 14
0.0
 24
0.0
 34
0.0
 15
0.0
 25
0.0
 35
0.0
146
0.0
 13
0.0
 23
0.0
 33
0.0
 16
1.0
 26
0.0
 36
0.0
 17
0.0
 27
1.0
 37
0.0
 76
     0
330
70
  0
MATERIAL
  5
19
102
{ACAD_XDICTIONARY
360
1A
102
}
102
{ACAD_REACTORS
330
10
102
}
330
10
100
AcDbMaterial
  1
ByBlock
 72
     0
 43
0.0208333333333333
 43
0.0
 43
0.0
 43
0.0
 43
0.0
 43
0.0208333333333333
 43
0.0
 43
0.0
 43
0.0
 43
0.0
 43
1.0
 43
0.0
 43
0.0
 43
0.0
 43
0.0
 43
1.0
 77
     0
 47
0.0208333333333333
 47
0.0
 47
0.0
 47
0.0
 47
0.0
 47
0.0208333333333333
 47
0.0
 47
0.0
 47
0.0
 47
0.0
 47
1.0
 47
0.0
 47
0.0
 47
0.0
 47
0.0
 47
1.0
171
     0
 49
0.0208333333333333
 49
0.0
 49
0.0
 49
0.0
 49
0.0
 49
0.0208333333333333
 49
0.0
 49
0.0
 49
0.0
 49
0.0
 49
1.0
 49
0.0
 49
0.0
 49
0.0
 49
0.0
 49
1.0
175
     0
142
0.0208333333333333
142
0.0
142
0.0
142
0.0
142
0.0
142
0.0208333333333333
142
0.0
142
0.0
142
0.0
142
0.0
142
1.0
142
0.0
142
0.0
142
0.0
142
0.0
142
1.0
179
     0
144
0.0208333333333333
144
0.0
144
0.0
144
0.0
144
0.0
144
0.0208333333333333
144
0.0
144
0.0
144
0.0
144
0.0
144
1.0
144
0.0
144
0.0
144
0.0
144
0.0
144
1.0
147
0.0208333333333333
147
0.0
147
0.0
147
0.0
147
0.0
147
0.0208333333333333
147
0.0
147
0.0
147
0.0
147
0.0
147
1.0
147
0.0
147
0.0
147
0.0
147
0.0
147
1.0
  0
MATERIAL
  5
11
102
{ACAD_XDICTIONARY
360
12
102
}
102
{ACAD_REACTORS
330
10
102
}
330
10
100
AcDbMaterial
  1
ByLayer
 72
     0
 43
0.0208333333333333
 43
0.0
 43
0.0
 43
0.0
 43
0.0
 43
0.0208333333333333
 43
0.0
 43
0.0
 43
0.0
 43
0.0
 43
1.0
 43
0.0
 43
0.0
 43
0.0
 43
0.0
 43
1.0
 77
     0
 47
0.0208333333333333
 47
0.0
 47
0.0
 47
0.0
 47
0.0
 47
0.0208333333333333
 47
0.0
 47
0.0
 47
0.0
 47
0.0
 47
1.0
 47
0.0
 47
0.0
 47
0.0
 47
0.0
 47
1.0
171
     0
 49
0.0208333333333333
 49
0.0
 49
0.0
 49
0.0
 49
0.0
 49
0.0208333333333333
 49
0.0
 49
0.0
 49
0.0
 49
0.0
 49
1.0
 49
0.0
 49
0.0
 49
0.0
 49
0.0
 49
1.0
175
     0
142
0.0208333333333333
142
0.0
142
0.0
142
0.0
142
0.0
142
0.0208333333333333
142
0.0
142
0.0
142
0.0
142
0.0
142
1.0
142
0.0
142
0.0
142
0.0
142
0.0
142
1.0
179
     0
144
0.0208333333333333
144
0.0
144
0.0
144
0.0
144
0.0
144
0.0208333333333333
144
0.0
144
0.0
144
0.0
144
0.0
144
1.0
144
0.0
144
0.0
144
0.0
144
0.0
144
1.0
147
0.0208333333333333
147
0.0
147
0.0
147
0.0
147
0.0
147
0.0208333333333333
147
0.0
147
0.0
147
0.0
147
0.0
147
1.0
147
0.0
147
0.0
147
0.0
147
0.0
147
1.0
  0
MATERIAL
  5
21
102
{ACAD_XDICTIONARY
360
22
102
}
102
{ACAD_REACTORS
330
10
102
}
330
10
100
AcDbMaterial
  1
Global
 72
     0
 43
0.0208333333333333
 43
0.0
 43
0.0
 43
0.0
 43
0.0
 43
0.0208333333333333
 43
0.0
 43
0.0
 43
0.0
 43
0.0
 43
1.0
 43
0.0
 43
0.0
 43
0.0
 43
0.0
 43
1.0
 77
     0
 47
0.0208333333333333
 47
0.0
 47
0.0
 47
0.0
 47
0.0
 47
0.0208333333333333
 47
0.0
 47
0.0
 47
0.0
 47
0.0
 47
1.0
 47
0.0
 47
0.0
 47
0.0
 47
0.0
 47
1.0
171
     0
 49
0.0208333333333333
 49
0.0
 49
0.0
 49
0.0
 49
0.0
 49
0.0208333333333333
 49
0.0
 49
0.0
 49
0.0
 49
0.0
 49
1.0
 49
0.0
 49
0.0
 49
0.0
 49
0.0
 49
1.0
175
     0
142
0.0208333333333333
142
0.0
142
0.0
142
0.0
142
0.0
142
0.0208333333333333
142
0.0
142
0.0
142
0.0
142
0.0
142
1.0
142
0.0
142
0.0
142
0.0
142
0.0
142
1.0
179
     0
144
0.0208333333333333
144
0.0
144
0.0
144
0.0
144
0.0
144
0.0208333333333333
144
0.0
144
0.0
144
0.0
144
0.0
144
1.0
144
0.0
144
0.0
144
0.0
144
0.0
144
1.0
147
0.0208333333333333
147
0.0
147
0.0
147
0.0
147
0.0
147
0.0208333333333333
147
0.0
147
0.0
147
0.0
147
0.0
147
1.0
147
0.0
147
0.0
147
0.0
147
0.0
147
1.0
  0
MLEADERSTYLE
  5
54A
102
{ACAD_REACTORS
330
66
102
}
330
66
100
AcDbMLeaderStyle
170
     1
171
     1
172
     0
 90
        2
 40
0.0
 41
0.0
173
     1
 91
-1073741824
 92
       -2
290
     1
 42
2.0
291
     0
 43
-0.36
  3
Standard
341
80
 44
2.399999999999999
300

342
76
174
     1
178
     6
175
     1
176
     0
 93
-1023410173
 45
3.0
292
     0
297
     0
 46
4.0
343
54B
 94
-1073741824
 47
1.0
 49
1.0
140
1.0
293
     1
141
0.0
294
     1
177
     0
142
1.0
295
     0
296
     1
143
3.75
1001
ACAD_MLEADERVER
1070
     2
  0
MLEADERSTYLE
  5
67
102
{ACAD_XDICTIONARY
360
A10
102
}
102
{ACAD_REACTORS
330
66
102
}
330
66
100
AcDbMLeaderStyle
170
     2
171
     1
172
     0
 90
        2
 40
0.0
 41
0.0
173
     1
 91
-1056964608
340
5B
 92
       -2
290
     1
 42
0.09
291
     1
 43
0.36
  3
Standard
 44
0.18
300

342
55
174
     1
178
     6
175
     1
176
     0
 93
-1056964608
 45
0.18
292
     0
297
     0
 46
0.18
 94
-1056964608
 47
1.0
 49
1.0
140
1.0
293
     1
141
0.0
294
     1
177
     0
142
1.0
295
     0
296
     0
143
0.125
1001
ACAD_MLEADERVER
1070
     2
  0
MLINESTYLE
  5
60
102
{ACAD_REACTORS
330
5F
102
}
330
5F
100
AcDbMlineStyle
  2
STANDARD
 70
     0
  3

 62
   256
 51
90.0
 52
90.0
 71
     2
 49
0.5
 62
   256
  6
BYLAYER
 49
-0.5
 62
   256
  6
BYLAYER
  0
ACDBPLACEHOLDER
  5
89
102
{ACAD_REACTORS
330
E
102
}
330
E
  0
ACDBPLACEHOLDER
  5
F
102
{ACAD_REACTORS
330
E
102
}
330
E
  0
ACDBPLACEHOLDER
  5
8A
102
{ACAD_REACTORS
330
E
102
}
330
E
  0
SCALE
  5
8B
102
{ACAD_REACTORS
330
42
102
}
330
42
100
AcDbScale
 70
     0
300
3:1
140
3.0
141
1.0
290
     0
  0
SCALE
  5
93
102
{ACAD_REACTORS
330
42
102
}
330
42
100
AcDbScale
 70
     0
300
3/16" = 1'-0"
140
0.1875
141
12.0
290
     0
  0
SCALE
  5
94
102
{ACAD_REACTORS
330
42
102
}
330
42
100
AcDbScale
 70
     0
300
1/4" = 1'-0"
140
0.25
141
12.0
290
     0
  0
SCALE
  5
95
102
{ACAD_REACTORS
330
42
102
}
330
42
100
AcDbScale
 70
     0
300
3/8" = 1'-0"
140
0.375
141
12.0
290
     0
  0
SCALE
  5
96
102
{ACAD_REACTORS
330
42
102
}
330
42
100
AcDbScale
 70
     0
300
1/2" = 1'-0"
140
0.5
141
12.0
290
     0
  0
SCALE
  5
97
102
{ACAD_REACTORS
330
42
102
}
330
42
100
AcDbScale
 70
     0
300
3/4" = 1'-0"
140
0.75
141
12.0
290
     0
  0
SCALE
  5
98
102
{ACAD_REACTORS
330
42
102
}
330
42
100
AcDbScale
 70
     0
300
1" = 1'-0"
140
1.0
141
12.0
290
     0
  0
SCALE
  5
99
102
{ACAD_REACTORS
330
42
102
}
330
42
100
AcDbScale
 70
     0
300
1-1/2" = 1'-0"
140
1.5
141
12.0
290
     0
  0
SCALE
  5
9A
102
{ACAD_REACTORS
330
42
102
}
330
42
100
AcDbScale
 70
     0
300
3" = 1'-0"
140
3.0
141
12.0
290
     0
  0
SCALE
  5
9B
102
{ACAD_REACTORS
330
42
102
}
330
42
100
AcDbScale
 70
     0
300
6" = 1'-0"
140
6.0
141
12.0
290
     0
  0
SCALE
  5
9C
102
{ACAD_REACTORS
330
42
102
}
330
42
100
AcDbScale
 70
     0
300
1'-0" = 1'-0"
140
12.0
141
12.0
290
     0
  0
SCALE
  5
8C
102
{ACAD_REACTORS
330
42
102
}
330
42
100
AcDbScale
 70
     0
300
5:1
140
5.0
141
1.0
290
     0
  0
SCALE
  5
8D
102
{ACAD_REACTORS
330
42
102
}
330
42
100
AcDbScale
 70
     0
300
1/128" = 1'-0"
140
0.0078125
141
12.0
290
     0
  0
SCALE
  5
8E
102
{ACAD_REACTORS
330
42
102
}
330
42
100
AcDbScale
 70
     0
300
1/64" = 1'-0"
140
0.015625
141
12.0
290
     0
  0
SCALE
  5
8F
102
{ACAD_REACTORS
330
42
102
}
330
42
100
AcDbScale
 70
     0
300
1/32" = 1'-0"
140
0.03125
141
12.0
290
     0
  0
SCALE
  5
90
102
{ACAD_REACTORS
330
42
102
}
330
42
100
AcDbScale
 70
     0
300
1/16" = 1'-0"
140
0.0625
141
12.0
290
     0
  0
SCALE
  5
91
102
{ACAD_REACTORS
330
42
102
}
330
42
100
AcDbScale
 70
     0
300
3/32" = 1'-0"
140
0.09375
141
12.0
290
     0
  0
SCALE
  5
92
102
{ACAD_REACTORS
330
42
102
}
330
42
100
AcDbScale
 70
     0
300
1/8" = 1'-0"
140
0.125
141
12.0
290
     0
  0
SCALE
  5
43
102
{ACAD_REACTORS
330
42
102
}
330
42
100
AcDbScale
 70
     0
300
1:1
140
1.0
141
1.0
290
     1
  0
SCALE
  5
44
102
{ACAD_REACTORS
330
42
102
}
330
42
100
AcDbScale
 70
     0
300
1:2
140
1.0
141
2.0
290
     0
  0
SCALE
  5
45
102
{ACAD_REACTORS
330
42
102
}
330
42
100
AcDbScale
 70
     0
300
1:4
140
1.0
141
4.0
290
     0
  0
SCALE
  5
46
102
{ACAD_REACTORS
330
42
102
}
330
42
100
AcDbScale
 70
     0
300
1:5
140
1.0
141
5.0
290
     0
  0
SCALE
  5
47
102
{ACAD_REACTORS
330
42
102
}
330
42
100
AcDbScale
 70
     0
300
1:8
140
1.0
141
8.0
290
     0
  0
SCALE
  5
48
102
{ACAD_REACTORS
330
42
102
}
330
42
100
AcDbScale
 70
     0
300
1:10
140
1.0
141
10.0
290
     0
  0
SCALE
  5
49
102
{ACAD_REACTORS
330
42
102
}
330
42
100
AcDbScale
 70
     0
300
1:16
140
1.0
141
16.0
290
     0
  0
SCALE
  5
4A
102
{ACAD_REACTORS
330
42
102
}
330
42
100
AcDbScale
 70
     0
300
1:20
140
1.0
141
20.0
290
     0
  0
SCALE
  5
4B
102
{ACAD_REACTORS
330
42
102
}
330
42
100
AcDbScale
 70
     0
300
1:30
140
1.0
141
30.0
290
     0
  0
SCALE
  5
4C
102
{ACAD_REACTORS
330
42
102
}
330
42
100
AcDbScale
 70
     0
300
1:40
140
1.0
141
40.0
290
     0
  0
SCALE
  5
4D
102
{ACAD_REACTORS
330
42
102
}
330
42
100
AcDbScale
 70
     0
300
1:50
140
1.0
141
50.0
290
     0
  0
SCALE
  5
4E
102
{ACAD_REACTORS
330
42
102
}
330
42
100
AcDbScale
 70
     0
300
1:100
140
1.0
141
100.0
290
     0
  0
SCALE
  5
4F
102
{ACAD_REACTORS
330
42
102
}
330
42
100
AcDbScale
 70
     0
300
2:1
140
2.0
141
1.0
290
     0
  0
SCALE
  5
50
102
{ACAD_REACTORS
330
42
102
}
330
42
100
AcDbScale
 70
     0
300
4:1
140
4.0
141
1.0
290
     0
  0
SCALE
  5
51
102
{ACAD_REACTORS
330
42
102
}
330
42
100
AcDbScale
 70
     0
300
8:1
140
8.0
141
1.0
290
     0
  0
SCALE
  5
52
102
{ACAD_REACTORS
330
42
102
}
330
42
100
AcDbScale
 70
     0
300
10:1
140
10.0
141
1.0
290
     0
  0
SCALE
  5
53
102
{ACAD_REACTORS
330
42
102
}
330
42
100
AcDbScale
 70
     0
300
100:1
140
100.0
141
1.0
290
     0
  0
TABLESTYLE
  5
65
102
{ACAD_XDICTIONARY
360
9C4
102
}
102
{ACAD_REACTORS
330
64
102
}
330
64
100
AcDbTableStyle
  3
Standard
 70
     0
 71
     3
 40
1.5
 41
1.5
280
     0
281
     0
  7
Standard
140
4.5
170
     2
 62
     0
 63
     7
283
     0
274
    -2
284
     1
 64
     0
275
    -2
285
     1
 65
     0
276
    -2
286
     1
 66
     0
277
    -2
287
     1
 67
     0
278
    -2
288
     1
 68
     0
279
    -2
289
     1
 69
     0
  7
Standard
140
6.0
170
     5
 62
     0
 63
     7
283
     0
274
    -2
284
     1
 64
     0
275
    -2
285
     1
 65
     0
276
    -2
286
     1
 66
     0
277
    -2
287
     1
 67
     0
278
    -2
288
     1
 68
     0
279
    -2
289
     1
 69
     0
  7
Standard
140
4.5
170
     5
 62
     0
 63
     7
283
     0
274
    -2
284
     1
 64
     0
275
    -2
285
     1
 65
     0
276
    -2
286
     1
 66
     0
277
    -2
287
     1
 67
     0
278
    -2
288
     1
 68
     0
279
    -2
289
     1
 69
     0
  0
VISUALSTYLE
  5
2F
102
{ACAD_XDICTIONARY
360
A1E
102
}
102
{ACAD_REACTORS
330
29
102
}
330
29
100
AcDbVisualStyle
  2

 70
     4
 71
     0
 72
     2
 73
     0
 90
        0
 40
-0.6
 41
-30.0
 62
     5
 63
     7
 74
     1
 91
        4
 64
     7
 65
   257
 75
     1
175
     1
 42
1.0
 92
        0
 66
   257
 43
1.0
 76
     1
 77
     6
 78
     2
 67
     7
 79
     5
170
     0
171
     0
290
     0
174
     0
 93
        1
 44
0.0
173
     0
291
     0
 45
0.0
1001
ACAD
1000
AcDbSavedByObjectVersion
1070
     0
  0
VISUALSTYLE
  5
2E
102
{ACAD_XDICTIONARY
360
A1C
102
}
102
{ACAD_REACTORS
330
29
102
}
330
29
100
AcDbVisualStyle
  2

 70
     7
 71
     1
 72
     0
 73
     1
 90
        0
 40
-0.6
 41
-30.0
 62
     5
 63
     7
 74
     0
 91
        4
 64
     7
 65
   257
 75
     1
175
     1
 42
1.0
 92
        8
 66
     7
 43
1.0
 76
     1
 77
     6
 78
     2
 67
     7
 79
     5
170
     0
171
     0
290
     0
174
     0
 93
        1
 44
0.0
173
     0
291
     1
 45
0.0
1001
ACAD
1000
AcDbSavedByObjectVersion
1070
     0
  0
VISUALSTYLE
  5
35
102
{ACAD_XDICTIONARY
360
A2A
102
}
102
{ACAD_REACTORS
330
29
102
}
330
29
100
AcDbVisualStyle
  2

 70
    12
 71
     2
 72
     2
 73
     0
 90
        0
 40
-0.6
 41
-30.0
 62
     5
 63
     7
 74
     1
 91
        4
 64
     7
 65
   257
 75
     1
175
     1
 42
1.0
 92
        8
 66
     7
 43
1.0
 76
     1
 77
     6
 78
     2
 67
     7
 79
     5
170
     0
171
     0
290
     0
174
     0
 93
        1
 44
50.0
173
     0
291
     1
 45
0.0
1001
ACAD
1000
AcDbSavedByObjectVersion
1070
     0
  0
VISUALSTYLE
  5
39
102
{ACAD_XDICTIONARY
360
A32
102
}
102
{ACAD_REACTORS
330
29
102
}
330
29
100
AcDbVisualStyle
  2

 70
    16
 71
     2
 72
     2
 73
     3
 90
        0
 40
-0.6
 41
-30.0
 62
     5
 63
     8
 74
     1
 91
        4
 64
     7
 65
   257
 75
     1
175
     1
 42
1.0
 92
        8
 66
     8
 43
1.0
 76
     1
 77
     6
 78
     2
 67
     7
 79
     5
170
     0
171
     0
290
     0
174
     0
 93
        1
 44
0.0
173
     0
291
     1
 45
0.0
1001
ACAD
1000
AcDbSavedByObjectVersion
1070
     0
  0
VISUALSTYLE
  5
32
102
{ACAD_XDICTIONARY
360
A24
102
}
102
{ACAD_REACTORS
330
29
102
}
330
29
100
AcDbVisualStyle
  2

 70
     9
 71
     3
 72
     2
 73
     0
 90
        0
 40
-0.6
 41
-30.0
 62
     5
 63
     7
 74
     2
 91
        2
 64
     7
 65
   257
 75
     1
175
     1
 42
179.0
 92
        8
 66
     7
 43
1.0
 76
     1
 77
     6
 78
     2
 67
     7
 79
     3
170
     0
171
     0
290
     0
174
     0
 93
        1
 44
0.0
173
     0
291
     0
 45
0.0
1001
ACAD
1000
AcDbSavedByObjectVersion
1070
     0
  0
VISUALSTYLE
  5
34
102
{ACAD_XDICTIONARY
360
A28
102
}
102
{ACAD_REACTORS
330
29
102
}
330
29
100
AcDbVisualStyle
  2

 70
    11
 71
     2
 72
     2
 73
     0
 90
        0
 40
-0.6
 41
-30.0
 62
     5
 63
     7
 74
     1
 91
        4
 64
     7
 65
   257
 75
     1
175
     1
 42
1.0
 92
        8
 66
     7
 43
1.0
 76
     1
 77
     6
 78
     2
 67
     7
 79
     5
170
     0
171
     0
290
     0
174
     0
 93
        1
 44
-50.0
173
     0
291
     1
 45
0.0
1001
ACAD
1000
AcDbSavedByObjectVersion
1070
     0
  0
VISUALSTYLE
  5
41
102
{ACAD_XDICTIONARY
360
A42
102
}
102
{ACAD_REACTORS
330
29
102
}
330
29
100
AcDbVisualStyle
  2

 70
    22
 71
     2
 72
     2
 73
     0
 90
        0
 40
-0.6
 41
-30.0
 62
     5
 63
     7
 74
     1
 91
        4
 64
     7
 65
   257
 75
     1
175
     1
 42
1.0
 92
        8
 66
     7
 43
1.0
 76
     1
 77
     6
 78
     2
 67
     7
 79
     5
170
     0
171
     0
290
     0
174
     0
 93
        1
 44
0.0
173
     0
291
     1
 45
0.0
1001
ACAD
1000
AcDbSavedByObjectVersion
1070
     0
  0
VISUALSTYLE
  5
38
102
{ACAD_XDICTIONARY
360
A30
102
}
102
{ACAD_REACTORS
330
29
102
}
330
29
100
AcDbVisualStyle
  2

 70
    15
 71
     2
 72
     2
 73
     0
 90
        0
 40
-0.6
 41
-30.0
 62
     5
 63
     7
 74
     1
 91
        4
 64
     7
 65
   257
 75
     1
175
     1
 42
1.0
 92
        8
 66
     7
 43
1.0
 76
     1
 77
     6
 78
     2
 67
     7
 79
     5
170
     0
171
     0
290
     0
174
     0
 93
        1
 44
0.0
173
     0
291
     1
 45
0.0
1001
ACAD
1000
AcDbSavedByObjectVersion
1070
     0
  0
VISUALSTYLE
  5
2A
102
{ACAD_XDICTIONARY
360
A14
102
}
102
{ACAD_REACTORS
330
29
102
}
330
29
100
AcDbVisualStyle
  2

 70
     0
 71
     2
 72
     1
 73
     1
 90
        2
 40
-0.6
 41
30.0
 62
     5
 63
     7
 74
     0
 91
        0
 64
     7
 65
   257
 75
     1
175
     1
 42
1.0
 92
        8
 66
     7
 43
1.0
 76
     1
 77
     6
 78
     2
 67
     7
 79
     5
170
     0
171
     0
290
     0
174
     0
 93
       13
 44
0.0
173
     0
291
     1
 45
0.0
1001
ACAD
1000
AcDbSavedByObjectVersion
1070
     0
  0
VISUALSTYLE
  5
2B
102
{ACAD_XDICTIONARY
360
A16
102
}
102
{ACAD_REACTORS
330
29
102
}
330
29
100
AcDbVisualStyle
  2

 70
     1
 71
     2
 72
     1
 73
     1
 90
        2
 40
-0.6
 41
30.0
 62
     5
 63
     7
 74
     1
 91
        0
 64
     7
 65
   257
 75
     1
175
     1
 42
1.0
 92
        0
 66
   257
 43
1.0
 76
     1
 77
     6
 78
     2
 67
     7
 79
     5
170
     0
171
     0
290
     0
174
     0
 93
       13
 44
0.0
173
     0
291
     1
 45
0.0
1001
ACAD
1000
AcDbSavedByObjectVersion
1070
     0
  0
VISUALSTYLE
  5
2C
102
{ACAD_XDICTIONARY
360
A18
102
}
102
{ACAD_REACTORS
330
29
102
}
330
29
100
AcDbVisualStyle
  2

 70
     2
 71
     2
 72
     2
 73
     1
 90
        2
 40
-0.6
 41
30.0
 62
     5
 63
     7
 74
     0
 91
        0
 64
     7
 65
   257
 75
     1
175
     1
 42
1.0
 92
        0
 66
     7
 43
1.0
 76
     1
 77
     6
 78
     2
 67
     7
 79
     5
170
     0
171
     0
290
     0
174
     0
 93
       13
 44
0.0
173
     0
291
     1
 45
0.0
1001
ACAD
1000
AcDbSavedByObjectVersion
1070
     0
  0
VISUALSTYLE
  5
2D
102
{ACAD_XDICTIONARY
360
A1A
102
}
102
{ACAD_REACTORS
330
29
102
}
330
29
100
AcDbVisualStyle
  2

 70
     3
 71
     2
 72
     2
 73
     1
 90
        2
 40
-0.6
 41
30.0
 62
     5
 63
     7
 74
     1
 91
        0
 64
     7
 65
   257
 75
     1
175
     1
 42
1.0
 92
        0
 66
   257
 43
1.0
 76
     1
 77
     6
 78
     2
 67
     7
 79
     5
170
     0
171
     0
290
     0
174
     0
 93
       13
 44
0.0
173
     0
291
     1
 45
0.0
1001
ACAD
1000
AcDbSavedByObjectVersion
1070
     0
  0
VISUALSTYLE
  5
31
102
{ACAD_XDICTIONARY
360
A22
102
}
102
{ACAD_REACTORS
330
29
102
}
330
29
100
AcDbVisualStyle
  2

 70
     6
 71
     1
 72
     2
 73
     2
 90
        0
 40
-0.6
 41
-30.0
 62
     5
 63
     7
 74
     2
 91
        2
 64
     7
 65
   257
 75
     2
175
     1
 42
40.0
 92
        0
 66
   257
 43
1.0
 76
     1
 77
     6
 78
     2
 67
     7
 79
     3
170
     0
171
     0
290
     0
174
     0
 93
        1
 44
0.0
173
     0
291
     0
 45
0.0
1001
ACAD
1000
AcDbSavedByObjectVersion
1070
     0
  0
VISUALSTYLE
  5
3F
102
{ACAD_XDICTIONARY
360
A3E
102
}
102
{ACAD_REACTORS
330
29
102
}
330
29
100
AcDbVisualStyle
  2

 70
    20
 71
     2
 72
     2
 73
     0
 90
        0
 40
-0.6
 41
-30.0
 62
     5
 63
     7
 74
     1
 91
        4
 64
     7
 65
   257
 75
     1
175
     1
 42
1.0
 92
       10
 66
     7
 43
1.0
 76
     1
 77
     6
 78
     2
 67
     7
 79
     5
170
     0
171
     0
290
     0
174
     0
 93
        1
 44
0.0
173
     0
291
     1
 45
0.0
1001
ACAD
1000
AcDbSavedByObjectVersion
1070
     0
  0
VISUALSTYLE
  5
37
102
{ACAD_XDICTIONARY
360
A2E
102
}
102
{ACAD_REACTORS
330
29
102
}
330
29
100
AcDbVisualStyle
  2

 70
    14
 71
     2
 72
     2
 73
     0
 90
        0
 40
-0.6
 41
-30.0
 62
     5
 63
     7
 74
     1
 91
        4
 64
     7
 65
   257
 75
     7
175
     7
 42
1.0
 92
        8
 66
     7
 43
1.0
 76
     1
 77
     6
 78
     2
 67
     7
 79
     5
170
     0
171
     0
290
     0
174
     0
 93
        1
 44
0.0
173
     0
291
     1
 45
0.0
1001
ACAD
1000
AcDbSavedByObjectVersion
1070
     0
  0
VISUALSTYLE
  5
40
102
{ACAD_XDICTIONARY
360
A40
102
}
102
{ACAD_REACTORS
330
29
102
}
330
29
100
AcDbVisualStyle
  2

 70
    21
 71
     2
 72
     2
 73
     0
 90
        0
 40
-0.6
 41
-30.0
 62
     5
 63
     7
 74
     1
 91
        4
 64
     7
 65
   257
 75
     1
175
     1
 42
1.0
 92
        9
 66
     7
 43
1.0
 76
     1
 77
     6
 78
     2
 67
     7
 79
     5
170
     0
171
     0
290
     0
174
     0
 93
        1
 44
0.0
173
     0
291
     1
 45
0.0
1001
ACAD
1000
AcDbSavedByObjectVersion
1070
     0
  0
VISUALSTYLE
  5
33
102
{ACAD_XDICTIONARY
360
A26
102
}
102
{ACAD_REACTORS
330
29
102
}
330
29
100
AcDbVisualStyle
  2

 70
     8
 71
     2
 72
     3
 73
     0
 90
        2
 40
-0.6
 41
30.0
 62
     5
 63
     7
 74
     0
 91
        0
 64
     7
 65
   257
 75
     1
175
     1
 42
1.0
 92
        8
 66
   257
 43
1.0
 76
     1
 77
     6
 78
     2
 67
     7
 79
     3
170
     0
171
     0
290
     0
174
     0
 93
       13
 44
0.0
173
     0
291
     0
 45
0.0
1001
ACAD
1000
AcDbSavedByObjectVersion
1070
     0
  0
VISUALSTYLE
  5
3E
102
{ACAD_XDICTIONARY
360
A3C
102
}
102
{ACAD_REACTORS
330
29
102
}
330
29
100
AcDbVisualStyle
  2

 70
    27
 71
     2
 72
     2
 73
     1
 90
        2
 40
-0.6
 41
30.0
 62
     5
 63
     7
 74
     0
 91
        4
 64
     7
 65
   257
 75
     1
175
     1
 42
1.0
 92
        8
 66
   257
 43
1.0
 76
     1
 77
     6
 78
     2
 67
     8
 79
     3
170
     0
171
     0
290
     0
174
     0
 93
        5
 44
0.0
173
     0
291
     0
 45
0.0
1001
ACAD
1000
AcDbSavedByObjectVersion
1070
     0
  0
VISUALSTYLE
  5
3D
102
{ACAD_XDICTIONARY
360
A3A
102
}
102
{ACAD_REACTORS
330
29
102
}
330
29
100
AcDbVisualStyle
  2

 70
    26
 71
     2
 72
     2
 73
     1
 90
        2
 40
-0.6
 41
30.0
 62
     5
 63
     7
 74
     1
 91
       10
 64
     7
 65
   257
 75
     2
175
     1
 42
1.0
 92
        8
 66
   257
 43
1.0
 76
     1
 77
     6
 78
     2
 67
     7
 79
     3
170
     0
171
     0
290
     0
174
     0
 93
        5
 44
0.0
173
     0
291
     0
 45
0.0
1001
ACAD
1000
AcDbSavedByObjectVersion
1070
     0
  0
VISUALSTYLE
  5
3A
102
{ACAD_XDICTIONARY
360
A34
102
}
102
{ACAD_REACTORS
330
29
102
}
330
29
100
AcDbVisualStyle
  2

 70
    23
 71
     2
 72
     2
 73
     3
 90
        0
 40
-0.6
 41
-30.0
 62
     5
 63
     7
 74
     2
 91
        2
 64
     7
 65
     7
 75
     1
175
     1
 42
40.0
 92
        8
 66
     7
 43
1.0
 76
     1
 77
     6
 78
     2
 67
     7
 79
     3
170
     0
171
     0
290
     0
174
     0
 93
        1
 44
0.0
173
     0
291
     0
 45
0.0
1001
ACAD
1000
AcDbSavedByObjectVersion
1070
     0
  0
VISUALSTYLE
  5
3B
102
{ACAD_XDICTIONARY
360
A36
102
}
102
{ACAD_REACTORS
330
29
102
}
330
29
100
AcDbVisualStyle
  2

 70
    24
 71
     1
 72
     2
 73
     2
 90
        0
 40
-0.6
 41
-30.0
 62
     5
 63
     7
 74
     2
 91
        2
 64
     7
 65
     7
 75
     1
175
     1
 42
40.0
 92
       11
 66
     7
 43
1.0
 76
     1
 77
     6
 78
     2
 67
     7
 79
     6
170
     0
171
     0
290
     0
174
     0
 93
        1
 44
0.0
173
     0
291
     0
 45
0.0
1001
ACAD
1000
AcDbSavedByObjectVersion
1070
     0
  0
VISUALSTYLE
  5
36
102
{ACAD_XDICTIONARY
360
A2C
102
}
102
{ACAD_REACTORS
330
29
102
}
330
29
100
AcDbVisualStyle
  2

 70
    13
 71
     2
 72
     2
 73
     0
 90
        0
 40
-0.6
 41
-30.0
 62
     5
 63
     7
 74
     1
 91
        4
 64
     7
 65
   257
 75
     1
175
     1
 42
1.0
 92
       12
 66
     7
 43
1.0
 76
     1
 77
     6
 78
     2
 67
     7
 79
     5
170
     0
171
     0
290
     0
174
     0
 93
        1
 44
0.0
173
     0
291
     1
 45
0.0
1001
ACAD
1000
AcDbSavedByObjectVersion
1070
     0
  0
VISUALSTYLE
  5
30
102
{ACAD_XDICTIONARY
360
A20
102
}
102
{ACAD_REACTORS
330
29
102
}
330
29
100
AcDbVisualStyle
  2

 70
     5
 71
     0
 72
     2
 73
     0
 90
        0
 40
-0.6
 41
-30.0
 62
     5
 63
     7
 74
     1
 91
        4
 64
     7
 65
   257
 75
     1
175
     1
 42
1.0
 92
        0
 66
   257
 43
1.0
 76
     1
 77
     6
 78
     2
 67
     7
 79
     3
170
     0
171
     0
290
     0
174
     0
 93
        1
 44
0.0
173
     0
291
     0
 45
0.0
1001
ACAD
1000
AcDbSavedByObjectVersion
1070
     0
  0
VISUALSTYLE
  5
3C
102
{ACAD_XDICTIONARY
360
A38
102
}
102
{ACAD_REACTORS
330
29
102
}
330
29
100
AcDbVisualStyle
  2

 70
    25
 71
     2
 72
     2
 73
     1
 90
        1
 40
0.5
 41
-30.0
 62
     5
 63
     7
 74
     1
 91
        0
 64
     7
 65
   257
 75
     1
175
     1
 42
1.0
 92
        8
 66
     7
 43
1.0
 76
     1
 77
     6
 78
     2
 67
     7
 79
     3
170
     0
171
     0
290
     0
174
     0
 93
       13
 44
0.0
173
     0
291
     0
 45
0.0
1001
ACAD
1000
AcDbSavedByObjectVersion
1070
     0
  0
DICTIONARYVAR
  5
9AE
102
{ACAD_REACTORS
330
9AB
102
}
330
9AB
100
DictionaryVariables
280
     0
  1
0
  0
DICTIONARYVAR
  5
9AF
102
{ACAD_REACTORS
330
9AB
102
}
330
9AB
100
DictionaryVariables
280
     0
  1
1:1
  0
DICTIONARYVAR
  5
9AD
102
{ACAD_REACTORS
330
9AB
102
}
330
9AB
100
DictionaryVariables
280
     0
  1
STANDARD
  0
DICTIONARYVAR
  5
9AC
102
{ACAD_REACTORS
330
9AB
102
}
330
9AB
100
DictionaryVariables
280
     0
  1
STANDARD
  0
DICTIONARYVAR
  5
9C1
102
{ACAD_REACTORS
330
9AB
102
}
330
9AB
100
DictionaryVariables
280
     0
  1
2
  0
DICTIONARYVAR
  5
9BF
102
{ACAD_REACTORS
330
9AB
102
}
330
9AB
100
DictionaryVariables
280
     0
  1
1
  0
DICTIONARYVAR
  5
9BE
102
{ACAD_REACTORS
330
9AB
102
}
330
9AB
100
DictionaryVariables
280
     0
  1
0
  0
DICTIONARYVAR
  5
9B0
102
{ACAD_REACTORS
330
9AB
102
}
330
9AB
100
DictionaryVariables
280
     0
  1
1
  0
DICTIONARYVAR
  5
9B1
102
{ACAD_REACTORS
330
9AB
102
}
330
9AB
100
DictionaryVariables
280
     0
  1
15
  0
DICTIONARYVAR
  5
9BC
102
{ACAD_REACTORS
330
9AB
102
}
330
9AB
100
DictionaryVariables
280
     0
  1
2
  0
DICTIONARYVAR
  5
9BB
102
{ACAD_REACTORS
330
9AB
102
}
330
9AB
100
DictionaryVariables
280
     0
  1
1
  0
DICTIONARYVAR
  5
9C2
102
{ACAD_REACTORS
330
9AB
102
}
330
9AB
100
DictionaryVariables
280
     0
  1
1
  0
DICTIONARYVAR
  5
9BD
102
{ACAD_REACTORS
330
9AB
102
}
330
9AB
100
DictionaryVariables
280
     0
  1
127
  0
DICTIONARYVAR
  5
A0E
102
{ACAD_REACTORS
330
9AB
102
}
330
9AB
100
DictionaryVariables
280
     0
  1
2
  0
XRECORD
  5
A0D
102
{ACAD_REACTORS
330
A0B
102
}
330
A0B
100
AcDbXrecord
280
     1
330
8F1
330
8F2
330
8FA
330
8FB
330
903
330
904
330
911
330
912
330
919
330
91A
330
922
330
923
330
930
330
931
330
938
330
939
330
944
330
945
330
94C
330
94D
330
95A
330
95B
330
967
330
968
330
974
330
975
330
981
330
982
330
98E
330
98F
330
99B
330
99C
330
9A4
330
9A5
  0
DICTIONARY
  5
A47
330
6F
100
AcDbDictionary
280
     1
281
     1
  3
ACAD_XREC_ROUNDTRIP
360
A48
  0
DICTIONARY
  5
A45
330
6B
100
AcDbDictionary
280
     1
281
     1
  3
ACAD_XREC_ROUNDTRIP
360
A46
  0
DICTIONARY
  5
A49
330
73
100
AcDbDictionary
280
     1
281
     1
  3
ACAD_XREC_ROUNDTRIP
360
A4A
  0
DICTIONARY
  5
1A
330
19
100
AcDbDictionary
280
     1
281
     1
  3
ACAD_XREC_ROUNDTRIP
360
9CB
  3
BUMPTILE
360
1C
  3
DIFFUSETILE
360
1B
  3
OPACITYTILE
360
1F
  3
REFLECTIONTILE
360
1E
  3
REFRACTIONTILE
360
20
  3
SPECULARTILE
360
1D
  0
DICTIONARY
  5
12
330
11
100
AcDbDictionary
280
     1
281
     1
  3
ACAD_XREC_ROUNDTRIP
360
9CA
  3
BUMPTILE
360
14
  3
DIFFUSETILE
360
13
  3
OPACITYTILE
360
17
  3
REFLECTIONTILE
360
16
  3
REFRACTIONTILE
360
18
  3
SPECULARTILE
360
15
  0
DICTIONARY
  5
22
330
21
100
AcDbDictionary
280
     1
281
     1
  3
ACAD_XREC_ROUNDTRIP
360
9CC
  3
BUMPTILE
360
24
  3
DIFFUSETILE
360
23
  3
OPACITYTILE
360
27
  3
REFLECTIONTILE
360
26
  3
REFRACTIONTILE
360
28
  3
SPECULARTILE
360
25
  0
DICTIONARY
  5
A10
330
67
100
AcDbDictionary
280
     1
281
     1
  3
ACAD_XREC_ROUNDTRIP
360
A11
  0
DICTIONARY
  5
9C4
330
65
100
AcDbDictionary
280
     1
281
     1
  3
ACAD_ROUNDTRIP_2008_TABLESTYLE_CELLSTYLEMAP
360
A0F
  3
ACAD_XREC_ROUNDTRIP
360
A44
  0
DICTIONARY
  5
A1E
330
2F
100
AcDbDictionary
280
     1
281
     1
  3
ACAD_XREC_ROUNDTRIP
360
A1F
  0
DICTIONARY
  5
A1C
330
2E
100
AcDbDictionary
280
     1
281
     1
  3
ACAD_XREC_ROUNDTRIP
360
A1D
  0
DICTIONARY
  5
A2A
330
35
100
AcDbDictionary
280
     1
281
     1
  3
ACAD_XREC_ROUNDTRIP
360
A2B
  0
DICTIONARY
  5
A32
330
39
100
AcDbDictionary
280
     1
281
     1
  3
ACAD_XREC_ROUNDTRIP
360
A33
  0
DICTIONARY
  5
A24
330
32
100
AcDbDictionary
280
     1
281
     1
  3
ACAD_XREC_ROUNDTRIP
360
A25
  0
DICTIONARY
  5
A28
330
34
100
AcDbDictionary
280
     1
281
     1
  3
ACAD_XREC_ROUNDTRIP
360
A29
  0
DICTIONARY
  5
A42
330
41
100
AcDbDictionary
280
     1
281
     1
  3
ACAD_XREC_ROUNDTRIP
360
A43
  0
DICTIONARY
  5
A30
330
38
100
AcDbDictionary
280
     1
281
     1
  3
ACAD_XREC_ROUNDTRIP
360
A31
  0
DICTIONARY
  5
A14
330
2A
100
AcDbDictionary
280
     1
281
     1
  3
ACAD_XREC_ROUNDTRIP
360
A15
  0
DICTIONARY
  5
A16
330
2B
100
AcDbDictionary
280
     1
281
     1
  3
ACAD_XREC_ROUNDTRIP
360
A17
  0
DICTIONARY
  5
A18
330
2C
100
AcDbDictionary
280
     1
281
     1
  3
ACAD_XREC_ROUNDTRIP
360
A19
  0
DICTIONARY
  5
A1A
330
2D
100
AcDbDictionary
280
     1
281
     1
  3
ACAD_XREC_ROUNDTRIP
360
A1B
  0
DICTIONARY
  5
A22
330
31
100
AcDbDictionary
280
     1
281
     1
  3
ACAD_XREC_ROUNDTRIP
360
A23
  0
DICTIONARY
  5
A3E
330
3F
100
AcDbDictionary
280
     1
281
     1
  3
ACAD_XREC_ROUNDTRIP
360
A3F
  0
DICTIONARY
  5
A2E
330
37
100
AcDbDictionary
280
     1
281
     1
  3
ACAD_XREC_ROUNDTRIP
360
A2F
  0
DICTIONARY
  5
A40
330
40
100
AcDbDictionary
280
     1
281
     1
  3
ACAD_XREC_ROUNDTRIP
360
A41
  0
DICTIONARY
  5
A26
330
33
100
AcDbDictionary
280
     1
281
     1
  3
ACAD_XREC_ROUNDTRIP
360
A27
  0
DICTIONARY
  5
A3C
330
3E
100
AcDbDictionary
280
     1
281
     1
  3
ACAD_XREC_ROUNDTRIP
360
A3D
  0
DICTIONARY
  5
A3A
330
3D
100
AcDbDictionary
280
     1
281
     1
  3
ACAD_XREC_ROUNDTRIP
360
A3B
  0
DICTIONARY
  5
A34
330
3A
100
AcDbDictionary
280
     1
281
     1
  3
ACAD_XREC_ROUNDTRIP
360
A35
  0
DICTIONARY
  5
A36
330
3B
100
AcDbDictionary
280
     1
281
     1
  3
ACAD_XREC_ROUNDTRIP
360
A37
  0
DICTIONARY
  5
A2C
330
36
100
AcDbDictionary
280
     1
281
     1
  3
ACAD_XREC_ROUNDTRIP
360
A2D
  0
DICTIONARY
  5
A20
330
30
100
AcDbDictionary
280
     1
281
     1
  3
ACAD_XREC_ROUNDTRIP
360
A21
  0
DICTIONARY
  5
A38
330
3C
100
AcDbDictionary
280
     1
281
     1
  3
ACAD_XREC_ROUNDTRIP
360
A39
  0
XRECORD
  5
A48
102
{ACAD_REACTORS
330
A47
102
}
330
A47
100
AcDbXrecord
280
     1
102
SHADEPLOT
 70
     0
102
SHADEPLOTRESLEVEL
 70
     2
102
SHADEPLOTCUSTOMDPI
 70
   300
  0
XRECORD
  5
A46
102
{ACAD_REACTORS
330
A45
102
}
330
A45
100
AcDbXrecord
280
     1
102
SHADEPLOT
 70
     0
102
SHADEPLOTRESLEVEL
 70
     2
102
SHADEPLOTCUSTOMDPI
 70
   300
  0
XRECORD
  5
A4A
102
{ACAD_REACTORS
330
A49
102
}
330
A49
100
AcDbXrecord
280
     1
102
SHADEPLOT
 70
     0
102
SHADEPLOTRESLEVEL
 70
     2
102
SHADEPLOTCUSTOMDPI
 70
   300
  0
XRECORD
  5
9CB
102
{ACAD_REACTORS
330
1A
102
}
330
1A
100
AcDbXrecord
280
     1
102
MATERIAL
148
0.0
149
0.0
149
0.0
 93
        0
 94
      127
282
     0
 72
     0
 77
     0
171
     0
175
     0
179
     0
273
     0
  0
XRECORD
  5
1C
102
{ACAD_REACTORS
330
1A
102
}
330
1A
100
AcDbXrecord
280
     1
270
     1
271
     1
  0
XRECORD
  5
1B
102
{ACAD_REACTORS
330
1A
102
}
330
1A
100
AcDbXrecord
280
     1
270
     1
271
     1
  0
XRECORD
  5
1F
102
{ACAD_REACTORS
330
1A
102
}
330
1A
100
AcDbXrecord
280
     1
270
     1
271
     1
  0
XRECORD
  5
1E
102
{ACAD_REACTORS
330
1A
102
}
330
1A
100
AcDbXrecord
280
     1
270
     1
271
     1
  0
XRECORD
  5
20
102
{ACAD_REACTORS
330
1A
102
}
330
1A
100
AcDbXrecord
280
     1
270
     1
271
     1
  0
XRECORD
  5
1D
102
{ACAD_REACTORS
330
1A
102
}
330
1A
100
AcDbXrecord
280
     1
270
     1
271
     1
  0
XRECORD
  5
9CA
102
{ACAD_REACTORS
330
12
102
}
330
12
100
AcDbXrecord
280
     1
102
MATERIAL
148
0.0
149
0.0
149
0.0
 93
        0
 94
      127
282
     0
 72
     0
 77
     0
171
     0
175
     0
179
     0
273
     0
  0
XRECORD
  5
14
102
{ACAD_REACTORS
330
12
102
}
330
12
100
AcDbXrecord
280
     1
270
     1
271
     1
  0
XRECORD
  5
13
102
{ACAD_REACTORS
330
12
102
}
330
12
100
AcDbXrecord
280
     1
270
     1
271
     1
  0
XRECORD
  5
17
102
{ACAD_REACTORS
330
12
102
}
330
12
100
AcDbXrecord
280
     1
270
     1
271
     1
  0
XRECORD
  5
16
102
{ACAD_REACTORS
330
12
102
}
330
12
100
AcDbXrecord
280
     1
270
     1
271
     1
  0
XRECORD
  5
18
102
{ACAD_REACTORS
330
12
102
}
330
12
100
AcDbXrecord
280
     1
270
     1
271
     1
  0
XRECORD
  5
15
102
{ACAD_REACTORS
330
12
102
}
330
12
100
AcDbXrecord
280
     1
270
     1
271
     1
  0
XRECORD
  5
9CC
102
{ACAD_REACTORS
330
22
102
}
330
22
100
AcDbXrecord
280
     1
102
MATERIAL
148
0.0
149
0.0
149
0.0
 93
        0
 94
      127
282
     0
 72
     0
 77
     0
171
     0
175
     0
179
     0
273
     0
  0
XRECORD
  5
24
102
{ACAD_REACTORS
330
22
102
}
330
22
100
AcDbXrecord
280
     1
270
     1
271
     1
  0
XRECORD
  5
23
102
{ACAD_REACTORS
330
22
102
}
330
22
100
AcDbXrecord
280
     1
270
     1
271
     1
  0
XRECORD
  5
27
102
{ACAD_REACTORS
330
22
102
}
330
22
100
AcDbXrecord
280
     1
270
     1
271
     1
  0
XRECORD
  5
26
102
{ACAD_REACTORS
330
22
102
}
330
22
100
AcDbXrecord
280
     1
270
     1
271
     1
  0
XRECORD
  5
28
102
{ACAD_REACTORS
330
22
102
}
330
22
100
AcDbXrecord
280
     1
270
     1
271
     1
  0
XRECORD
  5
25
102
{ACAD_REACTORS
330
22
102
}
330
22
100
AcDbXrecord
280
     1
270
     1
271
     1
  0
XRECORD
  5
A11
102
{ACAD_REACTORS
330
A10
102
}
330
A10
100
AcDbXrecord
280
     1
102
ACAD_ROUNDTRIP_2012_MLEADER_STYLE
298
     1
  0
CELLSTYLEMAP
  5
A0F
102
{ACAD_REACTORS
330
9C4
102
}
330
9C4
100
AcDbCellStyleMap
 90
        3
300
CELLSTYLE
  1
TABLEFORMAT_BEGIN
 90
        5
170
     1
 91
        0
 92
    32768
 62
   257
 93
        1
300
CONTENTFORMAT
  1
CONTENTFORMAT_BEGIN
 90
        0
 91
        0
 92
      512
 93
        0
300

 40
0.0
140
1.0
 94
        5
 62
     0
340
55
144
6.0
309
CONTENTFORMAT_END
171
     1
301
MARGIN
  1
CELLMARGIN_BEGIN
 40
1.5
 40
1.5
 40
1.5
 40
1.5
 40
0.18
 40
0.18
309
CELLMARGIN_END
 94
        6
 95
        1
302
GRIDFORMAT
  1
GRIDFORMAT_BEGIN
 90
        0
 91
        1
 62
     0
 92
       -2
340
0
 93
        0
 40
1.125
309
GRIDFORMAT_END
 95
        2
302
GRIDFORMAT
  1
GRIDFORMAT_BEGIN
 90
        0
 91
        1
 62
     0
 92
       -2
340
0
 93
        0
 40
1.125
309
GRIDFORMAT_END
 95
        4
302
GRIDFORMAT
  1
GRIDFORMAT_BEGIN
 90
        0
 91
        1
 62
     0
 92
       -2
340
0
 93
        0
 40
1.125
309
GRIDFORMAT_END
 95
        8
302
GRIDFORMAT
  1
GRIDFORMAT_BEGIN
 90
        0
 91
        1
 62
     0
 92
       -2
340
0
 93
        0
 40
1.125
309
GRIDFORMAT_END
 95
       16
302
GRIDFORMAT
  1
GRIDFORMAT_BEGIN
 90
        0
 91
        1
 62
     0
 92
       -2
340
0
 93
        0
 40
1.125
309
GRIDFORMAT_END
 95
       32
302
GRIDFORMAT
  1
GRIDFORMAT_BEGIN
 90
        0
 91
        1
 62
     0
 92
       -2
340
0
 93
        0
 40
1.125
309
GRIDFORMAT_END
309
TABLEFORMAT_END
  1
CELLSTYLE_BEGIN
 90
        1
 91
        1
300
_TITLE
309
CELLSTYLE_END
300
CELLSTYLE
  1
TABLEFORMAT_BEGIN
 90
        5
170
     1
 91
        0
 92
        0
 62
   257
 93
        1
300
CONTENTFORMAT
  1
CONTENTFORMAT_BEGIN
 90
        0
 91
        0
 92
      512
 93
        0
300

 40
0.0
140
1.0
 94
        5
 62
     0
340
55
144
4.5
309
CONTENTFORMAT_END
171
     1
301
MARGIN
  1
CELLMARGIN_BEGIN
 40
1.5
 40
1.5
 40
1.5
 40
1.5
 40
0.18
 40
0.18
309
CELLMARGIN_END
 94
        6
 95
        1
302
GRIDFORMAT
  1
GRIDFORMAT_BEGIN
 90
        0
 91
        1
 62
     0
 92
       -2
340
0
 93
        0
 40
1.125
309
GRIDFORMAT_END
 95
        2
302
GRIDFORMAT
  1
GRIDFORMAT_BEGIN
 90
        0
 91
        1
 62
     0
 92
       -2
340
0
 93
        0
 40
1.125
309
GRIDFORMAT_END
 95
        4
302
GRIDFORMAT
  1
GRIDFORMAT_BEGIN
 90
        0
 91
        1
 62
     0
 92
       -2
340
0
 93
        0
 40
1.125
309
GRIDFORMAT_END
 95
        8
302
GRIDFORMAT
  1
GRIDFORMAT_BEGIN
 90
        0
 91
        1
 62
     0
 92
       -2
340
0
 93
        0
 40
1.125
309
GRIDFORMAT_END
 95
       16
302
GRIDFORMAT
  1
GRIDFORMAT_BEGIN
 90
        0
 91
        1
 62
     0
 92
       -2
340
0
 93
        0
 40
1.125
309
GRIDFORMAT_END
 95
       32
302
GRIDFORMAT
  1
GRIDFORMAT_BEGIN
 90
        0
 91
        1
 62
     0
 92
       -2
340
0
 93
        0
 40
1.125
309
GRIDFORMAT_END
309
TABLEFORMAT_END
  1
CELLSTYLE_BEGIN
 90
        2
 91
        1
300
_HEADER
309
CELLSTYLE_END
300
CELLSTYLE
  1
TABLEFORMAT_BEGIN
 90
        5
170
     1
 91
        0
 92
        0
 62
   257
 93
        1
300
CONTENTFORMAT
  1
CONTENTFORMAT_BEGIN
 90
        0
 91
        0
 92
      512
 93
        0
300

 40
0.0
140
1.0
 94
        2
 62
     0
340
55
144
4.5
309
CONTENTFORMAT_END
171
     1
301
MARGIN
  1
CELLMARGIN_BEGIN
 40
1.5
 40
1.5
 40
1.5
 40
1.5
 40
0.18
 40
0.18
309
CELLMARGIN_END
 94
        6
 95
        1
302
GRIDFORMAT
  1
GRIDFORMAT_BEGIN
 90
        0
 91
        1
 62
     0
 92
       -2
340
0
 93
        0
 40
1.125
309
GRIDFORMAT_END
 95
        2
302
GRIDFORMAT
  1
GRIDFORMAT_BEGIN
 90
        0
 91
        1
 62
     0
 92
       -2
340
0
 93
        0
 40
1.125
309
GRIDFORMAT_END
 95
        4
302
GRIDFORMAT
  1
GRIDFORMAT_BEGIN
 90
        0
 91
        1
 62
     0
 92
       -2
340
0
 93
        0
 40
1.125
309
GRIDFORMAT_END
 95
        8
302
GRIDFORMAT
  1
GRIDFORMAT_BEGIN
 90
        0
 91
        1
 62
     0
 92
       -2
340
0
 93
        0
 40
1.125
309
GRIDFORMAT_END
 95
       16
302
GRIDFORMAT
  1
GRIDFORMAT_BEGIN
 90
        0
 91
        1
 62
     0
 92
       -2
340
0
 93
        0
 40
1.125
309
GRIDFORMAT_END
 95
       32
302
GRIDFORMAT
  1
GRIDFORMAT_BEGIN
 90
        0
 91
        1
 62
     0
 92
       -2
340
0
 93
        0
 40
1.125
309
GRIDFORMAT_END
309
TABLEFORMAT_END
  1
CELLSTYLE_BEGIN
 90
        3
 91
        2
300
_DATA
309
CELLSTYLE_END
  0
XRECORD
  5
A44
102
{ACAD_REACTORS
330
9C4
102
}
330
9C4
100
AcDbXrecord
280
     1
102
ACAD_ROUNDTRIP_PRE2007_TABLESTYLE
 90
      512
 91
        0
  1

 92
      512
 93
        0
  2

 94
      512
 95
        0
  3

  0
XRECORD
  5
A1F
102
{ACAD_REACTORS
330
A1E
102
}
330
A1E
100
AcDbXrecord
280
     1
102
RTVSPropertyOp0
 70
     1
102
RTVSPropertyOp1
 70
     1
102
RTVSPropertyOp2
 70
     1
102
RTVSPropertyOp3
 70
     1
102
RTVSPropertyOp4
 70
     1
102
RTVSPropertyOp5
 70
     1
102
RTVSPropertyOp6
 70
     1
102
RTVSPropertyOp7
 70
     1
102
RTVSPropertyOp8
 70
     1
102
RTVSPropertyOp9
 70
     1
102
RTVSPropertyOp10
 70
     1
102
RTVSPropertyOp11
 70
     1
102
RTVSPropertyOp12
 70
     1
102
RTVSPropertyOp13
 70
     1
102
RTVSPropertyOp14
 70
     1
102
RTVSPropertyOp15
 70
     1
102
RTVSPropertyOp16
 70
     1
102
RTVSPropertyOp17
 70
     1
102
RTVSPropertyOp18
 70
     1
102
RTVSPropertyOp19
 70
     1
102
RTVSPropertyOp20
 70
     1
102
RTVSPropertyOp21
 70
     1
102
RTVSPropertyOp22
 70
     1
102
RTVSPropertyOp23
 70
     1
102
RTVSPropertyOp24
 70
     1
102
RTVSPropertyOp25
 70
     1
102
RTVSPropertyOp26
 70
     1
102
RTVSPropertyOp27
 70
     1
102
RTVSPropertyOp28
 70
     1
102
RTVSPropertyOp29
 70
     1
102
RTVSPropertyOp30
 70
     1
102
RTVSPropertyOp31
 70
     1
102
RTVSPropertyOp32
 70
     1
  0
XRECORD
  5
A1D
102
{ACAD_REACTORS
330
A1C
102
}
330
A1C
100
AcDbXrecord
280
     1
102
RTVSPropertyOp0
 70
     1
102
RTVSPropertyOp1
 70
     1
102
RTVSPropertyOp2
 70
     1
102
RTVSPropertyOp3
 70
     1
102
RTVSPropertyOp4
 70
     1
102
RTVSPropertyOp5
 70
     1
102
RTVSPropertyOp6
 70
     1
102
RTVSPropertyOp7
 70
     1
102
RTVSPropertyOp8
 70
     1
102
RTVSPropertyOp9
 70
     1
102
RTVSPropertyOp10
 70
     1
102
RTVSPropertyOp11
 70
     1
102
RTVSPropertyOp12
 70
     1
102
RTVSPropertyOp13
 70
     1
102
RTVSPropertyOp14
 70
     1
102
RTVSPropertyOp15
 70
     1
102
RTVSPropertyOp16
 70
     1
102
RTVSPropertyOp17
 70
     1
102
RTVSPropertyOp18
 70
     1
102
RTVSPropertyOp19
 70
     1
102
RTVSPropertyOp20
 70
     1
102
RTVSPropertyOp21
 70
     1
102
RTVSPropertyOp22
 70
     1
102
RTVSPropertyOp23
 70
     1
102
RTVSPropertyOp24
 70
     1
102
RTVSPropertyOp25
 70
     1
102
RTVSPropertyOp26
 70
     1
102
RTVSPropertyOp27
 70
     1
102
RTVSPropertyOp28
 70
     1
102
RTVSPropertyOp29
 70
     1
102
RTVSPropertyOp30
 70
     1
102
RTVSPropertyOp31
 70
     1
102
RTVSPropertyOp32
 70
     1
  0
XRECORD
  5
A2B
102
{ACAD_REACTORS
330
A2A
102
}
330
A2A
100
AcDbXrecord
280
     1
102
RTVSPropertyOp0
 70
     1
102
RTVSPropertyOp1
 70
     1
102
RTVSPropertyOp2
 70
     1
102
RTVSPropertyOp3
 70
     1
102
RTVSPropertyOp4
 70
     1
102
RTVSPropertyOp5
 70
     1
102
RTVSPropertyOp6
 70
     1
102
RTVSPropertyOp7
 70
     1
102
RTVSPropertyOp8
 70
     1
102
RTVSPropertyOp9
 70
     1
102
RTVSPropertyOp10
 70
     1
102
RTVSPropertyOp11
 70
     1
102
RTVSPropertyOp12
 70
     1
102
RTVSPropertyOp13
 70
     1
102
RTVSPropertyOp14
 70
     1
102
RTVSPropertyOp15
 70
     1
102
RTVSPropertyOp16
 70
     1
102
RTVSPropertyOp17
 70
     1
102
RTVSPropertyOp18
 70
     1
102
RTVSPropertyOp19
 70
     1
102
RTVSPropertyOp20
 70
     1
102
RTVSPropertyOp21
 70
     1
102
RTVSPropertyOp22
 70
     1
102
RTVSPropertyOp23
 70
     1
102
RTVSPropertyOp24
 70
     1
102
RTVSPropertyOp25
 70
     1
102
RTVSPropertyOp26
 70
     1
102
RTVSPropertyOp27
 70
     1
102
RTVSPropertyOp28
 70
     1
102
RTVSPropertyOp29
 70
     1
102
RTVSPropertyOp30
 70
     1
102
RTVSPropertyOp31
 70
     1
102
RTVSPropertyOp32
 70
     1
  0
XRECORD
  5
A33
102
{ACAD_REACTORS
330
A32
102
}
330
A32
100
AcDbXrecord
280
     1
102
RTVSPropertyOp0
 70
     1
102
RTVSPropertyOp1
 70
     1
102
RTVSPropertyOp2
 70
     1
102
RTVSPropertyOp3
 70
     1
102
RTVSPropertyOp4
 70
     1
102
RTVSPropertyOp5
 70
     1
102
RTVSPropertyOp6
 70
     1
102
RTVSPropertyOp7
 70
     1
102
RTVSPropertyOp8
 70
     1
102
RTVSPropertyOp9
 70
     1
102
RTVSPropertyOp10
 70
     1
102
RTVSPropertyOp11
 70
     1
102
RTVSPropertyOp12
 70
     1
102
RTVSPropertyOp13
 70
     1
102
RTVSPropertyOp14
 70
     1
102
RTVSPropertyOp15
 70
     1
102
RTVSPropertyOp16
 70
     1
102
RTVSPropertyOp17
 70
     1
102
RTVSPropertyOp18
 70
     1
102
RTVSPropertyOp19
 70
     1
102
RTVSPropertyOp20
 70
     1
102
RTVSPropertyOp21
 70
     1
102
RTVSPropertyOp22
 70
     1
102
RTVSPropertyOp23
 70
     1
102
RTVSPropertyOp24
 70
     1
102
RTVSPropertyOp25
 70
     1
102
RTVSPropertyOp26
 70
     1
102
RTVSPropertyOp27
 70
     1
102
RTVSPropertyOp28
 70
     1
102
RTVSPropertyOp29
 70
     1
102
RTVSPropertyOp30
 70
     1
102
RTVSPropertyOp31
 70
     1
102
RTVSPropertyOp32
 70
     1
  0
XRECORD
  5
A25
102
{ACAD_REACTORS
330
A24
102
}
330
A24
100
AcDbXrecord
280
     1
102
RTVSPropertyOp0
 70
     1
102
RTVSPropertyOp1
 70
     1
102
RTVSPropertyOp2
 70
     1
102
RTVSPropertyOp3
 70
     1
102
RTVSPropertyOp4
 70
     1
102
RTVSPropertyOp5
 70
     1
102
RTVSPropertyOp6
 70
     1
102
RTVSPropertyOp7
 70
     1
102
RTVSPropertyOp8
 70
     1
102
RTVSPropertyOp9
 70
     1
102
RTVSPropertyOp10
 70
     1
102
RTVSPropertyOp11
 70
     1
102
RTVSPropertyOp12
 70
     1
102
RTVSPropertyOp13
 70
     1
102
RTVSPropertyOp14
 70
     1
102
RTVSPropertyOp15
 70
     1
102
RTVSPropertyOp16
 70
     1
102
RTVSPropertyOp17
 70
     1
102
RTVSPropertyOp18
 70
     1
102
RTVSPropertyOp19
 70
     1
102
RTVSPropertyOp20
 70
     1
102
RTVSPropertyOp21
 70
     1
102
RTVSPropertyOp22
 70
     1
102
RTVSPropertyOp23
 70
     1
102
RTVSPropertyOp24
 70
     1
102
RTVSPropertyOp25
 70
     1
102
RTVSPropertyOp26
 70
     1
102
RTVSPropertyOp27
 70
     1
102
RTVSPropertyOp28
 70
     1
102
RTVSPropertyOp29
 70
     1
102
RTVSPropertyOp30
 70
     1
102
RTVSPropertyOp31
 70
     1
102
RTVSPropertyOp32
 70
     1
  0
XRECORD
  5
A29
102
{ACAD_REACTORS
330
A28
102
}
330
A28
100
AcDbXrecord
280
     1
102
RTVSPropertyOp0
 70
     1
102
RTVSPropertyOp1
 70
     1
102
RTVSPropertyOp2
 70
     1
102
RTVSPropertyOp3
 70
     1
102
RTVSPropertyOp4
 70
     1
102
RTVSPropertyOp5
 70
     1
102
RTVSPropertyOp6
 70
     1
102
RTVSPropertyOp7
 70
     1
102
RTVSPropertyOp8
 70
     1
102
RTVSPropertyOp9
 70
     1
102
RTVSPropertyOp10
 70
     1
102
RTVSPropertyOp11
 70
     1
102
RTVSPropertyOp12
 70
     1
102
RTVSPropertyOp13
 70
     1
102
RTVSPropertyOp14
 70
     1
102
RTVSPropertyOp15
 70
     1
102
RTVSPropertyOp16
 70
     1
102
RTVSPropertyOp17
 70
     1
102
RTVSPropertyOp18
 70
     1
102
RTVSPropertyOp19
 70
     1
102
RTVSPropertyOp20
 70
     1
102
RTVSPropertyOp21
 70
     1
102
RTVSPropertyOp22
 70
     1
102
RTVSPropertyOp23
 70
     1
102
RTVSPropertyOp24
 70
     1
102
RTVSPropertyOp25
 70
     1
102
RTVSPropertyOp26
 70
     1
102
RTVSPropertyOp27
 70
     1
102
RTVSPropertyOp28
 70
     1
102
RTVSPropertyOp29
 70
     1
102
RTVSPropertyOp30
 70
     1
102
RTVSPropertyOp31
 70
     1
102
RTVSPropertyOp32
 70
     1
  0
XRECORD
  5
A43
102
{ACAD_REACTORS
330
A42
102
}
330
A42
100
AcDbXrecord
280
     1
102
RTVSPropertyOp0
 70
     0
102
RTVSPropertyOp1
 70
     0
102
RTVSPropertyOp2
 70
     0
102
RTVSPropertyOp3
 70
     0
102
RTVSPropertyOp4
 70
     0
102
RTVSPropertyOp5
 70
     0
102
RTVSPropertyOp6
 70
     0
102
RTVSPropertyOp7
 70
     0
102
RTVSPropertyOp8
 70
     0
102
RTVSPropertyOp9
 70
     0
102
RTVSPropertyOp10
 70
     0
102
RTVSPropertyOp11
 70
     0
102
RTVSPropertyOp12
 70
     0
102
RTVSPropertyOp13
 70
     0
102
RTVSPropertyOp14
 70
     2
102
RTVSPropertyOp15
 70
     0
102
RTVSPropertyOp16
 70
     0
102
RTVSPropertyOp17
 70
     0
102
RTVSPropertyOp18
 70
     0
102
RTVSPropertyOp19
 70
     0
102
RTVSPropertyOp20
 70
     0
102
RTVSPropertyOp21
 70
     0
102
RTVSPropertyOp22
 70
     0
102
RTVSPropertyOp23
 70
     0
102
RTVSPropertyOp24
 70
     0
102
RTVSPropertyOp25
 70
     0
102
RTVSPropertyOp26
 70
     0
102
RTVSPropertyOp27
 70
     0
102
RTVSPropertyOp28
 70
     1
102
RTVSPropertyOp29
 70
     1
102
RTVSPropertyOp30
 70
     1
102
RTVSPropertyOp31
 70
     1
102
RTVSPropertyOp32
 70
     1
  0
XRECORD
  5
A31
102
{ACAD_REACTORS
330
A30
102
}
330
A30
100
AcDbXrecord
280
     1
102
RTVSPropertyOp0
 70
     1
102
RTVSPropertyOp1
 70
     1
102
RTVSPropertyOp2
 70
     1
102
RTVSPropertyOp3
 70
     1
102
RTVSPropertyOp4
 70
     1
102
RTVSPropertyOp5
 70
     1
102
RTVSPropertyOp6
 70
     1
102
RTVSPropertyOp7
 70
     1
102
RTVSPropertyOp8
 70
     1
102
RTVSPropertyOp9
 70
     1
102
RTVSPropertyOp10
 70
     1
102
RTVSPropertyOp11
 70
     1
102
RTVSPropertyOp12
 70
     1
102
RTVSPropertyOp13
 70
     1
102
RTVSPropertyOp14
 70
     1
102
RTVSPropertyOp15
 70
     1
102
RTVSPropertyOp16
 70
     1
102
RTVSPropertyOp17
 70
     1
102
RTVSPropertyOp18
 70
     1
102
RTVSPropertyOp19
 70
     1
102
RTVSPropertyOp20
 70
     1
102
RTVSPropertyOp21
 70
     1
102
RTVSPropertyOp22
 70
     1
102
RTVSPropertyOp23
 70
     1
102
RTVSPropertyOp24
 70
     1
102
RTVSPropertyOp25
 70
     1
102
RTVSPropertyOp26
 70
     1
102
RTVSPropertyOp27
 70
     1
102
RTVSPropertyOp28
 70
     1
102
RTVSPropertyOp29
 70
     1
102
RTVSPropertyOp30
 70
     1
102
RTVSPropertyOp31
 70
     1
102
RTVSPropertyOp32
 70
     1
  0
XRECORD
  5
A15
102
{ACAD_REACTORS
330
A14
102
}
330
A14
100
AcDbXrecord
280
     1
102
RTVSPropertyOp0
 70
     1
102
RTVSPropertyOp1
 70
     1
102
RTVSPropertyOp2
 70
     1
102
RTVSPropertyOp3
 70
     1
102
RTVSPropertyOp4
 70
     1
102
RTVSPropertyOp5
 70
     1
102
RTVSPropertyOp6
 70
     1
102
RTVSPropertyOp7
 70
     1
102
RTVSPropertyOp8
 70
     1
102
RTVSPropertyOp9
 70
     1
102
RTVSPropertyOp10
 70
     1
102
RTVSPropertyOp11
 70
     1
102
RTVSPropertyOp12
 70
     1
102
RTVSPropertyOp13
 70
     1
102
RTVSPropertyOp14
 70
     1
102
RTVSPropertyOp15
 70
     1
102
RTVSPropertyOp16
 70
     1
102
RTVSPropertyOp17
 70
     1
102
RTVSPropertyOp18
 70
     1
102
RTVSPropertyOp19
 70
     1
102
RTVSPropertyOp20
 70
     1
102
RTVSPropertyOp21
 70
     1
102
RTVSPropertyOp22
 70
     1
102
RTVSPropertyOp23
 70
     1
102
RTVSPropertyOp24
 70
     1
102
RTVSPropertyOp25
 70
     1
102
RTVSPropertyOp26
 70
     1
102
RTVSPropertyOp27
 70
     1
102
RTVSPropertyOp28
 70
     1
102
RTVSPropertyOp29
 70
     1
102
RTVSPropertyOp30
 70
     1
102
RTVSPropertyOp31
 70
     1
102
RTVSPropertyOp32
 70
     1
  0
XRECORD
  5
A17
102
{ACAD_REACTORS
330
A16
102
}
330
A16
100
AcDbXrecord
280
     1
102
RTVSPropertyOp0
 70
     1
102
RTVSPropertyOp1
 70
     1
102
RTVSPropertyOp2
 70
     1
102
RTVSPropertyOp3
 70
     1
102
RTVSPropertyOp4
 70
     1
102
RTVSPropertyOp5
 70
     1
102
RTVSPropertyOp6
 70
     1
102
RTVSPropertyOp7
 70
     1
102
RTVSPropertyOp8
 70
     1
102
RTVSPropertyOp9
 70
     1
102
RTVSPropertyOp10
 70
     1
102
RTVSPropertyOp11
 70
     1
102
RTVSPropertyOp12
 70
     1
102
RTVSPropertyOp13
 70
     1
102
RTVSPropertyOp14
 70
     1
102
RTVSPropertyOp15
 70
     1
102
RTVSPropertyOp16
 70
     1
102
RTVSPropertyOp17
 70
     1
102
RTVSPropertyOp18
 70
     1
102
RTVSPropertyOp19
 70
     1
102
RTVSPropertyOp20
 70
     1
102
RTVSPropertyOp21
 70
     1
102
RTVSPropertyOp22
 70
     1
102
RTVSPropertyOp23
 70
     1
102
RTVSPropertyOp24
 70
     1
102
RTVSPropertyOp25
 70
     1
102
RTVSPropertyOp26
 70
     1
102
RTVSPropertyOp27
 70
     1
102
RTVSPropertyOp28
 70
     1
102
RTVSPropertyOp29
 70
     1
102
RTVSPropertyOp30
 70
     1
102
RTVSPropertyOp31
 70
     1
102
RTVSPropertyOp32
 70
     1
  0
XRECORD
  5
A19
102
{ACAD_REACTORS
330
A18
102
}
330
A18
100
AcDbXrecord
280
     1
102
RTVSPropertyOp0
 70
     1
102
RTVSPropertyOp1
 70
     1
102
RTVSPropertyOp2
 70
     1
102
RTVSPropertyOp3
 70
     1
102
RTVSPropertyOp4
 70
     1
102
RTVSPropertyOp5
 70
     1
102
RTVSPropertyOp6
 70
     1
102
RTVSPropertyOp7
 70
     1
102
RTVSPropertyOp8
 70
     1
102
RTVSPropertyOp9
 70
     1
102
RTVSPropertyOp10
 70
     1
102
RTVSPropertyOp11
 70
     1
102
RTVSPropertyOp12
 70
     1
102
RTVSPropertyOp13
 70
     1
102
RTVSPropertyOp14
 70
     1
102
RTVSPropertyOp15
 70
     1
102
RTVSPropertyOp16
 70
     1
102
RTVSPropertyOp17
 70
     1
102
RTVSPropertyOp18
 70
     1
102
RTVSPropertyOp19
 70
     1
102
RTVSPropertyOp20
 70
     1
102
RTVSPropertyOp21
 70
     1
102
RTVSPropertyOp22
 70
     1
102
RTVSPropertyOp23
 70
     1
102
RTVSPropertyOp24
 70
     1
102
RTVSPropertyOp25
 70
     1
102
RTVSPropertyOp26
 70
     1
102
RTVSPropertyOp27
 70
     1
102
RTVSPropertyOp28
 70
     1
102
RTVSPropertyOp29
 70
     1
102
RTVSPropertyOp30
 70
     1
102
RTVSPropertyOp31
 70
     1
102
RTVSPropertyOp32
 70
     1
  0
XRECORD
  5
A1B
102
{ACAD_REACTORS
330
A1A
102
}
330
A1A
100
AcDbXrecord
280
     1
102
RTVSPropertyOp0
 70
     1
102
RTVSPropertyOp1
 70
     1
102
RTVSPropertyOp2
 70
     1
102
RTVSPropertyOp3
 70
     1
102
RTVSPropertyOp4
 70
     1
102
RTVSPropertyOp5
 70
     1
102
RTVSPropertyOp6
 70
     1
102
RTVSPropertyOp7
 70
     1
102
RTVSPropertyOp8
 70
     1
102
RTVSPropertyOp9
 70
     1
102
RTVSPropertyOp10
 70
     1
102
RTVSPropertyOp11
 70
     1
102
RTVSPropertyOp12
 70
     1
102
RTVSPropertyOp13
 70
     1
102
RTVSPropertyOp14
 70
     1
102
RTVSPropertyOp15
 70
     1
102
RTVSPropertyOp16
 70
     1
102
RTVSPropertyOp17
 70
     1
102
RTVSPropertyOp18
 70
     1
102
RTVSPropertyOp19
 70
     1
102
RTVSPropertyOp20
 70
     1
102
RTVSPropertyOp21
 70
     1
102
RTVSPropertyOp22
 70
     1
102
RTVSPropertyOp23
 70
     1
102
RTVSPropertyOp24
 70
     1
102
RTVSPropertyOp25
 70
     1
102
RTVSPropertyOp26
 70
     1
102
RTVSPropertyOp27
 70
     1
102
RTVSPropertyOp28
 70
     1
102
RTVSPropertyOp29
 70
     1
102
RTVSPropertyOp30
 70
     1
102
RTVSPropertyOp31
 70
     1
102
RTVSPropertyOp32
 70
     1
  0
XRECORD
  5
A23
102
{ACAD_REACTORS
330
A22
102
}
330
A22
100
AcDbXrecord
280
     1
102
RTVSPropertyOp0
 70
     1
102
RTVSPropertyOp1
 70
     1
102
RTVSPropertyOp2
 70
     1
102
RTVSPropertyOp3
 70
     1
102
RTVSPropertyOp4
 70
     1
102
RTVSPropertyOp5
 70
     1
102
RTVSPropertyOp6
 70
     1
102
RTVSPropertyOp7
 70
     1
102
RTVSPropertyOp8
 70
     1
102
RTVSPropertyOp9
 70
     1
102
RTVSPropertyOp10
 70
     1
102
RTVSPropertyOp11
 70
     1
102
RTVSPropertyOp12
 70
     1
102
RTVSPropertyOp13
 70
     1
102
RTVSPropertyOp14
 70
     1
102
RTVSPropertyOp15
 70
     1
102
RTVSPropertyOp16
 70
     1
102
RTVSPropertyOp17
 70
     1
102
RTVSPropertyOp18
 70
     1
102
RTVSPropertyOp19
 70
     1
102
RTVSPropertyOp20
 70
     1
102
RTVSPropertyOp21
 70
     1
102
RTVSPropertyOp22
 70
     1
102
RTVSPropertyOp23
 70
     1
102
RTVSPropertyOp24
 70
     1
102
RTVSPropertyOp25
 70
     1
102
RTVSPropertyOp26
 70
     1
102
RTVSPropertyOp27
 70
     1
102
RTVSPropertyOp28
 70
     1
102
RTVSPropertyOp29
 70
     1
102
RTVSPropertyOp30
 70
     1
102
RTVSPropertyOp31
 70
     1
102
RTVSPropertyOp32
 70
     1
  0
XRECORD
  5
A3F
102
{ACAD_REACTORS
330
A3E
102
}
330
A3E
100
AcDbXrecord
280
     1
102
RTVSPropertyOp0
 70
     0
102
RTVSPropertyOp1
 70
     0
102
RTVSPropertyOp2
 70
     0
102
RTVSPropertyOp3
 70
     0
102
RTVSPropertyOp4
 70
     0
102
RTVSPropertyOp5
 70
     0
102
RTVSPropertyOp6
 70
     0
102
RTVSPropertyOp7
 70
     0
102
RTVSPropertyOp8
 70
     0
102
RTVSPropertyOp9
 70
     0
102
RTVSPropertyOp10
 70
     0
102
RTVSPropertyOp11
 70
     0
102
RTVSPropertyOp12
 70
     0
102
RTVSPropertyOp13
 70
     0
102
RTVSPropertyOp14
 70
     2
102
RTVSPropertyOp15
 70
     0
102
RTVSPropertyOp16
 70
     0
102
RTVSPropertyOp17
 70
     0
102
RTVSPropertyOp18
 70
     0
102
RTVSPropertyOp19
 70
     0
102
RTVSPropertyOp20
 70
     0
102
RTVSPropertyOp21
 70
     0
102
RTVSPropertyOp22
 70
     0
102
RTVSPropertyOp23
 70
     0
102
RTVSPropertyOp24
 70
     0
102
RTVSPropertyOp25
 70
     0
102
RTVSPropertyOp26
 70
     0
102
RTVSPropertyOp27
 70
     0
102
RTVSPropertyOp28
 70
     1
102
RTVSPropertyOp29
 70
     1
102
RTVSPropertyOp30
 70
     1
102
RTVSPropertyOp31
 70
     1
102
RTVSPropertyOp32
 70
     1
  0
XRECORD
  5
A2F
102
{ACAD_REACTORS
330
A2E
102
}
330
A2E
100
AcDbXrecord
280
     1
102
RTVSPropertyOp0
 70
     1
102
RTVSPropertyOp1
 70
     1
102
RTVSPropertyOp2
 70
     1
102
RTVSPropertyOp3
 70
     1
102
RTVSPropertyOp4
 70
     1
102
RTVSPropertyOp5
 70
     1
102
RTVSPropertyOp6
 70
     1
102
RTVSPropertyOp7
 70
     1
102
RTVSPropertyOp8
 70
     1
102
RTVSPropertyOp9
 70
     1
102
RTVSPropertyOp10
 70
     1
102
RTVSPropertyOp11
 70
     1
102
RTVSPropertyOp12
 70
     1
102
RTVSPropertyOp13
 70
     1
102
RTVSPropertyOp14
 70
     1
102
RTVSPropertyOp15
 70
     1
102
RTVSPropertyOp16
 70
     1
102
RTVSPropertyOp17
 70
     1
102
RTVSPropertyOp18
 70
     1
102
RTVSPropertyOp19
 70
     1
102
RTVSPropertyOp20
 70
     1
102
RTVSPropertyOp21
 70
     1
102
RTVSPropertyOp22
 70
     1
102
RTVSPropertyOp23
 70
     1
102
RTVSPropertyOp24
 70
     1
102
RTVSPropertyOp25
 70
     1
102
RTVSPropertyOp26
 70
     1
102
RTVSPropertyOp27
 70
     1
102
RTVSPropertyOp28
 70
     1
102
RTVSPropertyOp29
 70
     1
102
RTVSPropertyOp30
 70
     1
102
RTVSPropertyOp31
 70
     1
102
RTVSPropertyOp32
 70
     1
  0
XRECORD
  5
A41
102
{ACAD_REACTORS
330
A40
102
}
330
A40
100
AcDbXrecord
280
     1
102
RTVSPropertyOp0
 70
     0
102
RTVSPropertyOp1
 70
     0
102
RTVSPropertyOp2
 70
     0
102
RTVSPropertyOp3
 70
     0
102
RTVSPropertyOp4
 70
     0
102
RTVSPropertyOp5
 70
     0
102
RTVSPropertyOp6
 70
     0
102
RTVSPropertyOp7
 70
     0
102
RTVSPropertyOp8
 70
     0
102
RTVSPropertyOp9
 70
     0
102
RTVSPropertyOp10
 70
     0
102
RTVSPropertyOp11
 70
     0
102
RTVSPropertyOp12
 70
     0
102
RTVSPropertyOp13
 70
     0
102
RTVSPropertyOp14
 70
     2
102
RTVSPropertyOp15
 70
     0
102
RTVSPropertyOp16
 70
     0
102
RTVSPropertyOp17
 70
     0
102
RTVSPropertyOp18
 70
     0
102
RTVSPropertyOp19
 70
     0
102
RTVSPropertyOp20
 70
     0
102
RTVSPropertyOp21
 70
     0
102
RTVSPropertyOp22
 70
     0
102
RTVSPropertyOp23
 70
     0
102
RTVSPropertyOp24
 70
     0
102
RTVSPropertyOp25
 70
     0
102
RTVSPropertyOp26
 70
     0
102
RTVSPropertyOp27
 70
     0
102
RTVSPropertyOp28
 70
     1
102
RTVSPropertyOp29
 70
     1
102
RTVSPropertyOp30
 70
     1
102
RTVSPropertyOp31
 70
     1
102
RTVSPropertyOp32
 70
     1
  0
XRECORD
  5
A27
102
{ACAD_REACTORS
330
A26
102
}
330
A26
100
AcDbXrecord
280
     1
102
RTVSPropertyOp0
 70
     1
102
RTVSPropertyOp1
 70
     1
102
RTVSPropertyOp2
 70
     1
102
RTVSPropertyOp3
 70
     1
102
RTVSPropertyOp4
 70
     1
102
RTVSPropertyOp5
 70
     1
102
RTVSPropertyOp6
 70
     1
102
RTVSPropertyOp7
 70
     1
102
RTVSPropertyOp8
 70
     1
102
RTVSPropertyOp9
 70
     1
102
RTVSPropertyOp10
 70
     1
102
RTVSPropertyOp11
 70
     1
102
RTVSPropertyOp12
 70
     1
102
RTVSPropertyOp13
 70
     1
102
RTVSPropertyOp14
 70
     1
102
RTVSPropertyOp15
 70
     1
102
RTVSPropertyOp16
 70
     1
102
RTVSPropertyOp17
 70
     1
102
RTVSPropertyOp18
 70
     1
102
RTVSPropertyOp19
 70
     1
102
RTVSPropertyOp20
 70
     1
102
RTVSPropertyOp21
 70
     1
102
RTVSPropertyOp22
 70
     1
102
RTVSPropertyOp23
 70
     1
102
RTVSPropertyOp24
 70
     1
102
RTVSPropertyOp25
 70
     1
102
RTVSPropertyOp26
 70
     1
102
RTVSPropertyOp27
 70
     1
102
RTVSPropertyOp28
 70
     1
102
RTVSPropertyOp29
 70
     1
102
RTVSPropertyOp30
 70
     1
102
RTVSPropertyOp31
 70
     1
102
RTVSPropertyOp32
 70
     1
  0
XRECORD
  5
A3D
102
{ACAD_REACTORS
330
A3C
102
}
330
A3C
100
AcDbXrecord
280
     1
102
RTVSPropertyOp0
 70
     1
102
RTVSPropertyOp1
 70
     1
102
RTVSPropertyOp2
 70
     1
102
RTVSPropertyOp3
 70
     1
102
RTVSPropertyOp4
 70
     1
102
RTVSPropertyOp5
 70
     1
102
RTVSPropertyOp6
 70
     1
102
RTVSPropertyOp7
 70
     1
102
RTVSPropertyOp8
 70
     1
102
RTVSPropertyOp9
 70
     1
102
RTVSPropertyOp10
 70
     1
102
RTVSPropertyOp11
 70
     1
102
RTVSPropertyOp12
 70
     1
102
RTVSPropertyOp13
 70
     1
102
RTVSPropertyOp14
 70
     1
102
RTVSPropertyOp15
 70
     1
102
RTVSPropertyOp16
 70
     1
102
RTVSPropertyOp17
 70
     1
102
RTVSPropertyOp18
 70
     1
102
RTVSPropertyOp19
 70
     1
102
RTVSPropertyOp20
 70
     1
102
RTVSPropertyOp21
 70
     1
102
RTVSPropertyOp22
 70
     1
102
RTVSPropertyOp23
 70
     1
102
RTVSPropertyOp24
 70
     1
102
RTVSPropertyOp25
 70
     1
102
RTVSPropertyOp26
 70
     1
102
RTVSPropertyOp27
 70
     1
102
RTVSPropertyOp28
 70
     1
102
RTVSPropertyOp29
 70
     1
102
RTVSPropertyOp30
 70
     1
102
RTVSPropertyOp31
 70
     1
102
RTVSPropertyOp32
 70
     1
  0
XRECORD
  5
A3B
102
{ACAD_REACTORS
330
A3A
102
}
330
A3A
100
AcDbXrecord
280
     1
102
RTVSPropertyOp0
 70
     1
102
RTVSPropertyOp1
 70
     1
102
RTVSPropertyOp2
 70
     1
102
RTVSPropertyOp3
 70
     1
102
RTVSPropertyOp4
 70
     1
102
RTVSPropertyOp5
 70
     1
102
RTVSPropertyOp6
 70
     1
102
RTVSPropertyOp7
 70
     1
102
RTVSPropertyOp8
 70
     1
102
RTVSPropertyOp9
 70
     1
102
RTVSPropertyOp10
 70
     1
102
RTVSPropertyOp11
 70
     1
102
RTVSPropertyOp12
 70
     1
102
RTVSPropertyOp13
 70
     1
102
RTVSPropertyOp14
 70
     1
102
RTVSPropertyOp15
 70
     1
102
RTVSPropertyOp16
 70
     1
102
RTVSPropertyOp17
 70
     1
102
RTVSPropertyOp18
 70
     1
102
RTVSPropertyOp19
 70
     1
102
RTVSPropertyOp20
 70
     1
102
RTVSPropertyOp21
 70
     1
102
RTVSPropertyOp22
 70
     1
102
RTVSPropertyOp23
 70
     1
102
RTVSPropertyOp24
 70
     1
102
RTVSPropertyOp25
 70
     1
102
RTVSPropertyOp26
 70
     1
102
RTVSPropertyOp27
 70
     1
102
RTVSPropertyOp28
 70
     1
102
RTVSPropertyOp29
 70
     1
102
RTVSPropertyOp30
 70
     1
102
RTVSPropertyOp31
 70
     1
102
RTVSPropertyOp32
 70
     1
  0
XRECORD
  5
A35
102
{ACAD_REACTORS
330
A34
102
}
330
A34
100
AcDbXrecord
280
     1
102
RTVSPropertyOp0
 70
     1
102
RTVSPropertyOp1
 70
     1
102
RTVSPropertyOp2
 70
     1
102
RTVSPropertyOp3
 70
     1
102
RTVSPropertyOp4
 70
     1
102
RTVSPropertyOp5
 70
     1
102
RTVSPropertyOp6
 70
     1
102
RTVSPropertyOp7
 70
     1
102
RTVSPropertyOp8
 70
     1
102
RTVSPropertyOp9
 70
     1
102
RTVSPropertyOp10
 70
     1
102
RTVSPropertyOp11
 70
     1
102
RTVSPropertyOp12
 70
     1
102
RTVSPropertyOp13
 70
     1
102
RTVSPropertyOp14
 70
     1
102
RTVSPropertyOp15
 70
     1
102
RTVSPropertyOp16
 70
     1
102
RTVSPropertyOp17
 70
     1
102
RTVSPropertyOp18
 70
     1
102
RTVSPropertyOp19
 70
     1
102
RTVSPropertyOp20
 70
     1
102
RTVSPropertyOp21
 70
     1
102
RTVSPropertyOp22
 70
     1
102
RTVSPropertyOp23
 70
     1
102
RTVSPropertyOp24
 70
     1
102
RTVSPropertyOp25
 70
     1
102
RTVSPropertyOp26
 70
     1
102
RTVSPropertyOp27
 70
     1
102
RTVSPropertyOp28
 70
     1
102
RTVSPropertyOp29
 70
     1
102
RTVSPropertyOp30
 70
     1
102
RTVSPropertyOp31
 70
     1
102
RTVSPropertyOp32
 70
     1
  0
XRECORD
  5
A37
102
{ACAD_REACTORS
330
A36
102
}
330
A36
100
AcDbXrecord
280
     1
102
RTVSPropertyOp0
 70
     1
102
RTVSPropertyOp1
 70
     1
102
RTVSPropertyOp2
 70
     1
102
RTVSPropertyOp3
 70
     1
102
RTVSPropertyOp4
 70
     1
102
RTVSPropertyOp5
 70
     1
102
RTVSPropertyOp6
 70
     1
102
RTVSPropertyOp7
 70
     1
102
RTVSPropertyOp8
 70
     1
102
RTVSPropertyOp9
 70
     1
102
RTVSPropertyOp10
 70
     1
102
RTVSPropertyOp11
 70
     1
102
RTVSPropertyOp12
 70
     1
102
RTVSPropertyOp13
 70
     1
102
RTVSPropertyOp14
 70
     1
102
RTVSPropertyOp15
 70
     1
102
RTVSPropertyOp16
 70
     1
102
RTVSPropertyOp17
 70
     1
102
RTVSPropertyOp18
 70
     1
102
RTVSPropertyOp19
 70
     1
102
RTVSPropertyOp20
 70
     1
102
RTVSPropertyOp21
 70
     1
102
RTVSPropertyOp22
 70
     1
102
RTVSPropertyOp23
 70
     1
102
RTVSPropertyOp24
 70
     1
102
RTVSPropertyOp25
 70
     1
102
RTVSPropertyOp26
 70
     1
102
RTVSPropertyOp27
 70
     1
102
RTVSPropertyOp28
 70
     1
102
RTVSPropertyOp29
 70
     1
102
RTVSPropertyOp30
 70
     1
102
RTVSPropertyOp31
 70
     1
102
RTVSPropertyOp32
 70
     1
  0
XRECORD
  5
A2D
102
{ACAD_REACTORS
330
A2C
102
}
330
A2C
100
AcDbXrecord
280
     1
102
RTVSPropertyOp0
 70
     1
102
RTVSPropertyOp1
 70
     1
102
RTVSPropertyOp2
 70
     1
102
RTVSPropertyOp3
 70
     1
102
RTVSPropertyOp4
 70
     1
102
RTVSPropertyOp5
 70
     1
102
RTVSPropertyOp6
 70
     1
102
RTVSPropertyOp7
 70
     1
102
RTVSPropertyOp8
 70
     1
102
RTVSPropertyOp9
 70
     1
102
RTVSPropertyOp10
 70
     1
102
RTVSPropertyOp11
 70
     1
102
RTVSPropertyOp12
 70
     1
102
RTVSPropertyOp13
 70
     1
102
RTVSPropertyOp14
 70
     1
102
RTVSPropertyOp15
 70
     1
102
RTVSPropertyOp16
 70
     1
102
RTVSPropertyOp17
 70
     1
102
RTVSPropertyOp18
 70
     1
102
RTVSPropertyOp19
 70
     1
102
RTVSPropertyOp20
 70
     1
102
RTVSPropertyOp21
 70
     1
102
RTVSPropertyOp22
 70
     1
102
RTVSPropertyOp23
 70
     1
102
RTVSPropertyOp24
 70
     1
102
RTVSPropertyOp25
 70
     1
102
RTVSPropertyOp26
 70
     1
102
RTVSPropertyOp27
 70
     1
102
RTVSPropertyOp28
 70
     1
102
RTVSPropertyOp29
 70
     1
102
RTVSPropertyOp30
 70
     1
102
RTVSPropertyOp31
 70
     1
102
RTVSPropertyOp32
 70
     1
  0
XRECORD
  5
A21
102
{ACAD_REACTORS
330
A20
102
}
330
A20
100
AcDbXrecord
280
     1
102
RTVSPropertyOp0
 70
     1
102
RTVSPropertyOp1
 70
     1
102
RTVSPropertyOp2
 70
     1
102
RTVSPropertyOp3
 70
     1
102
RTVSPropertyOp4
 70
     1
102
RTVSPropertyOp5
 70
     1
102
RTVSPropertyOp6
 70
     1
102
RTVSPropertyOp7
 70
     1
102
RTVSPropertyOp8
 70
     1
102
RTVSPropertyOp9
 70
     1
102
RTVSPropertyOp10
 70
     1
102
RTVSPropertyOp11
 70
     1
102
RTVSPropertyOp12
 70
     1
102
RTVSPropertyOp13
 70
     1
102
RTVSPropertyOp14
 70
     1
102
RTVSPropertyOp15
 70
     1
102
RTVSPropertyOp16
 70
     1
102
RTVSPropertyOp17
 70
     1
102
RTVSPropertyOp18
 70
     1
102
RTVSPropertyOp19
 70
     1
102
RTVSPropertyOp20
 70
     1
102
RTVSPropertyOp21
 70
     1
102
RTVSPropertyOp22
 70
     1
102
RTVSPropertyOp23
 70
     1
102
RTVSPropertyOp24
 70
     1
102
RTVSPropertyOp25
 70
     1
102
RTVSPropertyOp26
 70
     1
102
RTVSPropertyOp27
 70
     1
102
RTVSPropertyOp28
 70
     1
102
RTVSPropertyOp29
 70
     1
102
RTVSPropertyOp30
 70
     1
102
RTVSPropertyOp31
 70
     1
102
RTVSPropertyOp32
 70
     1
  0
XRECORD
  5
A39
102
{ACAD_REACTORS
330
A38
102
}
330
A38
100
AcDbXrecord
280
     1
102
RTVSPropertyOp0
 70
     1
102
RTVSPropertyOp1
 70
     1
102
RTVSPropertyOp2
 70
     1
102
RTVSPropertyOp3
 70
     1
102
RTVSPropertyOp4
 70
     1
102
RTVSPropertyOp5
 70
     1
102
RTVSPropertyOp6
 70
     1
102
RTVSPropertyOp7
 70
     1
102
RTVSPropertyOp8
 70
     1
102
RTVSPropertyOp9
 70
     1
102
RTVSPropertyOp10
 70
     1
102
RTVSPropertyOp11
 70
     1
102
RTVSPropertyOp12
 70
     1
102
RTVSPropertyOp13
 70
     1
102
RTVSPropertyOp14
 70
     1
102
RTVSPropertyOp15
 70
     1
102
RTVSPropertyOp16
 70
     1
102
RTVSPropertyOp17
 70
     1
102
RTVSPropertyOp18
 70
     1
102
RTVSPropertyOp19
 70
     1
102
RTVSPropertyOp20
 70
     1
102
RTVSPropertyOp21
 70
     1
102
RTVSPropertyOp22
 70
     1
102
RTVSPropertyOp23
 70
     1
102
RTVSPropertyOp24
 70
     1
102
RTVSPropertyOp25
 70
     1
102
RTVSPropertyOp26
 70
     1
102
RTVSPropertyOp27
 70
     1
102
RTVSPropertyOp28
 70
     1
102
RTVSPropertyOp29
 70
     1
102
RTVSPropertyOp30
 70
     1
102
RTVSPropertyOp31
 70
     1
102
RTVSPropertyOp32
 70
     1
  0
ENDSEC
  0
EOF
