  0
SECTION
  2
HEADER
  9
$ACADVER
  1
AC1015
  9
$ACADMAINTVER
 70
    20
  9
$DWGCODEPAGE
  3
ANSI_932
  9
$INSBASE
 10
0.0
 20
0.0
 30
0.0
  9
$EXTMIN
 10
-57.59683862274675
 20
165.5895488086053
 30
0.0
  9
$EXTMAX
 10
357.0004323213832
 20
456.9757102539811
 30
0.0
  9
$LIMMIN
 10
-60.06021765304331
 20
162.6907024186789
  9
$LIMMAX
 10
359.9287655012537
 20
459.6590251725851
  9
$ORTHOMODE
 70
     1
  9
$REGENMODE
 70
     1
  9
$FILLMODE
 70
     1
  9
$QTEXTMODE
 70
     0
  9
$MIRRTEXT
 70
     0
  9
$LTSCALE
 40
1.0
  9
$ATTMODE
 70
     1
  9
$TEXTSIZE
 40
3.0
  9
$TRACEWID
 40
1.0
  9
$TEXTSTYLE
  7
ATOM
  9
$CLAYER
  8
guide
  9
$CELTYPE
  6
ByLayer
  9
$CECOLOR
 62
   256
  9
$CELTSCALE
 40
1.0
  9
$DISPSILH
 70
     0
  9
$DIMSCALE
 40
0.0
  9
$DIMASZ
 40
2.0
  9
$DIMEXO
 40
2.0
  9
$DIMDLI
 40
7.0
  9
$DIMRND
 40
0.0
  9
$DIMDLE
 40
0.0
  9
$DIMEXE
 40
1.0
  9
$DIMTP
 40
0.1
  9
$DIMTM
 40
0.1
  9
$DIMTXT
 40
3.0
  9
$DIMCEN
 40
-2.5
  9
$DIMTSZ
 40
0.0
  9
$DIMTOL
 70
     0
  9
$DIMLIM
 70
     0
  9
$DIMTIH
 70
     0
  9
$DIMTOH
 70
     0
  9
$DIMSE1
 70
     0
  9
$DIMSE2
 70
     0
  9
$DIMTAD
 70
     1
  9
$DIMZIN
 70
     8
  9
$DIMBLK
  1
Open30
  9
$DIMASO
 70
     1
  9
$DIMSHO
 70
     1
  9
$DIMPOST
  1

  9
$DIMAPOST
  1

  9
$DIMALT
 70
     0
  9
$DIMALTD
 70
     3
  9
$DIMALTF
 40
0.03937007874016
  9
$DIMLFAC
 40
1.0
  9
$DIMTOFL
 70
     1
  9
$DIMTVP
 40
0.0
  9
$DIMTIX
 70
     0
  9
$DIMSOXD
 70
     0
  9
$DIMSAH
 70
     0
  9
$DIMBLK1
  1

  9
$DIMBLK2
  1

  9
$DIMSTYLE
  2
ATOM
  9
$DIMCLRD
 70
     0
  9
$DIMCLRE
 70
     0
  9
$DIMCLRT
 70
     3
  9
$DIMTFAC
 40
0.4999999999999998
  9
$DIMGAP
 40
0.625
  9
$DIMJUST
 70
     0
  9
$DIMSD1
 70
     0
  9
$DIMSD2
 70
     0
  9
$DIMTOLJ
 70
     0
  9
$DIMTZIN
 70
     8
  9
$DIMALTZ
 70
     0
  9
$DIMALTTZ
 70
     0
  9
$DIMUPT
 70
     0
  9
$DIMDEC
 70
     2
  9
$DIMTDEC
 70
     2
  9
$DIMALTU
 70
     2
  9
$DIMALTTD
 70
     3
  9
$DIMTXSTY
  7
ATOM
  9
$DIMAUNIT
 70
     0
  9
$DIMADEC
 70
     0
  9
$DIMALTRND
 40
0.0
  9
$DIMAZIN
 70
     0
  9
$DIMDSEP
 70
    46
  9
$DIMATFIT
 70
     0
  9
$DIMFRAC
 70
     2
  9
$DIMLDRBLK
  1
Open30
  9
$DIMLUNIT
 70
     2
  9
$DIMLWD
 70
    -2
  9
$DIMLWE
 70
    -2
  9
$DIMTMOVE
 70
     1
  9
$LUNITS
 70
     2
  9
$LUPREC
 70
     4
  9
$SKETCHINC
 40
1.0
  9
$FILLETRAD
 40
0.0
  9
$AUNITS
 70
     0
  9
$AUPREC
 70
     0
  9
$MENU
  1
.
  9
$ELEVATION
 40
0.0
  9
$PELEVATION
 40
0.0
  9
$THICKNESS
 40
0.0
  9
$LIMCHECK
 70
     0
  9
$CHAMFERA
 40
0.0
  9
$CHAMFERB
 40
0.0
  9
$CHAMFERC
 40
0.0
  9
$CHAMFERD
 40
0.0
  9
$SKPOLY
 70
     0
  9
$TDCREATE
 40
2457423.448929282
  9
$TDUCREATE
 40
2457423.073929283
  9
$TDUPDATE
 40
2457578.569765533
  9
$TDUUPDATE
 40
2457578.194765532
  9
$TDINDWG
 40
0.0033492014
  9
$TDUSRTIMER
 40
0.0033490278
  9
$USRTIMER
 70
     1
  9
$ANGBASE
 50
0.0
  9
$ANGDIR
 70
     0
  9
$PDMODE
 70
     0
  9
$PDSIZE
 40
0.0
  9
$PLINEWID
 40
0.0
  9
$SPLFRAME
 70
     0
  9
$SPLINETYPE
 70
     6
  9
$SPLINESEGS
 70
     8
  9
$HANDSEED
  5
A5E
  9
$SURFTAB1
 70
     6
  9
$SURFTAB2
 70
     6
  9
$SURFTYPE
 70
     6
  9
$SURFU
 70
     6
  9
$SURFV
 70
     6
  9
$UCSBASE
  2

  9
$UCSNAME
  2

  9
$UCSORG
 10
0.0
 20
0.0
 30
0.0
  9
$UCSXDIR
 10
1.0
 20
0.0
 30
0.0
  9
$UCSYDIR
 10
0.0
 20
1.0
 30
0.0
  9
$UCSORTHOREF
  2

  9
$UCSORTHOVIEW
 70
     0
  9
$UCSORGTOP
 10
0.0
 20
0.0
 30
0.0
  9
$UCSORGBOTTOM
 10
0.0
 20
0.0
 30
0.0
  9
$UCSORGLEFT
 10
0.0
 20
0.0
 30
0.0
  9
$UCSORGRIGHT
 10
0.0
 20
0.0
 30
0.0
  9
$UCSORGFRONT
 10
0.0
 20
0.0
 30
0.0
  9
$UCSORGBACK
 10
0.0
 20
0.0
 30
0.0
  9
$PUCSBASE
  2

  9
$PUCSNAME
  2

  9
$PUCSORG
 10
0.0
 20
0.0
 30
0.0
  9
$PUCSXDIR
 10
1.0
 20
0.0
 30
0.0
  9
$PUCSYDIR
 10
0.0
 20
1.0
 30
0.0
  9
$PUCSORTHOREF
  2

  9
$PUCSORTHOVIEW
 70
     0
  9
$PUCSORGTOP
 10
0.0
 20
0.0
 30
0.0
  9
$PUCSORGBOTTOM
 10
0.0
 20
0.0
 30
0.0
  9
$PUCSORGLEFT
 10
0.0
 20
0.0
 30
0.0
  9
$PUCSORGRIGHT
 10
0.0
 20
0.0
 30
0.0
  9
$PUCSORGFRONT
 10
0.0
 20
0.0
 30
0.0
  9
$PUCSORGBACK
 10
0.0
 20
0.0
 30
0.0
  9
$USERI1
 70
     0
  9
$USERI2
 70
     0
  9
$USERI3
 70
     0
  9
$USERI4
 70
     0
  9
$USERI5
 70
     0
  9
$USERR1
 40
0.0
  9
$USERR2
 40
0.0
  9
$USERR3
 40
0.0
  9
$USERR4
 40
0.0
  9
$USERR5
 40
0.0
  9
$WORLDVIEW
 70
     1
  9
$SHADEDGE
 70
     3
  9
$SHADEDIF
 70
    70
  9
$TILEMODE
 70
     1
  9
$MAXACTVP
 70
    64
  9
$PINSBASE
 10
0.0
 20
0.0
 30
0.0
  9
$PLIMCHECK
 70
     0
  9
$PEXTMIN
 10
1.000000000000000E+20
 20
1.000000000000000E+20
 30
1.000000000000000E+20
  9
$PEXTMAX
 10
-1.000000000000000E+20
 20
-1.000000000000000E+20
 30
-1.000000000000000E+20
  9
$PLIMMIN
 10
0.0
 20
0.0
  9
$PLIMMAX
 10
12.0
 20
9.0
  9
$UNITMODE
 70
     0
  9
$VISRETAIN
 70
     1
  9
$PLINEGEN
 70
     0
  9
$PSLTSCALE
 70
     1
  9
$TREEDEPTH
 70
  3020
  9
$CMLSTYLE
  2
Standard
  9
$CMLJUST
 70
     0
  9
$CMLSCALE
 40
10.0
  9
$PROXYGRAPHICS
 70
     1
  9
$MEASUREMENT
 70
     1
  9
$CELWEIGHT
370
    -1
  9
$ENDCAPS
280
     0
  9
$JOINSTYLE
280
     0
  9
$LWDISPLAY
290
     0
  9
$INSUNITS
 70
     4
  9
$HYPERLINKBASE
  1

  9
$STYLESHEET
  1

  9
$XEDIT
290
     1
  9
$CEPSNTYPE
380
     0
  9
$PSTYLEMODE
290
     0
  9
$FINGERPRINTGUID
  2
{602836A0-85FD-4C19-81B5-292741965DB6}
  9
$VERSIONGUID
  2
{C19BA12E-2BF7-4779-B27E-D476F372ACC3}
  9
$EXTNAMES
290
     1
  9
$PSVPSCALE
 40
0.0
  9
$OLESTARTUP
290
     0
  0
ENDSEC
  0
SECTION
  2
CLASSES
  0
CLASS
  1
ACDBDICTIONARYWDFLT
  2
AcDbDictionaryWithDefault
  3
ObjectDBX Classes
 90
        0
280
     0
281
     0
  0
CLASS
  1
MATERIAL
  2
AcDbMaterial
  3
ObjectDBX Classes
 90
     1153
280
     0
281
     0
  0
CLASS
  1
VISUALSTYLE
  2
AcDbVisualStyle
  3
ObjectDBX Classes
 90
     4095
280
     0
281
     0
  0
CLASS
  1
SCALE
  2
AcDbScale
  3
ObjectDBX Classes
 90
     1153
280
     0
281
     0
  0
CLASS
  1
TABLESTYLE
  2
AcDbTableStyle
  3
ObjectDBX Classes
 90
     4095
280
     0
281
     0
  0
CLASS
  1
MLEADERSTYLE
  2
AcDbMLeaderStyle
  3
ACDB_MLEADERSTYLE_CLASS
 90
     4095
280
     0
281
     0
  0
CLASS
  1
DIMASSOC
  2
AcDbDimAssoc
  3
"AcDbDimAssoc|Product Desc:     AcDim ARX App For Dimension|Company:          Autodesk, Inc.|WEB Address:      www.autodesk.com"
 90
        0
280
     0
281
     0
  0
CLASS
  1
ACDB_ALDIMOBJECTCONTEXTDATA_CLASS
  2
AcDbAlignedDimensionObjectContextData
  3
ObjectDBX Classes
 90
    33921
280
     0
281
     0
  0
CLASS
  1
ACDB_LEADEROBJECTCONTEXTDATA_CLASS
  2
AcDbLeaderObjectContextData
  3
ObjectDBX Classes
 90
    33921
280
     0
281
     0
  0
CLASS
  1
ACDB_MTEXTOBJECTCONTEXTDATA_CLASS
  2
AcDbMTextObjectContextData
  3
ObjectDBX Classes
 90
    33921
280
     0
281
     0
  0
CLASS
  1
MULTILEADER
  2
AcDbMLeader
  3
ACDB_MLEADER_CLASS
 90
     1025
280
     0
281
     1
  0
CLASS
  1
ACDB_MLEADEROBJECTCONTEXTDATA_CLASS
  2
AcDbMLeaderObjectContextData
  3
ObjectDBX Classes
 90
    33921
280
     0
281
     0
  0
CLASS
  1
SORTENTSTABLE
  2
AcDbSortentsTable
  3
ObjectDBX Classes
 90
        0
280
     0
281
     0
  0
CLASS
  1
DICTIONARYVAR
  2
AcDbDictionaryVar
  3
ObjectDBX Classes
 90
        0
280
     0
281
     0
  0
CLASS
  1
CELLSTYLEMAP
  2
AcDbCellStyleMap
  3
ObjectDBX Classes
 90
     1152
280
     0
281
     0
  0
CLASS
  1
ACDBPLACEHOLDER
  2
AcDbPlaceHolder
  3
ObjectDBX Classes
 90
        0
280
     0
281
     0
  0
CLASS
  1
LAYOUT
  2
AcDbLayout
  3
ObjectDBX Classes
 90
        0
280
     0
281
     0
  0
ENDSEC
  0
SECTION
  2
TABLES
  0
TABLE
  2
VPORT
  5
8
330
0
100
AcDbSymbolTable
 70
     1
  0
VPORT
  5
57
330
8
100
AcDbSymbolTableRecord
100
AcDbViewportTableRecord
  2
*Active
 70
     0
 10
0.0
 20
0.0
 11
1.0
 21
1.0
 12
97.32840321430002
 22
289.9784965138234
 13
0.0
 23
0.0
 14
10.0
 24
10.0
 15
10.0
 25
10.0
 16
0.0
 26
0.0
 36
1.0
 17
0.0
 27
0.0
 37
0.0
 40
355.5492199277527
 41
2.01418439716312
 42
50.0
 43
0.0
 44
0.0
 50
0.0
 51
0.0
 71
     0
 72
  1000
 73
     1
 74
     1
 75
     0
 76
     0
 77
     0
 78
     0
281
     0
 65
     1
110
0.0
120
0.0
130
0.0
111
1.0
121
0.0
131
0.0
112
0.0
122
1.0
132
0.0
 79
     0
146
0.0
1001
ACAD_NAV_VCDISPLAY
1070
     3
  0
ENDTAB
  0
TABLE
  2
LTYPE
  5
5
330
0
100
AcDbSymbolTable
 70
     6
  0
LTYPE
  5
5B
330
5
100
AcDbSymbolTableRecord
100
AcDbLinetypeTableRecord
  2
ByBlock
 70
     0
  3

 72
    65
 73
     0
 40
0.0
  0
LTYPE
  5
5C
330
5
100
AcDbSymbolTableRecord
100
AcDbLinetypeTableRecord
  2
ByLayer
 70
     0
  3

 72
    65
 73
     0
 40
0.0
  0
LTYPE
  5
5D
330
5
100
AcDbSymbolTableRecord
100
AcDbLinetypeTableRecord
  2
Continuous
 70
     0
  3
Solid line
 72
    65
 73
     0
 40
0.0
  0
LTYPE
  5
78
330
5
100
AcDbSymbolTableRecord
100
AcDbLinetypeTableRecord
  2
JIS_08_15
 70
     0
  3
1SASEN15 ____ _ ____ _ ____ _ ____ _ ____
 72
    65
 73
     4
 40
17.25
 49
15.0
 74
     0
 49
-0.75
 74
     0
 49
0.75
 74
     0
 49
-0.75
 74
     0
  0
LTYPE
  5
79
330
5
100
AcDbSymbolTableRecord
100
AcDbLinetypeTableRecord
  2
JIS_02_1.0
 70
     0
  3
HIDDEN01 _ _ _ _ _ _ _ _ _ _ _ _ _ _ _ _ _
 72
    65
 73
     2
 40
2.0
 49
1.0
 74
     0
 49
-1.0
 74
     0
  0
LTYPE
  5
7A
330
5
100
AcDbSymbolTableRecord
100
AcDbLinetypeTableRecord
  2
JIS_09_15
 70
     0
  3
2SASEN15 ___ _ _ ___ _ _ ___ _ _ ___ _ _ ___
 72
    65
 73
     6
 40
18.9
 49
15.0
 74
     0
 49
-0.9
 74
     0
 49
0.6
 74
     0
 49
-0.9
 74
     0
 49
0.6
 74
     0
 49
-0.9
 74
     0
  0
LTYPE
  5
7B
330
5
100
AcDbSymbolTableRecord
100
AcDbLinetypeTableRecord
  2
CENTER
 70
     0
  3
___ _ ___ _ __
 72
    65
 73
     4
 40
13.0
 49
8.5
 74
     0
 49
-1.5
 74
     0
 49
1.5
 74
     0
 49
-1.5
 74
     0
  0
LTYPE
  5
7C
330
5
100
AcDbSymbolTableRecord
100
AcDbLinetypeTableRecord
  2
HIDDEN
 70
     0
  3
__ __ __ __ __
 72
    65
 73
     2
 40
3.0
 49
2.0
 74
     0
 49
-1.0
 74
     0
  0
ENDTAB
  0
TABLE
  2
LAYER
  5
2
330
0
100
AcDbSymbolTable
 70
    20
  0
LAYER
  5
54
102
{ACAD_XDICTIONARY
360
9CC
102
}
330
2
100
AcDbSymbolTableRecord
100
AcDbLayerTableRecord
  2
0
 70
     0
 62
     7
  6
Continuous
370
    35
390
8A
1001
AcAecLayerStandard
1000

1000

  0
LAYER
  5
75
330
2
100
AcDbSymbolTableRecord
100
AcDbLayerTableRecord
  2
Defpoints
 70
     0
 62
     7
  6
Continuous
290
     0
370
    -3
390
8A
1001
AcAecLayerStandard
1000

1000

  0
LAYER
  5
9E
102
{ACAD_XDICTIONARY
360
9F
102
}
330
2
100
AcDbSymbolTableRecord
100
AcDbLayerTableRecord
  2
viewports
 70
     0
 62
     5
  6
Continuous
290
     0
370
    18
390
8A
1001
AcAecLayerStandard
1000

1000

  0
LAYER
  5
A3
102
{ACAD_XDICTIONARY
360
A4
102
}
330
2
100
AcDbSymbolTableRecord
100
AcDbLayerTableRecord
  2
flame
 70
     0
 62
     4
  6
Continuous
370
    18
390
8A
1001
AcAecLayerStandard
1000

1000

  0
LAYER
  5
25B
102
{ACAD_XDICTIONARY
360
25C
102
}
330
2
100
AcDbSymbolTableRecord
100
AcDbLayerTableRecord
  2
# base
 70
     0
 62
    40
  6
Continuous
370
    35
390
8A
1001
AcAecLayerStandard
1000

1000

  0
LAYER
  5
267
102
{ACAD_XDICTIONARY
360
268
102
}
330
2
100
AcDbSymbolTableRecord
100
AcDbLayerTableRecord
  2
hidden
 70
     0
 62
     3
  6
JIS_02_1.0
370
    18
390
8A
1001
AcAecLayerStandard
1000

1000

  0
LAYER
  5
270
102
{ACAD_XDICTIONARY
360
271
102
}
330
2
100
AcDbSymbolTableRecord
100
AcDbLayerTableRecord
  2
center
 70
     0
 62
     2
  6
JIS_08_15
370
    18
390
8A
1001
AcAecLayerStandard
1000

1000

  0
LAYER
  5
27A
102
{ACAD_XDICTIONARY
360
27B
102
}
330
2
100
AcDbSymbolTableRecord
100
AcDbLayerTableRecord
  2
# cover
 70
     0
 62
    90
  6
Continuous
370
    35
390
8A
1001
AcAecLayerStandard
1000

1000

  0
LAYER
  5
29F
102
{ACAD_XDICTIONARY
360
2A0
102
}
330
2
100
AcDbSymbolTableRecord
100
AcDbLayerTableRecord
  2
# slider
 70
     0
 62
   130
  6
Continuous
370
    35
390
8A
1001
AcAecLayerStandard
1000

1000

  0
LAYER
  5
2B6
102
{ACAD_XDICTIONARY
360
2B7
102
}
330
2
100
AcDbSymbolTableRecord
100
AcDbLayerTableRecord
  2
# holder_frm
 70
     0
 62
   160
  6
Continuous
370
    35
390
8A
1001
AcAecLayerStandard
1000

1000

  0
LAYER
  5
2C4
102
{ACAD_XDICTIONARY
360
2C5
102
}
330
2
100
AcDbSymbolTableRecord
100
AcDbLayerTableRecord
  2
# holder_dr
 70
     0
 62
   220
  6
Continuous
370
    35
390
8A
1001
AcAecLayerStandard
1000

1000

  0
LAYER
  5
2FF
102
{ACAD_XDICTIONARY
360
300
102
}
330
2
100
AcDbSymbolTableRecord
100
AcDbLayerTableRecord
  2
# brkc_frm
 70
     0
 62
   220
  6
Continuous
370
    35
390
8A
1001
AcAecLayerStandard
1000

1000

  0
LAYER
  5
30F
102
{ACAD_XDICTIONARY
360
310
102
}
330
2
100
AcDbSymbolTableRecord
100
AcDbLayerTableRecord
  2
# brkt_dr
 70
     0
 62
   220
  6
Continuous
370
    35
390
8A
1001
AcAecLayerStandard
1000

1000

  0
LAYER
  5
313
102
{ACAD_XDICTIONARY
360
314
102
}
330
2
100
AcDbSymbolTableRecord
100
AcDbLayerTableRecord
  2
# shaft_frm
 70
     0
 62
   181
  6
Continuous
370
    35
390
8A
1001
AcAecLayerStandard
1000

1000

  0
LAYER
  5
357
102
{ACAD_XDICTIONARY
360
358
102
}
330
2
100
AcDbSymbolTableRecord
100
AcDbLayerTableRecord
  2
# shaft_dr
 70
     0
 62
   231
  6
Continuous
370
    35
390
8A
1001
AcAecLayerStandard
1000

1000

  0
LAYER
  5
37B
102
{ACAD_XDICTIONARY
360
37C
102
}
330
2
100
AcDbSymbolTableRecord
100
AcDbLayerTableRecord
  2
phantom
 70
     0
 62
     6
  6
JIS_09_15
370
    18
390
8A
1001
AcAecLayerStandard
1000

1000

  0
LAYER
  5
39F
102
{ACAD_XDICTIONARY
360
3A0
102
}
330
2
100
AcDbSymbolTableRecord
100
AcDbLayerTableRecord
  2
hatch
 70
     0
 62
     3
  6
Continuous
370
    18
390
8A
1001
AcAecLayerStandard
1000

1000

  0
LAYER
  5
3E0
102
{ACAD_XDICTIONARY
360
3E1
102
}
330
2
100
AcDbSymbolTableRecord
100
AcDbLayerTableRecord
  2
dim
 70
     0
 62
     2
  6
Continuous
370
    18
390
8A
1001
AcAecLayerStandard
1000

1000

  0
LAYER
  5
53C
102
{ACAD_XDICTIONARY
360
53D
102
}
330
2
100
AcDbSymbolTableRecord
100
AcDbLayerTableRecord
  2
text
 70
     0
 62
     3
  6
Continuous
370
    18
390
8A
1001
AcAecLayerStandard
1000

1000

  0
LAYER
  5
5C6
102
{ACAD_XDICTIONARY
360
5C7
102
}
330
2
100
AcDbSymbolTableRecord
100
AcDbLayerTableRecord
  2
guide
 70
     0
 62
     1
  6
Continuous
290
     0
370
    18
390
8A
1001
AcAecLayerStandard
1000

1000

  0
ENDTAB
  0
TABLE
  2
STYLE
  5
3
330
0
100
AcDbSymbolTable
 70
     4
  0
STYLE
  5
55
330
3
100
AcDbSymbolTableRecord
100
AcDbTextStyleTableRecord
  2
Standard
 70
     0
 40
0.0
 41
1.0
 50
0.0
 71
     0
 42
2.5
  3
txt
  4

  0
STYLE
  5
5A
330
3
100
AcDbSymbolTableRecord
100
AcDbTextStyleTableRecord
  2
Annotative
 70
     0
 40
0.0
 41
1.0
 50
0.0
 71
     0
 42
0.2
  3
txt
  4

1001
AcadAnnotative
1000
AnnotativeData
1002
{
1070
     1
1070
     1
1002
}
  0
STYLE
  5
76
330
3
100
AcDbSymbolTableRecord
100
AcDbTextStyleTableRecord
  2
ATOM
 70
     0
 40
0.0
 41
0.9
 50
0.0
 71
     0
 42
3.0
  3
txt.shx
  4
extfont.shx
1001
AcadAnnotative
1000
AnnotativeData
1002
{
1070
     1
1070
     1
1002
}
  0
STYLE
  5
77
330
3
100
AcDbSymbolTableRecord
100
AcDbTextStyleTableRecord
  2
VISION_STANDARD
 70
     0
 40
0.0
 41
0.6
 50
0.0
 71
     0
 42
3.2
  3
TXT
  4
BIGFONT
  0
ENDTAB
  0
TABLE
  2
VIEW
  5
6
330
0
100
AcDbSymbolTable
 70
     0
  0
ENDTAB
  0
TABLE
  2
UCS
  5
7
330
0
100
AcDbSymbolTable
 70
     0
  0
ENDTAB
  0
TABLE
  2
APPID
  5
9
330
0
100
AcDbSymbolTable
 70
    12
  0
APPID
  5
56
330
9
100
AcDbSymbolTableRecord
100
AcDbRegAppTableRecord
  2
ACAD
 70
     0
  0
APPID
  5
5E
330
9
100
AcDbSymbolTableRecord
100
AcDbRegAppTableRecord
  2
AcadAnnotative
 70
     0
  0
APPID
  5
74
330
9
100
AcDbSymbolTableRecord
100
AcDbRegAppTableRecord
  2
ACAD_PSEXT
 70
     0
  0
APPID
  5
86
330
9
100
AcDbSymbolTableRecord
100
AcDbRegAppTableRecord
  2
ACAD_DSTYLE_DIMBREAK
 70
     0
  0
APPID
  5
87
330
9
100
AcDbSymbolTableRecord
100
AcDbRegAppTableRecord
  2
ACAD_DSTYLE_DIMJAG
 70
     0
  0
APPID
  5
88
330
9
100
AcDbSymbolTableRecord
100
AcDbRegAppTableRecord
  2
ACAD_DSTYLE_DIMTALN
 70
     0
  0
APPID
  5
A1
330
9
100
AcDbSymbolTableRecord
100
AcDbRegAppTableRecord
  2
AcAecLayerStandard
 70
     0
  0
APPID
  5
A6
330
9
100
AcDbSymbolTableRecord
100
AcDbRegAppTableRecord
  2
AcDbBlockRepETag
 70
     0
  0
APPID
  5
579
330
9
100
AcDbSymbolTableRecord
100
AcDbRegAppTableRecord
  2
ACAD_MLEADERVER
 70
     0
  0
APPID
  5
9CA
330
9
100
AcDbSymbolTableRecord
100
AcDbRegAppTableRecord
  2
ACAD_EXEMPT_FROM_CAD_STANDARDS
 70
     0
  0
APPID
  5
9D6
330
9
100
AcDbSymbolTableRecord
100
AcDbRegAppTableRecord
  2
ACAD_NAV_VCDISPLAY
 70
     0
  0
APPID
  5
A1F
330
9
100
AcDbSymbolTableRecord
100
AcDbRegAppTableRecord
  2
DCO15
 70
     0
  0
ENDTAB
  0
TABLE
  2
DIMSTYLE
  5
A
330
0
100
AcDbSymbolTable
 70
     3
100
AcDbDimStyleTable
 71
     1
340
7E
  0
DIMSTYLE
105
58
330
A
100
AcDbSymbolTableRecord
100
AcDbDimStyleTableRecord
  2
Standard
 70
     0
340
55
  0
DIMSTYLE
105
59
330
A
100
AcDbSymbolTableRecord
100
AcDbDimStyleTableRecord
  2
Annotative
 70
     0
340
55
1001
AcadAnnotative
1000
AnnotativeData
1002
{
1070
     1
1070
     1
1002
}
  0
DIMSTYLE
105
7E
330
A
100
AcDbSymbolTableRecord
100
AcDbDimStyleTableRecord
  2
ATOM
 70
     0
 40
0.0
 41
2.0
 42
2.0
 43
7.0
 44
1.0
 47
0.1
 48
0.1
 73
     0
 74
     0
 77
     1
 78
     8
140
3.0
141
-2.5
143
0.03937007874016
146
0.4999999999999998
147
0.625
171
     3
172
     1
178
     3
271
     2
272
     2
274
     3
276
     2
279
     1
283
     0
284
     8
289
     0
340
76
341
80
342
80
1001
ACAD_DSTYLE_DIMBREAK
1070
   391
1040
3.75
1001
AcadAnnotative
1000
AnnotativeData
1002
{
1070
     1
1070
     1
1002
}
1001
ACAD_DSTYLE_DIMJAG
1070
   388
1040
1.5
1001
ACAD_DSTYLE_DIMTALN
1070
   392
1070
     0
  0
ENDTAB
  0
TABLE
  2
BLOCK_RECORD
  5
1
330
0
100
AcDbSymbolTable
 70
    20
  0
BLOCK_RECORD
  5
6C
102
{ACAD_XDICTIONARY
360
8FB
102
}
330
1
100
AcDbSymbolTableRecord
100
AcDbBlockTableRecord
  2
*Model_Space
340
6F
  0
BLOCK_RECORD
  5
68
330
1
100
AcDbSymbolTableRecord
100
AcDbBlockTableRecord
  2
*Paper_Space
340
6B
  0
BLOCK_RECORD
  5
70
330
1
100
AcDbSymbolTableRecord
100
AcDbBlockTableRecord
  2
*Paper_Space0
340
73
  0
BLOCK_RECORD
  5
80
330
1
100
AcDbSymbolTableRecord
100
AcDbBlockTableRecord
  2
_Open30
340
0
310
2800000020000000200000000100080000000000000400000000000000000000000000000000000000000000000080000080000000808000800000008000800080800000C0C0C000C0DCC000F0CAA6000020400000206000002080000020A0000020C0000020E00000400000004020000040400000406000004080000040A0
310
000040C0000040E00000600000006020000060400000606000006080000060A0000060C0000060E00000800000008020000080400000806000008080000080A0000080C0000080E00000A0000000A0200000A0400000A0600000A0800000A0A00000A0C00000A0E00000C0000000C0200000C0400000C0600000C0800000C0
310
A00000C0C00000C0E00000E0000000E0200000E0400000E0600000E0800000E0A00000E0C00000E0E00040000000400020004000400040006000400080004000A0004000C0004000E00040200000402020004020400040206000402080004020A0004020C0004020E000404000004040200040404000404060004040800040
310
40A0004040C0004040E00040600000406020004060400040606000406080004060A0004060C0004060E00040800000408020004080400040806000408080004080A0004080C0004080E00040A0000040A0200040A0400040A0600040A0800040A0A00040A0C00040A0E00040C0000040C0200040C0400040C0600040C08000
310
40C0A00040C0C00040C0E00040E0000040E0200040E0400040E0600040E0800040E0A00040E0C00040E0E00080000000800020008000400080006000800080008000A0008000C0008000E00080200000802020008020400080206000802080008020A0008020C0008020E00080400000804020008040400080406000804080
310
008040A0008040C0008040E00080600000806020008060400080606000806080008060A0008060C0008060E00080800000808020008080400080806000808080008080A0008080C0008080E00080A0000080A0200080A0400080A0600080A0800080A0A00080A0C00080A0E00080C0000080C0200080C0400080C0600080C0
310
800080C0A00080C0C00080C0E00080E0000080E0200080E0400080E0600080E0800080E0A00080E0C00080E0E000C0000000C0002000C0004000C0006000C0008000C000A000C000C000C000E000C0200000C0202000C0204000C0206000C0208000C020A000C020C000C020E000C0400000C0402000C0404000C0406000C0
310
408000C040A000C040C000C040E000C0600000C0602000C0604000C0606000C0608000C060A000C060C000C060E000C0800000C0802000C0804000C0806000C0808000C080A000C080C000C080E000C0A00000C0A02000C0A04000C0A06000C0A08000C0A0A000C0A0C000C0A0E000C0C00000C0C02000C0C04000C0C06000
310
C0C08000C0C0A000F0FBFF00A4A0A000808080000000FF0000FF000000FFFF00FF000000FF00FF00FFFF0000FFFFFF0000000000000000000000000000000000000000000000000000000000000000000000000000000000000000000000000000000000000000000000000000000000000000000000000000000000000000
310
00000000000000000000000000000000000000000000000000000000000000000000000000000000000000000000000000000000000000000000000000000000000000000000000000000000000000000000000000000000000000000000000000000000000000000000000000000000000000000000000000000000000000
310
000000000000000000000000000000000000000000000000000000000000000000000000000000000000000000000000000000FFFF0000000000000000000000000000000000000000000000000000000000000000FFFFFFFF0000000000000000000000000000000000000000000000000000000000000000FFFFFFFF0000
310
000000000000000000000000000000000000000000000000000000000000FFFFFF0000000000000000000000000000000000000000000000000000000000000000FFFFFFFF0000000000000000000000000000000000000000000000000000000000000000FFFFFF0000000000000000000000000000000000000000000000
310
000000000000000000FFFFFFFF0000000000000000000000000000000000000000000000000000000000000000FFFFFFFF00000000FFFFFFFFFFFFFFFFFFFFFFFFFFFFFFFFFFFFFFFFFFFFFFFFFFFFFFFFFFFF00000000000000000000000000000000000000000000000000FFFFFFFF000000000000000000000000000000
310
000000000000000000FFFFFFFF000000000000000000000000000000000000000000000000FFFFFFFF000000000000000000000000000000000000000000000000FFFFFFFF000000000000000000000000000000000000000000000000FFFFFFFF000000000000000000000000000000000000000000000000FFFFFFFF0000
310
0000000000000000000000000000000000000000000000FFFFFF0000000000000000000000000000000000000000000000000000000000000000000000000000000000000000000000000000000000000000000000000000000000000000000000000000000000000000000000000000000000000000000000000000000000
310
00000000000000000000000000000000000000000000000000000000000000000000000000000000000000000000000000000000000000000000000000000000000000000000000000000000000000000000000000000000000000000000000000000000000000000000000000000000000000000000000000000000000000
310
0000000000000000000000000000000000000000000000000000000000000000000000000000000000000000000000000000000000000000
102
{BLKREFS
331
977
331
978
331
984
331
985
331
991
331
992
331
99E
331
99F
331
9AB
331
9AC
331
9B4
331
9B5
331
901
331
902
331
90A
331
90B
331
913
331
914
331
921
331
922
331
929
331
92A
331
932
331
933
331
940
331
941
331
948
331
949
331
954
331
955
331
95C
331
95D
331
96A
331
96B
102
}
  0
BLOCK_RECORD
  5
541
330
1
100
AcDbSymbolTableRecord
100
AcDbBlockTableRecord
  2
_TagCircle
340
0
1001
ACAD
1000
DesignCenter Data
1002
{
1070
     1
1070
     4
1002
}
  0
BLOCK_RECORD
  5
5CB
330
1
100
AcDbSymbolTableRecord
100
AcDbBlockTableRecord
  2
*D3
340
0
  0
BLOCK_RECORD
  5
5D7
330
1
100
AcDbSymbolTableRecord
100
AcDbBlockTableRecord
  2
*D4
340
0
  0
BLOCK_RECORD
  5
5E3
330
1
100
AcDbSymbolTableRecord
100
AcDbBlockTableRecord
  2
*D5
340
0
  0
BLOCK_RECORD
  5
5EF
330
1
100
AcDbSymbolTableRecord
100
AcDbBlockTableRecord
  2
*D6
340
0
  0
BLOCK_RECORD
  5
5FF
330
1
100
AcDbSymbolTableRecord
100
AcDbBlockTableRecord
  2
*D7
340
0
  0
BLOCK_RECORD
  5
60B
330
1
100
AcDbSymbolTableRecord
100
AcDbBlockTableRecord
  2
*D8
340
0
  0
BLOCK_RECORD
  5
617
330
1
100
AcDbSymbolTableRecord
100
AcDbBlockTableRecord
  2
*D9
340
0
  0
BLOCK_RECORD
  5
627
330
1
100
AcDbSymbolTableRecord
100
AcDbBlockTableRecord
  2
*D10
340
0
  0
BLOCK_RECORD
  5
633
330
1
100
AcDbSymbolTableRecord
100
AcDbBlockTableRecord
  2
*D11
340
0
  0
BLOCK_RECORD
  5
63F
330
1
100
AcDbSymbolTableRecord
100
AcDbBlockTableRecord
  2
*D12
340
0
  0
BLOCK_RECORD
  5
64B
330
1
100
AcDbSymbolTableRecord
100
AcDbBlockTableRecord
  2
*D13
340
0
  0
BLOCK_RECORD
  5
65B
330
1
100
AcDbSymbolTableRecord
100
AcDbBlockTableRecord
  2
*D14
340
0
  0
BLOCK_RECORD
  5
66B
330
1
100
AcDbSymbolTableRecord
100
AcDbBlockTableRecord
  2
*D15
340
0
  0
BLOCK_RECORD
  5
67B
330
1
100
AcDbSymbolTableRecord
100
AcDbBlockTableRecord
  2
*D16
340
0
  0
BLOCK_RECORD
  5
68B
330
1
100
AcDbSymbolTableRecord
100
AcDbBlockTableRecord
  2
*D17
340
0
  0
BLOCK_RECORD
  5
69B
330
1
100
AcDbSymbolTableRecord
100
AcDbBlockTableRecord
  2
*D18
340
0
  0
BLOCK_RECORD
  5
6AB
330
1
100
AcDbSymbolTableRecord
100
AcDbBlockTableRecord
  2
*D19
340
0
  0
ENDTAB
  0
ENDSEC
  0
SECTION
  2
BLOCKS
  0
BLOCK
  5
6D
330
6C
100
AcDbEntity
  8
0
100
AcDbBlockBegin
  2
*Model_Space
 70
     0
 10
0.0
 20
0.0
 30
0.0
  3
*Model_Space
  1

  0
ENDBLK
  5
6E
330
6C
100
AcDbEntity
  8
0
100
AcDbBlockEnd
  0
BLOCK
  5
69
330
68
100
AcDbEntity
 67
     1
  8
0
100
AcDbBlockBegin
  2
*Paper_Space
 70
     0
 10
0.0
 20
0.0
 30
0.0
  3
*Paper_Space
  1

  0
ENDBLK
  5
6A
330
68
100
AcDbEntity
 67
     1
  8
0
100
AcDbBlockEnd
  0
BLOCK
  5
71
330
70
100
AcDbEntity
 67
     1
  8
0
100
AcDbBlockBegin
  2
*Paper_Space0
 70
     0
 10
0.0
 20
0.0
 30
0.0
  3
*Paper_Space0
  1

  0
ENDBLK
  5
72
330
70
100
AcDbEntity
 67
     1
  8
0
100
AcDbBlockEnd
  0
BLOCK
  5
81
330
80
100
AcDbEntity
  8
0
100
AcDbBlockBegin
  2
_Open30
 70
     0
 10
0.0
 20
0.0
 30
0.0
  3
_Open30
  1

  0
LINE
  5
82
330
80
100
AcDbEntity
  8
0
  6
ByBlock
 62
     0
370
    -2
100
AcDbLine
 10
-1.0
 20
0.26794919
 30
0.0
 11
0.0
 21
0.0
 31
0.0
  0
LINE
  5
83
330
80
100
AcDbEntity
  8
0
  6
ByBlock
 62
     0
370
    -2
100
AcDbLine
 10
0.0
 20
0.0
 30
0.0
 11
-1.0
 21
-0.26794919
 31
0.0
  0
LINE
  5
84
330
80
100
AcDbEntity
  8
0
  6
ByBlock
 62
     0
370
    -2
100
AcDbLine
 10
0.0
 20
0.0
 30
0.0
 11
-1.0
 21
0.0
 31
0.0
  0
ENDBLK
  5
85
330
80
100
AcDbEntity
  8
0
100
AcDbBlockEnd
  0
BLOCK
  5
542
330
541
100
AcDbEntity
  8
0
100
AcDbBlockBegin
  2
_TagCircle
 70
     2
 10
0.0
 20
0.0
 30
0.0
  3
_TagCircle
  1

  0
CIRCLE
  5
543
330
541
100
AcDbEntity
  8
0
  6
ByBlock
 62
     0
370
    -2
100
AcDbCircle
 10
0.0
 20
0.0
 30
0.0
 40
4.0
  0
ATTDEF
  5
544
330
541
100
AcDbEntity
  8
0
 62
     0
100
AcDbText
 10
-4.5
 20
-1.5
 30
0.0
 40
3.0
  1
タグ番号
 72
     1
 11
0.0
 21
-1.5
 31
0.0
100
AcDbAttributeDefinition
  3
タグ番号を入力
  2
タグ番号
 70
     0
  0
ENDBLK
  5
545
330
541
100
AcDbEntity
  8
0
100
AcDbBlockEnd
  0
BLOCK
  5
5CC
330
5CB
100
AcDbEntity
  8
0
100
AcDbBlockBegin
  2
*D3
 70
     1
 10
0.0
 20
0.0
 30
0.0
  3
*D3
  1

  0
LINE
  5
8FE
330
5CB
100
AcDbEntity
  8
dim
 62
     0
370
    -2
100
AcDbLine
 10
90.60254430883651
 20
392.3743080596103
 30
0.0
 11
90.60254430883651
 21
410.728566605602
 31
0.0
  0
LINE
  5
8FF
330
5CB
100
AcDbEntity
  8
dim
 62
     0
370
    -2
100
AcDbLine
 10
58.60254633837758
 20
392.3743080596103
 30
0.0
 11
58.60254633837758
 21
410.728566605602
 31
0.0
  0
LINE
  5
900
330
5CB
100
AcDbEntity
  8
dim
 62
     0
370
    -2
100
AcDbLine
 10
88.60254443568281
 20
409.7285666690252
 30
0.0
 11
60.60254621153127
 21
409.7285666690252
 31
0.0
  0
INSERT
  5
901
330
5CB
100
AcDbEntity
  8
dim
 62
     0
370
    -2
100
AcDbBlockReference
  2
_Open30
 10
90.60254430883651
 20
409.7285666690252
 30
0.0
 41
1.999999873153698
 42
1.999999873153698
 43
1.999999873153698
  0
INSERT
  5
902
330
5CB
100
AcDbEntity
  8
dim
 62
     0
370
    -2
100
AcDbBlockReference
  2
_Open30
 10
58.60254633837758
 20
409.7285666690252
 30
0.0
 41
1.999999873153698
 42
1.999999873153698
 43
1.999999873153698
 50
180.0
  0
MTEXT
  5
903
330
5CB
100
AcDbEntity
  8
dim
 62
     3
100
AcDbMText
 10
74.60254532360704
 20
411.853566534251
 30
0.0
 40
2.999999809730548
 41
0.0
 71
     5
 72
     1
  1
64
  7
ATOM
 73
     1
 44
1.0
1001
ACAD
1000
MTEXTBEGIN
1070
    73
1070
     1
1070
    44
1040
1.0
1070
    74
1070
     0
1000
MTEXTEND
  0
POINT
  5
904
330
5CB
100
AcDbEntity
  8
Defpoints
 62
     0
100
AcDbPoint
 10
90.60254430883651
 20
390.3743081864566
 30
0.0
  0
POINT
  5
905
330
5CB
100
AcDbEntity
  8
Defpoints
 62
     0
100
AcDbPoint
 10
58.60254633837758
 20
390.3743081864566
 30
0.0
  0
POINT
  5
906
330
5CB
100
AcDbEntity
  8
Defpoints
 62
     0
100
AcDbPoint
 10
58.60254633837758
 20
409.7285666690252
 30
0.0
  0
ENDBLK
  5
5CD
330
5CB
100
AcDbEntity
  8
0
100
AcDbBlockEnd
  0
BLOCK
  5
5D8
330
5D7
100
AcDbEntity
  8
0
100
AcDbBlockBegin
  2
*D4
 70
     1
 10
0.0
 20
0.0
 30
0.0
  3
*D4
  1

  0
LINE
  5
907
330
5D7
100
AcDbEntity
  8
dim
 62
     0
370
    -2
100
AcDbLine
 10
58.10254637008892
 20
391.8743080913218
 30
0.0
 11
44.42307518145525
 21
391.8743080913218
 31
0.0
  0
LINE
  5
908
330
5D7
100
AcDbEntity
  8
dim
 62
     0
370
    -2
100
AcDbLine
 10
58.10254637008892
 20
381.8743087255533
 30
0.0
 11
44.42307518145525
 21
381.8743087255533
 31
0.0
  0
LINE
  5
909
330
5D7
100
AcDbEntity
  8
dim
 62
     0
370
    -2
100
AcDbLine
 10
45.4230751180321
 20
389.8743082181681
 30
0.0
 11
45.4230751180321
 21
383.874308598707
 31
0.0
  0
INSERT
  5
90A
330
5D7
100
AcDbEntity
  8
dim
 62
     0
370
    -2
100
AcDbBlockReference
  2
_Open30
 10
45.4230751180321
 20
391.8743080913218
 30
0.0
 41
1.999999873153698
 42
1.999999873153698
 43
1.999999873153698
 50
90.0
  0
INSERT
  5
90B
330
5D7
100
AcDbEntity
  8
dim
 62
     0
370
    -2
100
AcDbBlockReference
  2
_Open30
 10
45.4230751180321
 20
381.8743087255533
 30
0.0
 41
1.999999873153698
 42
1.999999873153698
 43
1.999999873153698
 50
270.0
  0
MTEXT
  5
90C
330
5D7
100
AcDbEntity
  8
dim
 62
     3
100
AcDbMText
 10
43.29807525280624
 20
386.8743084084376
 30
0.0
 40
2.999999809730548
 41
0.0
 71
     5
 72
     1
  1
20
  7
ATOM
 11
0.0000000000000001
 21
1.0
 31
0.0
 73
     1
 44
1.0
1001
ACAD
1000
MTEXTBEGIN
1070
    73
1070
     1
1070
    44
1040
1.0
1070
    74
1070
     0
1000
MTEXTEND
  0
POINT
  5
90D
330
5D7
100
AcDbEntity
  8
Defpoints
 62
     0
100
AcDbPoint
 10
60.10254624324261
 20
391.8743080913218
 30
0.0
  0
POINT
  5
90E
330
5D7
100
AcDbEntity
  8
Defpoints
 62
     0
100
AcDbPoint
 10
60.10254624324261
 20
381.8743087255533
 30
0.0
  0
POINT
  5
90F
330
5D7
100
AcDbEntity
  8
Defpoints
 62
     0
100
AcDbPoint
 10
45.4230751180321
 20
381.8743087255533
 30
0.0
  0
ENDBLK
  5
5D9
330
5D7
100
AcDbEntity
  8
0
100
AcDbBlockEnd
  0
BLOCK
  5
5E4
330
5E3
100
AcDbEntity
  8
0
100
AcDbBlockBegin
  2
*D5
 70
     1
 10
0.0
 20
0.0
 30
0.0
  3
*D5
  1

  0
LINE
  5
910
330
5E3
100
AcDbEntity
  8
dim
 62
     0
370
    -2
100
AcDbLine
 10
62.6025460846845
 20
392.9310350928009
 30
0.0
 11
62.6025460846845
 21
402.2925161875055
 31
0.0
  0
LINE
  5
911
330
5E3
100
AcDbEntity
  8
dim
 62
     0
370
    -2
100
AcDbLine
 10
86.60254456190434
 20
392.9430553856627
 30
0.0
 11
86.60254456190434
 21
402.2925161875055
 31
0.0
  0
LINE
  5
912
330
5E3
100
AcDbEntity
  8
dim
 62
     0
370
    -2
100
AcDbLine
 10
64.60254595783819
 20
401.2925162509286
 30
0.0
 11
84.60254468875062
 21
401.2925162509286
 31
0.0
  0
INSERT
  5
913
330
5E3
100
AcDbEntity
  8
dim
 62
     0
370
    -2
100
AcDbBlockReference
  2
_Open30
 10
62.6025460846845
 20
401.2925162509286
 30
0.0
 41
1.999999873153698
 42
1.999999873153698
 43
1.999999873153698
 50
180.0
  0
INSERT
  5
914
330
5E3
100
AcDbEntity
  8
dim
 62
     0
370
    -2
100
AcDbBlockReference
  2
_Open30
 10
86.60254456190434
 20
401.2925162509286
 30
0.0
 41
1.999999873153698
 42
1.999999873153698
 43
1.999999873153698
  0
MTEXT
  5
915
330
5E3
100
AcDbEntity
  8
dim
 62
     3
100
AcDbMText
 10
74.6025453232944
 20
403.4175161161543
 30
0.0
 40
2.999999809730548
 41
0.0
 71
     5
 72
     1
  1
48
  7
ATOM
 73
     1
 44
1.0
1001
ACAD
1000
MTEXTBEGIN
1070
    73
1070
     1
1070
    44
1040
1.0
1070
    74
1070
     0
1000
MTEXTEND
  0
POINT
  5
916
330
5E3
100
AcDbEntity
  8
Defpoints
 62
     0
100
AcDbPoint
 10
62.6025460846845
 20
390.9310352196472
 30
0.0
  0
POINT
  5
917
330
5E3
100
AcDbEntity
  8
Defpoints
 62
     0
100
AcDbPoint
 10
86.60254456190434
 20
390.943055512509
 30
0.0
  0
POINT
  5
918
330
5E3
100
AcDbEntity
  8
Defpoints
 62
     0
100
AcDbPoint
 10
86.60254456190434
 20
401.2925162509286
 30
0.0
  0
ENDBLK
  5
5E5
330
5E3
100
AcDbEntity
  8
0
100
AcDbBlockEnd
  0
BLOCK
  5
5F0
330
5EF
100
AcDbEntity
  8
0
100
AcDbBlockBegin
  2
*D6
 70
     1
 10
0.0
 20
0.0
 30
0.0
  3
*D6
  1

  0
LINE
  5
919
330
5EF
100
AcDbEntity
  8
dim
 62
     0
370
    -2
100
AcDbLine
 10
129.3099568603911
 20
392.3743080726094
 30
0.0
 11
138.4223497428074
 21
392.3743080726094
 31
0.0
  0
LINE
  5
91A
330
5EF
100
AcDbEntity
  8
dim
 62
     0
370
    -2
100
AcDbLine
 10
129.3099568603911
 20
381.374308770264
 30
0.0
 11
138.4223497428074
 21
381.374308770264
 31
0.0
  0
LINE
  5
91B
330
5EF
100
AcDbEntity
  8
dim
 62
     0
370
    -2
100
AcDbLine
 10
137.4223498062306
 20
394.3743079457631
 30
0.0
 11
137.4223498062306
 21
396.3743078189168
 31
0.0
  0
LINE
  5
91C
330
5EF
100
AcDbEntity
  8
dim
 62
     0
370
    -2
100
AcDbLine
 10
137.4223498062306
 20
379.3743088971103
 30
0.0
 11
137.4223498062306
 21
377.3743090239566
 31
0.0
  0
LINE
  5
91D
330
5EF
100
AcDbEntity
  8
dim
 62
     0
370
    -2
100
AcDbLine
 10
137.4223498062306
 20
402.666245576274
 30
0.0
 11
137.4223498062306
 21
392.3743080726094
 31
0.0
  0
MTEXT
  5
91E
330
5EF
100
AcDbEntity
  8
dim
 62
     3
100
AcDbMText
 10
135.2973499410047
 20
399.7912457586157
 30
0.0
 40
2.999999809730548
 41
0.0
 71
     5
 72
     1
  1
22
  7
ATOM
 11
0.0000000000000001
 21
1.0
 31
0.0
 73
     1
 44
1.0
1001
ACAD
1000
MTEXTBEGIN
1070
    73
1070
     1
1070
    44
1040
1.0
1070
    74
1070
     0
1000
MTEXTEND
  0
LINE
  5
91F
330
5EF
100
AcDbEntity
  8
dim
 62
     0
370
    -2
100
AcDbLine
 10
137.4223498062306
 20
392.3743080726094
 30
0.0
 11
137.4223498062306
 21
381.374308770264
 31
0.0
  0
LINE
  5
920
330
5EF
100
AcDbEntity
  8
dim
 62
     0
370
    -2
100
AcDbLine
 10
137.4223498062306
 20
392.3743080726094
 30
0.0
 11
137.4223498062306
 21
381.374308770264
 31
0.0
  0
INSERT
  5
921
330
5EF
100
AcDbEntity
  8
dim
 62
     0
370
    -2
100
AcDbBlockReference
  2
_Open30
 10
137.4223498062306
 20
392.3743080726094
 30
0.0
 41
1.999999873153698
 42
1.999999873153698
 43
1.999999873153698
 50
270.0
  0
INSERT
  5
922
330
5EF
100
AcDbEntity
  8
dim
 62
     0
370
    -2
100
AcDbBlockReference
  2
_Open30
 10
137.4223498062306
 20
381.374308770264
 30
0.0
 41
1.999999873153698
 42
1.999999873153698
 43
1.999999873153698
 50
90.0
  0
POINT
  5
923
330
5EF
100
AcDbEntity
  8
Defpoints
 62
     0
100
AcDbPoint
 10
127.3099569872374
 20
392.3743080726095
 30
0.0
  0
POINT
  5
924
330
5EF
100
AcDbEntity
  8
Defpoints
 62
     0
100
AcDbPoint
 10
127.3099569872374
 20
381.3743087702641
 30
0.0
  0
POINT
  5
925
330
5EF
100
AcDbEntity
  8
Defpoints
 62
     0
100
AcDbPoint
 10
137.4223498062306
 20
381.374308770264
 30
0.0
  0
ENDBLK
  5
5F1
330
5EF
100
AcDbEntity
  8
0
100
AcDbBlockEnd
  0
BLOCK
  5
600
330
5FF
100
AcDbEntity
  8
0
100
AcDbBlockBegin
  2
*D7
 70
     1
 10
0.0
 20
0.0
 30
0.0
  3
*D7
  1

  0
LINE
  5
926
330
5FF
100
AcDbEntity
  8
dim
 62
     0
370
    -2
100
AcDbLine
 10
74.60254532360659
 20
376.624309071774
 30
0.0
 11
74.60254532360659
 21
359.3223103953552
 31
0.0
  0
LINE
  5
927
330
5FF
100
AcDbEntity
  8
dim
 62
     0
370
    -2
100
AcDbLine
 10
190.6025379630214
 20
378.3260619010936
 30
0.0
 11
190.6025379630214
 21
359.3223103953552
 31
0.0
  0
LINE
  5
928
330
5FF
100
AcDbEntity
  8
dim
 62
     0
370
    -2
100
AcDbLine
 10
76.6025451967603
 20
360.322310331932
 30
0.0
 11
188.6025380898677
 21
360.322310331932
 31
0.0
  0
INSERT
  5
929
330
5FF
100
AcDbEntity
  8
dim
 62
     0
370
    -2
100
AcDbBlockReference
  2
_Open30
 10
74.60254532360659
 20
360.322310331932
 30
0.0
 41
1.999999873153698
 42
1.999999873153698
 43
1.999999873153698
 50
180.0
  0
INSERT
  5
92A
330
5FF
100
AcDbEntity
  8
dim
 62
     0
370
    -2
100
AcDbBlockReference
  2
_Open30
 10
190.6025379630214
 20
360.322310331932
 30
0.0
 41
1.999999873153698
 42
1.999999873153698
 43
1.999999873153698
  0
MTEXT
  5
92B
330
5FF
100
AcDbEntity
  8
dim
 62
     3
100
AcDbMText
 10
132.602541643314
 20
362.4473101971578
 30
0.0
 40
2.999999809730548
 41
0.0
 71
     5
 72
     1
  1
232（最短時）
  7
ATOM
 73
     1
 44
1.0
1001
ACAD
1000
MTEXTBEGIN
1070
    73
1070
     1
1070
    44
1040
1.0
1070
    74
1070
     0
1000
MTEXTEND
  0
POINT
  5
92C
330
5FF
100
AcDbEntity
  8
Defpoints
 62
     0
100
AcDbPoint
 10
74.60254532360659
 20
378.6243089449276
 30
0.0
  0
POINT
  5
92D
330
5FF
100
AcDbEntity
  8
Defpoints
 62
     0
100
AcDbPoint
 10
190.6025379630214
 20
380.3260617742473
 30
0.0
  0
POINT
  5
92E
330
5FF
100
AcDbEntity
  8
Defpoints
 62
     0
100
AcDbPoint
 10
190.6025379630214
 20
360.322310331932
 30
0.0
  0
ENDBLK
  5
601
330
5FF
100
AcDbEntity
  8
0
100
AcDbBlockEnd
  0
BLOCK
  5
60C
330
60B
100
AcDbEntity
  8
0
100
AcDbBlockBegin
  2
*D8
 70
     1
 10
0.0
 20
0.0
 30
0.0
  3
*D8
  1

  0
LINE
  5
92F
330
60B
100
AcDbEntity
  8
dim
 62
     0
370
    -2
100
AcDbLine
 10
74.60254532360659
 20
376.624309071774
 30
0.0
 11
74.60254532360659
 21
341.9925767309336
 31
0.0
  0
LINE
  5
930
330
60B
100
AcDbEntity
  8
dim
 62
     0
370
    -2
100
AcDbLine
 10
269.10253300863
 20
378.3260619010936
 30
0.0
 11
269.10253300863
 21
341.9925767309336
 31
0.0
  0
LINE
  5
931
330
60B
100
AcDbEntity
  8
dim
 62
     0
370
    -2
100
AcDbLine
 10
76.6025451967603
 20
342.9925766675105
 30
0.0
 11
267.1025331354763
 21
342.9925766675105
 31
0.0
  0
INSERT
  5
932
330
60B
100
AcDbEntity
  8
dim
 62
     0
370
    -2
100
AcDbBlockReference
  2
_Open30
 10
74.60254532360659
 20
342.9925766675105
 30
0.0
 41
1.999999873153698
 42
1.999999873153698
 43
1.999999873153698
 50
180.0
  0
INSERT
  5
933
330
60B
100
AcDbEntity
  8
dim
 62
     0
370
    -2
100
AcDbBlockReference
  2
_Open30
 10
269.10253300863
 20
342.9925766675105
 30
0.0
 41
1.999999873153698
 42
1.999999873153698
 43
1.999999873153698
  0
MTEXT
  5
934
330
60B
100
AcDbEntity
  8
dim
 62
     3
100
AcDbMText
 10
171.8525391661183
 20
345.1175765327362
 30
0.0
 40
2.999999809730548
 41
0.0
 71
     5
 72
     1
  1
389（最長時）
  7
ATOM
 73
     1
 44
1.0
1001
ACAD
1000
MTEXTBEGIN
1070
    73
1070
     1
1070
    44
1040
1.0
1070
    74
1070
     0
1000
MTEXTEND
  0
POINT
  5
935
330
60B
100
AcDbEntity
  8
Defpoints
 62
     0
100
AcDbPoint
 10
74.60254532360659
 20
378.6243089449276
 30
0.0
  0
POINT
  5
936
330
60B
100
AcDbEntity
  8
Defpoints
 62
     0
100
AcDbPoint
 10
269.10253300863
 20
380.3260617742473
 30
0.0
  0
POINT
  5
937
330
60B
100
AcDbEntity
  8
Defpoints
 62
     0
100
AcDbPoint
 10
269.10253300863
 20
342.9925766675105
 30
0.0
  0
ENDBLK
  5
60D
330
60B
100
AcDbEntity
  8
0
100
AcDbBlockEnd
  0
BLOCK
  5
618
330
617
100
AcDbEntity
  8
0
100
AcDbBlockBegin
  2
*D9
 70
     1
 10
0.0
 20
0.0
 30
0.0
  3
*D9
  1

  0
LINE
  5
938
330
617
100
AcDbEntity
  8
dim
 62
     0
370
    -2
100
AcDbLine
 10
209.6025367459815
 20
381.8743087380525
 30
0.0
 11
225.4079491233606
 21
381.8743087380525
 31
0.0
  0
LINE
  5
939
330
617
100
AcDbEntity
  8
dim
 62
     0
370
    -2
100
AcDbLine
 10
209.6025367459815
 20
391.874308103821
 30
0.0
 11
225.4079491233606
 21
391.874308103821
 31
0.0
  0
LINE
  5
93A
330
617
100
AcDbEntity
  8
dim
 62
     0
370
    -2
100
AcDbLine
 10
224.4079491867839
 20
379.8743088648988
 30
0.0
 11
224.4079491867839
 21
377.8743089917451
 31
0.0
  0
LINE
  5
93B
330
617
100
AcDbEntity
  8
dim
 62
     0
370
    -2
100
AcDbLine
 10
224.4079491867839
 20
393.8743079769747
 30
0.0
 11
224.4079491867839
 21
395.8743078501285
 31
0.0
  0
LINE
  5
93C
330
617
100
AcDbEntity
  8
dim
 62
     0
370
    -2
100
AcDbLine
 10
224.4079491867839
 20
401.4255198061396
 30
0.0
 11
224.4079491867839
 21
391.874308103821
 31
0.0
  0
MTEXT
  5
93D
330
617
100
AcDbEntity
  8
dim
 62
     3
100
AcDbMText
 10
222.2829493215579
 20
398.775519974211
 30
0.0
 40
2.999999809730548
 41
0.0
 71
     5
 72
     1
  1
20
  7
ATOM
 11
0.0000000000000001
 21
1.0
 31
0.0
 73
     1
 44
1.0
1001
ACAD
1000
MTEXTBEGIN
1070
    73
1070
     1
1070
    44
1040
1.0
1070
    74
1070
     0
1000
MTEXTEND
  0
LINE
  5
93E
330
617
100
AcDbEntity
  8
dim
 62
     0
370
    -2
100
AcDbLine
 10
224.4079491867839
 20
381.8743087380525
 30
0.0
 11
224.4079491867839
 21
391.874308103821
 31
0.0
  0
LINE
  5
93F
330
617
100
AcDbEntity
  8
dim
 62
     0
370
    -2
100
AcDbLine
 10
224.4079491867839
 20
381.8743087380525
 30
0.0
 11
224.4079491867839
 21
391.874308103821
 31
0.0
  0
INSERT
  5
940
330
617
100
AcDbEntity
  8
dim
 62
     0
370
    -2
100
AcDbBlockReference
  2
_Open30
 10
224.4079491867839
 20
381.8743087380525
 30
0.0
 41
1.999999873153698
 42
1.999999873153698
 43
1.999999873153698
 50
90.0
  0
INSERT
  5
941
330
617
100
AcDbEntity
  8
dim
 62
     0
370
    -2
100
AcDbBlockReference
  2
_Open30
 10
224.4079491867839
 20
391.874308103821
 30
0.0
 41
1.999999873153698
 42
1.999999873153698
 43
1.999999873153698
 50
270.0
  0
POINT
  5
942
330
617
100
AcDbEntity
  8
Defpoints
 62
     0
100
AcDbPoint
 10
207.6025368728279
 20
381.8743087380525
 30
0.0
  0
POINT
  5
943
330
617
100
AcDbEntity
  8
Defpoints
 62
     0
100
AcDbPoint
 10
207.6025368728279
 20
391.874308103821
 30
0.0
  0
POINT
  5
944
330
617
100
AcDbEntity
  8
Defpoints
 62
     0
100
AcDbPoint
 10
224.4079491867839
 20
391.874308103821
 30
0.0
  0
ENDBLK
  5
619
330
617
100
AcDbEntity
  8
0
100
AcDbBlockEnd
  0
BLOCK
  5
628
330
627
100
AcDbEntity
  8
0
100
AcDbBlockBegin
  2
*D10
 70
     1
 10
0.0
 20
0.0
 30
0.0
  3
*D10
  1

  0
LINE
  5
945
330
627
100
AcDbEntity
  8
dim
 62
     0
370
    -2
100
AcDbLine
 10
202.1025372216554
 20
389.5827273441603
 30
0.0
 11
202.1025372216554
 21
402.2925161875055
 31
0.0
  0
LINE
  5
946
330
627
100
AcDbEntity
  8
dim
 62
     0
370
    -2
100
AcDbLine
 10
190.6025379630214
 20
395.9413751423748
 30
0.0
 11
190.6025379630214
 21
402.2925161875055
 31
0.0
  0
LINE
  5
947
330
627
100
AcDbEntity
  8
dim
 62
     0
370
    -2
100
AcDbLine
 10
200.1025373485017
 20
401.2925162509286
 30
0.0
 11
192.6025378361751
 21
401.2925162509286
 31
0.0
  0
INSERT
  5
948
330
627
100
AcDbEntity
  8
dim
 62
     0
370
    -2
100
AcDbBlockReference
  2
_Open30
 10
202.1025372216554
 20
401.2925162509286
 30
0.0
 41
1.999999873153698
 42
1.999999873153698
 43
1.999999873153698
  0
INSERT
  5
949
330
627
100
AcDbEntity
  8
dim
 62
     0
370
    -2
100
AcDbBlockReference
  2
_Open30
 10
190.6025379630214
 20
401.2925162509286
 30
0.0
 41
1.999999873153698
 42
1.999999873153698
 43
1.999999873153698
 50
180.0
  0
MTEXT
  5
94A
330
627
100
AcDbEntity
  8
dim
 62
     3
100
AcDbMText
 10
196.3525375923384
 20
403.4175161161543
 30
0.0
 40
2.999999809730548
 41
0.0
 71
     5
 72
     1
  1
23
  7
ATOM
 73
     1
 44
1.0
1001
ACAD
1000
MTEXTBEGIN
1070
    73
1070
     1
1070
    44
1040
1.0
1070
    74
1070
     0
1000
MTEXTEND
  0
POINT
  5
94B
330
627
100
AcDbEntity
  8
Defpoints
 62
     0
100
AcDbPoint
 10
202.1025372216554
 20
387.5827274710066
 30
0.0
  0
POINT
  5
94C
330
627
100
AcDbEntity
  8
Defpoints
 62
     0
100
AcDbPoint
 10
190.6025379630214
 20
393.9413752692211
 30
0.0
  0
POINT
  5
94D
330
627
100
AcDbEntity
  8
Defpoints
 62
     0
100
AcDbPoint
 10
190.6025379630214
 20
401.2925162509286
 30
0.0
  0
ENDBLK
  5
629
330
627
100
AcDbEntity
  8
0
100
AcDbBlockEnd
  0
BLOCK
  5
634
330
633
100
AcDbEntity
  8
0
100
AcDbBlockBegin
  2
*D11
 70
     1
 10
0.0
 20
0.0
 30
0.0
  3
*D11
  1

  0
LINE
  5
94E
330
633
100
AcDbEntity
  8
dim
 62
     0
370
    -2
100
AcDbLine
 10
202.1025372216554
 20
389.5827273441603
 30
0.0
 11
202.1025372216554
 21
402.2925161875055
 31
0.0
  0
LINE
  5
94F
330
633
100
AcDbEntity
  8
dim
 62
     0
370
    -2
100
AcDbLine
 10
206.1025369679628
 20
393.6129222150526
 30
0.0
 11
206.1025369679628
 21
402.2925161875055
 31
0.0
  0
LINE
  5
950
330
633
100
AcDbEntity
  8
dim
 62
     0
370
    -2
100
AcDbLine
 10
200.1025373485017
 20
401.2925162509286
 30
0.0
 11
198.102537475348
 21
401.2925162509286
 31
0.0
  0
LINE
  5
951
330
633
100
AcDbEntity
  8
dim
 62
     0
370
    -2
100
AcDbLine
 10
208.1025368411165
 20
401.2925162509286
 30
0.0
 11
210.1025367142702
 21
401.2925162509286
 31
0.0
  0
MTEXT
  5
952
330
633
100
AcDbEntity
  8
dim
 62
     3
100
AcDbMText
 10
204.1025370948091
 20
403.4175161161543
 30
0.0
 40
2.999999809730548
 41
0.0
 71
     5
 72
     1
  1
8
  7
ATOM
 73
     1
 44
1.0
1001
ACAD
1000
MTEXTBEGIN
1070
    73
1070
     1
1070
    44
1040
1.0
1070
    74
1070
     0
1000
MTEXTEND
  0
LINE
  5
953
330
633
100
AcDbEntity
  8
dim
 62
     0
370
    -2
100
AcDbLine
 10
202.1025372216554
 20
401.2925162509286
 30
0.0
 11
206.1025369679628
 21
401.2925162509286
 31
0.0
  0
INSERT
  5
954
330
633
100
AcDbEntity
  8
dim
 62
     0
370
    -2
100
AcDbBlockReference
  2
_Open30
 10
202.1025372216554
 20
401.2925162509286
 30
0.0
 41
1.999999873153698
 42
1.999999873153698
 43
1.999999873153698
  0
INSERT
  5
955
330
633
100
AcDbEntity
  8
dim
 62
     0
370
    -2
100
AcDbBlockReference
  2
_Open30
 10
206.1025369679628
 20
401.2925162509286
 30
0.0
 41
1.999999873153698
 42
1.999999873153698
 43
1.999999873153698
 50
180.0
  0
POINT
  5
956
330
633
100
AcDbEntity
  8
Defpoints
 62
     0
100
AcDbPoint
 10
202.1025372216554
 20
387.5827274710066
 30
0.0
  0
POINT
  5
957
330
633
100
AcDbEntity
  8
Defpoints
 62
     0
100
AcDbPoint
 10
206.1025369679628
 20
391.6129223418991
 30
0.0
  0
POINT
  5
958
330
633
100
AcDbEntity
  8
Defpoints
 62
     0
100
AcDbPoint
 10
206.1025369679628
 20
401.2925162509286
 30
0.0
  0
ENDBLK
  5
635
330
633
100
AcDbEntity
  8
0
100
AcDbBlockEnd
  0
BLOCK
  5
640
330
63F
100
AcDbEntity
  8
0
100
AcDbBlockBegin
  2
*D12
 70
     1
 10
0.0
 20
0.0
 30
0.0
  3
*D12
  1

  0
LINE
  5
959
330
63F
100
AcDbEntity
  8
dim
 62
     0
370
    -2
100
AcDbLine
 10
209.1025367776933
 20
392.3743080721095
 30
0.0
 11
209.1025367776933
 21
410.728566605602
 31
0.0
  0
LINE
  5
95A
330
63F
100
AcDbEntity
  8
dim
 62
     0
370
    -2
100
AcDbLine
 10
190.6025379630214
 20
395.9413751423748
 30
0.0
 11
190.6025379630214
 21
410.728566605602
 31
0.0
  0
LINE
  5
95B
330
63F
100
AcDbEntity
  8
dim
 62
     0
370
    -2
100
AcDbLine
 10
207.1025369045396
 20
409.7285666690252
 30
0.0
 11
192.6025378361751
 21
409.7285666690252
 31
0.0
  0
INSERT
  5
95C
330
63F
100
AcDbEntity
  8
dim
 62
     0
370
    -2
100
AcDbBlockReference
  2
_Open30
 10
209.1025367776933
 20
409.7285666690252
 30
0.0
 41
1.999999873153698
 42
1.999999873153698
 43
1.999999873153698
  0
INSERT
  5
95D
330
63F
100
AcDbEntity
  8
dim
 62
     0
370
    -2
100
AcDbBlockReference
  2
_Open30
 10
190.6025379630214
 20
409.7285666690252
 30
0.0
 41
1.999999873153698
 42
1.999999873153698
 43
1.999999873153698
 50
180.0
  0
MTEXT
  5
95E
330
63F
100
AcDbEntity
  8
dim
 62
     3
100
AcDbMText
 10
199.8525373703573
 20
411.853566534251
 30
0.0
 40
2.999999809730548
 41
0.0
 71
     5
 72
     1
  1
37
  7
ATOM
 73
     1
 44
1.0
1001
ACAD
1000
MTEXTBEGIN
1070
    73
1070
     1
1070
    44
1040
1.0
1070
    74
1070
     0
1000
MTEXTEND
  0
POINT
  5
95F
330
63F
100
AcDbEntity
  8
Defpoints
 62
     0
100
AcDbPoint
 10
209.1025367776933
 20
390.3743081989558
 30
0.0
  0
POINT
  5
960
330
63F
100
AcDbEntity
  8
Defpoints
 62
     0
100
AcDbPoint
 10
190.6025379630214
 20
393.9413752692211
 30
0.0
  0
POINT
  5
961
330
63F
100
AcDbEntity
  8
Defpoints
 62
     0
100
AcDbPoint
 10
190.6025379630214
 20
409.7285666690252
 30
0.0
  0
ENDBLK
  5
641
330
63F
100
AcDbEntity
  8
0
100
AcDbBlockEnd
  0
BLOCK
  5
64C
330
64B
100
AcDbEntity
  8
0
100
AcDbBlockBegin
  2
*D13
 70
     1
 10
0.0
 20
0.0
 30
0.0
  3
*D13
  1

  0
LINE
  5
962
330
64B
100
AcDbEntity
  8
dim
 62
     0
370
    -2
100
AcDbLine
 10
206.8058273918582
 20
384.8743085477831
 30
0.0
 11
217.7155201308101
 21
384.8743085477831
 31
0.0
  0
LINE
  5
963
330
64B
100
AcDbEntity
  8
dim
 62
     0
370
    -2
100
AcDbLine
 10
210.6441082209222
 20
388.8743082940905
 30
0.0
 11
217.7155201308101
 21
388.8743082940905
 31
0.0
  0
LINE
  5
964
330
64B
100
AcDbEntity
  8
dim
 62
     0
370
    -2
100
AcDbLine
 10
216.7155201942332
 20
382.8743086746294
 30
0.0
 11
216.7155201942332
 21
380.8743088014757
 31
0.0
  0
LINE
  5
965
330
64B
100
AcDbEntity
  8
dim
 62
     0
370
    -2
100
AcDbLine
 10
216.7155201942332
 20
390.8743081672442
 30
0.0
 11
216.7155201942332
 21
392.8743080403979
 31
0.0
  0
LINE
  5
966
330
64B
100
AcDbEntity
  8
dim
 62
     0
370
    -2
100
AcDbLine
 10
216.7155201942332
 20
399.2194431291032
 30
0.0
 11
216.7155201942332
 21
388.8743082940905
 31
0.0
  0
MTEXT
  5
967
330
64B
100
AcDbEntity
  8
dim
 62
     3
100
AcDbMText
 10
214.5905203290074
 20
397.6944432258235
 30
0.0
 40
2.999999809730548
 41
0.0
 71
     5
 72
     1
  1
8
  7
ATOM
 11
0.0000000000000001
 21
1.0
 31
0.0
 73
     1
 44
1.0
1001
ACAD
1000
MTEXTBEGIN
1070
    73
1070
     1
1070
    44
1040
1.0
1070
    74
1070
     0
1000
MTEXTEND
  0
LINE
  5
968
330
64B
100
AcDbEntity
  8
dim
 62
     0
370
    -2
100
AcDbLine
 10
216.7155201942332
 20
384.8743085477831
 30
0.0
 11
216.7155201942332
 21
388.8743082940905
 31
0.0
  0
LINE
  5
969
330
64B
100
AcDbEntity
  8
dim
 62
     0
370
    -2
100
AcDbLine
 10
216.7155201942332
 20
384.8743085477831
 30
0.0
 11
216.7155201942332
 21
388.8743082940905
 31
0.0
  0
INSERT
  5
96A
330
64B
100
AcDbEntity
  8
dim
 62
     0
370
    -2
100
AcDbBlockReference
  2
_Open30
 10
216.7155201942332
 20
384.8743085477831
 30
0.0
 41
1.999999873153698
 42
1.999999873153698
 43
1.999999873153698
 50
90.0
  0
INSERT
  5
96B
330
64B
100
AcDbEntity
  8
dim
 62
     0
370
    -2
100
AcDbBlockReference
  2
_Open30
 10
216.7155201942332
 20
388.8743082940905
 30
0.0
 41
1.999999873153698
 42
1.999999873153698
 43
1.999999873153698
 50
270.0
  0
POINT
  5
96C
330
64B
100
AcDbEntity
  8
Defpoints
 62
     0
100
AcDbPoint
 10
204.8058275187045
 20
384.8743085477831
 30
0.0
  0
POINT
  5
96D
330
64B
100
AcDbEntity
  8
Defpoints
 62
     0
100
AcDbPoint
 10
208.6441083477684
 20
388.8743082940905
 30
0.0
  0
POINT
  5
96E
330
64B
100
AcDbEntity
  8
Defpoints
 62
     0
100
AcDbPoint
 10
216.7155201942332
 20
388.8743082940905
 30
0.0
  0
ENDBLK
  5
64D
330
64B
100
AcDbEntity
  8
0
100
AcDbBlockEnd
  0
BLOCK
  5
65C
330
65B
100
AcDbEntity
  8
0
100
AcDbBlockBegin
  2
*D14
 70
     1
 10
0.0
 20
0.0
 30
0.0
  3
*D14
  1

  0
LINE
  5
96F
330
65B
100
AcDbEntity
  8
dim
 62
     0
370
    -2
100
AcDbLine
 10
249.073223863817
 20
382.3743087063409
 30
0.0
 11
241.3238876135347
 21
382.3743087063409
 31
0.0
  0
LINE
  5
970
330
65B
100
AcDbEntity
  8
dim
 62
     0
370
    -2
100
AcDbLine
 10
249.073223863817
 20
391.3743081355326
 30
0.0
 11
241.3238876135347
 21
391.3743081355326
 31
0.0
  0
LINE
  5
971
330
65B
100
AcDbEntity
  8
dim
 62
     0
370
    -2
100
AcDbLine
 10
242.3238875501115
 20
380.3743088331872
 30
0.0
 11
242.3238875501115
 21
378.3743089600335
 31
0.0
  0
LINE
  5
972
330
65B
100
AcDbEntity
  8
dim
 62
     0
370
    -2
100
AcDbLine
 10
242.3238875501115
 20
393.3743080086863
 30
0.0
 11
242.3238875501115
 21
395.37430788184
 31
0.0
  0
LINE
  5
973
330
65B
100
AcDbEntity
  8
dim
 62
     0
370
    -2
100
AcDbLine
 10
242.3238875501115
 20
401.4304001864743
 30
0.0
 11
242.3238875501115
 21
391.3743081355326
 31
0.0
  0
MTEXT
  5
974
330
65B
100
AcDbEntity
  8
dim
 62
     3
100
AcDbMText
 10
240.1988876848856
 20
399.0054003402755
 30
0.0
 40
2.999999809730548
 41
0.0
 71
     5
 72
     1
  1
18
  7
ATOM
 11
0.0000000000000001
 21
1.0
 31
0.0
 73
     1
 44
1.0
1001
ACAD
1000
MTEXTBEGIN
1070
    73
1070
     1
1070
    44
1040
1.0
1070
    74
1070
     0
1000
MTEXTEND
  0
LINE
  5
975
330
65B
100
AcDbEntity
  8
dim
 62
     0
370
    -2
100
AcDbLine
 10
242.3238875501115
 20
382.3743087063409
 30
0.0
 11
242.3238875501115
 21
391.3743081355326
 31
0.0
  0
LINE
  5
976
330
65B
100
AcDbEntity
  8
dim
 62
     0
370
    -2
100
AcDbLine
 10
242.3238875501115
 20
382.3743087063409
 30
0.0
 11
242.3238875501115
 21
391.3743081355326
 31
0.0
  0
INSERT
  5
977
330
65B
100
AcDbEntity
  8
dim
 62
     0
370
    -2
100
AcDbBlockReference
  2
_Open30
 10
242.3238875501115
 20
382.3743087063409
 30
0.0
 41
1.999999873153698
 42
1.999999873153698
 43
1.999999873153698
 50
90.0
  0
INSERT
  5
978
330
65B
100
AcDbEntity
  8
dim
 62
     0
370
    -2
100
AcDbBlockReference
  2
_Open30
 10
242.3238875501115
 20
391.3743081355326
 30
0.0
 41
1.999999873153698
 42
1.999999873153698
 43
1.999999873153698
 50
270.0
  0
POINT
  5
979
330
65B
100
AcDbEntity
  8
Defpoints
 62
     0
100
AcDbPoint
 10
251.0732237369707
 20
382.3743087063409
 30
0.0
  0
POINT
  5
97A
330
65B
100
AcDbEntity
  8
Defpoints
 62
     0
100
AcDbPoint
 10
251.0732237369707
 20
391.3743081355326
 30
0.0
  0
POINT
  5
97B
330
65B
100
AcDbEntity
  8
Defpoints
 62
     0
100
AcDbPoint
 10
242.3238875501115
 20
391.3743081355326
 30
0.0
  0
ENDBLK
  5
65D
330
65B
100
AcDbEntity
  8
0
100
AcDbBlockEnd
  0
BLOCK
  5
66C
330
66B
100
AcDbEntity
  8
0
100
AcDbBlockBegin
  2
*D15
 70
     1
 10
0.0
 20
0.0
 30
0.0
  3
*D15
  1

  0
LINE
  5
97C
330
66B
100
AcDbEntity
  8
dim
 62
     0
370
    -2
100
AcDbLine
 10
130.6050417624655
 20
318.7385340953256
 30
0.0
 11
129.6234254980477
 21
318.7385340953256
 31
0.0
  0
LINE
  5
97D
330
66B
100
AcDbEntity
  8
dim
 62
     0
370
    -2
100
AcDbLine
 10
150.6050405020027
 20
314.2885343742924
 30
0.0
 11
129.6234254980477
 21
314.2885343742924
 31
0.0
  0
LINE
  5
97E
330
66B
100
AcDbEntity
  8
dim
 62
     0
370
    -2
100
AcDbLine
 10
130.6234254346245
 20
320.7385339684793
 30
0.0
 11
130.6234254346245
 21
322.738533841633
 31
0.0
  0
LINE
  5
97F
330
66B
100
AcDbEntity
  8
dim
 62
     0
370
    -2
100
AcDbLine
 10
130.6234254346245
 20
312.2885345011388
 30
0.0
 11
130.6234254346245
 21
310.288534627985
 31
0.0
  0
LINE
  5
980
330
66B
100
AcDbEntity
  8
dim
 62
     0
370
    -2
100
AcDbLine
 10
130.6234254346245
 20
303.004588726172
 30
0.0
 11
130.6234254346245
 21
314.2885343742924
 31
0.0
  0
MTEXT
  5
981
330
66B
100
AcDbEntity
  8
dim
 62
     3
100
AcDbMText
 10
128.4984255693987
 20
306.3295885152901
 30
0.0
 40
2.999999809730548
 41
0.0
 71
     5
 72
     1
  1
8.9
  7
ATOM
 11
0.0000000000000001
 21
1.0
 31
0.0
 73
     1
 44
1.0
1001
ACAD
1000
MTEXTBEGIN
1070
    73
1070
     1
1070
    44
1040
1.0
1070
    74
1070
     0
1000
MTEXTEND
  0
LINE
  5
982
330
66B
100
AcDbEntity
  8
dim
 62
     0
370
    -2
100
AcDbLine
 10
130.6234254346245
 20
318.7385340953256
 30
0.0
 11
130.6234254346245
 21
314.2885343742924
 31
0.0
  0
LINE
  5
983
330
66B
100
AcDbEntity
  8
dim
 62
     0
370
    -2
100
AcDbLine
 10
130.6234254346245
 20
318.7385340953256
 30
0.0
 11
130.6234254346245
 21
314.2885343742924
 31
0.0
  0
INSERT
  5
984
330
66B
100
AcDbEntity
  8
dim
 62
     0
370
    -2
100
AcDbBlockReference
  2
_Open30
 10
130.6234254346245
 20
318.7385340953256
 30
0.0
 41
1.999999873153698
 42
1.999999873153698
 43
1.999999873153698
 50
270.0
  0
INSERT
  5
985
330
66B
100
AcDbEntity
  8
dim
 62
     0
370
    -2
100
AcDbBlockReference
  2
_Open30
 10
130.6234254346245
 20
314.2885343742924
 30
0.0
 41
1.999999873153698
 42
1.999999873153698
 43
1.999999873153698
 50
90.0
  0
POINT
  5
986
330
66B
100
AcDbEntity
  8
Defpoints
 62
     0
100
AcDbPoint
 10
132.6050416356193
 20
318.7385340953256
 30
0.0
  0
POINT
  5
987
330
66B
100
AcDbEntity
  8
Defpoints
 62
     0
100
AcDbPoint
 10
152.6050403751565
 20
314.2885343742924
 30
0.0
  0
POINT
  5
988
330
66B
100
AcDbEntity
  8
Defpoints
 62
     0
100
AcDbPoint
 10
130.6234254346245
 20
314.2885343742924
 30
0.0
  0
ENDBLK
  5
66D
330
66B
100
AcDbEntity
  8
0
100
AcDbBlockEnd
  0
BLOCK
  5
67C
330
67B
100
AcDbEntity
  8
0
100
AcDbBlockBegin
  2
*D16
 70
     1
 10
0.0
 20
0.0
 30
0.0
  3
*D16
  1

  0
LINE
  5
989
330
67B
100
AcDbEntity
  8
dim
 62
     0
370
    -2
100
AcDbLine
 10
72.60254545091673
 20
313.7885344095041
 30
0.0
 11
53.03751820533625
 21
313.7885344095041
 31
0.0
  0
LINE
  5
98A
330
67B
100
AcDbEntity
  8
dim
 62
     0
370
    -2
100
AcDbLine
 10
56.60254646522343
 20
320.0385340136095
 30
0.0
 11
53.03751820533625
 21
320.0385340136095
 31
0.0
  0
LINE
  5
98B
330
67B
100
AcDbEntity
  8
dim
 62
     0
370
    -2
100
AcDbLine
 10
54.03751814191309
 20
311.7885345363504
 30
0.0
 11
54.03751814191309
 21
309.7885346631967
 31
0.0
  0
LINE
  5
98C
330
67B
100
AcDbEntity
  8
dim
 62
     0
370
    -2
100
AcDbLine
 10
54.03751814191309
 20
322.0385338867632
 30
0.0
 11
54.03751814191309
 21
324.0385337599169
 31
0.0
  0
LINE
  5
98D
330
67B
100
AcDbEntity
  8
dim
 62
     0
370
    -2
100
AcDbLine
 10
54.03751814191309
 20
301.2206423512905
 30
0.0
 11
54.03751814191309
 21
313.7885344095041
 31
0.0
  0
MTEXT
  5
98E
330
67B
100
AcDbEntity
  8
dim
 62
     3
100
AcDbMText
 10
51.91251827668724
 20
305.4456420833277
 30
0.0
 40
2.999999809730548
 41
0.0
 71
     5
 72
     1
  1
12.5
  7
ATOM
 11
0.0000000000000001
 21
1.0
 31
0.0
 73
     1
 44
1.0
1001
ACAD
1000
MTEXTBEGIN
1070
    73
1070
     1
1070
    44
1040
1.0
1070
    74
1070
     0
1000
MTEXTEND
  0
LINE
  5
98F
330
67B
100
AcDbEntity
  8
dim
 62
     0
370
    -2
100
AcDbLine
 10
54.03751814191309
 20
313.7885344095041
 30
0.0
 11
54.03751814191309
 21
320.0385340136095
 31
0.0
  0
LINE
  5
990
330
67B
100
AcDbEntity
  8
dim
 62
     0
370
    -2
100
AcDbLine
 10
54.03751814191309
 20
313.7885344095041
 30
0.0
 11
54.03751814191309
 21
320.0385340136095
 31
0.0
  0
INSERT
  5
991
330
67B
100
AcDbEntity
  8
dim
 62
     0
370
    -2
100
AcDbBlockReference
  2
_Open30
 10
54.03751814191309
 20
313.7885344095041
 30
0.0
 41
1.999999873153698
 42
1.999999873153698
 43
1.999999873153698
 50
90.0
  0
INSERT
  5
992
330
67B
100
AcDbEntity
  8
dim
 62
     0
370
    -2
100
AcDbBlockReference
  2
_Open30
 10
54.03751814191309
 20
320.0385340136095
 30
0.0
 41
1.999999873153698
 42
1.999999873153698
 43
1.999999873153698
 50
270.0
  0
POINT
  5
993
330
67B
100
AcDbEntity
  8
Defpoints
 62
     0
100
AcDbPoint
 10
74.60254532407043
 20
313.7885344095041
 30
0.0
  0
POINT
  5
994
330
67B
100
AcDbEntity
  8
Defpoints
 62
     0
100
AcDbPoint
 10
58.60254633837712
 20
320.0385340136095
 30
0.0
  0
POINT
  5
995
330
67B
100
AcDbEntity
  8
Defpoints
 62
     0
100
AcDbPoint
 10
54.03751814191309
 20
320.0385340136095
 30
0.0
  0
ENDBLK
  5
67D
330
67B
100
AcDbEntity
  8
0
100
AcDbBlockEnd
  0
BLOCK
  5
68C
330
68B
100
AcDbEntity
  8
0
100
AcDbBlockBegin
  2
*D17
 70
     1
 10
0.0
 20
0.0
 30
0.0
  3
*D17
  1

  0
LINE
  5
996
330
68B
100
AcDbEntity
  8
dim
 62
     0
370
    -2
100
AcDbLine
 10
211.1025366588461
 20
313.2885344377156
 30
0.0
 11
217.8947801166932
 21
313.2885344377156
 31
0.0
  0
LINE
  5
997
330
68B
100
AcDbEntity
  8
dim
 62
     0
370
    -2
100
AcDbLine
 10
212.2945460254591
 20
320.0385340136095
 30
0.0
 11
217.8947801166933
 21
320.0385340136095
 31
0.0
  0
LINE
  5
998
330
68B
100
AcDbEntity
  8
dim
 62
     0
370
    -2
100
AcDbLine
 10
216.8947801801164
 20
311.2885345645619
 30
0.0
 11
216.8947801801164
 21
309.2885346914082
 31
0.0
  0
LINE
  5
999
330
68B
100
AcDbEntity
  8
dim
 62
     0
370
    -2
100
AcDbLine
 10
216.8947801801164
 20
322.0385338867632
 30
0.0
 11
216.8947801801164
 21
324.0385337599169
 31
0.0
  0
LINE
  5
99A
330
68B
100
AcDbEntity
  8
dim
 62
     0
370
    -2
100
AcDbLine
 10
216.8947801801164
 20
299.0024397737983
 30
0.0
 11
216.8947801801164
 21
313.2885344377156
 31
0.0
  0
MTEXT
  5
99B
330
68B
100
AcDbEntity
  8
dim
 62
     3
100
AcDbMText
 10
214.7697803148906
 20
303.2274395058355
 30
0.0
 40
2.999999809730548
 41
0.0
 71
     5
 72
     1
  1
13.5
  7
ATOM
 11
0.0000000000000001
 21
1.0
 31
0.0
 73
     1
 44
1.0
1001
ACAD
1000
MTEXTBEGIN
1070
    73
1070
     1
1070
    44
1040
1.0
1070
    74
1070
     0
1000
MTEXTEND
  0
LINE
  5
99C
330
68B
100
AcDbEntity
  8
dim
 62
     0
370
    -2
100
AcDbLine
 10
216.8947801801164
 20
313.2885344377156
 30
0.0
 11
216.8947801801164
 21
320.0385340136095
 31
0.0
  0
LINE
  5
99D
330
68B
100
AcDbEntity
  8
dim
 62
     0
370
    -2
100
AcDbLine
 10
216.8947801801164
 20
313.2885344377156
 30
0.0
 11
216.8947801801164
 21
320.0385340136095
 31
0.0
  0
INSERT
  5
99E
330
68B
100
AcDbEntity
  8
dim
 62
     0
370
    -2
100
AcDbBlockReference
  2
_Open30
 10
216.8947801801164
 20
313.2885344377156
 30
0.0
 41
1.999999873153698
 42
1.999999873153698
 43
1.999999873153698
 50
90.0
  0
INSERT
  5
99F
330
68B
100
AcDbEntity
  8
dim
 62
     0
370
    -2
100
AcDbBlockReference
  2
_Open30
 10
216.8947801801164
 20
320.0385340136095
 30
0.0
 41
1.999999873153698
 42
1.999999873153698
 43
1.999999873153698
 50
270.0
  0
POINT
  5
9A0
330
68B
100
AcDbEntity
  8
Defpoints
 62
     0
100
AcDbPoint
 10
209.1025367856923
 20
313.2885344377156
 30
0.0
  0
POINT
  5
9A1
330
68B
100
AcDbEntity
  8
Defpoints
 62
     0
100
AcDbPoint
 10
210.2945461523054
 20
320.0385340136095
 30
0.0
  0
POINT
  5
9A2
330
68B
100
AcDbEntity
  8
Defpoints
 62
     0
100
AcDbPoint
 10
216.8947801801164
 20
320.0385340136095
 30
0.0
  0
ENDBLK
  5
68D
330
68B
100
AcDbEntity
  8
0
100
AcDbBlockEnd
  0
BLOCK
  5
69C
330
69B
100
AcDbEntity
  8
0
100
AcDbBlockBegin
  2
*D18
 70
     1
 10
0.0
 20
0.0
 30
0.0
  3
*D18
  1

  0
LINE
  5
9A3
330
69B
100
AcDbEntity
  8
dim
 62
     0
370
    -2
100
AcDbLine
 10
5.550721408916629
 20
313.2885344377156
 30
0.0
 11
21.07646449129517
 21
313.2885344377156
 31
0.0
  0
LINE
  5
9A4
330
69B
100
AcDbEntity
  8
dim
 62
     0
370
    -2
100
AcDbLine
 10
6.050721377205731
 20
311.7885345328502
 30
0.0
 11
21.07646449129516
 21
311.7885345328502
 31
0.0
  0
LINE
  5
9A5
330
69B
100
AcDbEntity
  8
dim
 62
     0
370
    -2
100
AcDbLine
 10
20.07646455471832
 20
315.2885343108693
 30
0.0
 11
20.07646455471832
 21
317.288534184023
 31
0.0
  0
LINE
  5
9A6
330
69B
100
AcDbEntity
  8
dim
 62
     0
370
    -2
100
AcDbLine
 10
20.07646455471832
 20
309.7885346596966
 30
0.0
 11
20.07646455471832
 21
307.7885347865428
 31
0.0
  0
LINE
  5
9A7
330
69B
100
AcDbEntity
  8
dim
 62
     0
370
    -2
100
AcDbLine
 10
20.07646455471831
 20
290.7970101829418
 30
0.0
 11
20.07646455471832
 21
311.7885345328502
 31
0.0
  0
MTEXT
  5
9A8
330
69B
100
AcDbEntity
  8
dim
 62
     3
100
AcDbMText
 10
17.95146468949246
 20
298.8662953854481
 30
0.0
 40
2.999999809730548
 41
0.0
 71
     5
 72
     1
  1
推奨2以上
  7
ATOM
 11
0.0000000000000001
 21
1.0
 31
0.0
 73
     1
 44
1.0
1001
ACAD
1000
MTEXTBEGIN
1070
    73
1070
     1
1070
    44
1040
1.0
1070
    74
1070
     0
1000
MTEXTEND
  0
LINE
  5
9A9
330
69B
100
AcDbEntity
  8
dim
 62
     0
370
    -2
100
AcDbLine
 10
20.07646455471832
 20
313.2885344377156
 30
0.0
 11
20.07646455471832
 21
311.7885345328502
 31
0.0
  0
LINE
  5
9AA
330
69B
100
AcDbEntity
  8
dim
 62
     0
370
    -2
100
AcDbLine
 10
20.07646455471832
 20
313.2885344377156
 30
0.0
 11
20.07646455471832
 21
311.7885345328502
 31
0.0
  0
INSERT
  5
9AB
330
69B
100
AcDbEntity
  8
dim
 62
     0
370
    -2
100
AcDbBlockReference
  2
_Open30
 10
20.07646455471832
 20
313.2885344377156
 30
0.0
 41
1.999999873153698
 42
1.999999873153698
 43
1.999999873153698
 50
270.0
  0
INSERT
  5
9AC
330
69B
100
AcDbEntity
  8
dim
 62
     0
370
    -2
100
AcDbBlockReference
  2
_Open30
 10
20.07646455471832
 20
311.7885345328502
 30
0.0
 41
1.999999873153698
 42
1.999999873153698
 43
1.999999873153698
 50
90.0
  0
POINT
  5
9AD
330
69B
100
AcDbEntity
  8
Defpoints
 62
     0
100
AcDbPoint
 10
3.550721535762931
 20
313.2885344377156
 30
0.0
  0
POINT
  5
9AE
330
69B
100
AcDbEntity
  8
Defpoints
 62
     0
100
AcDbPoint
 10
4.050721504052035
 20
311.7885345328502
 30
0.0
  0
POINT
  5
9AF
330
69B
100
AcDbEntity
  8
Defpoints
 62
     0
100
AcDbPoint
 10
20.07646455471832
 20
311.7885345328502
 30
0.0
  0
ENDBLK
  5
69D
330
69B
100
AcDbEntity
  8
0
100
AcDbBlockEnd
  0
BLOCK
  5
6AC
330
6AB
100
AcDbEntity
  8
0
100
AcDbBlockBegin
  2
*D19
 70
     1
 10
0.0
 20
0.0
 30
0.0
  3
*D19
  1

  0
LINE
  5
9B0
330
6AB
100
AcDbEntity
  8
dim
 62
     0
370
    -2
100
AcDbLine
 10
-8.449277703159168
 20
311.2885345645619
 30
0.0
 11
-8.44927770315917
 21
286.2626287905744
 31
0.0
  0
LINE
  5
9B1
330
6AB
100
AcDbEntity
  8
dim
 62
     0
370
    -2
100
AcDbLine
 10
3.550721535762931
 20
311.2885345645619
 30
0.0
 11
3.550721535762929
 21
286.2626287905744
 31
0.0
  0
LINE
  5
9B2
330
6AB
100
AcDbEntity
  8
dim
 62
     0
370
    -2
100
AcDbLine
 10
-6.449277830005471
 20
287.2626287271512
 30
0.0
 11
1.55072166260923
 21
287.2626287271512
 31
0.0
  0
MTEXT
  5
9B3
330
6AB
100
AcDbEntity
  8
dim
 62
     3
100
AcDbMText
 10
-2.449278083698117
 20
289.387628592377
 30
0.0
 40
2.999999809730548
 41
0.0
 71
     5
 72
     1
  1
24以上
  7
ATOM
 73
     1
 44
1.0
1001
ACAD
1000
MTEXTBEGIN
1070
    73
1070
     1
1070
    44
1040
1.0
1070
    74
1070
     0
1000
MTEXTEND
  0
INSERT
  5
9B4
330
6AB
100
AcDbEntity
  8
dim
 62
     0
370
    -2
100
AcDbBlockReference
  2
_Open30
 10
-8.44927770315917
 20
287.2626287271512
 30
0.0
 41
1.999999873153698
 42
1.999999873153698
 43
1.999999873153698
 50
180.0
  0
INSERT
  5
9B5
330
6AB
100
AcDbEntity
  8
dim
 62
     0
370
    -2
100
AcDbBlockReference
  2
_Open30
 10
3.550721535762929
 20
287.2626287271512
 30
0.0
 41
1.999999873153698
 42
1.999999873153698
 43
1.999999873153698
  0
POINT
  5
9B6
330
6AB
100
AcDbEntity
  8
Defpoints
 62
     0
100
AcDbPoint
 10
-8.449277703159168
 20
313.2885344377156
 30
0.0
  0
POINT
  5
9B7
330
6AB
100
AcDbEntity
  8
Defpoints
 62
     0
100
AcDbPoint
 10
3.550721535762931
 20
313.2885344377156
 30
0.0
  0
POINT
  5
9B8
330
6AB
100
AcDbEntity
  8
Defpoints
 62
     0
100
AcDbPoint
 10
3.550721535762929
 20
287.2626287271512
 30
0.0
  0
ENDBLK
  5
6AD
330
6AB
100
AcDbEntity
  8
0
100
AcDbBlockEnd
  0
ENDSEC
  0
SECTION
  2
ENTITIES
  0
ARC
  5
25A
330
6C
100
AcDbEntity
  8
# base
  6
Continuous
100
AcDbCircle
 10
183.1075384103783
 20
390.3743081989558
 30
0.0
 40
1.499999904865274
100
AcDbArc
 50
0.0
 51
90.0
  0
ARC
  5
25E
330
6C
100
AcDbEntity
  8
# base
  6
Continuous
100
AcDbCircle
 10
183.1075384103783
 20
383.3743086429178
 30
0.0
 40
1.499999904865274
100
AcDbArc
 50
270.0
 51
0.0
  0
LINE
  5
25F
330
6C
100
AcDbEntity
  8
# base
  6
Continuous
100
AcDbLine
 10
183.1075384228416
 20
314.7885343425809
 30
0.0
 11
184.6025383320238
 21
314.7885343425809
 31
0.0
  0
LINE
  5
260
330
6C
100
AcDbEntity
  8
# base
  6
Continuous
100
AcDbLine
 10
184.6025383320238
 20
314.2885343742924
 30
0.0
 11
69.60254564118668
 21
314.2885343742924
 31
0.0
  0
LINE
  5
261
330
6C
100
AcDbEntity
  8
# base
  6
Continuous
100
AcDbLine
 10
69.60254564118668
 20
314.7885343425809
 30
0.0
 11
71.51237557655941
 21
314.7885343425809
 31
0.0
  0
LINE
  5
262
330
6C
100
AcDbEntity
  8
# base
  6
Continuous
100
AcDbLine
 10
183.1075384228416
 20
317.4885341723383
 30
0.0
 11
183.1075384228416
 21
314.7885343425809
 31
0.0
  0
LINE
  5
263
330
6C
100
AcDbEntity
  8
# base
  6
Continuous
100
AcDbLine
 10
184.6025383320238
 20
314.7885343425809
 30
0.0
 11
184.6025383320238
 21
314.2885343742924
 31
0.0
  0
LINE
  5
264
330
6C
100
AcDbEntity
  8
# base
  6
Continuous
100
AcDbLine
 10
71.51237557655941
 20
317.4885341723383
 30
0.0
 11
71.51237557655941
 21
314.7885343425809
 31
0.0
  0
LINE
  5
265
330
6C
100
AcDbEntity
  8
# base
  6
Continuous
100
AcDbLine
 10
71.51237556409569
 20
381.3743087702641
 30
0.0
 11
71.51237556409569
 21
381.8743087380525
 31
0.0
  0
LINE
  5
26A
330
6C
100
AcDbEntity
  8
# base
  6
Continuous
100
AcDbLine
 10
183.1075384103783
 20
392.3743080726095
 30
0.0
 11
71.51237556409569
 21
392.3743080726095
 31
0.0
  0
LINE
  5
26B
330
6C
100
AcDbEntity
  8
# base
  6
Continuous
100
AcDbLine
 10
183.1075384103783
 20
381.3743087702641
 30
0.0
 11
71.51237556409569
 21
381.3743087702641
 31
0.0
  0
LINE
  5
26C
330
6C
100
AcDbEntity
  8
# base
  6
Continuous
100
AcDbLine
 10
71.51237556409569
 20
391.874308103821
 30
0.0
 11
71.51237556409569
 21
392.3743080726095
 31
0.0
  0
LINE
  5
26D
330
6C
100
AcDbEntity
  8
# base
  6
Continuous
100
AcDbLine
 10
183.1075384103783
 20
381.8743087380525
 30
0.0
 11
183.1075384103783
 21
381.3743087702641
 31
0.0
  0
LINE
  5
26E
330
6C
100
AcDbEntity
  8
# base
  6
Continuous
100
AcDbLine
 10
183.1075384103783
 20
391.874308103821
 30
0.0
 11
183.1075384103783
 21
392.3743080726095
 31
0.0
  0
LINE
  5
26F
330
6C
100
AcDbEntity
  8
center
100
AcDbLine
 10
74.60254532407043
 20
321.6260339130503
 30
0.0
 11
74.60254532407043
 21
312.1010345164058
 31
0.0
  0
LINE
  5
273
330
6C
100
AcDbEntity
  8
# base
  6
Continuous
100
AcDbLine
 10
184.6025383320238
 20
317.9885341396268
 30
0.0
 11
184.6025383320238
 21
317.4885341723383
 31
0.0
  0
LINE
  5
274
330
6C
100
AcDbEntity
  8
# base
  6
Continuous
100
AcDbLine
 10
70.97887549189545
 20
317.4885341723383
 30
0.0
 11
71.51237557655941
 21
317.4885341723383
 31
0.0
  0
LINE
  5
275
330
6C
100
AcDbEntity
  8
# base
  6
Continuous
100
AcDbLine
 10
70.97887549189545
 20
317.9885341396268
 30
0.0
 11
70.97887549189545
 21
317.4885341723383
 31
0.0
  0
LINE
  5
276
330
6C
100
AcDbEntity
  8
# base
  6
Continuous
100
AcDbLine
 10
184.6025383320238
 20
317.9885341396268
 30
0.0
 11
70.97887549189545
 21
317.9885341396268
 31
0.0
  0
LINE
  5
277
330
6C
100
AcDbEntity
  8
# base
  6
Continuous
100
AcDbLine
 10
69.60254564118668
 20
314.2885343742924
 30
0.0
 11
69.60254564118668
 21
314.7885343425809
 31
0.0
  0
LINE
  5
278
330
6C
100
AcDbEntity
  8
# base
  6
Continuous
100
AcDbLine
 10
183.1075384228416
 20
317.4885341723383
 30
0.0
 11
184.6025383320238
 21
317.4885341723383
 31
0.0
  0
LINE
  5
279
330
6C
100
AcDbEntity
  8
# cover
  6
Continuous
100
AcDbLine
 10
184.6075383272432
 20
385.3743085160715
 30
0.0
 11
184.6075383272432
 21
383.8743086112062
 31
0.0
  0
ARC
  5
280
330
6C
100
AcDbEntity
  8
# cover
  6
Continuous
100
AcDbCircle
 10
181.6075385175127
 20
384.1243085953503
 30
0.0
 40
0.8499999465903218
100
AcDbArc
 50
270.0
 51
0.0
  0
LINE
  5
281
330
6C
100
AcDbEntity
  8
# cover
  6
Continuous
100
AcDbLine
 10
182.4575384636027
 20
389.6243082465231
 30
0.0
 11
182.4575384636027
 21
384.1243085953503
 31
0.0
  0
ARC
  5
282
330
6C
100
AcDbEntity
  8
# cover
  6
Continuous
100
AcDbCircle
 10
181.6075385175127
 20
389.6243082465231
 30
0.0
 40
0.8499999465903218
100
AcDbArc
 50
0.0
 51
90.0
  0
LINE
  5
283
330
6C
100
AcDbEntity
  8
# cover
  6
Continuous
100
AcDbLine
 10
181.6075385175127
 20
390.4743081926133
 30
0.0
 11
90.59920726292284
 21
390.4743081926133
 31
0.0
  0
ARC
  5
284
330
6C
100
AcDbEntity
  8
# cover
  6
Continuous
100
AcDbCircle
 10
183.1075384223777
 20
389.8743082306673
 30
0.0
 40
1.499999904865274
100
AcDbArc
 50
0.0
 51
90.0
  0
ARC
  5
285
330
6C
100
AcDbEntity
  8
# cover
  6
Continuous
100
AcDbCircle
 10
183.1075384223777
 20
383.8743086112062
 30
0.0
 40
1.499999904865274
100
AcDbArc
 50
270.0
 51
0.0
  0
LINE
  5
286
330
6C
100
AcDbEntity
  8
# cover
  6
Continuous
100
AcDbLine
 10
184.6075383272432
 20
389.8743082306673
 30
0.0
 11
184.6075383272432
 21
388.3743083258021
 31
0.0
  0
LINE
  5
289
330
6C
100
AcDbEntity
  8
# cover
  6
Continuous
100
AcDbLine
 10
90.22057831063241
 20
391.3743081355326
 30
0.0
 11
183.1075384223777
 21
391.3743081355326
 31
0.0
  0
LINE
  5
28A
330
6C
100
AcDbEntity
  8
# cover
  6
Continuous
100
AcDbLine
 10
183.7575383806525
 20
385.3743085160715
 30
0.0
 11
183.2575384123643
 21
385.87430848436
 31
0.0
  0
LINE
  5
28B
330
6C
100
AcDbEntity
  8
# cover
  6
Continuous
100
AcDbLine
 10
183.2575384123643
 20
387.8743083575137
 30
0.0
 11
183.7575383806525
 21
388.3743083258021
 31
0.0
  0
LINE
  5
28C
330
6C
100
AcDbEntity
  8
# cover
  6
Continuous
100
AcDbLine
 10
183.1075384223777
 20
382.3743087063409
 30
0.0
 11
90.22057833299186
 21
382.3743087063409
 31
0.0
  0
LINE
  5
28E
330
6C
100
AcDbEntity
  8
# cover
  6
Continuous
100
AcDbLine
 10
183.7575383806525
 20
388.3743083258021
 30
0.0
 11
184.7575383177295
 21
388.3743083258021
 31
0.0
  0
LINE
  5
28F
330
6C
100
AcDbEntity
  8
# cover
  6
Continuous
100
AcDbLine
 10
183.2575384123643
 20
387.8743083575137
 30
0.0
 11
183.2575384123643
 21
385.87430848436
 31
0.0
  0
LINE
  5
290
330
6C
100
AcDbEntity
  8
# cover
  6
Continuous
100
AcDbLine
 10
184.7575383177295
 20
385.3743085160715
 30
0.0
 11
183.7575383806525
 21
385.3743085160715
 31
0.0
  0
LINE
  5
291
330
6C
100
AcDbEntity
  8
# cover
  6
Continuous
100
AcDbLine
 10
184.7575383177295
 20
388.3743083258021
 30
0.0
 11
184.7575383177295
 21
385.3743085160715
 31
0.0
  0
LINE
  5
293
330
6C
100
AcDbEntity
  8
# cover
  6
Continuous
100
AcDbLine
 10
181.6075385175127
 20
383.27430864926
 30
0.0
 11
90.59920726459315
 21
383.27430864926
 31
0.0
  0
ARC
  5
294
330
6C
100
AcDbEntity
  8
# cover
  6
Continuous
100
AcDbCircle
 10
83.20254477863135
 20
318.1385341336295
 30
0.0
 40
0.5999999619461098
100
AcDbArc
 50
90.0
 51
180.0
  0
LINE
  5
295
330
6C
100
AcDbEntity
  8
# cover
  6
Continuous
100
AcDbLine
 10
83.20254477863135
 20
318.7385340955756
 30
0.0
 11
182.0075384926072
 21
318.7385340950756
 31
0.0
  0
ARC
  5
296
330
6C
100
AcDbEntity
  8
# cover
  6
Continuous
100
AcDbCircle
 10
182.0075384926072
 20
318.1385341331295
 30
0.0
 40
0.5999999619461098
100
AcDbArc
 50
0.0
 51
90.0
  0
LINE
  5
297
330
6C
100
AcDbEntity
  8
# cover
  6
Continuous
100
AcDbLine
 10
184.7575383176931
 20
317.9885341426428
 30
0.0
 11
184.7575383176931
 21
316.9885342060661
 31
0.0
  0
LINE
  5
298
330
6C
100
AcDbEntity
  8
# cover
  6
Continuous
100
AcDbLine
 10
184.6075383277066
 20
318.1385341331295
 30
0.0
 11
184.6075383277066
 21
316.9885342060661
 31
0.0
  0
LINE
  5
299
330
6C
100
AcDbEntity
  8
# cover
  6
Continuous
100
AcDbLine
 10
184.6075383277066
 20
318.1385341331295
 30
0.0
 11
69.6025456391867
 21
318.1385341336295
 31
0.0
  0
LINE
  5
29A
330
6C
100
AcDbEntity
  8
# cover
  6
Continuous
100
AcDbLine
 10
184.6025383320238
 20
317.988534139143
 30
0.0
 11
69.6025456391867
 21
317.988534139643
 31
0.0
  0
LINE
  5
29B
330
6C
100
AcDbEntity
  8
# cover
  6
Continuous
100
AcDbLine
 10
184.6075383277066
 20
316.9885342060661
 30
0.0
 11
184.6025383315605
 21
316.9885342060661
 31
0.0
  0
ARC
  5
29C
330
6C
100
AcDbEntity
  8
# cover
  6
Continuous
100
AcDbCircle
 10
184.6075383277066
 20
317.9885341426428
 30
0.0
 40
0.1499999899865274
100
AcDbArc
 50
0.0
 51
90.0
  0
LINE
  5
29D
330
6C
100
AcDbEntity
  8
# cover
  6
Continuous
100
AcDbLine
 10
69.6025456391867
 20
318.1385341336295
 30
0.0
 11
69.6025456391867
 21
317.988534139643
 31
0.0
  0
LINE
  5
2B5
330
6C
100
AcDbEntity
  8
# holder_frm
  6
Continuous
100
AcDbLine
 10
70.97887549189545
 20
317.4885341704359
 30
0.0
 11
70.10254560901149
 21
317.4885341703383
 31
0.0
  0
LINE
  5
2B9
330
6C
100
AcDbEntity
  8
# holder_frm
  6
Continuous
100
AcDbLine
 10
78.25254509211255
 20
318.4885341069153
 30
0.0
 11
70.95254555410156
 21
318.4885341069153
 31
0.0
  0
LINE
  5
2BA
330
6C
100
AcDbEntity
  8
# holder_frm
  6
Continuous
100
AcDbLine
 10
78.25254509211209
 20
318.1385341336015
 30
0.0
 11
78.25254509211255
 21
318.4885341069153
 31
0.0
  0
LINE
  5
2BB
330
6C
100
AcDbEntity
  8
# holder_frm
  6
Continuous
100
AcDbLine
 10
70.95254555510155
 20
317.4885341703383
 30
0.0
 11
70.95254555460178
 21
317.9885341396385
 31
0.0
  0
LINE
  5
2BC
330
6C
100
AcDbEntity
  8
# holder_frm
  6
Continuous
100
AcDbLine
 10
70.95254555445172
 20
318.138534133625
 30
0.0
 11
70.95254555410156
 21
318.4885341069153
 31
0.0
  0
ARC
  5
2BD
330
6C
100
AcDbEntity
  8
# holder_frm
  6
Continuous
100
AcDbCircle
 10
70.10254560901149
 20
316.98853420305
 30
0.0
 40
0.4999999682884247
100
AcDbArc
 50
90.0
 51
180.0
  0
ARC
  5
2BE
330
6C
100
AcDbEntity
  8
# holder_frm
  6
Continuous
100
AcDbCircle
 10
70.10254560901149
 20
315.2885343098693
 30
0.0
 40
0.4999999682884247
100
AcDbArc
 50
180.0
 51
270.0
  0
LINE
  5
2BF
330
6C
100
AcDbEntity
  8
# holder_frm
  6
Continuous
100
AcDbLine
 10
69.60254564072283
 20
316.98853420305
 30
0.0
 11
69.60254564072283
 21
315.2885343098693
 31
0.0
  0
LINE
  5
2C0
330
6C
100
AcDbEntity
  8
# holder_frm
  6
Continuous
100
AcDbLine
 10
71.41432491981413
 20
316.98853420205
 30
0.0
 11
71.41432491981413
 21
315.2885343098693
 31
0.0
  0
ARC
  5
2C1
330
6C
100
AcDbEntity
  8
# holder_frm
  6
Continuous
100
AcDbCircle
 10
71.91432488810278
 20
315.2885343098693
 30
0.0
 40
0.4999999682884247
100
AcDbArc
 50
180.0
 51
216.4959721645977
  0
ARC
  5
2C2
330
6C
100
AcDbEntity
  8
# holder_frm
  6
Continuous
100
AcDbCircle
 10
71.91432488810278
 20
316.98853420205
 30
0.0
 40
0.4999999682884247
100
AcDbArc
 50
143.5040278354023
 51
180.0
  0
ARC
  5
2C3
330
6C
100
AcDbEntity
  8
# holder_dr
  6
Continuous
100
AcDbCircle
 10
183.1075384103783
 20
390.8743081672442
 30
0.0
 40
1.499999904865274
100
AcDbArc
 50
0.0
 51
90.0
  0
LINE
  5
2C7
330
6C
100
AcDbEntity
  8
# holder_dr
  6
Continuous
100
AcDbLine
 10
184.6075383152438
 20
382.8743086743792
 30
0.0
 11
184.6075383152438
 21
385.3743085160715
 31
0.0
  0
LINE
  5
2C8
330
6C
100
AcDbEntity
  8
# holder_dr
  6
Continuous
100
AcDbLine
 10
184.6075383152438
 20
388.3743083258021
 30
0.0
 11
184.6075383152438
 21
390.8743081672442
 31
0.0
  0
LINE
  5
2C9
330
6C
100
AcDbEntity
  8
# holder_dr
  6
Continuous
100
AcDbLine
 10
184.6025383315605
 20
314.7885343425809
 30
0.0
 11
184.6025383315605
 21
317.9885341398768
 31
0.0
  0
ARC
  5
2CA
330
6C
100
AcDbEntity
  8
# holder_dr
  6
Continuous
100
AcDbCircle
 10
183.1075384103783
 20
382.8743086743792
 30
0.0
 40
1.499999904865274
100
AcDbArc
 50
270.0
 51
0.0
  0
ARC
  5
2CB
330
6C
100
AcDbEntity
  8
# cover
  6
Continuous
100
AcDbCircle
 10
237.3285591706435
 20
318.1385341341134
 30
0.0
 40
0.5999999619461098
100
AcDbArc
 50
138.1896851042158
 51
170.4059321605418
  0
ARC
  5
2CC
330
6C
100
AcDbEntity
  8
# cover
  6
Continuous
100
AcDbCircle
 10
243.6285587710777
 20
318.1385341341134
 30
0.0
 40
0.5999999619461098
100
AcDbArc
 50
9.594067839483852
 51
41.81031489578422
  0
LINE
  5
2CD
330
6C
100
AcDbEntity
  8
# base
  6
Continuous
100
AcDbLine
 10
245.978558622533
 20
314.7885343430809
 30
0.0
 11
245.9785586235325
 21
317.4885341723383
 31
0.0
  0
LINE
  5
2CE
330
6C
100
AcDbEntity
  8
# base
  6
Continuous
100
AcDbLine
 10
245.4785586552443
 20
317.9885341406268
 30
0.0
 11
245.4785586542449
 21
314.2885343747924
 31
0.0
  0
ARC
  5
2CF
330
6C
100
AcDbEntity
  8
# base
  6
Continuous
100
AcDbCircle
 10
245.4785586542449
 20
317.4885341728383
 30
0.0
 40
0.4999999682884247
100
AcDbArc
 50
0.0
 51
90.0
  0
ARC
  5
2D0
330
6C
100
AcDbEntity
  8
# base
  6
Continuous
100
AcDbCircle
 10
235.4785592889761
 20
317.4885341728383
 30
0.0
 40
0.4999999682884247
100
AcDbArc
 50
90.0
 51
180.0
  0
ARC
  5
2D1
330
6C
100
AcDbEntity
  8
# base
  6
Continuous
100
AcDbCircle
 10
235.4785592889761
 20
314.7885343430809
 30
0.0
 40
0.4999999682884247
100
AcDbArc
 50
180.0
 51
270.0
  0
ARC
  5
2D2
330
6C
100
AcDbEntity
  8
# base
  6
Continuous
100
AcDbCircle
 10
245.4785586542449
 20
314.7885343430809
 30
0.0
 40
0.4999999682884247
100
AcDbArc
 50
270.0
 51
0.0
  0
LINE
  5
2D3
330
6C
100
AcDbEntity
  8
# base
  6
Continuous
100
AcDbLine
 10
235.4785592889761
 20
314.2885343747924
 30
0.0
 11
245.4785586542449
 21
314.2885343747924
 31
0.0
  0
LINE
  5
2D4
330
6C
100
AcDbEntity
  8
# base
  6
Continuous
100
AcDbLine
 10
235.4785592889761
 20
317.9885341411268
 30
0.0
 11
235.4785592889761
 21
314.2885343747924
 31
0.0
  0
LINE
  5
2D5
330
6C
100
AcDbEntity
  8
# base
  6
Continuous
100
AcDbLine
 10
234.9785593206876
 20
317.4885341728383
 30
0.0
 11
234.9785593206876
 21
314.7885343430809
 31
0.0
  0
LINE
  5
2FC
330
6C
100
AcDbEntity
  8
center
100
AcDbLine
 10
62.6025460846845
 20
390.9310352196472
 30
0.0
 11
62.6025460846845
 21
382.6983159427915
 31
0.0
  0
ARC
  5
2FE
330
6C
100
AcDbEntity
  8
# brkc_frm
  6
Continuous
100
AcDbCircle
 10
89.10254440397148
 20
383.3743086304186
 30
0.0
 40
1.499999904865274
100
AcDbArc
 50
270.0
 51
0.0
  0
ARC
  5
302
330
6C
100
AcDbEntity
  8
# brkc_frm
  6
Continuous
100
AcDbCircle
 10
89.10254440397148
 20
390.3743081864566
 30
0.0
 40
1.499999904865274
100
AcDbArc
 50
0.0
 51
90.0
  0
CIRCLE
  5
303
330
6C
100
AcDbEntity
  8
# brkc_frm
  6
Continuous
100
AcDbCircle
 10
86.60254456202938
 20
386.8743084084376
 30
0.0
 40
1.349999914378745
  0
LINE
  5
304
330
6C
100
AcDbEntity
  8
# brkc_frm
  6
Continuous
100
AcDbLine
 10
60.10254624324261
 20
381.8743087255533
 30
0.0
 11
89.10254440397148
 21
381.8743087255533
 31
0.0
  0
LINE
  5
305
330
6C
100
AcDbEntity
  8
# brkc_frm
  6
Continuous
100
AcDbLine
 10
58.60254633837758
 20
390.3743081864566
 30
0.0
 11
58.60254633837758
 21
383.3743086304186
 31
0.0
  0
CIRCLE
  5
306
330
6C
100
AcDbEntity
  8
# brkc_frm
  6
Continuous
100
AcDbCircle
 10
62.60254608468493
 20
386.8743084084376
 30
0.0
 40
1.349999914378745
  0
ARC
  5
307
330
6C
100
AcDbEntity
  8
# brkc_frm
  6
Continuous
100
AcDbCircle
 10
60.10254624324261
 20
390.3743081864566
 30
0.0
 40
1.499999904865274
100
AcDbArc
 50
90.0
 51
180.0
  0
ARC
  5
308
330
6C
100
AcDbEntity
  8
# brkc_frm
  6
Continuous
100
AcDbCircle
 10
60.10254624324261
 20
383.3743086304186
 30
0.0
 40
1.499999904865274
100
AcDbArc
 50
180.0
 51
270.0
  0
CIRCLE
  5
30B
330
6C
100
AcDbEntity
  8
# brkc_frm
  6
Continuous
100
AcDbCircle
 10
74.60254532360704
 20
386.8743084084376
 30
0.0
 40
3.499999778018971
  0
LINE
  5
30C
330
6C
100
AcDbEntity
  8
# brkc_frm
  6
Continuous
100
AcDbLine
 10
89.10254440397148
 20
391.8743080913218
 30
0.0
 11
60.10254624324261
 21
391.8743080913218
 31
0.0
  0
LINE
  5
30D
330
6C
100
AcDbEntity
  8
# brkc_frm
  6
Continuous
100
AcDbLine
 10
90.60254430883651
 20
390.3743081864566
 30
0.0
 11
90.60254430883651
 21
383.3743086304186
 31
0.0
  0
CIRCLE
  5
30E
330
6C
100
AcDbEntity
  8
# brkt_dr
  6
Continuous
100
AcDbCircle
 10
190.6025379510215
 20
386.8743084209368
 30
0.0
 40
1.049999949405689
  0
CIRCLE
  5
312
330
6C
100
AcDbEntity
  8
# shaft_frm
  6
Continuous
 62
     1
100
AcDbCircle
 10
74.60254531110786
 20
386.8743084209368
 30
0.0
 40
1.049999949405689
  0
CIRCLE
  5
316
330
6C
100
AcDbEntity
  8
# shaft_frm
  6
Continuous
 62
     1
100
AcDbCircle
 10
74.60254532360704
 20
386.8743084209368
 30
0.0
 40
1.949999867824855
  0
LINE
  5
317
330
6C
100
AcDbEntity
  8
center
100
AcDbLine
 10
74.60254532360659
 20
378.6243089449276
 30
0.0
 11
74.60254532360659
 21
395.1243078984459
 31
0.0
  0
LINE
  5
318
330
6C
100
AcDbEntity
  8
center
100
AcDbLine
 10
206.1025369679628
 20
391.6129223418991
 30
0.0
 11
206.1025369679628
 21
386.2819767455043
 31
0.0
  0
ARC
  5
319
330
6C
100
AcDbEntity
  8
# brkt_dr
  6
Continuous
100
AcDbCircle
 10
207.6025368728279
 20
390.3743081989558
 30
0.0
 40
1.499999904865274
100
AcDbArc
 50
0.0
 51
90.0
  0
CIRCLE
  5
31A
330
6C
100
AcDbEntity
  8
# brkt_dr
  6
Continuous
100
AcDbCircle
 10
202.1025372216554
 20
384.8743085477831
 30
0.0
 40
1.074999931820112
  0
CIRCLE
  5
31B
330
6C
100
AcDbEntity
  8
# brkt_dr
  6
Continuous
100
AcDbCircle
 10
202.1025372216554
 20
384.8743085477831
 30
0.0
 40
2.149999863640225
  0
CIRCLE
  5
31C
330
6C
100
AcDbEntity
  8
# brkt_dr
  6
Continuous
100
AcDbCircle
 10
206.1025369679628
 20
388.8743082940905
 30
0.0
 40
2.149999863640225
  0
CIRCLE
  5
31D
330
6C
100
AcDbEntity
  8
# brkt_dr
  6
Continuous
100
AcDbCircle
 10
206.1025369679628
 20
388.8743082940905
 30
0.0
 40
1.074999931820112
  0
ARC
  5
31E
330
6C
100
AcDbEntity
  8
# brkt_dr
  6
Continuous
100
AcDbCircle
 10
190.6025379510215
 20
386.8743084209368
 30
0.0
 40
4.999999682884245
100
AcDbArc
 50
90.0
 51
270.0
  0
LINE
  5
320
330
6C
100
AcDbEntity
  8
# brkt_dr
  6
Continuous
100
AcDbLine
 10
198.6025374436362
 20
391.874308103821
 30
0.0
 11
198.6025374436362
 21
381.8743087380525
 31
0.0
  0
ARC
  5
321
330
6C
100
AcDbEntity
  8
# brkt_dr
  6
Continuous
100
AcDbCircle
 10
207.6025368728279
 20
383.3743086429178
 30
0.0
 40
1.499999904865274
100
AcDbArc
 50
270.0
 51
0.0
  0
LINE
  5
322
330
6C
100
AcDbEntity
  8
# brkt_dr
  6
Continuous
100
AcDbLine
 10
209.1025367776933
 20
383.3743086429178
 30
0.0
 11
209.1025367776933
 21
390.3743081989558
 31
0.0
  0
LINE
  5
323
330
6C
100
AcDbEntity
  8
# brkt_dr
  6
Continuous
100
AcDbLine
 10
190.6025379510215
 20
381.8743087380525
 30
0.0
 11
207.6025368728279
 21
381.8743087380525
 31
0.0
  0
LINE
  5
324
330
6C
100
AcDbEntity
  8
# brkt_dr
  6
Continuous
100
AcDbLine
 10
190.6025379510215
 20
391.874308103821
 30
0.0
 11
207.6025368728279
 21
391.874308103821
 31
0.0
  0
LINE
  5
325
330
6C
100
AcDbEntity
  8
center
100
AcDbLine
 10
202.1025372216554
 20
382.2091343098168
 30
0.0
 11
202.1025372216554
 21
387.5827274710066
 31
0.0
  0
LINE
  5
326
330
6C
100
AcDbEntity
  8
center
100
AcDbLine
 10
199.4962057044567
 20
384.8743085477831
 30
0.0
 11
204.8058275187045
 21
384.8743085477831
 31
0.0
  0
LINE
  5
327
330
6C
100
AcDbEntity
  8
center
100
AcDbLine
 10
208.6441083477684
 20
388.8743082940905
 30
0.0
 11
203.2278676222836
 21
388.8743082940905
 31
0.0
  0
LINE
  5
328
330
6C
100
AcDbEntity
  8
center
100
AcDbLine
 10
190.6025379630214
 20
393.9413752692211
 30
0.0
 11
190.6025379630214
 21
380.3260617742473
 31
0.0
  0
LINE
  5
33F
330
6C
100
AcDbEntity
  8
# brkc_frm
  6
Continuous
100
AcDbLine
 10
90.60254430933628
 20
319.0385340770327
 30
0.0
 11
90.60254430883606
 21
320.0385340136095
 31
0.0
  0
LINE
  5
340
330
6C
100
AcDbEntity
  8
# brkc_frm
  6
Continuous
100
AcDbLine
 10
58.60254633837712
 20
320.0385340136095
 30
0.0
 11
90.60254430883606
 21
320.0385340136095
 31
0.0
  0
LINE
  5
341
330
6C
100
AcDbEntity
  8
# brkc_frm
  6
Continuous
100
AcDbLine
 10
58.60254633837712
 20
319.0385340770327
 30
0.0
 11
58.60254633837712
 21
320.0385340136095
 31
0.0
  0
ARC
  5
342
330
6C
100
AcDbEntity
  8
# brkc_frm
  6
Continuous
100
AcDbCircle
 10
70.60254557729924
 20
319.0385340770327
 30
0.0
 40
0.4999999682884247
100
AcDbArc
 50
180.0
 51
270.0
  0
LINE
  5
343
330
6C
100
AcDbEntity
  8
# brkc_frm
  6
Continuous
100
AcDbLine
 10
58.60254633837712
 20
319.0385340770327
 30
0.0
 11
90.60254430933628
 21
319.0385340770327
 31
0.0
  0
ARC
  5
344
330
6C
100
AcDbEntity
  8
# brkc_frm
  6
Continuous
100
AcDbCircle
 10
78.60254506991394
 20
319.0385340770327
 30
0.0
 40
0.4999999682884247
100
AcDbArc
 50
270.0
 51
0.0
  0
ARC
  5
350
330
6C
100
AcDbEntity
  8
# shaft_frm
  6
Continuous
 62
     1
100
AcDbCircle
 10
71.75254550436284
 20
313.9385343999907
 30
0.0
 40
0.1499999899865274
100
AcDbArc
 50
180.0
 51
270.0
  0
ARC
  5
351
330
6C
100
AcDbEntity
  8
# shaft_frm
  6
Continuous
 62
     1
100
AcDbCircle
 10
77.45254514285079
 20
313.9385343999907
 30
0.0
 40
0.1499999899865274
100
AcDbArc
 50
270.0
 51
0.0
  0
LINE
  5
352
330
6C
100
AcDbEntity
  8
# shaft_frm
  6
Continuous
 62
     1
100
AcDbLine
 10
77.60254513333757
 20
314.2885343782925
 30
0.0
 11
77.60254513283735
 21
313.9385343999907
 31
0.0
  0
LINE
  5
353
330
6C
100
AcDbEntity
  8
# shaft_frm
  6
Continuous
 62
     1
100
AcDbLine
 10
77.60254513333757
 20
314.2885343782925
 30
0.0
 11
71.60254551387652
 21
314.2885343782925
 31
0.0
  0
LINE
  5
354
330
6C
100
AcDbEntity
  8
# shaft_frm
  6
Continuous
 62
     1
100
AcDbLine
 10
77.45254514285079
 20
313.7885344095041
 30
0.0
 11
71.75254550436284
 21
313.7885344095041
 31
0.0
  0
LINE
  5
355
330
6C
100
AcDbEntity
  8
# shaft_frm
  6
Continuous
 62
     1
100
AcDbLine
 10
71.60254551387652
 20
314.2885343782925
 30
0.0
 11
71.60254551387652
 21
313.9385343999907
 31
0.0
  0
ARC
  5
356
330
6C
100
AcDbEntity
  8
# shaft_dr
  6
Continuous
100
AcDbCircle
 10
187.8525381374343
 20
314.6885343484232
 30
0.0
 40
0.2499999841442123
100
AcDbArc
 50
180.0
 51
270.0
  0
LINE
  5
35A
330
6C
100
AcDbEntity
  8
# shaft_dr
  6
Continuous
100
AcDbLine
 10
193.6025377722517
 20
315.1885343162116
 30
0.0
 11
193.6025377722517
 21
314.6885343484232
 31
0.0
  0
LINE
  5
35B
330
6C
100
AcDbEntity
  8
# shaft_dr
  6
Continuous
100
AcDbLine
 10
192.6025378361742
 20
317.2385341871942
 30
0.0
 11
192.6025378361742
 21
316.9885342030499
 31
0.0
  0
LINE
  5
35C
330
6C
100
AcDbEntity
  8
# shaft_dr
  6
Continuous
100
AcDbLine
 10
192.6025378361737
 20
315.2885343108692
 30
0.0
 11
192.6025378361742
 21
315.1885343162116
 31
0.0
  0
ARC
  5
35D
330
6C
100
AcDbEntity
  8
# shaft_dr
  6
Continuous
100
AcDbCircle
 10
193.3525377881074
 20
314.6885343484232
 30
0.0
 40
0.2499999841442123
100
AcDbArc
 50
270.0
 51
0.0
  0
LINE
  5
35E
330
6C
100
AcDbEntity
  8
# shaft_dr
  6
Continuous
100
AcDbLine
 10
187.6025381532899
 20
315.1885343162116
 30
0.0
 11
187.6025381532899
 21
314.6885343484232
 31
0.0
  0
LINE
  5
35F
330
6C
100
AcDbEntity
  8
# shaft_dr
  6
Continuous
100
AcDbLine
 10
188.6025380898668
 20
317.2385341871942
 30
0.0
 11
188.6025380898668
 21
316.9885342030497
 31
0.0
  0
LINE
  5
360
330
6C
100
AcDbEntity
  8
# shaft_dr
  6
Continuous
100
AcDbLine
 10
188.6025380898668
 20
315.2885343108693
 30
0.0
 11
188.6025380898668
 21
315.1885343162116
 31
0.0
  0
LINE
  5
361
330
6C
100
AcDbEntity
  8
# shaft_dr
  6
Continuous
100
AcDbLine
 10
193.3525377881074
 20
314.438534364279
 30
0.0
 11
187.8525381374343
 21
314.438534364279
 31
0.0
  0
LINE
  5
362
330
6C
100
AcDbEntity
  8
# shaft_dr
  6
Continuous
100
AcDbLine
 10
193.6025377722517
 20
315.1885343162116
 30
0.0
 11
187.6025381532899
 21
315.1885343162116
 31
0.0
  0
LINE
  5
363
330
6C
100
AcDbEntity
  8
# brkt_dr
  6
Continuous
100
AcDbLine
 10
198.6025374516351
 20
314.2885343742924
 30
0.0
 11
209.1025367856923
 21
314.2885343742924
 31
0.0
  0
LINE
  5
364
330
6C
100
AcDbEntity
  8
# brkt_dr
  6
Continuous
100
AcDbLine
 10
197.6025375150584
 20
317.2385341871942
 30
0.0
 11
197.6025375150584
 21
314.2885343742924
 31
0.0
  0
LINE
  5
365
330
6C
100
AcDbEntity
  8
# brkt_dr
  6
Continuous
100
AcDbLine
 10
185.6025382886364
 20
318.238534123771
 30
0.0
 11
197.6025375150584
 21
318.238534123771
 31
0.0
  0
LINE
  5
366
330
6C
100
AcDbEntity
  8
# brkt_dr
  6
Continuous
100
AcDbLine
 10
209.1025367856923
 20
314.2885343742924
 30
0.0
 11
209.1025367856923
 21
313.2885344377156
 31
0.0
  0
LINE
  5
367
330
6C
100
AcDbEntity
  8
# brkt_dr
  6
Continuous
100
AcDbLine
 10
209.1025367856923
 20
313.2885344377156
 30
0.0
 11
198.6025374516351
 21
313.2885344377156
 31
0.0
  0
LINE
  5
368
330
6C
100
AcDbEntity
  8
# brkt_dr
  6
Continuous
100
AcDbLine
 10
185.6025382886364
 20
317.2385341871942
 30
0.0
 11
185.6025382886364
 21
318.238534123771
 31
0.0
  0
LINE
  5
369
330
6C
100
AcDbEntity
  8
# brkt_dr
  6
Continuous
100
AcDbLine
 10
198.6025374516351
 20
317.2385341871942
 30
0.0
 11
198.6025374516351
 21
314.2885343742924
 31
0.0
  0
LINE
  5
36A
330
6C
100
AcDbEntity
  8
# brkt_dr
  6
Continuous
100
AcDbLine
 10
185.6025382886364
 20
317.2385341871942
 30
0.0
 11
197.6025375150584
 21
317.2385341871942
 31
0.0
  0
ARC
  5
36B
330
6C
100
AcDbEntity
  8
# brkt_dr
  6
Continuous
100
AcDbCircle
 10
197.6025375150584
 20
317.2385341871942
 30
0.0
 40
0.9999999370768492
100
AcDbArc
 50
0.0
 51
90.0
  0
ARC
  5
36C
330
6C
100
AcDbEntity
  8
# brkt_dr
  6
Continuous
100
AcDbCircle
 10
198.6025374516351
 20
314.2885343742924
 30
0.0
 40
0.9999999370768492
100
AcDbArc
 50
180.0
 51
270.0
  0
LINE
  5
36D
330
6C
100
AcDbEntity
  8
# brkt_dr
  6
Continuous
100
AcDbLine
 10
245.4785586542449
 20
313.2885344377156
 30
0.0
 11
245.4785586542449
 21
318.238534123771
 31
0.0
  0
LINE
  5
36E
330
6C
100
AcDbEntity
  8
# brkt_dr
  6
Continuous
100
AcDbLine
 10
235.4785592884763
 20
313.2885344377156
 30
0.0
 11
235.4785592884763
 21
318.238534123771
 31
0.0
  0
LINE
  5
36F
330
6C
100
AcDbEntity
  8
# brkt_dr
  6
Continuous
100
AcDbLine
 10
235.4785592884763
 20
314.2885343742924
 30
0.0
 11
245.4785586542449
 21
314.2885343742924
 31
0.0
  0
LINE
  5
370
330
6C
100
AcDbEntity
  8
# brkt_dr
  6
Continuous
100
AcDbLine
 10
235.4785592884763
 20
318.238534123771
 30
0.0
 11
245.4785586542444
 21
318.2385341237712
 31
0.0
  0
LINE
  5
371
330
6C
100
AcDbEntity
  8
# brkt_dr
  6
Continuous
100
AcDbLine
 10
245.4785586542449
 20
313.2885344377156
 30
0.0
 11
235.4785592884763
 21
313.2885344377156
 31
0.0
  0
LINE
  5
372
330
6C
100
AcDbEntity
  8
hidden
100
AcDbLine
 10
235.4785592884763
 20
317.2385341871943
 30
0.0
 11
245.4785586542444
 21
317.2385341871942
 31
0.0
  0
ARC
  5
373
330
6C
100
AcDbEntity
  8
# brkc_frm
  6
Continuous
100
AcDbCircle
 10
244.4785587176674
 20
319.0385340770327
 30
0.0
 40
0.4999999682884247
100
AcDbArc
 50
270.0
 51
0.0
  0
LINE
  5
374
330
6C
100
AcDbEntity
  8
# brkc_frm
  6
Continuous
100
AcDbLine
 10
235.4785592719768
 20
319.0385340770327
 30
0.0
 11
245.4785586382445
 21
319.0385340770327
 31
0.0
  0
ARC
  5
375
330
6C
100
AcDbEntity
  8
# brkc_frm
  6
Continuous
100
AcDbCircle
 10
236.4785592250536
 20
319.0385340770327
 30
0.0
 40
0.4999999682884247
100
AcDbArc
 50
180.0
 51
270.0
  0
LINE
  5
376
330
6C
100
AcDbEntity
  8
# brkc_frm
  6
Continuous
100
AcDbLine
 10
235.4785592719768
 20
320.0385340136095
 30
0.0
 11
245.4785586377452
 21
320.0385340136095
 31
0.0
  0
LINE
  5
377
330
6C
100
AcDbEntity
  8
# brkc_frm
  6
Continuous
100
AcDbLine
 10
245.4785586382445
 20
319.0385340770327
 30
0.0
 11
245.4785586377452
 21
320.0385340136095
 31
0.0
  0
LINE
  5
378
330
6C
100
AcDbEntity
  8
# brkc_frm
  6
Continuous
100
AcDbLine
 10
235.4785592719768
 20
319.0385340770327
 30
0.0
 11
235.4785592719768
 21
320.0385340136095
 31
0.0
  0
LINE
  5
379
330
6C
100
AcDbEntity
  8
# brkc_frm
100
AcDbLine
 10
244.4785587176674
 20
318.5385341087442
 30
0.0
 11
236.4785592250536
 21
318.5385341087442
 31
0.0
  0
LINE
  5
380
330
6C
100
AcDbEntity
  8
# slider
  6
Continuous
100
AcDbLine
 10
188.4230886174791
 20
382.3743087063409
 30
0.0
 11
184.5217518831459
 21
382.3743087063409
 31
0.0
  0
LINE
  5
382
330
6C
100
AcDbEntity
  8
# slider
  6
Continuous
100
AcDbLine
 10
188.4230886174787
 20
391.3743081355325
 30
0.0
 11
184.5217518830573
 21
391.3743081355326
 31
0.0
  0
LINE
  5
385
330
6C
100
AcDbEntity
  8
# slider
  6
Continuous
100
AcDbLine
 10
186.2724112067299
 20
389.3743082623789
 30
0.0
 11
184.6075383152438
 21
389.3743082623789
 31
0.0
  0
LINE
  5
387
330
6C
100
AcDbEntity
  8
# slider
  6
Continuous
100
AcDbLine
 10
186.2724112067299
 20
384.3743085794947
 30
0.0
 11
184.6075383152438
 21
384.3743085794947
 31
0.0
  0
LINE
  5
38C
330
6C
100
AcDbEntity
  8
# slider
  6
Continuous
100
AcDbLine
 10
194.3441951002137
 20
315.7885342791577
 30
0.0
 11
195.1025376656171
 21
315.7885342791577
 31
0.0
  0
LINE
  5
38D
330
6C
100
AcDbEntity
  8
# slider
  6
Continuous
100
AcDbLine
 10
184.60253833156
 20
315.2885343108692
 30
0.0
 11
195.1025376656171
 21
315.2885343108692
 31
0.0
  0
LINE
  5
38E
330
6C
100
AcDbEntity
  8
# slider
  6
Continuous
100
AcDbLine
 10
195.1025376656171
 20
315.2885343108692
 30
0.0
 11
195.1025376656171
 21
315.7885342791577
 31
0.0
  0
LINE
  5
38F
330
6C
100
AcDbEntity
  8
# slider
  6
Continuous
100
AcDbLine
 10
184.6025383315605
 20
316.9885342030499
 30
0.0
 11
194.3441951002137
 21
316.9885342030499
 31
0.0
  0
LINE
  5
390
330
6C
100
AcDbEntity
  8
# slider
  6
Continuous
100
AcDbLine
 10
184.6025383315605
 20
316.4885342337615
 30
0.0
 11
194.3441951002137
 21
316.4885342337615
 31
0.0
  0
LINE
  5
391
330
6C
100
AcDbEntity
  8
# slider
  6
Continuous
100
AcDbLine
 10
194.3441951002137
 20
316.9885342030499
 30
0.0
 11
194.3441951002137
 21
315.2885343108692
 31
0.0
  0
LINE
  5
39D
330
6C
100
AcDbEntity
  8
# brkc_frm
100
AcDbLine
 10
78.60254506991394
 20
318.5385341087442
 30
0.0
 11
70.60254557729924
 21
318.5385341087442
 31
0.0
  0
LINE
  5
3C3
330
6C
100
AcDbEntity
  8
hidden
100
AcDbLine
 10
203.4525371372247
 20
313.4885344250311
 30
0.0
 11
203.4525371372247
 21
313.2885344377156
 31
0.0
  0
LINE
  5
3C4
330
6C
100
AcDbEntity
  8
hidden
100
AcDbLine
 10
200.7525373084674
 20
313.4885344386477
 30
0.0
 11
200.7525373084674
 21
313.2885344377156
 31
0.0
  0
LINE
  5
3C5
330
6C
100
AcDbEntity
  8
hidden
100
AcDbLine
 10
199.9525373728224
 20
314.2885343742924
 30
0.0
 11
200.7525373084674
 21
313.4885344386477
 31
0.0
  0
LINE
  5
3C6
330
6C
100
AcDbEntity
  8
hidden
100
AcDbLine
 10
203.4525371372247
 20
313.4885344250311
 30
0.0
 11
204.2525370864864
 21
314.2885343742924
 31
0.0
  0
LINE
  5
3C7
330
6C
100
AcDbEntity
  8
hidden
100
AcDbLine
 10
203.4525371372247
 20
313.4885344250311
 30
0.0
 11
200.7525373084674
 21
313.4885344386477
 31
0.0
  0
LINE
  5
3C8
330
6C
100
AcDbEntity
  8
hidden
100
AcDbLine
 10
207.4525368835316
 20
313.4885344250311
 30
0.0
 11
207.4525368835316
 21
313.2885344377156
 31
0.0
  0
LINE
  5
3C9
330
6C
100
AcDbEntity
  8
hidden
100
AcDbLine
 10
204.7525370547742
 20
313.4885344386477
 30
0.0
 11
204.7525370547742
 21
313.2885344377156
 31
0.0
  0
LINE
  5
3CA
330
6C
100
AcDbEntity
  8
hidden
100
AcDbLine
 10
203.9525371191294
 20
314.2885343742924
 30
0.0
 11
204.7525370547742
 21
313.4885344386477
 31
0.0
  0
LINE
  5
3CB
330
6C
100
AcDbEntity
  8
hidden
100
AcDbLine
 10
207.4525368835316
 20
313.4885344250311
 30
0.0
 11
208.2525368327933
 21
314.2885343742924
 31
0.0
  0
LINE
  5
3CC
330
6C
100
AcDbEntity
  8
hidden
100
AcDbLine
 10
207.4525368835316
 20
313.4885344250311
 30
0.0
 11
204.7525370547742
 21
313.4885344386477
 31
0.0
  0
LINE
  5
3DB
330
6C
100
AcDbEntity
  8
center
100
AcDbLine
 10
206.1025369759623
 20
315.9220956946868
 30
0.0
 11
206.1025369759623
 21
311.5921510293057
 31
0.0
  0
LINE
  5
3DC
330
6C
100
AcDbEntity
  8
center
100
AcDbLine
 10
202.1025372296553
 20
315.9220956946868
 30
0.0
 11
202.1025372296553
 21
311.5921510293057
 31
0.0
  0
LINE
  5
3DD
330
6C
100
AcDbEntity
  8
center
100
AcDbLine
 10
190.6025379545221
 20
319.5943352437816
 30
0.0
 11
190.6025379545221
 21
311.8902999753959
 31
0.0
  0
LINE
  5
3DE
330
6C
100
AcDbEntity
  8
center
100
AcDbLine
 10
240.4785589713602
 20
321.7260339075829
 30
0.0
 11
240.4785589713602
 21
311.6010345437419
 31
0.0
  0
MTEXT
  5
8FD
330
6C
100
AcDbEntity
  8
0
100
AcDbMText
 10
-19.79617902536961
 20
222.4562888556574
 30
0.0
 40
2.5
 41
0.0
 71
     1
 72
     1
  1

 73
     1
 44
1.0
1001
ACAD
1000
MTEXTBEGIN
1070
    73
1070
     1
1070
    44
1040
1.0
1070
    74
1070
     0
1000
MTEXTEND
  0
ENDSEC
  0
SECTION
  2
OBJECTS
  0
DICTIONARY
  5
C
330
0
100
AcDbDictionary
281
     1
  3
ACAD_CIP_PREVIOUS_PRODUCT_INFO
350
9C8
  3
ACAD_COLOR
350
63
  3
ACAD_GROUP
350
D
  3
ACAD_LAYOUT
350
62
  3
ACAD_MATERIAL
350
10
  3
ACAD_MLEADERSTYLE
350
66
  3
ACAD_MLINESTYLE
350
5F
  3
ACAD_PLOTSETTINGS
350
61
  3
ACAD_PLOTSTYLENAME
350
E
  3
ACAD_SCALELIST
350
42
  3
ACAD_TABLESTYLE
350
64
  3
ACAD_VISUALSTYLE
350
29
  3
ACDB_RECOMPOSE_DATA
350
A25
  3
AcDbVariableDictionary
350
9BB
  3
ASE_INDEX_DICTIONARY
350
A1E
  3
DWGPROPS
350
A26
  0
DICTIONARY
  5
9CC
330
54
100
AcDbDictionary
280
     1
281
     1
  3
ADSK_XREC_LAYER_RECONCILED
360
9CD
  0
DICTIONARY
  5
9F
330
9E
100
AcDbDictionary
280
     1
281
     1
  3
ADSK_XREC_LAYER_RECONCILED
360
A0
  0
DICTIONARY
  5
A4
330
A3
100
AcDbDictionary
280
     1
281
     1
  3
ADSK_XREC_LAYER_RECONCILED
360
A5
  0
DICTIONARY
  5
25C
330
25B
100
AcDbDictionary
280
     1
281
     1
  3
ADSK_XREC_LAYER_RECONCILED
360
25D
  0
DICTIONARY
  5
268
330
267
100
AcDbDictionary
280
     1
281
     1
  3
ADSK_XREC_LAYER_RECONCILED
360
269
  0
DICTIONARY
  5
271
330
270
100
AcDbDictionary
280
     1
281
     1
  3
ADSK_XREC_LAYER_RECONCILED
360
272
  0
DICTIONARY
  5
27B
330
27A
100
AcDbDictionary
280
     1
281
     1
  3
ADSK_XREC_LAYER_RECONCILED
360
27C
  0
DICTIONARY
  5
2A0
330
29F
100
AcDbDictionary
280
     1
281
     1
  3
ADSK_XREC_LAYER_RECONCILED
360
2A1
  0
DICTIONARY
  5
2B7
330
2B6
100
AcDbDictionary
280
     1
281
     1
  3
ADSK_XREC_LAYER_RECONCILED
360
2B8
  0
DICTIONARY
  5
2C5
330
2C4
100
AcDbDictionary
280
     1
281
     1
  3
ADSK_XREC_LAYER_RECONCILED
360
2C6
  0
DICTIONARY
  5
300
330
2FF
100
AcDbDictionary
280
     1
281
     1
  3
ADSK_XREC_LAYER_RECONCILED
360
301
  0
DICTIONARY
  5
310
330
30F
100
AcDbDictionary
280
     1
281
     1
  3
ADSK_XREC_LAYER_RECONCILED
360
311
  0
DICTIONARY
  5
314
330
313
100
AcDbDictionary
280
     1
281
     1
  3
ADSK_XREC_LAYER_RECONCILED
360
315
  0
DICTIONARY
  5
358
330
357
100
AcDbDictionary
280
     1
281
     1
  3
ADSK_XREC_LAYER_RECONCILED
360
359
  0
DICTIONARY
  5
37C
330
37B
100
AcDbDictionary
280
     1
281
     1
  3
ADSK_XREC_LAYER_RECONCILED
360
37D
  0
DICTIONARY
  5
3A0
330
39F
100
AcDbDictionary
280
     1
281
     1
  3
ADSK_XREC_LAYER_RECONCILED
360
3A1
  0
DICTIONARY
  5
3E1
330
3E0
100
AcDbDictionary
280
     1
281
     1
  3
ADSK_XREC_LAYER_RECONCILED
360
3E2
  0
DICTIONARY
  5
53D
330
53C
100
AcDbDictionary
280
     1
281
     1
  3
ADSK_XREC_LAYER_RECONCILED
360
53E
  0
DICTIONARY
  5
5C7
330
5C6
100
AcDbDictionary
280
     1
281
     1
  3
ADSK_XREC_LAYER_RECONCILED
360
5C8
  0
DICTIONARY
  5
8FB
330
6C
100
AcDbDictionary
280
     1
281
     1
  3
ACAD_SORTENTS
360
8FC
  0
XRECORD
  5
9C8
102
{ACAD_REACTORS
330
C
102
}
330
C
100
AcDbXrecord
280
     1
300
ACD
300
2012
300
ACD_F_S
  0
DICTIONARY
  5
63
102
{ACAD_REACTORS
330
C
102
}
330
C
100
AcDbDictionary
281
     1
  0
DICTIONARY
  5
D
102
{ACAD_REACTORS
330
C
102
}
330
C
100
AcDbDictionary
281
     1
  0
DICTIONARY
  5
62
102
{ACAD_REACTORS
330
C
102
}
330
C
100
AcDbDictionary
281
     1
  3
Model
350
6F
  3
レイアウト1
350
6B
  3
レイアウト2
350
73
  0
DICTIONARY
  5
10
102
{ACAD_REACTORS
330
C
102
}
330
C
100
AcDbDictionary
281
     1
  3
ByBlock
350
19
  3
ByLayer
350
11
  3
Global
350
21
  0
DICTIONARY
  5
66
102
{ACAD_REACTORS
330
C
102
}
330
C
100
AcDbDictionary
281
     1
  3
ATOM_balloon
350
540
  3
Standard
350
67
  0
DICTIONARY
  5
5F
102
{ACAD_REACTORS
330
C
102
}
330
C
100
AcDbDictionary
281
     1
  3
Standard
350
60
  0
DICTIONARY
  5
61
102
{ACAD_REACTORS
330
C
102
}
330
C
100
AcDbDictionary
281
     1
  0
ACDBDICTIONARYWDFLT
  5
E
102
{ACAD_REACTORS
330
C
102
}
330
C
100
AcDbDictionary
281
     1
  3
invisible
350
89
  3
Normal
350
F
  3
Style 1
350
8A
100
AcDbDictionaryWithDefault
340
F
  0
DICTIONARY
  5
42
102
{ACAD_REACTORS
330
C
102
}
330
C
100
AcDbDictionary
281
     1
  3
*A1
350
8B
  3
*A10
350
93
  3
*A11
350
94
  3
*A12
350
95
  3
*A13
350
96
  3
*A14
350
97
  3
*A15
350
98
  3
*A16
350
99
  3
*A17
350
9A
  3
*A18
350
9B
  3
*A2
350
9C
  3
*A3
350
8C
  3
*A4
350
8D
  3
*A5
350
8E
  3
*A6
350
8F
  3
*A7
350
90
  3
*A8
350
91
  3
*A9
350
92
  3
A0
350
43
  3
A1
350
44
  3
A2
350
45
  3
A3
350
46
  3
A4
350
47
  3
A5
350
48
  3
A6
350
49
  3
A7
350
4A
  3
A8
350
4B
  3
A9
350
4C
  3
B0
350
4D
  3
B1
350
4E
  3
B2
350
4F
  3
B3
350
50
  3
B4
350
51
  3
B5
350
52
  3
B6
350
53
  0
DICTIONARY
  5
64
102
{ACAD_REACTORS
330
C
102
}
330
C
100
AcDbDictionary
281
     1
  3
Standard
350
65
  0
DICTIONARY
  5
29
102
{ACAD_REACTORS
330
C
102
}
330
C
100
AcDbDictionary
281
     1
  3
2dWireframe
350
2F
  3
Basic
350
2E
  3
Brighten
350
35
  3
ColorChange
350
39
  3
Conceptual
350
32
  3
Dim
350
34
  3
EdgeColorOff
350
41
  3
Facepattern
350
38
  3
Flat
350
2A
  3
FlatWithEdges
350
2B
  3
Gouraud
350
2C
  3
GouraudWithEdges
350
2D
  3
Hidden
350
31
  3
JitterOff
350
3F
  3
Linepattern
350
37
  3
OverhangOff
350
40
  3
Realistic
350
33
  3
Shaded
350
3E
  3
Shaded with edges
350
3D
  3
Shades of Gray
350
3A
  3
Sketchy
350
3B
  3
Thicken
350
36
  3
Wireframe
350
30
  3
X-Ray
350
3C
  0
XRECORD
  5
A25
102
{ACAD_REACTORS
330
C
102
}
330
C
100
AcDbXrecord
280
     1
 90
        1
330
65
  0
DICTIONARY
  5
9BB
102
{ACAD_REACTORS
330
C
102
}
330
C
100
AcDbDictionary
281
     1
  3
ANNOALLVISIBLE
350
9BE
  3
CANNOSCALE
350
9BF
  3
CMLEADERSTYLE
350
9BD
  3
CTABLESTYLE
350
9BC
  3
DIMASSOC
350
9D4
  3
HIDETEXT
350
9D2
  3
INDEXCTL
350
9D1
  3
LAYEREVAL
350
9C0
  3
LAYERNOTIFY
350
9C1
  3
LIGHTINGUNITS
350
9CF
  3
MSLTSCALE
350
9CE
  3
SOLIDHIST
350
9D5
  3
SORTENTS
350
9D0
  3
XCLIPFRAME
350
A21
  0
DICTIONARY
  5
A1E
102
{ACAD_REACTORS
330
C
102
}
330
C
100
AcDbDictionary
281
     1
  3
ASEBlockHierarchyIndexRecord
350
A20
1001
DCO15
1040
1881390923.742
  0
XRECORD
  5
A26
102
{ACAD_REACTORS
330
C
102
}
330
C
100
AcDbXrecord
280
     1
  1
DWGPROPS COOKIE
  2

  3

  4

  6

  7

  8
0035sekine
  9

300
=
301
=
302
=
303
=
304
=
305
=
306
=
307
=
308
=
309
=
 40
0.0033486574074074
 41
2457423.448929282
 42
2457578.569765533
  1

 90
        0
  0
XRECORD
  5
9CD
102
{ACAD_REACTORS
330
9CC
102
}
330
9CC
100
AcDbXrecord
280
     1
290
     1
  0
XRECORD
  5
A0
102
{ACAD_REACTORS
330
9F
102
}
330
9F
100
AcDbXrecord
280
     1
290
     1
  0
XRECORD
  5
A5
102
{ACAD_REACTORS
330
A4
102
}
330
A4
100
AcDbXrecord
280
     1
290
     1
  0
XRECORD
  5
25D
102
{ACAD_REACTORS
330
25C
102
}
330
25C
100
AcDbXrecord
280
     1
290
     1
  0
XRECORD
  5
269
102
{ACAD_REACTORS
330
268
102
}
330
268
100
AcDbXrecord
280
     1
290
     1
  0
XRECORD
  5
272
102
{ACAD_REACTORS
330
271
102
}
330
271
100
AcDbXrecord
280
     1
290
     1
  0
XRECORD
  5
27C
102
{ACAD_REACTORS
330
27B
102
}
330
27B
100
AcDbXrecord
280
     1
290
     1
  0
XRECORD
  5
2A1
102
{ACAD_REACTORS
330
2A0
102
}
330
2A0
100
AcDbXrecord
280
     1
290
     1
  0
XRECORD
  5
2B8
102
{ACAD_REACTORS
330
2B7
102
}
330
2B7
100
AcDbXrecord
280
     1
290
     1
  0
XRECORD
  5
2C6
102
{ACAD_REACTORS
330
2C5
102
}
330
2C5
100
AcDbXrecord
280
     1
290
     1
  0
XRECORD
  5
301
102
{ACAD_REACTORS
330
300
102
}
330
300
100
AcDbXrecord
280
     1
290
     1
  0
XRECORD
  5
311
102
{ACAD_REACTORS
330
310
102
}
330
310
100
AcDbXrecord
280
     1
290
     1
  0
XRECORD
  5
315
102
{ACAD_REACTORS
330
314
102
}
330
314
100
AcDbXrecord
280
     1
290
     1
  0
XRECORD
  5
359
102
{ACAD_REACTORS
330
358
102
}
330
358
100
AcDbXrecord
280
     1
290
     1
  0
XRECORD
  5
37D
102
{ACAD_REACTORS
330
37C
102
}
330
37C
100
AcDbXrecord
280
     1
290
     1
  0
XRECORD
  5
3A1
102
{ACAD_REACTORS
330
3A0
102
}
330
3A0
100
AcDbXrecord
280
     1
290
     1
  0
XRECORD
  5
3E2
102
{ACAD_REACTORS
330
3E1
102
}
330
3E1
100
AcDbXrecord
280
     1
290
     1
  0
XRECORD
  5
53E
102
{ACAD_REACTORS
330
53D
102
}
330
53D
100
AcDbXrecord
280
     1
290
     1
  0
XRECORD
  5
5C8
102
{ACAD_REACTORS
330
5C7
102
}
330
5C7
100
AcDbXrecord
280
     1
290
     1
  0
SORTENTSTABLE
  5
8FC
102
{ACAD_REACTORS
330
8FB
102
}
330
8FB
100
AcDbSortentsTable
330
6C
  0
LAYOUT
  5
6F
102
{ACAD_XDICTIONARY
360
A5A
102
}
102
{ACAD_REACTORS
330
62
102
}
330
62
100
AcDbPlotSettings
  1

  2
Microsoft XPS Document Writer
  4
A4
  6

 40
3.174999952316283
 41
3.174999952316283
 42
3.175003051757812
 43
3.17498779296875
 44
210.0156707763672
 45
297.0106506347656
 46
-4.894741058349608
 47
-4.905582427978514
 48
0.0
 49
0.0
140
0.0
141
0.0
142
1.0
143
2.861416782840272
 70
 11954
 72
     1
 73
     1
 74
     0
  7
monochrome.stb
 75
     0
147
0.3494772261059396
148
-7301.979227931735
149
2029.498718362054
100
AcDbLayout
  1
Model
 70
     1
 71
     0
 10
0.0
 20
0.0
 11
12.0
 21
9.0
 12
0.0
 22
0.0
 32
0.0
 14
0.0
 24
0.0
 34
0.0
 15
0.0
 25
0.0
 35
0.0
146
0.0
 13
0.0
 23
0.0
 33
0.0
 16
1.0
 26
0.0
 36
0.0
 17
0.0
 27
1.0
 37
0.0
 76
     0
330
6C
331
57
1001
ACAD_PSEXT
1000
Microsoft XPS Document Writer
1000
Microsoft XPS Document Writer
1000
XPSPort:
1000

1070
     0
  0
LAYOUT
  5
6B
102
{ACAD_XDICTIONARY
360
A58
102
}
102
{ACAD_REACTORS
330
62
102
}
330
62
100
AcDbPlotSettings
  1

  2
Microsoft XPS Document Writer
  4

  6

 40
0.0
 41
0.0
 42
0.0
 43
0.0
 44
0.0
 45
0.0
 46
0.0
 47
0.0
 48
0.0
 49
0.0
140
0.0
141
0.0
142
1.0
143
1.0
 70
   688
 72
     0
 73
     0
 74
     5
  7

 75
    16
147
1.0
148
0.0
149
0.0
100
AcDbLayout
  1
レイアウト1
 70
     1
 71
     1
 10
0.0
 20
0.0
 11
12.0
 21
9.0
 12
0.0
 22
0.0
 32
0.0
 14
1.000000000000000E+20
 24
1.000000000000000E+20
 34
1.000000000000000E+20
 15
-1.000000000000000E+20
 25
-1.000000000000000E+20
 35
-1.000000000000000E+20
146
0.0
 13
0.0
 23
0.0
 33
0.0
 16
1.0
 26
0.0
 36
0.0
 17
0.0
 27
1.0
 37
0.0
 76
     0
330
68
  0
LAYOUT
  5
73
102
{ACAD_XDICTIONARY
360
A5C
102
}
102
{ACAD_REACTORS
330
62
102
}
330
62
100
AcDbPlotSettings
  1

  2
Microsoft XPS Document Writer
  4

  6

 40
0.0
 41
0.0
 42
0.0
 43
0.0
 44
0.0
 45
0.0
 46
0.0
 47
0.0
 48
0.0
 49
0.0
140
0.0
141
0.0
142
1.0
143
1.0
 70
   688
 72
     0
 73
     0
 74
     5
  7

 75
    16
147
1.0
148
0.0
149
0.0
100
AcDbLayout
  1
レイアウト2
 70
     1
 71
     2
 10
0.0
 20
0.0
 11
12.0
 21
9.0
 12
0.0
 22
0.0
 32
0.0
 14
0.0
 24
0.0
 34
0.0
 15
0.0
 25
0.0
 35
0.0
146
0.0
 13
0.0
 23
0.0
 33
0.0
 16
1.0
 26
0.0
 36
0.0
 17
0.0
 27
1.0
 37
0.0
 76
     0
330
70
  0
MATERIAL
  5
19
102
{ACAD_XDICTIONARY
360
1A
102
}
102
{ACAD_REACTORS
330
10
102
}
330
10
100
AcDbMaterial
  1
ByBlock
 72
     0
 43
0.0208333333333333
 43
0.0
 43
0.0
 43
0.0
 43
0.0
 43
0.0208333333333333
 43
0.0
 43
0.0
 43
0.0
 43
0.0
 43
1.0
 43
0.0
 43
0.0
 43
0.0
 43
0.0
 43
1.0
 77
     0
 47
0.0208333333333333
 47
0.0
 47
0.0
 47
0.0
 47
0.0
 47
0.0208333333333333
 47
0.0
 47
0.0
 47
0.0
 47
0.0
 47
1.0
 47
0.0
 47
0.0
 47
0.0
 47
0.0
 47
1.0
171
     0
 49
0.0208333333333333
 49
0.0
 49
0.0
 49
0.0
 49
0.0
 49
0.0208333333333333
 49
0.0
 49
0.0
 49
0.0
 49
0.0
 49
1.0
 49
0.0
 49
0.0
 49
0.0
 49
0.0
 49
1.0
175
     0
142
0.0208333333333333
142
0.0
142
0.0
142
0.0
142
0.0
142
0.0208333333333333
142
0.0
142
0.0
142
0.0
142
0.0
142
1.0
142
0.0
142
0.0
142
0.0
142
0.0
142
1.0
179
     0
144
0.0208333333333333
144
0.0
144
0.0
144
0.0
144
0.0
144
0.0208333333333333
144
0.0
144
0.0
144
0.0
144
0.0
144
1.0
144
0.0
144
0.0
144
0.0
144
0.0
144
1.0
147
0.0208333333333333
147
0.0
147
0.0
147
0.0
147
0.0
147
0.0208333333333333
147
0.0
147
0.0
147
0.0
147
0.0
147
1.0
147
0.0
147
0.0
147
0.0
147
0.0
147
1.0
  0
MATERIAL
  5
11
102
{ACAD_XDICTIONARY
360
12
102
}
102
{ACAD_REACTORS
330
10
102
}
330
10
100
AcDbMaterial
  1
ByLayer
 72
     0
 43
0.0208333333333333
 43
0.0
 43
0.0
 43
0.0
 43
0.0
 43
0.0208333333333333
 43
0.0
 43
0.0
 43
0.0
 43
0.0
 43
1.0
 43
0.0
 43
0.0
 43
0.0
 43
0.0
 43
1.0
 77
     0
 47
0.0208333333333333
 47
0.0
 47
0.0
 47
0.0
 47
0.0
 47
0.0208333333333333
 47
0.0
 47
0.0
 47
0.0
 47
0.0
 47
1.0
 47
0.0
 47
0.0
 47
0.0
 47
0.0
 47
1.0
171
     0
 49
0.0208333333333333
 49
0.0
 49
0.0
 49
0.0
 49
0.0
 49
0.0208333333333333
 49
0.0
 49
0.0
 49
0.0
 49
0.0
 49
1.0
 49
0.0
 49
0.0
 49
0.0
 49
0.0
 49
1.0
175
     0
142
0.0208333333333333
142
0.0
142
0.0
142
0.0
142
0.0
142
0.0208333333333333
142
0.0
142
0.0
142
0.0
142
0.0
142
1.0
142
0.0
142
0.0
142
0.0
142
0.0
142
1.0
179
     0
144
0.0208333333333333
144
0.0
144
0.0
144
0.0
144
0.0
144
0.0208333333333333
144
0.0
144
0.0
144
0.0
144
0.0
144
1.0
144
0.0
144
0.0
144
0.0
144
0.0
144
1.0
147
0.0208333333333333
147
0.0
147
0.0
147
0.0
147
0.0
147
0.0208333333333333
147
0.0
147
0.0
147
0.0
147
0.0
147
1.0
147
0.0
147
0.0
147
0.0
147
0.0
147
1.0
  0
MATERIAL
  5
21
102
{ACAD_XDICTIONARY
360
22
102
}
102
{ACAD_REACTORS
330
10
102
}
330
10
100
AcDbMaterial
  1
Global
 72
     0
 43
0.0208333333333333
 43
0.0
 43
0.0
 43
0.0
 43
0.0
 43
0.0208333333333333
 43
0.0
 43
0.0
 43
0.0
 43
0.0
 43
1.0
 43
0.0
 43
0.0
 43
0.0
 43
0.0
 43
1.0
 77
     0
 47
0.0208333333333333
 47
0.0
 47
0.0
 47
0.0
 47
0.0
 47
0.0208333333333333
 47
0.0
 47
0.0
 47
0.0
 47
0.0
 47
1.0
 47
0.0
 47
0.0
 47
0.0
 47
0.0
 47
1.0
171
     0
 49
0.0208333333333333
 49
0.0
 49
0.0
 49
0.0
 49
0.0
 49
0.0208333333333333
 49
0.0
 49
0.0
 49
0.0
 49
0.0
 49
1.0
 49
0.0
 49
0.0
 49
0.0
 49
0.0
 49
1.0
175
     0
142
0.0208333333333333
142
0.0
142
0.0
142
0.0
142
0.0
142
0.0208333333333333
142
0.0
142
0.0
142
0.0
142
0.0
142
1.0
142
0.0
142
0.0
142
0.0
142
0.0
142
1.0
179
     0
144
0.0208333333333333
144
0.0
144
0.0
144
0.0
144
0.0
144
0.0208333333333333
144
0.0
144
0.0
144
0.0
144
0.0
144
1.0
144
0.0
144
0.0
144
0.0
144
0.0
144
1.0
147
0.0208333333333333
147
0.0
147
0.0
147
0.0
147
0.0
147
0.0208333333333333
147
0.0
147
0.0
147
0.0
147
0.0
147
1.0
147
0.0
147
0.0
147
0.0
147
0.0
147
1.0
  0
MLEADERSTYLE
  5
540
102
{ACAD_REACTORS
330
66
102
}
330
66
100
AcDbMLeaderStyle
170
     1
171
     1
172
     0
 90
        2
 40
0.0
 41
0.0
173
     1
 91
-1073741824
 92
       -2
290
     1
 42
2.0
291
     0
 43
-0.36
  3
Standard
341
80
 44
2.399999999999999
300

342
76
174
     1
178
     6
175
     1
176
     0
 93
-1023410173
 45
3.0
292
     0
297
     0
 46
4.0
343
541
 94
-1073741824
 47
1.0
 49
1.0
140
1.0
293
     1
141
0.0
294
     1
177
     0
142
1.0
295
     0
296
     1
143
3.75
1001
ACAD_MLEADERVER
1070
     2
  0
MLEADERSTYLE
  5
67
102
{ACAD_XDICTIONARY
360
A23
102
}
102
{ACAD_REACTORS
330
66
102
}
330
66
100
AcDbMLeaderStyle
170
     2
171
     1
172
     0
 90
        2
 40
0.0
 41
0.0
173
     1
 91
-1056964608
340
5B
 92
       -2
290
     1
 42
0.09
291
     1
 43
0.36
  3
Standard
 44
0.18
300

342
55
174
     1
178
     6
175
     1
176
     0
 93
-1056964608
 45
0.18
292
     0
297
     0
 46
0.18
 94
-1056964608
 47
1.0
 49
1.0
140
1.0
293
     1
141
0.0
294
     1
177
     0
142
1.0
295
     0
296
     0
143
0.125
1001
ACAD_MLEADERVER
1070
     2
  0
MLINESTYLE
  5
60
102
{ACAD_REACTORS
330
5F
102
}
330
5F
100
AcDbMlineStyle
  2
STANDARD
 70
     0
  3

 62
   256
 51
90.0
 52
90.0
 71
     2
 49
0.5
 62
   256
  6
BYLAYER
 49
-0.5
 62
   256
  6
BYLAYER
  0
ACDBPLACEHOLDER
  5
89
102
{ACAD_REACTORS
330
E
102
}
330
E
  0
ACDBPLACEHOLDER
  5
F
102
{ACAD_REACTORS
330
E
102
}
330
E
  0
ACDBPLACEHOLDER
  5
8A
102
{ACAD_REACTORS
330
E
102
}
330
E
  0
SCALE
  5
8B
102
{ACAD_REACTORS
330
42
102
}
330
42
100
AcDbScale
 70
     0
300
3:1
140
3.0
141
1.0
290
     0
  0
SCALE
  5
93
102
{ACAD_REACTORS
330
42
102
}
330
42
100
AcDbScale
 70
     0
300
3/16" = 1'-0"
140
0.1875
141
12.0
290
     0
  0
SCALE
  5
94
102
{ACAD_REACTORS
330
42
102
}
330
42
100
AcDbScale
 70
     0
300
1/4" = 1'-0"
140
0.25
141
12.0
290
     0
  0
SCALE
  5
95
102
{ACAD_REACTORS
330
42
102
}
330
42
100
AcDbScale
 70
     0
300
3/8" = 1'-0"
140
0.375
141
12.0
290
     0
  0
SCALE
  5
96
102
{ACAD_REACTORS
330
42
102
}
330
42
100
AcDbScale
 70
     0
300
1/2" = 1'-0"
140
0.5
141
12.0
290
     0
  0
SCALE
  5
97
102
{ACAD_REACTORS
330
42
102
}
330
42
100
AcDbScale
 70
     0
300
3/4" = 1'-0"
140
0.75
141
12.0
290
     0
  0
SCALE
  5
98
102
{ACAD_REACTORS
330
42
102
}
330
42
100
AcDbScale
 70
     0
300
1" = 1'-0"
140
1.0
141
12.0
290
     0
  0
SCALE
  5
99
102
{ACAD_REACTORS
330
42
102
}
330
42
100
AcDbScale
 70
     0
300
1-1/2" = 1'-0"
140
1.5
141
12.0
290
     0
  0
SCALE
  5
9A
102
{ACAD_REACTORS
330
42
102
}
330
42
100
AcDbScale
 70
     0
300
3" = 1'-0"
140
3.0
141
12.0
290
     0
  0
SCALE
  5
9B
102
{ACAD_REACTORS
330
42
102
}
330
42
100
AcDbScale
 70
     0
300
6" = 1'-0"
140
6.0
141
12.0
290
     0
  0
SCALE
  5
9C
102
{ACAD_REACTORS
330
42
102
}
330
42
100
AcDbScale
 70
     0
300
1'-0" = 1'-0"
140
12.0
141
12.0
290
     0
  0
SCALE
  5
8C
102
{ACAD_REACTORS
330
42
102
}
330
42
100
AcDbScale
 70
     0
300
5:1
140
5.0
141
1.0
290
     0
  0
SCALE
  5
8D
102
{ACAD_REACTORS
330
42
102
}
330
42
100
AcDbScale
 70
     0
300
1/128" = 1'-0"
140
0.0078125
141
12.0
290
     0
  0
SCALE
  5
8E
102
{ACAD_REACTORS
330
42
102
}
330
42
100
AcDbScale
 70
     0
300
1/64" = 1'-0"
140
0.015625
141
12.0
290
     0
  0
SCALE
  5
8F
102
{ACAD_REACTORS
330
42
102
}
330
42
100
AcDbScale
 70
     0
300
1/32" = 1'-0"
140
0.03125
141
12.0
290
     0
  0
SCALE
  5
90
102
{ACAD_REACTORS
330
42
102
}
330
42
100
AcDbScale
 70
     0
300
1/16" = 1'-0"
140
0.0625
141
12.0
290
     0
  0
SCALE
  5
91
102
{ACAD_REACTORS
330
42
102
}
330
42
100
AcDbScale
 70
     0
300
3/32" = 1'-0"
140
0.09375
141
12.0
290
     0
  0
SCALE
  5
92
102
{ACAD_REACTORS
330
42
102
}
330
42
100
AcDbScale
 70
     0
300
1/8" = 1'-0"
140
0.125
141
12.0
290
     0
  0
SCALE
  5
43
102
{ACAD_REACTORS
330
42
102
}
330
42
100
AcDbScale
 70
     0
300
1:1
140
1.0
141
1.0
290
     1
  0
SCALE
  5
44
102
{ACAD_REACTORS
330
42
102
}
330
42
100
AcDbScale
 70
     0
300
1:2
140
1.0
141
2.0
290
     0
  0
SCALE
  5
45
102
{ACAD_REACTORS
330
42
102
}
330
42
100
AcDbScale
 70
     0
300
1:4
140
1.0
141
4.0
290
     0
  0
SCALE
  5
46
102
{ACAD_REACTORS
330
42
102
}
330
42
100
AcDbScale
 70
     0
300
1:5
140
1.0
141
5.0
290
     0
  0
SCALE
  5
47
102
{ACAD_REACTORS
330
42
102
}
330
42
100
AcDbScale
 70
     0
300
1:8
140
1.0
141
8.0
290
     0
  0
SCALE
  5
48
102
{ACAD_REACTORS
330
42
102
}
330
42
100
AcDbScale
 70
     0
300
1:10
140
1.0
141
10.0
290
     0
  0
SCALE
  5
49
102
{ACAD_REACTORS
330
42
102
}
330
42
100
AcDbScale
 70
     0
300
1:16
140
1.0
141
16.0
290
     0
  0
SCALE
  5
4A
102
{ACAD_REACTORS
330
42
102
}
330
42
100
AcDbScale
 70
     0
300
1:20
140
1.0
141
20.0
290
     0
  0
SCALE
  5
4B
102
{ACAD_REACTORS
330
42
102
}
330
42
100
AcDbScale
 70
     0
300
1:30
140
1.0
141
30.0
290
     0
  0
SCALE
  5
4C
102
{ACAD_REACTORS
330
42
102
}
330
42
100
AcDbScale
 70
     0
300
1:40
140
1.0
141
40.0
290
     0
  0
SCALE
  5
4D
102
{ACAD_REACTORS
330
42
102
}
330
42
100
AcDbScale
 70
     0
300
1:50
140
1.0
141
50.0
290
     0
  0
SCALE
  5
4E
102
{ACAD_REACTORS
330
42
102
}
330
42
100
AcDbScale
 70
     0
300
1:100
140
1.0
141
100.0
290
     0
  0
SCALE
  5
4F
102
{ACAD_REACTORS
330
42
102
}
330
42
100
AcDbScale
 70
     0
300
2:1
140
2.0
141
1.0
290
     0
  0
SCALE
  5
50
102
{ACAD_REACTORS
330
42
102
}
330
42
100
AcDbScale
 70
     0
300
4:1
140
4.0
141
1.0
290
     0
  0
SCALE
  5
51
102
{ACAD_REACTORS
330
42
102
}
330
42
100
AcDbScale
 70
     0
300
8:1
140
8.0
141
1.0
290
     0
  0
SCALE
  5
52
102
{ACAD_REACTORS
330
42
102
}
330
42
100
AcDbScale
 70
     0
300
10:1
140
10.0
141
1.0
290
     0
  0
SCALE
  5
53
102
{ACAD_REACTORS
330
42
102
}
330
42
100
AcDbScale
 70
     0
300
100:1
140
100.0
141
1.0
290
     0
  0
TABLESTYLE
  5
65
102
{ACAD_XDICTIONARY
360
9D7
102
}
102
{ACAD_REACTORS
330
64
102
}
330
64
100
AcDbTableStyle
  3
Standard
 70
     0
 71
     3
 40
1.5
 41
1.5
280
     0
281
     0
  7
Standard
140
4.5
170
     2
 62
     0
 63
     7
283
     0
274
    -2
284
     1
 64
     0
275
    -2
285
     1
 65
     0
276
    -2
286
     1
 66
     0
277
    -2
287
     1
 67
     0
278
    -2
288
     1
 68
     0
279
    -2
289
     1
 69
     0
  7
Standard
140
6.0
170
     5
 62
     0
 63
     7
283
     0
274
    -2
284
     1
 64
     0
275
    -2
285
     1
 65
     0
276
    -2
286
     1
 66
     0
277
    -2
287
     1
 67
     0
278
    -2
288
     1
 68
     0
279
    -2
289
     1
 69
     0
  7
Standard
140
4.5
170
     5
 62
     0
 63
     7
283
     0
274
    -2
284
     1
 64
     0
275
    -2
285
     1
 65
     0
276
    -2
286
     1
 66
     0
277
    -2
287
     1
 67
     0
278
    -2
288
     1
 68
     0
279
    -2
289
     1
 69
     0
  0
VISUALSTYLE
  5
2F
102
{ACAD_XDICTIONARY
360
A31
102
}
102
{ACAD_REACTORS
330
29
102
}
330
29
100
AcDbVisualStyle
  2

 70
     4
 71
     0
 72
     2
 73
     0
 90
        0
 40
-0.6
 41
-30.0
 62
     5
 63
     7
 74
     1
 91
        4
 64
     7
 65
   257
 75
     1
175
     1
 42
1.0
 92
        0
 66
   257
 43
1.0
 76
     1
 77
     6
 78
     2
 67
     7
 79
     5
170
     0
171
     0
290
     0
174
     0
 93
        1
 44
0.0
173
     0
291
     0
 45
0.0
1001
ACAD
1000
AcDbSavedByObjectVersion
1070
     0
  0
VISUALSTYLE
  5
2E
102
{ACAD_XDICTIONARY
360
A2F
102
}
102
{ACAD_REACTORS
330
29
102
}
330
29
100
AcDbVisualStyle
  2

 70
     7
 71
     1
 72
     0
 73
     1
 90
        0
 40
-0.6
 41
-30.0
 62
     5
 63
     7
 74
     0
 91
        4
 64
     7
 65
   257
 75
     1
175
     1
 42
1.0
 92
        8
 66
     7
 43
1.0
 76
     1
 77
     6
 78
     2
 67
     7
 79
     5
170
     0
171
     0
290
     0
174
     0
 93
        1
 44
0.0
173
     0
291
     1
 45
0.0
1001
ACAD
1000
AcDbSavedByObjectVersion
1070
     0
  0
VISUALSTYLE
  5
35
102
{ACAD_XDICTIONARY
360
A3D
102
}
102
{ACAD_REACTORS
330
29
102
}
330
29
100
AcDbVisualStyle
  2

 70
    12
 71
     2
 72
     2
 73
     0
 90
        0
 40
-0.6
 41
-30.0
 62
     5
 63
     7
 74
     1
 91
        4
 64
     7
 65
   257
 75
     1
175
     1
 42
1.0
 92
        8
 66
     7
 43
1.0
 76
     1
 77
     6
 78
     2
 67
     7
 79
     5
170
     0
171
     0
290
     0
174
     0
 93
        1
 44
50.0
173
     0
291
     1
 45
0.0
1001
ACAD
1000
AcDbSavedByObjectVersion
1070
     0
  0
VISUALSTYLE
  5
39
102
{ACAD_XDICTIONARY
360
A45
102
}
102
{ACAD_REACTORS
330
29
102
}
330
29
100
AcDbVisualStyle
  2

 70
    16
 71
     2
 72
     2
 73
     3
 90
        0
 40
-0.6
 41
-30.0
 62
     5
 63
     8
 74
     1
 91
        4
 64
     7
 65
   257
 75
     1
175
     1
 42
1.0
 92
        8
 66
     8
 43
1.0
 76
     1
 77
     6
 78
     2
 67
     7
 79
     5
170
     0
171
     0
290
     0
174
     0
 93
        1
 44
0.0
173
     0
291
     1
 45
0.0
1001
ACAD
1000
AcDbSavedByObjectVersion
1070
     0
  0
VISUALSTYLE
  5
32
102
{ACAD_XDICTIONARY
360
A37
102
}
102
{ACAD_REACTORS
330
29
102
}
330
29
100
AcDbVisualStyle
  2

 70
     9
 71
     3
 72
     2
 73
     0
 90
        0
 40
-0.6
 41
-30.0
 62
     5
 63
     7
 74
     2
 91
        2
 64
     7
 65
   257
 75
     1
175
     1
 42
179.0
 92
        8
 66
     7
 43
1.0
 76
     1
 77
     6
 78
     2
 67
     7
 79
     3
170
     0
171
     0
290
     0
174
     0
 93
        1
 44
0.0
173
     0
291
     0
 45
0.0
1001
ACAD
1000
AcDbSavedByObjectVersion
1070
     0
  0
VISUALSTYLE
  5
34
102
{ACAD_XDICTIONARY
360
A3B
102
}
102
{ACAD_REACTORS
330
29
102
}
330
29
100
AcDbVisualStyle
  2

 70
    11
 71
     2
 72
     2
 73
     0
 90
        0
 40
-0.6
 41
-30.0
 62
     5
 63
     7
 74
     1
 91
        4
 64
     7
 65
   257
 75
     1
175
     1
 42
1.0
 92
        8
 66
     7
 43
1.0
 76
     1
 77
     6
 78
     2
 67
     7
 79
     5
170
     0
171
     0
290
     0
174
     0
 93
        1
 44
-50.0
173
     0
291
     1
 45
0.0
1001
ACAD
1000
AcDbSavedByObjectVersion
1070
     0
  0
VISUALSTYLE
  5
41
102
{ACAD_XDICTIONARY
360
A55
102
}
102
{ACAD_REACTORS
330
29
102
}
330
29
100
AcDbVisualStyle
  2

 70
    22
 71
     2
 72
     2
 73
     0
 90
        0
 40
-0.6
 41
-30.0
 62
     5
 63
     7
 74
     1
 91
        4
 64
     7
 65
   257
 75
     1
175
     1
 42
1.0
 92
        8
 66
     7
 43
1.0
 76
     1
 77
     6
 78
     2
 67
     7
 79
     5
170
     0
171
     0
290
     0
174
     0
 93
        1
 44
0.0
173
     0
291
     1
 45
0.0
1001
ACAD
1000
AcDbSavedByObjectVersion
1070
     0
  0
VISUALSTYLE
  5
38
102
{ACAD_XDICTIONARY
360
A43
102
}
102
{ACAD_REACTORS
330
29
102
}
330
29
100
AcDbVisualStyle
  2

 70
    15
 71
     2
 72
     2
 73
     0
 90
        0
 40
-0.6
 41
-30.0
 62
     5
 63
     7
 74
     1
 91
        4
 64
     7
 65
   257
 75
     1
175
     1
 42
1.0
 92
        8
 66
     7
 43
1.0
 76
     1
 77
     6
 78
     2
 67
     7
 79
     5
170
     0
171
     0
290
     0
174
     0
 93
        1
 44
0.0
173
     0
291
     1
 45
0.0
1001
ACAD
1000
AcDbSavedByObjectVersion
1070
     0
  0
VISUALSTYLE
  5
2A
102
{ACAD_XDICTIONARY
360
A27
102
}
102
{ACAD_REACTORS
330
29
102
}
330
29
100
AcDbVisualStyle
  2

 70
     0
 71
     2
 72
     1
 73
     1
 90
        2
 40
-0.6
 41
30.0
 62
     5
 63
     7
 74
     0
 91
        0
 64
     7
 65
   257
 75
     1
175
     1
 42
1.0
 92
        8
 66
     7
 43
1.0
 76
     1
 77
     6
 78
     2
 67
     7
 79
     5
170
     0
171
     0
290
     0
174
     0
 93
       13
 44
0.0
173
     0
291
     1
 45
0.0
1001
ACAD
1000
AcDbSavedByObjectVersion
1070
     0
  0
VISUALSTYLE
  5
2B
102
{ACAD_XDICTIONARY
360
A29
102
}
102
{ACAD_REACTORS
330
29
102
}
330
29
100
AcDbVisualStyle
  2

 70
     1
 71
     2
 72
     1
 73
     1
 90
        2
 40
-0.6
 41
30.0
 62
     5
 63
     7
 74
     1
 91
        0
 64
     7
 65
   257
 75
     1
175
     1
 42
1.0
 92
        0
 66
   257
 43
1.0
 76
     1
 77
     6
 78
     2
 67
     7
 79
     5
170
     0
171
     0
290
     0
174
     0
 93
       13
 44
0.0
173
     0
291
     1
 45
0.0
1001
ACAD
1000
AcDbSavedByObjectVersion
1070
     0
  0
VISUALSTYLE
  5
2C
102
{ACAD_XDICTIONARY
360
A2B
102
}
102
{ACAD_REACTORS
330
29
102
}
330
29
100
AcDbVisualStyle
  2

 70
     2
 71
     2
 72
     2
 73
     1
 90
        2
 40
-0.6
 41
30.0
 62
     5
 63
     7
 74
     0
 91
        0
 64
     7
 65
   257
 75
     1
175
     1
 42
1.0
 92
        0
 66
     7
 43
1.0
 76
     1
 77
     6
 78
     2
 67
     7
 79
     5
170
     0
171
     0
290
     0
174
     0
 93
       13
 44
0.0
173
     0
291
     1
 45
0.0
1001
ACAD
1000
AcDbSavedByObjectVersion
1070
     0
  0
VISUALSTYLE
  5
2D
102
{ACAD_XDICTIONARY
360
A2D
102
}
102
{ACAD_REACTORS
330
29
102
}
330
29
100
AcDbVisualStyle
  2

 70
     3
 71
     2
 72
     2
 73
     1
 90
        2
 40
-0.6
 41
30.0
 62
     5
 63
     7
 74
     1
 91
        0
 64
     7
 65
   257
 75
     1
175
     1
 42
1.0
 92
        0
 66
   257
 43
1.0
 76
     1
 77
     6
 78
     2
 67
     7
 79
     5
170
     0
171
     0
290
     0
174
     0
 93
       13
 44
0.0
173
     0
291
     1
 45
0.0
1001
ACAD
1000
AcDbSavedByObjectVersion
1070
     0
  0
VISUALSTYLE
  5
31
102
{ACAD_XDICTIONARY
360
A35
102
}
102
{ACAD_REACTORS
330
29
102
}
330
29
100
AcDbVisualStyle
  2

 70
     6
 71
     1
 72
     2
 73
     2
 90
        0
 40
-0.6
 41
-30.0
 62
     5
 63
     7
 74
     2
 91
        2
 64
     7
 65
   257
 75
     2
175
     1
 42
40.0
 92
        0
 66
   257
 43
1.0
 76
     1
 77
     6
 78
     2
 67
     7
 79
     3
170
     0
171
     0
290
     0
174
     0
 93
        1
 44
0.0
173
     0
291
     0
 45
0.0
1001
ACAD
1000
AcDbSavedByObjectVersion
1070
     0
  0
VISUALSTYLE
  5
3F
102
{ACAD_XDICTIONARY
360
A51
102
}
102
{ACAD_REACTORS
330
29
102
}
330
29
100
AcDbVisualStyle
  2

 70
    20
 71
     2
 72
     2
 73
     0
 90
        0
 40
-0.6
 41
-30.0
 62
     5
 63
     7
 74
     1
 91
        4
 64
     7
 65
   257
 75
     1
175
     1
 42
1.0
 92
       10
 66
     7
 43
1.0
 76
     1
 77
     6
 78
     2
 67
     7
 79
     5
170
     0
171
     0
290
     0
174
     0
 93
        1
 44
0.0
173
     0
291
     1
 45
0.0
1001
ACAD
1000
AcDbSavedByObjectVersion
1070
     0
  0
VISUALSTYLE
  5
37
102
{ACAD_XDICTIONARY
360
A41
102
}
102
{ACAD_REACTORS
330
29
102
}
330
29
100
AcDbVisualStyle
  2

 70
    14
 71
     2
 72
     2
 73
     0
 90
        0
 40
-0.6
 41
-30.0
 62
     5
 63
     7
 74
     1
 91
        4
 64
     7
 65
   257
 75
     7
175
     7
 42
1.0
 92
        8
 66
     7
 43
1.0
 76
     1
 77
     6
 78
     2
 67
     7
 79
     5
170
     0
171
     0
290
     0
174
     0
 93
        1
 44
0.0
173
     0
291
     1
 45
0.0
1001
ACAD
1000
AcDbSavedByObjectVersion
1070
     0
  0
VISUALSTYLE
  5
40
102
{ACAD_XDICTIONARY
360
A53
102
}
102
{ACAD_REACTORS
330
29
102
}
330
29
100
AcDbVisualStyle
  2

 70
    21
 71
     2
 72
     2
 73
     0
 90
        0
 40
-0.6
 41
-30.0
 62
     5
 63
     7
 74
     1
 91
        4
 64
     7
 65
   257
 75
     1
175
     1
 42
1.0
 92
        9
 66
     7
 43
1.0
 76
     1
 77
     6
 78
     2
 67
     7
 79
     5
170
     0
171
     0
290
     0
174
     0
 93
        1
 44
0.0
173
     0
291
     1
 45
0.0
1001
ACAD
1000
AcDbSavedByObjectVersion
1070
     0
  0
VISUALSTYLE
  5
33
102
{ACAD_XDICTIONARY
360
A39
102
}
102
{ACAD_REACTORS
330
29
102
}
330
29
100
AcDbVisualStyle
  2

 70
     8
 71
     2
 72
     3
 73
     0
 90
        2
 40
-0.6
 41
30.0
 62
     5
 63
     7
 74
     0
 91
        0
 64
     7
 65
   257
 75
     1
175
     1
 42
1.0
 92
        8
 66
   257
 43
1.0
 76
     1
 77
     6
 78
     2
 67
     7
 79
     3
170
     0
171
     0
290
     0
174
     0
 93
       13
 44
0.0
173
     0
291
     0
 45
0.0
1001
ACAD
1000
AcDbSavedByObjectVersion
1070
     0
  0
VISUALSTYLE
  5
3E
102
{ACAD_XDICTIONARY
360
A4F
102
}
102
{ACAD_REACTORS
330
29
102
}
330
29
100
AcDbVisualStyle
  2

 70
    27
 71
     2
 72
     2
 73
     1
 90
        2
 40
-0.6
 41
30.0
 62
     5
 63
     7
 74
     0
 91
        4
 64
     7
 65
   257
 75
     1
175
     1
 42
1.0
 92
        8
 66
   257
 43
1.0
 76
     1
 77
     6
 78
     2
 67
     8
 79
     3
170
     0
171
     0
290
     0
174
     0
 93
        5
 44
0.0
173
     0
291
     0
 45
0.0
1001
ACAD
1000
AcDbSavedByObjectVersion
1070
     0
  0
VISUALSTYLE
  5
3D
102
{ACAD_XDICTIONARY
360
A4D
102
}
102
{ACAD_REACTORS
330
29
102
}
330
29
100
AcDbVisualStyle
  2

 70
    26
 71
     2
 72
     2
 73
     1
 90
        2
 40
-0.6
 41
30.0
 62
     5
 63
     7
 74
     1
 91
       10
 64
     7
 65
   257
 75
     2
175
     1
 42
1.0
 92
        8
 66
   257
 43
1.0
 76
     1
 77
     6
 78
     2
 67
     7
 79
     3
170
     0
171
     0
290
     0
174
     0
 93
        5
 44
0.0
173
     0
291
     0
 45
0.0
1001
ACAD
1000
AcDbSavedByObjectVersion
1070
     0
  0
VISUALSTYLE
  5
3A
102
{ACAD_XDICTIONARY
360
A47
102
}
102
{ACAD_REACTORS
330
29
102
}
330
29
100
AcDbVisualStyle
  2

 70
    23
 71
     2
 72
     2
 73
     3
 90
        0
 40
-0.6
 41
-30.0
 62
     5
 63
     7
 74
     2
 91
        2
 64
     7
 65
     7
 75
     1
175
     1
 42
40.0
 92
        8
 66
     7
 43
1.0
 76
     1
 77
     6
 78
     2
 67
     7
 79
     3
170
     0
171
     0
290
     0
174
     0
 93
        1
 44
0.0
173
     0
291
     0
 45
0.0
1001
ACAD
1000
AcDbSavedByObjectVersion
1070
     0
  0
VISUALSTYLE
  5
3B
102
{ACAD_XDICTIONARY
360
A49
102
}
102
{ACAD_REACTORS
330
29
102
}
330
29
100
AcDbVisualStyle
  2

 70
    24
 71
     1
 72
     2
 73
     2
 90
        0
 40
-0.6
 41
-30.0
 62
     5
 63
     7
 74
     2
 91
        2
 64
     7
 65
     7
 75
     1
175
     1
 42
40.0
 92
       11
 66
     7
 43
1.0
 76
     1
 77
     6
 78
     2
 67
     7
 79
     6
170
     0
171
     0
290
     0
174
     0
 93
        1
 44
0.0
173
     0
291
     0
 45
0.0
1001
ACAD
1000
AcDbSavedByObjectVersion
1070
     0
  0
VISUALSTYLE
  5
36
102
{ACAD_XDICTIONARY
360
A3F
102
}
102
{ACAD_REACTORS
330
29
102
}
330
29
100
AcDbVisualStyle
  2

 70
    13
 71
     2
 72
     2
 73
     0
 90
        0
 40
-0.6
 41
-30.0
 62
     5
 63
     7
 74
     1
 91
        4
 64
     7
 65
   257
 75
     1
175
     1
 42
1.0
 92
       12
 66
     7
 43
1.0
 76
     1
 77
     6
 78
     2
 67
     7
 79
     5
170
     0
171
     0
290
     0
174
     0
 93
        1
 44
0.0
173
     0
291
     1
 45
0.0
1001
ACAD
1000
AcDbSavedByObjectVersion
1070
     0
  0
VISUALSTYLE
  5
30
102
{ACAD_XDICTIONARY
360
A33
102
}
102
{ACAD_REACTORS
330
29
102
}
330
29
100
AcDbVisualStyle
  2

 70
     5
 71
     0
 72
     2
 73
     0
 90
        0
 40
-0.6
 41
-30.0
 62
     5
 63
     7
 74
     1
 91
        4
 64
     7
 65
   257
 75
     1
175
     1
 42
1.0
 92
        0
 66
   257
 43
1.0
 76
     1
 77
     6
 78
     2
 67
     7
 79
     3
170
     0
171
     0
290
     0
174
     0
 93
        1
 44
0.0
173
     0
291
     0
 45
0.0
1001
ACAD
1000
AcDbSavedByObjectVersion
1070
     0
  0
VISUALSTYLE
  5
3C
102
{ACAD_XDICTIONARY
360
A4B
102
}
102
{ACAD_REACTORS
330
29
102
}
330
29
100
AcDbVisualStyle
  2

 70
    25
 71
     2
 72
     2
 73
     1
 90
        1
 40
0.5
 41
-30.0
 62
     5
 63
     7
 74
     1
 91
        0
 64
     7
 65
   257
 75
     1
175
     1
 42
1.0
 92
        8
 66
     7
 43
1.0
 76
     1
 77
     6
 78
     2
 67
     7
 79
     3
170
     0
171
     0
290
     0
174
     0
 93
       13
 44
0.0
173
     0
291
     0
 45
0.0
1001
ACAD
1000
AcDbSavedByObjectVersion
1070
     0
  0
DICTIONARYVAR
  5
9BE
102
{ACAD_REACTORS
330
9BB
102
}
330
9BB
100
DictionaryVariables
280
     0
  1
0
  0
DICTIONARYVAR
  5
9BF
102
{ACAD_REACTORS
330
9BB
102
}
330
9BB
100
DictionaryVariables
280
     0
  1
1:1
  0
DICTIONARYVAR
  5
9BD
102
{ACAD_REACTORS
330
9BB
102
}
330
9BB
100
DictionaryVariables
280
     0
  1
STANDARD
  0
DICTIONARYVAR
  5
9BC
102
{ACAD_REACTORS
330
9BB
102
}
330
9BB
100
DictionaryVariables
280
     0
  1
STANDARD
  0
DICTIONARYVAR
  5
9D4
102
{ACAD_REACTORS
330
9BB
102
}
330
9BB
100
DictionaryVariables
280
     0
  1
2
  0
DICTIONARYVAR
  5
9D2
102
{ACAD_REACTORS
330
9BB
102
}
330
9BB
100
DictionaryVariables
280
     0
  1
1
  0
DICTIONARYVAR
  5
9D1
102
{ACAD_REACTORS
330
9BB
102
}
330
9BB
100
DictionaryVariables
280
     0
  1
0
  0
DICTIONARYVAR
  5
9C0
102
{ACAD_REACTORS
330
9BB
102
}
330
9BB
100
DictionaryVariables
280
     0
  1
1
  0
DICTIONARYVAR
  5
9C1
102
{ACAD_REACTORS
330
9BB
102
}
330
9BB
100
DictionaryVariables
280
     0
  1
15
  0
DICTIONARYVAR
  5
9CF
102
{ACAD_REACTORS
330
9BB
102
}
330
9BB
100
DictionaryVariables
280
     0
  1
2
  0
DICTIONARYVAR
  5
9CE
102
{ACAD_REACTORS
330
9BB
102
}
330
9BB
100
DictionaryVariables
280
     0
  1
1
  0
DICTIONARYVAR
  5
9D5
102
{ACAD_REACTORS
330
9BB
102
}
330
9BB
100
DictionaryVariables
280
     0
  1
1
  0
DICTIONARYVAR
  5
9D0
102
{ACAD_REACTORS
330
9BB
102
}
330
9BB
100
DictionaryVariables
280
     0
  1
127
  0
DICTIONARYVAR
  5
A21
102
{ACAD_REACTORS
330
9BB
102
}
330
9BB
100
DictionaryVariables
280
     0
  1
2
  0
XRECORD
  5
A20
102
{ACAD_REACTORS
330
A1E
102
}
330
A1E
100
AcDbXrecord
280
     1
330
901
330
902
330
90A
330
90B
330
913
330
914
330
921
330
922
330
929
330
92A
330
932
330
933
330
940
330
941
330
948
330
949
330
954
330
955
330
95C
330
95D
330
96A
330
96B
330
977
330
978
330
984
330
985
330
991
330
992
330
99E
330
99F
330
9AB
330
9AC
330
9B4
330
9B5
  0
DICTIONARY
  5
A5A
330
6F
100
AcDbDictionary
280
     1
281
     1
  3
ACAD_XREC_ROUNDTRIP
360
A5B
  0
DICTIONARY
  5
A58
330
6B
100
AcDbDictionary
280
     1
281
     1
  3
ACAD_XREC_ROUNDTRIP
360
A59
  0
DICTIONARY
  5
A5C
330
73
100
AcDbDictionary
280
     1
281
     1
  3
ACAD_XREC_ROUNDTRIP
360
A5D
  0
DICTIONARY
  5
1A
330
19
100
AcDbDictionary
280
     1
281
     1
  3
ACAD_XREC_ROUNDTRIP
360
9DE
  3
BUMPTILE
360
1C
  3
DIFFUSETILE
360
1B
  3
OPACITYTILE
360
1F
  3
REFLECTIONTILE
360
1E
  3
REFRACTIONTILE
360
20
  3
SPECULARTILE
360
1D
  0
DICTIONARY
  5
12
330
11
100
AcDbDictionary
280
     1
281
     1
  3
ACAD_XREC_ROUNDTRIP
360
9DD
  3
BUMPTILE
360
14
  3
DIFFUSETILE
360
13
  3
OPACITYTILE
360
17
  3
REFLECTIONTILE
360
16
  3
REFRACTIONTILE
360
18
  3
SPECULARTILE
360
15
  0
DICTIONARY
  5
22
330
21
100
AcDbDictionary
280
     1
281
     1
  3
ACAD_XREC_ROUNDTRIP
360
9DF
  3
BUMPTILE
360
24
  3
DIFFUSETILE
360
23
  3
OPACITYTILE
360
27
  3
REFLECTIONTILE
360
26
  3
REFRACTIONTILE
360
28
  3
SPECULARTILE
360
25
  0
DICTIONARY
  5
A23
330
67
100
AcDbDictionary
280
     1
281
     1
  3
ACAD_XREC_ROUNDTRIP
360
A24
  0
DICTIONARY
  5
9D7
330
65
100
AcDbDictionary
280
     1
281
     1
  3
ACAD_ROUNDTRIP_2008_TABLESTYLE_CELLSTYLEMAP
360
A22
  3
ACAD_XREC_ROUNDTRIP
360
A57
  0
DICTIONARY
  5
A31
330
2F
100
AcDbDictionary
280
     1
281
     1
  3
ACAD_XREC_ROUNDTRIP
360
A32
  0
DICTIONARY
  5
A2F
330
2E
100
AcDbDictionary
280
     1
281
     1
  3
ACAD_XREC_ROUNDTRIP
360
A30
  0
DICTIONARY
  5
A3D
330
35
100
AcDbDictionary
280
     1
281
     1
  3
ACAD_XREC_ROUNDTRIP
360
A3E
  0
DICTIONARY
  5
A45
330
39
100
AcDbDictionary
280
     1
281
     1
  3
ACAD_XREC_ROUNDTRIP
360
A46
  0
DICTIONARY
  5
A37
330
32
100
AcDbDictionary
280
     1
281
     1
  3
ACAD_XREC_ROUNDTRIP
360
A38
  0
DICTIONARY
  5
A3B
330
34
100
AcDbDictionary
280
     1
281
     1
  3
ACAD_XREC_ROUNDTRIP
360
A3C
  0
DICTIONARY
  5
A55
330
41
100
AcDbDictionary
280
     1
281
     1
  3
ACAD_XREC_ROUNDTRIP
360
A56
  0
DICTIONARY
  5
A43
330
38
100
AcDbDictionary
280
     1
281
     1
  3
ACAD_XREC_ROUNDTRIP
360
A44
  0
DICTIONARY
  5
A27
330
2A
100
AcDbDictionary
280
     1
281
     1
  3
ACAD_XREC_ROUNDTRIP
360
A28
  0
DICTIONARY
  5
A29
330
2B
100
AcDbDictionary
280
     1
281
     1
  3
ACAD_XREC_ROUNDTRIP
360
A2A
  0
DICTIONARY
  5
A2B
330
2C
100
AcDbDictionary
280
     1
281
     1
  3
ACAD_XREC_ROUNDTRIP
360
A2C
  0
DICTIONARY
  5
A2D
330
2D
100
AcDbDictionary
280
     1
281
     1
  3
ACAD_XREC_ROUNDTRIP
360
A2E
  0
DICTIONARY
  5
A35
330
31
100
AcDbDictionary
280
     1
281
     1
  3
ACAD_XREC_ROUNDTRIP
360
A36
  0
DICTIONARY
  5
A51
330
3F
100
AcDbDictionary
280
     1
281
     1
  3
ACAD_XREC_ROUNDTRIP
360
A52
  0
DICTIONARY
  5
A41
330
37
100
AcDbDictionary
280
     1
281
     1
  3
ACAD_XREC_ROUNDTRIP
360
A42
  0
DICTIONARY
  5
A53
330
40
100
AcDbDictionary
280
     1
281
     1
  3
ACAD_XREC_ROUNDTRIP
360
A54
  0
DICTIONARY
  5
A39
330
33
100
AcDbDictionary
280
     1
281
     1
  3
ACAD_XREC_ROUNDTRIP
360
A3A
  0
DICTIONARY
  5
A4F
330
3E
100
AcDbDictionary
280
     1
281
     1
  3
ACAD_XREC_ROUNDTRIP
360
A50
  0
DICTIONARY
  5
A4D
330
3D
100
AcDbDictionary
280
     1
281
     1
  3
ACAD_XREC_ROUNDTRIP
360
A4E
  0
DICTIONARY
  5
A47
330
3A
100
AcDbDictionary
280
     1
281
     1
  3
ACAD_XREC_ROUNDTRIP
360
A48
  0
DICTIONARY
  5
A49
330
3B
100
AcDbDictionary
280
     1
281
     1
  3
ACAD_XREC_ROUNDTRIP
360
A4A
  0
DICTIONARY
  5
A3F
330
36
100
AcDbDictionary
280
     1
281
     1
  3
ACAD_XREC_ROUNDTRIP
360
A40
  0
DICTIONARY
  5
A33
330
30
100
AcDbDictionary
280
     1
281
     1
  3
ACAD_XREC_ROUNDTRIP
360
A34
  0
DICTIONARY
  5
A4B
330
3C
100
AcDbDictionary
280
     1
281
     1
  3
ACAD_XREC_ROUNDTRIP
360
A4C
  0
XRECORD
  5
A5B
102
{ACAD_REACTORS
330
A5A
102
}
330
A5A
100
AcDbXrecord
280
     1
102
SHADEPLOT
 70
     0
102
SHADEPLOTRESLEVEL
 70
     2
102
SHADEPLOTCUSTOMDPI
 70
   300
  0
XRECORD
  5
A59
102
{ACAD_REACTORS
330
A58
102
}
330
A58
100
AcDbXrecord
280
     1
102
SHADEPLOT
 70
     0
102
SHADEPLOTRESLEVEL
 70
     2
102
SHADEPLOTCUSTOMDPI
 70
   300
  0
XRECORD
  5
A5D
102
{ACAD_REACTORS
330
A5C
102
}
330
A5C
100
AcDbXrecord
280
     1
102
SHADEPLOT
 70
     0
102
SHADEPLOTRESLEVEL
 70
     2
102
SHADEPLOTCUSTOMDPI
 70
   300
  0
XRECORD
  5
9DE
102
{ACAD_REACTORS
330
1A
102
}
330
1A
100
AcDbXrecord
280
     1
102
MATERIAL
148
0.0
149
0.0
149
0.0
 93
        0
 94
      127
282
     0
 72
     0
 77
     0
171
     0
175
     0
179
     0
273
     0
  0
XRECORD
  5
1C
102
{ACAD_REACTORS
330
1A
102
}
330
1A
100
AcDbXrecord
280
     1
270
     1
271
     1
  0
XRECORD
  5
1B
102
{ACAD_REACTORS
330
1A
102
}
330
1A
100
AcDbXrecord
280
     1
270
     1
271
     1
  0
XRECORD
  5
1F
102
{ACAD_REACTORS
330
1A
102
}
330
1A
100
AcDbXrecord
280
     1
270
     1
271
     1
  0
XRECORD
  5
1E
102
{ACAD_REACTORS
330
1A
102
}
330
1A
100
AcDbXrecord
280
     1
270
     1
271
     1
  0
XRECORD
  5
20
102
{ACAD_REACTORS
330
1A
102
}
330
1A
100
AcDbXrecord
280
     1
270
     1
271
     1
  0
XRECORD
  5
1D
102
{ACAD_REACTORS
330
1A
102
}
330
1A
100
AcDbXrecord
280
     1
270
     1
271
     1
  0
XRECORD
  5
9DD
102
{ACAD_REACTORS
330
12
102
}
330
12
100
AcDbXrecord
280
     1
102
MATERIAL
148
0.0
149
0.0
149
0.0
 93
        0
 94
      127
282
     0
 72
     0
 77
     0
171
     0
175
     0
179
     0
273
     0
  0
XRECORD
  5
14
102
{ACAD_REACTORS
330
12
102
}
330
12
100
AcDbXrecord
280
     1
270
     1
271
     1
  0
XRECORD
  5
13
102
{ACAD_REACTORS
330
12
102
}
330
12
100
AcDbXrecord
280
     1
270
     1
271
     1
  0
XRECORD
  5
17
102
{ACAD_REACTORS
330
12
102
}
330
12
100
AcDbXrecord
280
     1
270
     1
271
     1
  0
XRECORD
  5
16
102
{ACAD_REACTORS
330
12
102
}
330
12
100
AcDbXrecord
280
     1
270
     1
271
     1
  0
XRECORD
  5
18
102
{ACAD_REACTORS
330
12
102
}
330
12
100
AcDbXrecord
280
     1
270
     1
271
     1
  0
XRECORD
  5
15
102
{ACAD_REACTORS
330
12
102
}
330
12
100
AcDbXrecord
280
     1
270
     1
271
     1
  0
XRECORD
  5
9DF
102
{ACAD_REACTORS
330
22
102
}
330
22
100
AcDbXrecord
280
     1
102
MATERIAL
148
0.0
149
0.0
149
0.0
 93
        0
 94
      127
282
     0
 72
     0
 77
     0
171
     0
175
     0
179
     0
273
     0
  0
XRECORD
  5
24
102
{ACAD_REACTORS
330
22
102
}
330
22
100
AcDbXrecord
280
     1
270
     1
271
     1
  0
XRECORD
  5
23
102
{ACAD_REACTORS
330
22
102
}
330
22
100
AcDbXrecord
280
     1
270
     1
271
     1
  0
XRECORD
  5
27
102
{ACAD_REACTORS
330
22
102
}
330
22
100
AcDbXrecord
280
     1
270
     1
271
     1
  0
XRECORD
  5
26
102
{ACAD_REACTORS
330
22
102
}
330
22
100
AcDbXrecord
280
     1
270
     1
271
     1
  0
XRECORD
  5
28
102
{ACAD_REACTORS
330
22
102
}
330
22
100
AcDbXrecord
280
     1
270
     1
271
     1
  0
XRECORD
  5
25
102
{ACAD_REACTORS
330
22
102
}
330
22
100
AcDbXrecord
280
     1
270
     1
271
     1
  0
XRECORD
  5
A24
102
{ACAD_REACTORS
330
A23
102
}
330
A23
100
AcDbXrecord
280
     1
102
ACAD_ROUNDTRIP_2012_MLEADER_STYLE
298
     1
  0
CELLSTYLEMAP
  5
A22
102
{ACAD_REACTORS
330
9D7
102
}
330
9D7
100
AcDbCellStyleMap
 90
        3
300
CELLSTYLE
  1
TABLEFORMAT_BEGIN
 90
        5
170
     1
 91
        0
 92
    32768
 62
   257
 93
        1
300
CONTENTFORMAT
  1
CONTENTFORMAT_BEGIN
 90
        0
 91
        0
 92
      512
 93
        0
300

 40
0.0
140
1.0
 94
        5
 62
     0
340
55
144
6.0
309
CONTENTFORMAT_END
171
     1
301
MARGIN
  1
CELLMARGIN_BEGIN
 40
1.5
 40
1.5
 40
1.5
 40
1.5
 40
0.18
 40
0.18
309
CELLMARGIN_END
 94
        6
 95
        1
302
GRIDFORMAT
  1
GRIDFORMAT_BEGIN
 90
        0
 91
        1
 62
     0
 92
       -2
340
0
 93
        0
 40
1.125
309
GRIDFORMAT_END
 95
        2
302
GRIDFORMAT
  1
GRIDFORMAT_BEGIN
 90
        0
 91
        1
 62
     0
 92
       -2
340
0
 93
        0
 40
1.125
309
GRIDFORMAT_END
 95
        4
302
GRIDFORMAT
  1
GRIDFORMAT_BEGIN
 90
        0
 91
        1
 62
     0
 92
       -2
340
0
 93
        0
 40
1.125
309
GRIDFORMAT_END
 95
        8
302
GRIDFORMAT
  1
GRIDFORMAT_BEGIN
 90
        0
 91
        1
 62
     0
 92
       -2
340
0
 93
        0
 40
1.125
309
GRIDFORMAT_END
 95
       16
302
GRIDFORMAT
  1
GRIDFORMAT_BEGIN
 90
        0
 91
        1
 62
     0
 92
       -2
340
0
 93
        0
 40
1.125
309
GRIDFORMAT_END
 95
       32
302
GRIDFORMAT
  1
GRIDFORMAT_BEGIN
 90
        0
 91
        1
 62
     0
 92
       -2
340
0
 93
        0
 40
1.125
309
GRIDFORMAT_END
309
TABLEFORMAT_END
  1
CELLSTYLE_BEGIN
 90
        1
 91
        1
300
_TITLE
309
CELLSTYLE_END
300
CELLSTYLE
  1
TABLEFORMAT_BEGIN
 90
        5
170
     1
 91
        0
 92
        0
 62
   257
 93
        1
300
CONTENTFORMAT
  1
CONTENTFORMAT_BEGIN
 90
        0
 91
        0
 92
      512
 93
        0
300

 40
0.0
140
1.0
 94
        5
 62
     0
340
55
144
4.5
309
CONTENTFORMAT_END
171
     1
301
MARGIN
  1
CELLMARGIN_BEGIN
 40
1.5
 40
1.5
 40
1.5
 40
1.5
 40
0.18
 40
0.18
309
CELLMARGIN_END
 94
        6
 95
        1
302
GRIDFORMAT
  1
GRIDFORMAT_BEGIN
 90
        0
 91
        1
 62
     0
 92
       -2
340
0
 93
        0
 40
1.125
309
GRIDFORMAT_END
 95
        2
302
GRIDFORMAT
  1
GRIDFORMAT_BEGIN
 90
        0
 91
        1
 62
     0
 92
       -2
340
0
 93
        0
 40
1.125
309
GRIDFORMAT_END
 95
        4
302
GRIDFORMAT
  1
GRIDFORMAT_BEGIN
 90
        0
 91
        1
 62
     0
 92
       -2
340
0
 93
        0
 40
1.125
309
GRIDFORMAT_END
 95
        8
302
GRIDFORMAT
  1
GRIDFORMAT_BEGIN
 90
        0
 91
        1
 62
     0
 92
       -2
340
0
 93
        0
 40
1.125
309
GRIDFORMAT_END
 95
       16
302
GRIDFORMAT
  1
GRIDFORMAT_BEGIN
 90
        0
 91
        1
 62
     0
 92
       -2
340
0
 93
        0
 40
1.125
309
GRIDFORMAT_END
 95
       32
302
GRIDFORMAT
  1
GRIDFORMAT_BEGIN
 90
        0
 91
        1
 62
     0
 92
       -2
340
0
 93
        0
 40
1.125
309
GRIDFORMAT_END
309
TABLEFORMAT_END
  1
CELLSTYLE_BEGIN
 90
        2
 91
        1
300
_HEADER
309
CELLSTYLE_END
300
CELLSTYLE
  1
TABLEFORMAT_BEGIN
 90
        5
170
     1
 91
        0
 92
        0
 62
   257
 93
        1
300
CONTENTFORMAT
  1
CONTENTFORMAT_BEGIN
 90
        0
 91
        0
 92
      512
 93
        0
300

 40
0.0
140
1.0
 94
        2
 62
     0
340
55
144
4.5
309
CONTENTFORMAT_END
171
     1
301
MARGIN
  1
CELLMARGIN_BEGIN
 40
1.5
 40
1.5
 40
1.5
 40
1.5
 40
0.18
 40
0.18
309
CELLMARGIN_END
 94
        6
 95
        1
302
GRIDFORMAT
  1
GRIDFORMAT_BEGIN
 90
        0
 91
        1
 62
     0
 92
       -2
340
0
 93
        0
 40
1.125
309
GRIDFORMAT_END
 95
        2
302
GRIDFORMAT
  1
GRIDFORMAT_BEGIN
 90
        0
 91
        1
 62
     0
 92
       -2
340
0
 93
        0
 40
1.125
309
GRIDFORMAT_END
 95
        4
302
GRIDFORMAT
  1
GRIDFORMAT_BEGIN
 90
        0
 91
        1
 62
     0
 92
       -2
340
0
 93
        0
 40
1.125
309
GRIDFORMAT_END
 95
        8
302
GRIDFORMAT
  1
GRIDFORMAT_BEGIN
 90
        0
 91
        1
 62
     0
 92
       -2
340
0
 93
        0
 40
1.125
309
GRIDFORMAT_END
 95
       16
302
GRIDFORMAT
  1
GRIDFORMAT_BEGIN
 90
        0
 91
        1
 62
     0
 92
       -2
340
0
 93
        0
 40
1.125
309
GRIDFORMAT_END
 95
       32
302
GRIDFORMAT
  1
GRIDFORMAT_BEGIN
 90
        0
 91
        1
 62
     0
 92
       -2
340
0
 93
        0
 40
1.125
309
GRIDFORMAT_END
309
TABLEFORMAT_END
  1
CELLSTYLE_BEGIN
 90
        3
 91
        2
300
_DATA
309
CELLSTYLE_END
  0
XRECORD
  5
A57
102
{ACAD_REACTORS
330
9D7
102
}
330
9D7
100
AcDbXrecord
280
     1
102
ACAD_ROUNDTRIP_PRE2007_TABLESTYLE
 90
      512
 91
        0
  1

 92
      512
 93
        0
  2

 94
      512
 95
        0
  3

  0
XRECORD
  5
A32
102
{ACAD_REACTORS
330
A31
102
}
330
A31
100
AcDbXrecord
280
     1
102
RTVSPropertyOp0
 70
     1
102
RTVSPropertyOp1
 70
     1
102
RTVSPropertyOp2
 70
     1
102
RTVSPropertyOp3
 70
     1
102
RTVSPropertyOp4
 70
     1
102
RTVSPropertyOp5
 70
     1
102
RTVSPropertyOp6
 70
     1
102
RTVSPropertyOp7
 70
     1
102
RTVSPropertyOp8
 70
     1
102
RTVSPropertyOp9
 70
     1
102
RTVSPropertyOp10
 70
     1
102
RTVSPropertyOp11
 70
     1
102
RTVSPropertyOp12
 70
     1
102
RTVSPropertyOp13
 70
     1
102
RTVSPropertyOp14
 70
     1
102
RTVSPropertyOp15
 70
     1
102
RTVSPropertyOp16
 70
     1
102
RTVSPropertyOp17
 70
     1
102
RTVSPropertyOp18
 70
     1
102
RTVSPropertyOp19
 70
     1
102
RTVSPropertyOp20
 70
     1
102
RTVSPropertyOp21
 70
     1
102
RTVSPropertyOp22
 70
     1
102
RTVSPropertyOp23
 70
     1
102
RTVSPropertyOp24
 70
     1
102
RTVSPropertyOp25
 70
     1
102
RTVSPropertyOp26
 70
     1
102
RTVSPropertyOp27
 70
     1
102
RTVSPropertyOp28
 70
     1
102
RTVSPropertyOp29
 70
     1
102
RTVSPropertyOp30
 70
     1
102
RTVSPropertyOp31
 70
     1
102
RTVSPropertyOp32
 70
     1
  0
XRECORD
  5
A30
102
{ACAD_REACTORS
330
A2F
102
}
330
A2F
100
AcDbXrecord
280
     1
102
RTVSPropertyOp0
 70
     1
102
RTVSPropertyOp1
 70
     1
102
RTVSPropertyOp2
 70
     1
102
RTVSPropertyOp3
 70
     1
102
RTVSPropertyOp4
 70
     1
102
RTVSPropertyOp5
 70
     1
102
RTVSPropertyOp6
 70
     1
102
RTVSPropertyOp7
 70
     1
102
RTVSPropertyOp8
 70
     1
102
RTVSPropertyOp9
 70
     1
102
RTVSPropertyOp10
 70
     1
102
RTVSPropertyOp11
 70
     1
102
RTVSPropertyOp12
 70
     1
102
RTVSPropertyOp13
 70
     1
102
RTVSPropertyOp14
 70
     1
102
RTVSPropertyOp15
 70
     1
102
RTVSPropertyOp16
 70
     1
102
RTVSPropertyOp17
 70
     1
102
RTVSPropertyOp18
 70
     1
102
RTVSPropertyOp19
 70
     1
102
RTVSPropertyOp20
 70
     1
102
RTVSPropertyOp21
 70
     1
102
RTVSPropertyOp22
 70
     1
102
RTVSPropertyOp23
 70
     1
102
RTVSPropertyOp24
 70
     1
102
RTVSPropertyOp25
 70
     1
102
RTVSPropertyOp26
 70
     1
102
RTVSPropertyOp27
 70
     1
102
RTVSPropertyOp28
 70
     1
102
RTVSPropertyOp29
 70
     1
102
RTVSPropertyOp30
 70
     1
102
RTVSPropertyOp31
 70
     1
102
RTVSPropertyOp32
 70
     1
  0
XRECORD
  5
A3E
102
{ACAD_REACTORS
330
A3D
102
}
330
A3D
100
AcDbXrecord
280
     1
102
RTVSPropertyOp0
 70
     1
102
RTVSPropertyOp1
 70
     1
102
RTVSPropertyOp2
 70
     1
102
RTVSPropertyOp3
 70
     1
102
RTVSPropertyOp4
 70
     1
102
RTVSPropertyOp5
 70
     1
102
RTVSPropertyOp6
 70
     1
102
RTVSPropertyOp7
 70
     1
102
RTVSPropertyOp8
 70
     1
102
RTVSPropertyOp9
 70
     1
102
RTVSPropertyOp10
 70
     1
102
RTVSPropertyOp11
 70
     1
102
RTVSPropertyOp12
 70
     1
102
RTVSPropertyOp13
 70
     1
102
RTVSPropertyOp14
 70
     1
102
RTVSPropertyOp15
 70
     1
102
RTVSPropertyOp16
 70
     1
102
RTVSPropertyOp17
 70
     1
102
RTVSPropertyOp18
 70
     1
102
RTVSPropertyOp19
 70
     1
102
RTVSPropertyOp20
 70
     1
102
RTVSPropertyOp21
 70
     1
102
RTVSPropertyOp22
 70
     1
102
RTVSPropertyOp23
 70
     1
102
RTVSPropertyOp24
 70
     1
102
RTVSPropertyOp25
 70
     1
102
RTVSPropertyOp26
 70
     1
102
RTVSPropertyOp27
 70
     1
102
RTVSPropertyOp28
 70
     1
102
RTVSPropertyOp29
 70
     1
102
RTVSPropertyOp30
 70
     1
102
RTVSPropertyOp31
 70
     1
102
RTVSPropertyOp32
 70
     1
  0
XRECORD
  5
A46
102
{ACAD_REACTORS
330
A45
102
}
330
A45
100
AcDbXrecord
280
     1
102
RTVSPropertyOp0
 70
     1
102
RTVSPropertyOp1
 70
     1
102
RTVSPropertyOp2
 70
     1
102
RTVSPropertyOp3
 70
     1
102
RTVSPropertyOp4
 70
     1
102
RTVSPropertyOp5
 70
     1
102
RTVSPropertyOp6
 70
     1
102
RTVSPropertyOp7
 70
     1
102
RTVSPropertyOp8
 70
     1
102
RTVSPropertyOp9
 70
     1
102
RTVSPropertyOp10
 70
     1
102
RTVSPropertyOp11
 70
     1
102
RTVSPropertyOp12
 70
     1
102
RTVSPropertyOp13
 70
     1
102
RTVSPropertyOp14
 70
     1
102
RTVSPropertyOp15
 70
     1
102
RTVSPropertyOp16
 70
     1
102
RTVSPropertyOp17
 70
     1
102
RTVSPropertyOp18
 70
     1
102
RTVSPropertyOp19
 70
     1
102
RTVSPropertyOp20
 70
     1
102
RTVSPropertyOp21
 70
     1
102
RTVSPropertyOp22
 70
     1
102
RTVSPropertyOp23
 70
     1
102
RTVSPropertyOp24
 70
     1
102
RTVSPropertyOp25
 70
     1
102
RTVSPropertyOp26
 70
     1
102
RTVSPropertyOp27
 70
     1
102
RTVSPropertyOp28
 70
     1
102
RTVSPropertyOp29
 70
     1
102
RTVSPropertyOp30
 70
     1
102
RTVSPropertyOp31
 70
     1
102
RTVSPropertyOp32
 70
     1
  0
XRECORD
  5
A38
102
{ACAD_REACTORS
330
A37
102
}
330
A37
100
AcDbXrecord
280
     1
102
RTVSPropertyOp0
 70
     1
102
RTVSPropertyOp1
 70
     1
102
RTVSPropertyOp2
 70
     1
102
RTVSPropertyOp3
 70
     1
102
RTVSPropertyOp4
 70
     1
102
RTVSPropertyOp5
 70
     1
102
RTVSPropertyOp6
 70
     1
102
RTVSPropertyOp7
 70
     1
102
RTVSPropertyOp8
 70
     1
102
RTVSPropertyOp9
 70
     1
102
RTVSPropertyOp10
 70
     1
102
RTVSPropertyOp11
 70
     1
102
RTVSPropertyOp12
 70
     1
102
RTVSPropertyOp13
 70
     1
102
RTVSPropertyOp14
 70
     1
102
RTVSPropertyOp15
 70
     1
102
RTVSPropertyOp16
 70
     1
102
RTVSPropertyOp17
 70
     1
102
RTVSPropertyOp18
 70
     1
102
RTVSPropertyOp19
 70
     1
102
RTVSPropertyOp20
 70
     1
102
RTVSPropertyOp21
 70
     1
102
RTVSPropertyOp22
 70
     1
102
RTVSPropertyOp23
 70
     1
102
RTVSPropertyOp24
 70
     1
102
RTVSPropertyOp25
 70
     1
102
RTVSPropertyOp26
 70
     1
102
RTVSPropertyOp27
 70
     1
102
RTVSPropertyOp28
 70
     1
102
RTVSPropertyOp29
 70
     1
102
RTVSPropertyOp30
 70
     1
102
RTVSPropertyOp31
 70
     1
102
RTVSPropertyOp32
 70
     1
  0
XRECORD
  5
A3C
102
{ACAD_REACTORS
330
A3B
102
}
330
A3B
100
AcDbXrecord
280
     1
102
RTVSPropertyOp0
 70
     1
102
RTVSPropertyOp1
 70
     1
102
RTVSPropertyOp2
 70
     1
102
RTVSPropertyOp3
 70
     1
102
RTVSPropertyOp4
 70
     1
102
RTVSPropertyOp5
 70
     1
102
RTVSPropertyOp6
 70
     1
102
RTVSPropertyOp7
 70
     1
102
RTVSPropertyOp8
 70
     1
102
RTVSPropertyOp9
 70
     1
102
RTVSPropertyOp10
 70
     1
102
RTVSPropertyOp11
 70
     1
102
RTVSPropertyOp12
 70
     1
102
RTVSPropertyOp13
 70
     1
102
RTVSPropertyOp14
 70
     1
102
RTVSPropertyOp15
 70
     1
102
RTVSPropertyOp16
 70
     1
102
RTVSPropertyOp17
 70
     1
102
RTVSPropertyOp18
 70
     1
102
RTVSPropertyOp19
 70
     1
102
RTVSPropertyOp20
 70
     1
102
RTVSPropertyOp21
 70
     1
102
RTVSPropertyOp22
 70
     1
102
RTVSPropertyOp23
 70
     1
102
RTVSPropertyOp24
 70
     1
102
RTVSPropertyOp25
 70
     1
102
RTVSPropertyOp26
 70
     1
102
RTVSPropertyOp27
 70
     1
102
RTVSPropertyOp28
 70
     1
102
RTVSPropertyOp29
 70
     1
102
RTVSPropertyOp30
 70
     1
102
RTVSPropertyOp31
 70
     1
102
RTVSPropertyOp32
 70
     1
  0
XRECORD
  5
A56
102
{ACAD_REACTORS
330
A55
102
}
330
A55
100
AcDbXrecord
280
     1
102
RTVSPropertyOp0
 70
     0
102
RTVSPropertyOp1
 70
     0
102
RTVSPropertyOp2
 70
     0
102
RTVSPropertyOp3
 70
     0
102
RTVSPropertyOp4
 70
     0
102
RTVSPropertyOp5
 70
     0
102
RTVSPropertyOp6
 70
     0
102
RTVSPropertyOp7
 70
     0
102
RTVSPropertyOp8
 70
     0
102
RTVSPropertyOp9
 70
     0
102
RTVSPropertyOp10
 70
     0
102
RTVSPropertyOp11
 70
     0
102
RTVSPropertyOp12
 70
     0
102
RTVSPropertyOp13
 70
     0
102
RTVSPropertyOp14
 70
     2
102
RTVSPropertyOp15
 70
     0
102
RTVSPropertyOp16
 70
     0
102
RTVSPropertyOp17
 70
     0
102
RTVSPropertyOp18
 70
     0
102
RTVSPropertyOp19
 70
     0
102
RTVSPropertyOp20
 70
     0
102
RTVSPropertyOp21
 70
     0
102
RTVSPropertyOp22
 70
     0
102
RTVSPropertyOp23
 70
     0
102
RTVSPropertyOp24
 70
     0
102
RTVSPropertyOp25
 70
     0
102
RTVSPropertyOp26
 70
     0
102
RTVSPropertyOp27
 70
     0
102
RTVSPropertyOp28
 70
     1
102
RTVSPropertyOp29
 70
     1
102
RTVSPropertyOp30
 70
     1
102
RTVSPropertyOp31
 70
     1
102
RTVSPropertyOp32
 70
     1
  0
XRECORD
  5
A44
102
{ACAD_REACTORS
330
A43
102
}
330
A43
100
AcDbXrecord
280
     1
102
RTVSPropertyOp0
 70
     1
102
RTVSPropertyOp1
 70
     1
102
RTVSPropertyOp2
 70
     1
102
RTVSPropertyOp3
 70
     1
102
RTVSPropertyOp4
 70
     1
102
RTVSPropertyOp5
 70
     1
102
RTVSPropertyOp6
 70
     1
102
RTVSPropertyOp7
 70
     1
102
RTVSPropertyOp8
 70
     1
102
RTVSPropertyOp9
 70
     1
102
RTVSPropertyOp10
 70
     1
102
RTVSPropertyOp11
 70
     1
102
RTVSPropertyOp12
 70
     1
102
RTVSPropertyOp13
 70
     1
102
RTVSPropertyOp14
 70
     1
102
RTVSPropertyOp15
 70
     1
102
RTVSPropertyOp16
 70
     1
102
RTVSPropertyOp17
 70
     1
102
RTVSPropertyOp18
 70
     1
102
RTVSPropertyOp19
 70
     1
102
RTVSPropertyOp20
 70
     1
102
RTVSPropertyOp21
 70
     1
102
RTVSPropertyOp22
 70
     1
102
RTVSPropertyOp23
 70
     1
102
RTVSPropertyOp24
 70
     1
102
RTVSPropertyOp25
 70
     1
102
RTVSPropertyOp26
 70
     1
102
RTVSPropertyOp27
 70
     1
102
RTVSPropertyOp28
 70
     1
102
RTVSPropertyOp29
 70
     1
102
RTVSPropertyOp30
 70
     1
102
RTVSPropertyOp31
 70
     1
102
RTVSPropertyOp32
 70
     1
  0
XRECORD
  5
A28
102
{ACAD_REACTORS
330
A27
102
}
330
A27
100
AcDbXrecord
280
     1
102
RTVSPropertyOp0
 70
     1
102
RTVSPropertyOp1
 70
     1
102
RTVSPropertyOp2
 70
     1
102
RTVSPropertyOp3
 70
     1
102
RTVSPropertyOp4
 70
     1
102
RTVSPropertyOp5
 70
     1
102
RTVSPropertyOp6
 70
     1
102
RTVSPropertyOp7
 70
     1
102
RTVSPropertyOp8
 70
     1
102
RTVSPropertyOp9
 70
     1
102
RTVSPropertyOp10
 70
     1
102
RTVSPropertyOp11
 70
     1
102
RTVSPropertyOp12
 70
     1
102
RTVSPropertyOp13
 70
     1
102
RTVSPropertyOp14
 70
     1
102
RTVSPropertyOp15
 70
     1
102
RTVSPropertyOp16
 70
     1
102
RTVSPropertyOp17
 70
     1
102
RTVSPropertyOp18
 70
     1
102
RTVSPropertyOp19
 70
     1
102
RTVSPropertyOp20
 70
     1
102
RTVSPropertyOp21
 70
     1
102
RTVSPropertyOp22
 70
     1
102
RTVSPropertyOp23
 70
     1
102
RTVSPropertyOp24
 70
     1
102
RTVSPropertyOp25
 70
     1
102
RTVSPropertyOp26
 70
     1
102
RTVSPropertyOp27
 70
     1
102
RTVSPropertyOp28
 70
     1
102
RTVSPropertyOp29
 70
     1
102
RTVSPropertyOp30
 70
     1
102
RTVSPropertyOp31
 70
     1
102
RTVSPropertyOp32
 70
     1
  0
XRECORD
  5
A2A
102
{ACAD_REACTORS
330
A29
102
}
330
A29
100
AcDbXrecord
280
     1
102
RTVSPropertyOp0
 70
     1
102
RTVSPropertyOp1
 70
     1
102
RTVSPropertyOp2
 70
     1
102
RTVSPropertyOp3
 70
     1
102
RTVSPropertyOp4
 70
     1
102
RTVSPropertyOp5
 70
     1
102
RTVSPropertyOp6
 70
     1
102
RTVSPropertyOp7
 70
     1
102
RTVSPropertyOp8
 70
     1
102
RTVSPropertyOp9
 70
     1
102
RTVSPropertyOp10
 70
     1
102
RTVSPropertyOp11
 70
     1
102
RTVSPropertyOp12
 70
     1
102
RTVSPropertyOp13
 70
     1
102
RTVSPropertyOp14
 70
     1
102
RTVSPropertyOp15
 70
     1
102
RTVSPropertyOp16
 70
     1
102
RTVSPropertyOp17
 70
     1
102
RTVSPropertyOp18
 70
     1
102
RTVSPropertyOp19
 70
     1
102
RTVSPropertyOp20
 70
     1
102
RTVSPropertyOp21
 70
     1
102
RTVSPropertyOp22
 70
     1
102
RTVSPropertyOp23
 70
     1
102
RTVSPropertyOp24
 70
     1
102
RTVSPropertyOp25
 70
     1
102
RTVSPropertyOp26
 70
     1
102
RTVSPropertyOp27
 70
     1
102
RTVSPropertyOp28
 70
     1
102
RTVSPropertyOp29
 70
     1
102
RTVSPropertyOp30
 70
     1
102
RTVSPropertyOp31
 70
     1
102
RTVSPropertyOp32
 70
     1
  0
XRECORD
  5
A2C
102
{ACAD_REACTORS
330
A2B
102
}
330
A2B
100
AcDbXrecord
280
     1
102
RTVSPropertyOp0
 70
     1
102
RTVSPropertyOp1
 70
     1
102
RTVSPropertyOp2
 70
     1
102
RTVSPropertyOp3
 70
     1
102
RTVSPropertyOp4
 70
     1
102
RTVSPropertyOp5
 70
     1
102
RTVSPropertyOp6
 70
     1
102
RTVSPropertyOp7
 70
     1
102
RTVSPropertyOp8
 70
     1
102
RTVSPropertyOp9
 70
     1
102
RTVSPropertyOp10
 70
     1
102
RTVSPropertyOp11
 70
     1
102
RTVSPropertyOp12
 70
     1
102
RTVSPropertyOp13
 70
     1
102
RTVSPropertyOp14
 70
     1
102
RTVSPropertyOp15
 70
     1
102
RTVSPropertyOp16
 70
     1
102
RTVSPropertyOp17
 70
     1
102
RTVSPropertyOp18
 70
     1
102
RTVSPropertyOp19
 70
     1
102
RTVSPropertyOp20
 70
     1
102
RTVSPropertyOp21
 70
     1
102
RTVSPropertyOp22
 70
     1
102
RTVSPropertyOp23
 70
     1
102
RTVSPropertyOp24
 70
     1
102
RTVSPropertyOp25
 70
     1
102
RTVSPropertyOp26
 70
     1
102
RTVSPropertyOp27
 70
     1
102
RTVSPropertyOp28
 70
     1
102
RTVSPropertyOp29
 70
     1
102
RTVSPropertyOp30
 70
     1
102
RTVSPropertyOp31
 70
     1
102
RTVSPropertyOp32
 70
     1
  0
XRECORD
  5
A2E
102
{ACAD_REACTORS
330
A2D
102
}
330
A2D
100
AcDbXrecord
280
     1
102
RTVSPropertyOp0
 70
     1
102
RTVSPropertyOp1
 70
     1
102
RTVSPropertyOp2
 70
     1
102
RTVSPropertyOp3
 70
     1
102
RTVSPropertyOp4
 70
     1
102
RTVSPropertyOp5
 70
     1
102
RTVSPropertyOp6
 70
     1
102
RTVSPropertyOp7
 70
     1
102
RTVSPropertyOp8
 70
     1
102
RTVSPropertyOp9
 70
     1
102
RTVSPropertyOp10
 70
     1
102
RTVSPropertyOp11
 70
     1
102
RTVSPropertyOp12
 70
     1
102
RTVSPropertyOp13
 70
     1
102
RTVSPropertyOp14
 70
     1
102
RTVSPropertyOp15
 70
     1
102
RTVSPropertyOp16
 70
     1
102
RTVSPropertyOp17
 70
     1
102
RTVSPropertyOp18
 70
     1
102
RTVSPropertyOp19
 70
     1
102
RTVSPropertyOp20
 70
     1
102
RTVSPropertyOp21
 70
     1
102
RTVSPropertyOp22
 70
     1
102
RTVSPropertyOp23
 70
     1
102
RTVSPropertyOp24
 70
     1
102
RTVSPropertyOp25
 70
     1
102
RTVSPropertyOp26
 70
     1
102
RTVSPropertyOp27
 70
     1
102
RTVSPropertyOp28
 70
     1
102
RTVSPropertyOp29
 70
     1
102
RTVSPropertyOp30
 70
     1
102
RTVSPropertyOp31
 70
     1
102
RTVSPropertyOp32
 70
     1
  0
XRECORD
  5
A36
102
{ACAD_REACTORS
330
A35
102
}
330
A35
100
AcDbXrecord
280
     1
102
RTVSPropertyOp0
 70
     1
102
RTVSPropertyOp1
 70
     1
102
RTVSPropertyOp2
 70
     1
102
RTVSPropertyOp3
 70
     1
102
RTVSPropertyOp4
 70
     1
102
RTVSPropertyOp5
 70
     1
102
RTVSPropertyOp6
 70
     1
102
RTVSPropertyOp7
 70
     1
102
RTVSPropertyOp8
 70
     1
102
RTVSPropertyOp9
 70
     1
102
RTVSPropertyOp10
 70
     1
102
RTVSPropertyOp11
 70
     1
102
RTVSPropertyOp12
 70
     1
102
RTVSPropertyOp13
 70
     1
102
RTVSPropertyOp14
 70
     1
102
RTVSPropertyOp15
 70
     1
102
RTVSPropertyOp16
 70
     1
102
RTVSPropertyOp17
 70
     1
102
RTVSPropertyOp18
 70
     1
102
RTVSPropertyOp19
 70
     1
102
RTVSPropertyOp20
 70
     1
102
RTVSPropertyOp21
 70
     1
102
RTVSPropertyOp22
 70
     1
102
RTVSPropertyOp23
 70
     1
102
RTVSPropertyOp24
 70
     1
102
RTVSPropertyOp25
 70
     1
102
RTVSPropertyOp26
 70
     1
102
RTVSPropertyOp27
 70
     1
102
RTVSPropertyOp28
 70
     1
102
RTVSPropertyOp29
 70
     1
102
RTVSPropertyOp30
 70
     1
102
RTVSPropertyOp31
 70
     1
102
RTVSPropertyOp32
 70
     1
  0
XRECORD
  5
A52
102
{ACAD_REACTORS
330
A51
102
}
330
A51
100
AcDbXrecord
280
     1
102
RTVSPropertyOp0
 70
     0
102
RTVSPropertyOp1
 70
     0
102
RTVSPropertyOp2
 70
     0
102
RTVSPropertyOp3
 70
     0
102
RTVSPropertyOp4
 70
     0
102
RTVSPropertyOp5
 70
     0
102
RTVSPropertyOp6
 70
     0
102
RTVSPropertyOp7
 70
     0
102
RTVSPropertyOp8
 70
     0
102
RTVSPropertyOp9
 70
     0
102
RTVSPropertyOp10
 70
     0
102
RTVSPropertyOp11
 70
     0
102
RTVSPropertyOp12
 70
     0
102
RTVSPropertyOp13
 70
     0
102
RTVSPropertyOp14
 70
     2
102
RTVSPropertyOp15
 70
     0
102
RTVSPropertyOp16
 70
     0
102
RTVSPropertyOp17
 70
     0
102
RTVSPropertyOp18
 70
     0
102
RTVSPropertyOp19
 70
     0
102
RTVSPropertyOp20
 70
     0
102
RTVSPropertyOp21
 70
     0
102
RTVSPropertyOp22
 70
     0
102
RTVSPropertyOp23
 70
     0
102
RTVSPropertyOp24
 70
     0
102
RTVSPropertyOp25
 70
     0
102
RTVSPropertyOp26
 70
     0
102
RTVSPropertyOp27
 70
     0
102
RTVSPropertyOp28
 70
     1
102
RTVSPropertyOp29
 70
     1
102
RTVSPropertyOp30
 70
     1
102
RTVSPropertyOp31
 70
     1
102
RTVSPropertyOp32
 70
     1
  0
XRECORD
  5
A42
102
{ACAD_REACTORS
330
A41
102
}
330
A41
100
AcDbXrecord
280
     1
102
RTVSPropertyOp0
 70
     1
102
RTVSPropertyOp1
 70
     1
102
RTVSPropertyOp2
 70
     1
102
RTVSPropertyOp3
 70
     1
102
RTVSPropertyOp4
 70
     1
102
RTVSPropertyOp5
 70
     1
102
RTVSPropertyOp6
 70
     1
102
RTVSPropertyOp7
 70
     1
102
RTVSPropertyOp8
 70
     1
102
RTVSPropertyOp9
 70
     1
102
RTVSPropertyOp10
 70
     1
102
RTVSPropertyOp11
 70
     1
102
RTVSPropertyOp12
 70
     1
102
RTVSPropertyOp13
 70
     1
102
RTVSPropertyOp14
 70
     1
102
RTVSPropertyOp15
 70
     1
102
RTVSPropertyOp16
 70
     1
102
RTVSPropertyOp17
 70
     1
102
RTVSPropertyOp18
 70
     1
102
RTVSPropertyOp19
 70
     1
102
RTVSPropertyOp20
 70
     1
102
RTVSPropertyOp21
 70
     1
102
RTVSPropertyOp22
 70
     1
102
RTVSPropertyOp23
 70
     1
102
RTVSPropertyOp24
 70
     1
102
RTVSPropertyOp25
 70
     1
102
RTVSPropertyOp26
 70
     1
102
RTVSPropertyOp27
 70
     1
102
RTVSPropertyOp28
 70
     1
102
RTVSPropertyOp29
 70
     1
102
RTVSPropertyOp30
 70
     1
102
RTVSPropertyOp31
 70
     1
102
RTVSPropertyOp32
 70
     1
  0
XRECORD
  5
A54
102
{ACAD_REACTORS
330
A53
102
}
330
A53
100
AcDbXrecord
280
     1
102
RTVSPropertyOp0
 70
     0
102
RTVSPropertyOp1
 70
     0
102
RTVSPropertyOp2
 70
     0
102
RTVSPropertyOp3
 70
     0
102
RTVSPropertyOp4
 70
     0
102
RTVSPropertyOp5
 70
     0
102
RTVSPropertyOp6
 70
     0
102
RTVSPropertyOp7
 70
     0
102
RTVSPropertyOp8
 70
     0
102
RTVSPropertyOp9
 70
     0
102
RTVSPropertyOp10
 70
     0
102
RTVSPropertyOp11
 70
     0
102
RTVSPropertyOp12
 70
     0
102
RTVSPropertyOp13
 70
     0
102
RTVSPropertyOp14
 70
     2
102
RTVSPropertyOp15
 70
     0
102
RTVSPropertyOp16
 70
     0
102
RTVSPropertyOp17
 70
     0
102
RTVSPropertyOp18
 70
     0
102
RTVSPropertyOp19
 70
     0
102
RTVSPropertyOp20
 70
     0
102
RTVSPropertyOp21
 70
     0
102
RTVSPropertyOp22
 70
     0
102
RTVSPropertyOp23
 70
     0
102
RTVSPropertyOp24
 70
     0
102
RTVSPropertyOp25
 70
     0
102
RTVSPropertyOp26
 70
     0
102
RTVSPropertyOp27
 70
     0
102
RTVSPropertyOp28
 70
     1
102
RTVSPropertyOp29
 70
     1
102
RTVSPropertyOp30
 70
     1
102
RTVSPropertyOp31
 70
     1
102
RTVSPropertyOp32
 70
     1
  0
XRECORD
  5
A3A
102
{ACAD_REACTORS
330
A39
102
}
330
A39
100
AcDbXrecord
280
     1
102
RTVSPropertyOp0
 70
     1
102
RTVSPropertyOp1
 70
     1
102
RTVSPropertyOp2
 70
     1
102
RTVSPropertyOp3
 70
     1
102
RTVSPropertyOp4
 70
     1
102
RTVSPropertyOp5
 70
     1
102
RTVSPropertyOp6
 70
     1
102
RTVSPropertyOp7
 70
     1
102
RTVSPropertyOp8
 70
     1
102
RTVSPropertyOp9
 70
     1
102
RTVSPropertyOp10
 70
     1
102
RTVSPropertyOp11
 70
     1
102
RTVSPropertyOp12
 70
     1
102
RTVSPropertyOp13
 70
     1
102
RTVSPropertyOp14
 70
     1
102
RTVSPropertyOp15
 70
     1
102
RTVSPropertyOp16
 70
     1
102
RTVSPropertyOp17
 70
     1
102
RTVSPropertyOp18
 70
     1
102
RTVSPropertyOp19
 70
     1
102
RTVSPropertyOp20
 70
     1
102
RTVSPropertyOp21
 70
     1
102
RTVSPropertyOp22
 70
     1
102
RTVSPropertyOp23
 70
     1
102
RTVSPropertyOp24
 70
     1
102
RTVSPropertyOp25
 70
     1
102
RTVSPropertyOp26
 70
     1
102
RTVSPropertyOp27
 70
     1
102
RTVSPropertyOp28
 70
     1
102
RTVSPropertyOp29
 70
     1
102
RTVSPropertyOp30
 70
     1
102
RTVSPropertyOp31
 70
     1
102
RTVSPropertyOp32
 70
     1
  0
XRECORD
  5
A50
102
{ACAD_REACTORS
330
A4F
102
}
330
A4F
100
AcDbXrecord
280
     1
102
RTVSPropertyOp0
 70
     1
102
RTVSPropertyOp1
 70
     1
102
RTVSPropertyOp2
 70
     1
102
RTVSPropertyOp3
 70
     1
102
RTVSPropertyOp4
 70
     1
102
RTVSPropertyOp5
 70
     1
102
RTVSPropertyOp6
 70
     1
102
RTVSPropertyOp7
 70
     1
102
RTVSPropertyOp8
 70
     1
102
RTVSPropertyOp9
 70
     1
102
RTVSPropertyOp10
 70
     1
102
RTVSPropertyOp11
 70
     1
102
RTVSPropertyOp12
 70
     1
102
RTVSPropertyOp13
 70
     1
102
RTVSPropertyOp14
 70
     1
102
RTVSPropertyOp15
 70
     1
102
RTVSPropertyOp16
 70
     1
102
RTVSPropertyOp17
 70
     1
102
RTVSPropertyOp18
 70
     1
102
RTVSPropertyOp19
 70
     1
102
RTVSPropertyOp20
 70
     1
102
RTVSPropertyOp21
 70
     1
102
RTVSPropertyOp22
 70
     1
102
RTVSPropertyOp23
 70
     1
102
RTVSPropertyOp24
 70
     1
102
RTVSPropertyOp25
 70
     1
102
RTVSPropertyOp26
 70
     1
102
RTVSPropertyOp27
 70
     1
102
RTVSPropertyOp28
 70
     1
102
RTVSPropertyOp29
 70
     1
102
RTVSPropertyOp30
 70
     1
102
RTVSPropertyOp31
 70
     1
102
RTVSPropertyOp32
 70
     1
  0
XRECORD
  5
A4E
102
{ACAD_REACTORS
330
A4D
102
}
330
A4D
100
AcDbXrecord
280
     1
102
RTVSPropertyOp0
 70
     1
102
RTVSPropertyOp1
 70
     1
102
RTVSPropertyOp2
 70
     1
102
RTVSPropertyOp3
 70
     1
102
RTVSPropertyOp4
 70
     1
102
RTVSPropertyOp5
 70
     1
102
RTVSPropertyOp6
 70
     1
102
RTVSPropertyOp7
 70
     1
102
RTVSPropertyOp8
 70
     1
102
RTVSPropertyOp9
 70
     1
102
RTVSPropertyOp10
 70
     1
102
RTVSPropertyOp11
 70
     1
102
RTVSPropertyOp12
 70
     1
102
RTVSPropertyOp13
 70
     1
102
RTVSPropertyOp14
 70
     1
102
RTVSPropertyOp15
 70
     1
102
RTVSPropertyOp16
 70
     1
102
RTVSPropertyOp17
 70
     1
102
RTVSPropertyOp18
 70
     1
102
RTVSPropertyOp19
 70
     1
102
RTVSPropertyOp20
 70
     1
102
RTVSPropertyOp21
 70
     1
102
RTVSPropertyOp22
 70
     1
102
RTVSPropertyOp23
 70
     1
102
RTVSPropertyOp24
 70
     1
102
RTVSPropertyOp25
 70
     1
102
RTVSPropertyOp26
 70
     1
102
RTVSPropertyOp27
 70
     1
102
RTVSPropertyOp28
 70
     1
102
RTVSPropertyOp29
 70
     1
102
RTVSPropertyOp30
 70
     1
102
RTVSPropertyOp31
 70
     1
102
RTVSPropertyOp32
 70
     1
  0
XRECORD
  5
A48
102
{ACAD_REACTORS
330
A47
102
}
330
A47
100
AcDbXrecord
280
     1
102
RTVSPropertyOp0
 70
     1
102
RTVSPropertyOp1
 70
     1
102
RTVSPropertyOp2
 70
     1
102
RTVSPropertyOp3
 70
     1
102
RTVSPropertyOp4
 70
     1
102
RTVSPropertyOp5
 70
     1
102
RTVSPropertyOp6
 70
     1
102
RTVSPropertyOp7
 70
     1
102
RTVSPropertyOp8
 70
     1
102
RTVSPropertyOp9
 70
     1
102
RTVSPropertyOp10
 70
     1
102
RTVSPropertyOp11
 70
     1
102
RTVSPropertyOp12
 70
     1
102
RTVSPropertyOp13
 70
     1
102
RTVSPropertyOp14
 70
     1
102
RTVSPropertyOp15
 70
     1
102
RTVSPropertyOp16
 70
     1
102
RTVSPropertyOp17
 70
     1
102
RTVSPropertyOp18
 70
     1
102
RTVSPropertyOp19
 70
     1
102
RTVSPropertyOp20
 70
     1
102
RTVSPropertyOp21
 70
     1
102
RTVSPropertyOp22
 70
     1
102
RTVSPropertyOp23
 70
     1
102
RTVSPropertyOp24
 70
     1
102
RTVSPropertyOp25
 70
     1
102
RTVSPropertyOp26
 70
     1
102
RTVSPropertyOp27
 70
     1
102
RTVSPropertyOp28
 70
     1
102
RTVSPropertyOp29
 70
     1
102
RTVSPropertyOp30
 70
     1
102
RTVSPropertyOp31
 70
     1
102
RTVSPropertyOp32
 70
     1
  0
XRECORD
  5
A4A
102
{ACAD_REACTORS
330
A49
102
}
330
A49
100
AcDbXrecord
280
     1
102
RTVSPropertyOp0
 70
     1
102
RTVSPropertyOp1
 70
     1
102
RTVSPropertyOp2
 70
     1
102
RTVSPropertyOp3
 70
     1
102
RTVSPropertyOp4
 70
     1
102
RTVSPropertyOp5
 70
     1
102
RTVSPropertyOp6
 70
     1
102
RTVSPropertyOp7
 70
     1
102
RTVSPropertyOp8
 70
     1
102
RTVSPropertyOp9
 70
     1
102
RTVSPropertyOp10
 70
     1
102
RTVSPropertyOp11
 70
     1
102
RTVSPropertyOp12
 70
     1
102
RTVSPropertyOp13
 70
     1
102
RTVSPropertyOp14
 70
     1
102
RTVSPropertyOp15
 70
     1
102
RTVSPropertyOp16
 70
     1
102
RTVSPropertyOp17
 70
     1
102
RTVSPropertyOp18
 70
     1
102
RTVSPropertyOp19
 70
     1
102
RTVSPropertyOp20
 70
     1
102
RTVSPropertyOp21
 70
     1
102
RTVSPropertyOp22
 70
     1
102
RTVSPropertyOp23
 70
     1
102
RTVSPropertyOp24
 70
     1
102
RTVSPropertyOp25
 70
     1
102
RTVSPropertyOp26
 70
     1
102
RTVSPropertyOp27
 70
     1
102
RTVSPropertyOp28
 70
     1
102
RTVSPropertyOp29
 70
     1
102
RTVSPropertyOp30
 70
     1
102
RTVSPropertyOp31
 70
     1
102
RTVSPropertyOp32
 70
     1
  0
XRECORD
  5
A40
102
{ACAD_REACTORS
330
A3F
102
}
330
A3F
100
AcDbXrecord
280
     1
102
RTVSPropertyOp0
 70
     1
102
RTVSPropertyOp1
 70
     1
102
RTVSPropertyOp2
 70
     1
102
RTVSPropertyOp3
 70
     1
102
RTVSPropertyOp4
 70
     1
102
RTVSPropertyOp5
 70
     1
102
RTVSPropertyOp6
 70
     1
102
RTVSPropertyOp7
 70
     1
102
RTVSPropertyOp8
 70
     1
102
RTVSPropertyOp9
 70
     1
102
RTVSPropertyOp10
 70
     1
102
RTVSPropertyOp11
 70
     1
102
RTVSPropertyOp12
 70
     1
102
RTVSPropertyOp13
 70
     1
102
RTVSPropertyOp14
 70
     1
102
RTVSPropertyOp15
 70
     1
102
RTVSPropertyOp16
 70
     1
102
RTVSPropertyOp17
 70
     1
102
RTVSPropertyOp18
 70
     1
102
RTVSPropertyOp19
 70
     1
102
RTVSPropertyOp20
 70
     1
102
RTVSPropertyOp21
 70
     1
102
RTVSPropertyOp22
 70
     1
102
RTVSPropertyOp23
 70
     1
102
RTVSPropertyOp24
 70
     1
102
RTVSPropertyOp25
 70
     1
102
RTVSPropertyOp26
 70
     1
102
RTVSPropertyOp27
 70
     1
102
RTVSPropertyOp28
 70
     1
102
RTVSPropertyOp29
 70
     1
102
RTVSPropertyOp30
 70
     1
102
RTVSPropertyOp31
 70
     1
102
RTVSPropertyOp32
 70
     1
  0
XRECORD
  5
A34
102
{ACAD_REACTORS
330
A33
102
}
330
A33
100
AcDbXrecord
280
     1
102
RTVSPropertyOp0
 70
     1
102
RTVSPropertyOp1
 70
     1
102
RTVSPropertyOp2
 70
     1
102
RTVSPropertyOp3
 70
     1
102
RTVSPropertyOp4
 70
     1
102
RTVSPropertyOp5
 70
     1
102
RTVSPropertyOp6
 70
     1
102
RTVSPropertyOp7
 70
     1
102
RTVSPropertyOp8
 70
     1
102
RTVSPropertyOp9
 70
     1
102
RTVSPropertyOp10
 70
     1
102
RTVSPropertyOp11
 70
     1
102
RTVSPropertyOp12
 70
     1
102
RTVSPropertyOp13
 70
     1
102
RTVSPropertyOp14
 70
     1
102
RTVSPropertyOp15
 70
     1
102
RTVSPropertyOp16
 70
     1
102
RTVSPropertyOp17
 70
     1
102
RTVSPropertyOp18
 70
     1
102
RTVSPropertyOp19
 70
     1
102
RTVSPropertyOp20
 70
     1
102
RTVSPropertyOp21
 70
     1
102
RTVSPropertyOp22
 70
     1
102
RTVSPropertyOp23
 70
     1
102
RTVSPropertyOp24
 70
     1
102
RTVSPropertyOp25
 70
     1
102
RTVSPropertyOp26
 70
     1
102
RTVSPropertyOp27
 70
     1
102
RTVSPropertyOp28
 70
     1
102
RTVSPropertyOp29
 70
     1
102
RTVSPropertyOp30
 70
     1
102
RTVSPropertyOp31
 70
     1
102
RTVSPropertyOp32
 70
     1
  0
XRECORD
  5
A4C
102
{ACAD_REACTORS
330
A4B
102
}
330
A4B
100
AcDbXrecord
280
     1
102
RTVSPropertyOp0
 70
     1
102
RTVSPropertyOp1
 70
     1
102
RTVSPropertyOp2
 70
     1
102
RTVSPropertyOp3
 70
     1
102
RTVSPropertyOp4
 70
     1
102
RTVSPropertyOp5
 70
     1
102
RTVSPropertyOp6
 70
     1
102
RTVSPropertyOp7
 70
     1
102
RTVSPropertyOp8
 70
     1
102
RTVSPropertyOp9
 70
     1
102
RTVSPropertyOp10
 70
     1
102
RTVSPropertyOp11
 70
     1
102
RTVSPropertyOp12
 70
     1
102
RTVSPropertyOp13
 70
     1
102
RTVSPropertyOp14
 70
     1
102
RTVSPropertyOp15
 70
     1
102
RTVSPropertyOp16
 70
     1
102
RTVSPropertyOp17
 70
     1
102
RTVSPropertyOp18
 70
     1
102
RTVSPropertyOp19
 70
     1
102
RTVSPropertyOp20
 70
     1
102
RTVSPropertyOp21
 70
     1
102
RTVSPropertyOp22
 70
     1
102
RTVSPropertyOp23
 70
     1
102
RTVSPropertyOp24
 70
     1
102
RTVSPropertyOp25
 70
     1
102
RTVSPropertyOp26
 70
     1
102
RTVSPropertyOp27
 70
     1
102
RTVSPropertyOp28
 70
     1
102
RTVSPropertyOp29
 70
     1
102
RTVSPropertyOp30
 70
     1
102
RTVSPropertyOp31
 70
     1
102
RTVSPropertyOp32
 70
     1
  0
ENDSEC
  0
EOF
