  0
SECTION
  2
HEADER
  9
$ACADVER
  1
AC1015
  9
$ACADMAINTVER
 70
    20
  9
$DWGCODEPAGE
  3
ANSI_932
  9
$INSBASE
 10
0.0
 20
0.0
 30
0.0
  9
$EXTMIN
 10
-4.291624502488616
 20
413.6719649658378
 30
-0.0015258207003583
  9
$EXTMAX
 10
133.7527325214637
 20
485.1395979217033
 30
0.0000000349246037
  9
$LIMMIN
 10
0.0
 20
0.0
  9
$LIMMAX
 10
0.0
 20
0.0
  9
$ORTHOMODE
 70
     0
  9
$REGENMODE
 70
     1
  9
$FILLMODE
 70
     1
  9
$QTEXTMODE
 70
     0
  9
$MIRRTEXT
 70
     1
  9
$LTSCALE
 40
1.0
  9
$ATTMODE
 70
     1
  9
$TEXTSIZE
 40
0.0
  9
$TRACEWID
 40
0.05
  9
$TEXTSTYLE
  7
STANDARD
  9
$CLAYER
  8
0
  9
$CELTYPE
  6
CONTINUOUS
  9
$CECOLOR
 62
   256
  9
$CELTSCALE
 40
1.0
  9
$DISPSILH
 70
     0
  9
$DIMSCALE
 40
1.0
  9
$DIMASZ
 40
0.18
  9
$DIMEXO
 40
0.0625
  9
$DIMDLI
 40
0.38
  9
$DIMRND
 40
0.0
  9
$DIMDLE
 40
0.0
  9
$DIMEXE
 40
0.18
  9
$DIMTP
 40
0.0
  9
$DIMTM
 40
0.0
  9
$DIMTXT
 40
0.18
  9
$DIMCEN
 40
0.09
  9
$DIMTSZ
 40
0.0
  9
$DIMTOL
 70
     0
  9
$DIMLIM
 70
     0
  9
$DIMTIH
 70
     1
  9
$DIMTOH
 70
     1
  9
$DIMSE1
 70
     0
  9
$DIMSE2
 70
     0
  9
$DIMTAD
 70
     0
  9
$DIMZIN
 70
     0
  9
$DIMBLK
  1

  9
$DIMASO
 70
     1
  9
$DIMSHO
 70
     1
  9
$DIMPOST
  1

  9
$DIMAPOST
  1

  9
$DIMALT
 70
     0
  9
$DIMALTD
 70
     2
  9
$DIMALTF
 40
25.4
  9
$DIMLFAC
 40
1.0
  9
$DIMTOFL
 70
     0
  9
$DIMTVP
 40
0.0
  9
$DIMTIX
 70
     0
  9
$DIMSOXD
 70
     0
  9
$DIMSAH
 70
     0
  9
$DIMBLK1
  1

  9
$DIMBLK2
  1

  9
$DIMSTYLE
  2
STANDARD
  9
$DIMCLRD
 70
     0
  9
$DIMCLRE
 70
     0
  9
$DIMCLRT
 70
     0
  9
$DIMTFAC
 40
1.0
  9
$DIMGAP
 40
0.09
  9
$DIMJUST
 70
     0
  9
$DIMSD1
 70
     0
  9
$DIMSD2
 70
     0
  9
$DIMTOLJ
 70
     1
  9
$DIMTZIN
 70
     0
  9
$DIMALTZ
 70
     0
  9
$DIMALTTZ
 70
     0
  9
$DIMUPT
 70
     0
  9
$DIMDEC
 70
     4
  9
$DIMTDEC
 70
     4
  9
$DIMALTU
 70
     2
  9
$DIMALTTD
 70
     2
  9
$DIMTXSTY
  7
STANDARD
  9
$DIMAUNIT
 70
     0
  9
$DIMADEC
 70
     0
  9
$DIMALTRND
 40
0.0
  9
$DIMAZIN
 70
     0
  9
$DIMDSEP
 70
    46
  9
$DIMATFIT
 70
     3
  9
$DIMFRAC
 70
     0
  9
$DIMLDRBLK
  1

  9
$DIMLUNIT
 70
     2
  9
$DIMLWD
 70
    -2
  9
$DIMLWE
 70
    -2
  9
$DIMTMOVE
 70
     0
  9
$LUNITS
 70
     2
  9
$LUPREC
 70
     4
  9
$SKETCHINC
 40
0.1
  9
$FILLETRAD
 40
0.0
  9
$AUNITS
 70
     0
  9
$AUPREC
 70
     0
  9
$MENU
  1
acad
  9
$ELEVATION
 40
0.0
  9
$PELEVATION
 40
0.0
  9
$THICKNESS
 40
0.0
  9
$LIMCHECK
 70
     0
  9
$CHAMFERA
 40
0.0
  9
$CHAMFERB
 40
0.0
  9
$CHAMFERC
 40
0.0
  9
$CHAMFERD
 40
0.0
  9
$SKPOLY
 70
     0
  9
$TDCREATE
 40
12367012.42928310
  9
$TDUCREATE
 40
6.0000000000
  9
$TDUPDATE
 40
2457592.441054931
  9
$TDUUPDATE
 40
2457592.066054931
  9
$TDINDWG
 40
0.0012842708
  9
$TDUSRTIMER
 40
0.0012842708
  9
$USRTIMER
 70
     1
  9
$ANGBASE
 50
0.0
  9
$ANGDIR
 70
     0
  9
$PDMODE
 70
     0
  9
$PDSIZE
 40
0.0
  9
$PLINEWID
 40
0.0
  9
$SPLFRAME
 70
     0
  9
$SPLINETYPE
 70
     6
  9
$SPLINESEGS
 70
     8
  9
$HANDSEED
  5
4EB
  9
$SURFTAB1
 70
     6
  9
$SURFTAB2
 70
     6
  9
$SURFTYPE
 70
     6
  9
$SURFU
 70
     6
  9
$SURFV
 70
     6
  9
$UCSBASE
  2

  9
$UCSNAME
  2

  9
$UCSORG
 10
0.0
 20
0.0
 30
0.0
  9
$UCSXDIR
 10
1.0
 20
0.0
 30
0.0
  9
$UCSYDIR
 10
0.0
 20
1.0
 30
0.0
  9
$UCSORTHOREF
  2

  9
$UCSORTHOVIEW
 70
     0
  9
$UCSORGTOP
 10
0.0
 20
0.0
 30
0.0
  9
$UCSORGBOTTOM
 10
0.0
 20
0.0
 30
0.0
  9
$UCSORGLEFT
 10
0.0
 20
0.0
 30
0.0
  9
$UCSORGRIGHT
 10
0.0
 20
0.0
 30
0.0
  9
$UCSORGFRONT
 10
0.0
 20
0.0
 30
0.0
  9
$UCSORGBACK
 10
0.0
 20
0.0
 30
0.0
  9
$PUCSBASE
  2

  9
$PUCSNAME
  2

  9
$PUCSORG
 10
0.0
 20
0.0
 30
0.0
  9
$PUCSXDIR
 10
1.0
 20
0.0
 30
0.0
  9
$PUCSYDIR
 10
0.0
 20
1.0
 30
0.0
  9
$PUCSORTHOREF
  2

  9
$PUCSORTHOVIEW
 70
     0
  9
$PUCSORGTOP
 10
0.0
 20
0.0
 30
0.0
  9
$PUCSORGBOTTOM
 10
0.0
 20
0.0
 30
0.0
  9
$PUCSORGLEFT
 10
0.0
 20
0.0
 30
0.0
  9
$PUCSORGRIGHT
 10
0.0
 20
0.0
 30
0.0
  9
$PUCSORGFRONT
 10
0.0
 20
0.0
 30
0.0
  9
$PUCSORGBACK
 10
0.0
 20
0.0
 30
0.0
  9
$USERI1
 70
     0
  9
$USERI2
 70
     0
  9
$USERI3
 70
     0
  9
$USERI4
 70
     0
  9
$USERI5
 70
     0
  9
$USERR1
 40
12.01
  9
$USERR2
 40
0.0
  9
$USERR3
 40
0.0
  9
$USERR4
 40
0.0
  9
$USERR5
 40
0.0
  9
$WORLDVIEW
 70
     1
  9
$SHADEDGE
 70
     3
  9
$SHADEDIF
 70
    70
  9
$TILEMODE
 70
     1
  9
$MAXACTVP
 70
    16
  9
$PINSBASE
 10
0.0
 20
0.0
 30
0.0
  9
$PLIMCHECK
 70
     0
  9
$PEXTMIN
 10
1.000000000000000E+20
 20
1.000000000000000E+20
 30
1.000000000000000E+20
  9
$PEXTMAX
 10
-1.000000000000000E+20
 20
-1.000000000000000E+20
 30
-1.000000000000000E+20
  9
$PLIMMIN
 10
0.0
 20
0.0
  9
$PLIMMAX
 10
12.0
 20
9.0
  9
$UNITMODE
 70
     0
  9
$VISRETAIN
 70
     0
  9
$PLINEGEN
 70
     1
  9
$PSLTSCALE
 70
     0
  9
$TREEDEPTH
 70
  3020
  9
$CMLSTYLE
  2
STANDARD
  9
$CMLJUST
 70
     0
  9
$CMLSCALE
 40
1.0
  9
$PROXYGRAPHICS
 70
     0
  9
$MEASUREMENT
 70
     1
  9
$CELWEIGHT
370
    -1
  9
$ENDCAPS
280
     0
  9
$JOINSTYLE
280
     0
  9
$LWDISPLAY
290
     0
  9
$INSUNITS
 70
     0
  9
$HYPERLINKBASE
  1

  9
$STYLESHEET
  1

  9
$XEDIT
290
     1
  9
$CEPSNTYPE
380
     0
  9
$PSTYLEMODE
290
     1
  9
$FINGERPRINTGUID
  2
{4E3DE998-7500-4007-92C4-D19417A7377F}
  9
$VERSIONGUID
  2
{65317C17-3F88-43FE-9D4C-AA3E09BE2021}
  9
$EXTNAMES
290
     1
  9
$PSVPSCALE
 40
0.0
  9
$OLESTARTUP
290
     0
  0
ENDSEC
  0
SECTION
  2
CLASSES
  0
CLASS
  1
IMAGE
  2
AcDbRasterImage
  3
ISM
 90
    34943
280
     0
281
     1
  0
CLASS
  1
DICTIONARYVAR
  2
AcDbDictionaryVar
  3
ObjectDBX Classes
 90
        0
280
     0
281
     0
  0
CLASS
  1
RASTERVARIABLES
  2
AcDbRasterVariables
  3
ISM
 90
    32768
280
     0
281
     0
  0
CLASS
  1
IMAGEDEF
  2
AcDbRasterImageDef
  3
ISM
 90
    32768
280
     0
281
     0
  0
CLASS
  1
IMAGEDEF_REACTOR
  2
AcDbRasterImageDefReactor
  3
ISM
 90
    32769
280
     0
281
     0
  0
CLASS
  1
IDBUFFER
  2
AcDbIdBuffer
  3
ObjectDBX Classes
 90
    32768
280
     0
281
     0
  0
CLASS
  1
SPATIAL_FILTER
  2
AcDbSpatialFilter
  3
ObjectDBX Classes
 90
    32768
280
     0
281
     0
  0
CLASS
  1
SORTENTSTABLE
  2
AcDbSortentsTable
  3
ObjectDBX Classes
 90
        0
280
     0
281
     0
  0
CLASS
  1
LAYER_INDEX
  2
AcDbLayerIndex
  3
ObjectDBX Classes
 90
    32768
280
     0
281
     0
  0
CLASS
  1
SPATIAL_INDEX
  2
AcDbSpatialIndex
  3
ObjectDBX Classes
 90
    32768
280
     0
281
     0
  0
CLASS
  1
OBJECT_PTR
  2
CAseDLPNTableRecord
  3
ASE-LPNTableRecord
 90
    32769
280
     0
281
     0
  0
CLASS
  1
LAYOUT
  2
AcDbLayout
  3
ObjectDBX Classes
 90
        0
280
     0
281
     0
  0
CLASS
  1
PLOTSETTINGS
  2
AcDbPlotSettings
  3
ObjectDBX Classes
 90
    32768
280
     0
281
     0
  0
CLASS
  1
ACDBDICTIONARYWDFLT
  2
AcDbDictionaryWithDefault
  3
ObjectDBX Classes
 90
        0
280
     0
281
     0
  0
CLASS
  1
ACDBPLACEHOLDER
  2
AcDbPlaceHolder
  3
ObjectDBX Classes
 90
        0
280
     0
281
     0
  0
CLASS
  1
MATERIAL
  2
AcDbMaterial
  3
ObjectDBX Classes
 90
     1153
280
     0
281
     0
  0
CLASS
  1
VISUALSTYLE
  2
AcDbVisualStyle
  3
ObjectDBX Classes
 90
     4095
280
     0
281
     0
  0
CLASS
  1
TABLESTYLE
  2
AcDbTableStyle
  3
ObjectDBX Classes
 90
     4095
280
     0
281
     0
  0
CLASS
  1
SCALE
  2
AcDbScale
  3
ObjectDBX Classes
 90
     1153
280
     0
281
     0
  0
CLASS
  1
MLEADERSTYLE
  2
AcDbMLeaderStyle
  3
ACDB_MLEADERSTYLE_CLASS
 90
     4095
280
     0
281
     0
  0
CLASS
  1
CELLSTYLEMAP
  2
AcDbCellStyleMap
  3
ObjectDBX Classes
 90
     1152
280
     0
281
     0
  0
ENDSEC
  0
SECTION
  2
TABLES
  0
TABLE
  2
VPORT
  5
7
330
0
100
AcDbSymbolTable
 70
     1
  0
VPORT
  5
15
330
7
100
AcDbSymbolTableRecord
100
AcDbViewportTableRecord
  2
*ACTIVE
 70
     0
 10
0.0
 20
0.0
 11
1.0
 21
1.0
 12
52.7275092199427
 22
401.0396858068594
 13
0.0
 23
0.0
 14
1.0
 24
1.0
 15
0.0
 25
0.0
 16
0.0
 26
0.0
 36
1.0
 17
0.0
 27
0.0
 37
0.0
 40
294.4404744157728
 41
2.026347305389221
 42
50.0
 43
0.0
 44
0.0
 50
0.0
 51
0.0
 71
     0
 72
   100
 73
     1
 74
     1
 75
     0
 76
     0
 77
     0
 78
     0
281
     0
 65
     1
110
0.0
120
0.0
130
0.0
111
1.0
121
0.0
131
0.0
112
0.0
122
1.0
132
0.0
 79
     0
146
0.0
1001
ACAD_NAV_VCDISPLAY
1070
     3
  0
ENDTAB
  0
TABLE
  2
LTYPE
  5
4
330
0
100
AcDbSymbolTable
 70
     9
  0
LTYPE
  5
11
330
4
100
AcDbSymbolTableRecord
100
AcDbLinetypeTableRecord
  2
BYBLOCK
 70
     0
  3

 72
    65
 73
     0
 40
0.0
  0
LTYPE
  5
12
330
4
100
AcDbSymbolTableRecord
100
AcDbLinetypeTableRecord
  2
BYLAYER
 70
     0
  3

 72
    65
 73
     0
 40
0.0
  0
LTYPE
  5
13
330
4
100
AcDbSymbolTableRecord
100
AcDbLinetypeTableRecord
  2
CONTINUOUS
 70
     0
  3
Solid line
 72
    65
 73
     0
 40
0.0
  0
LTYPE
  5
1D
330
4
100
AcDbSymbolTableRecord
100
AcDbLinetypeTableRecord
  2
DASHED
 70
     0
  3
Dashed
 72
    65
 73
     2
 40
15.0
 49
7.0
 74
     0
 49
-8.0
 74
     0
  0
LTYPE
  5
1E
330
4
100
AcDbSymbolTableRecord
100
AcDbLinetypeTableRecord
  2
DOTTED
 70
     0
  3
Dotted
 72
    65
 73
     2
 40
1.0
 49
0.0
 74
     0
 49
-1.0
 74
     0
  0
LTYPE
  5
1F
330
4
100
AcDbSymbolTableRecord
100
AcDbLinetypeTableRecord
  2
DOT_CENTER
 70
     0
  3
Dot_Center
 72
    65
 73
     4
 40
14.0
 49
12.0
 74
     0
 49
-1.0
 74
     0
 49
0.0
 74
     0
 49
-1.0
 74
     0
  0
LTYPE
  5
20
330
4
100
AcDbSymbolTableRecord
100
AcDbLinetypeTableRecord
  2
LONG_DASHED
 70
     0
  3
Long_Dashed
 72
    65
 73
     2
 40
15.0
 49
10.0
 74
     0
 49
-5.0
 74
     0
  0
LTYPE
  5
21
330
4
100
AcDbSymbolTableRecord
100
AcDbLinetypeTableRecord
  2
DASH_CENTER
 70
     0
  3
Dash_Center
 72
    65
 73
     4
 40
14.0
 49
11.0
 74
     0
 49
-1.0
 74
     0
 49
1.0
 74
     0
 49
-1.0
 74
     0
  0
LTYPE
  5
22
330
4
100
AcDbSymbolTableRecord
100
AcDbLinetypeTableRecord
  2
PHANTOM
 70
     0
  3
Phantom
 72
    65
 73
     6
 40
13.0
 49
10.0
 74
     0
 49
-1.0
 74
     0
 49
0.0
 74
     0
 49
-1.0
 74
     0
 49
0.0
 74
     0
 49
-1.0
 74
     0
  0
LTYPE
  5
23
330
4
100
AcDbSymbolTableRecord
100
AcDbLinetypeTableRecord
  2
CENTER_DASH_DASH
 70
     0
  3
Center_Dash_Dash
 72
    65
 73
     6
 40
14.0
 49
9.0
 74
     0
 49
-1.0
 74
     0
 49
1.0
 74
     0
 49
-1.0
 74
     0
 49
1.0
 74
     0
 49
-1.0
 74
     0
  0
ENDTAB
  0
TABLE
  2
LAYER
  5
2
330
0
100
AcDbSymbolTable
 70
     2
  0
LAYER
  5
14
102
{ACAD_XDICTIONARY
360
445
102
}
330
2
100
AcDbSymbolTableRecord
100
AcDbLayerTableRecord
  2
0
 70
     0
 62
     7
  6
CONTINUOUS
370
    -3
390
2FB
  0
LAYER
  5
24
102
{ACAD_XDICTIONARY
360
447
102
}
330
2
100
AcDbSymbolTableRecord
100
AcDbLayerTableRecord
  2
1
 70
     0
 62
     7
  6
CONTINUOUS
370
    -3
390
2FB
  0
ENDTAB
  0
TABLE
  2
STYLE
  5
3
330
0
100
AcDbSymbolTable
 70
     6
  0
STYLE
  5
17
330
3
100
AcDbSymbolTableRecord
100
AcDbTextStyleTableRecord
  2
STANDARD
 70
     0
 40
0.0
 41
1.0
 50
0.0
 71
     0
 42
0.0
  3
txt
  4

  0
STYLE
  5
13E
330
3
100
AcDbSymbolTableRecord
100
AcDbTextStyleTableRecord
  2
CONVERTER_1
 70
     0
 40
0.0
 41
0.63
 50
0.0
 71
     0
 42
0.0
  3
txt.shx
  4

  0
STYLE
  5
145
330
3
100
AcDbSymbolTableRecord
100
AcDbTextStyleTableRecord
  2
CONVERTER_2
 70
     0
 40
0.0
 41
0.603
 50
0.0
 71
     0
 42
0.0
  3
txt.shx
  4

  0
STYLE
  5
15B
330
3
100
AcDbSymbolTableRecord
100
AcDbTextStyleTableRecord
  2
CONVERTER_3
 70
     0
 40
0.0
 41
0.9
 50
0.0
 71
     0
 42
0.0
  3
txt.shx
  4

  0
STYLE
  5
16F
330
3
100
AcDbSymbolTableRecord
100
AcDbTextStyleTableRecord
  2
CONVERTER_4
 70
     0
 40
0.0
 41
0.76
 50
0.0
 71
     0
 42
0.0
  3
complex.shx
  4

  0
STYLE
  5
20F
330
3
100
AcDbSymbolTableRecord
100
AcDbTextStyleTableRecord
  2
CONVERTER_5
 70
     0
 40
0.0
 41
0.6650000000000001
 50
0.0
 71
     0
 42
0.0
  3
simplex.shx
  4

  0
ENDTAB
  0
TABLE
  2
VIEW
  5
5
330
0
100
AcDbSymbolTable
 70
     0
  0
ENDTAB
  0
TABLE
  2
UCS
  5
6
330
0
100
AcDbSymbolTable
 70
     0
  0
ENDTAB
  0
TABLE
  2
APPID
  5
8
330
0
100
AcDbSymbolTable
 70
     4
  0
APPID
  5
16
330
8
100
AcDbSymbolTableRecord
100
AcDbRegAppTableRecord
  2
ACAD
 70
     0
  0
APPID
  5
44B
330
8
100
AcDbSymbolTableRecord
100
AcDbRegAppTableRecord
  2
DCO15
 70
     0
  0
APPID
  5
455
330
8
100
AcDbSymbolTableRecord
100
AcDbRegAppTableRecord
  2
ACAD_NAV_VCDISPLAY
 70
     0
  0
APPID
  5
4E6
330
8
100
AcDbSymbolTableRecord
100
AcDbRegAppTableRecord
  2
ACAD_MLEADERVER
 70
     0
  0
ENDTAB
  0
TABLE
  2
DIMSTYLE
  5
9
330
0
100
AcDbSymbolTable
 70
    19
100
AcDbDimStyleTable
 71
     0
  0
DIMSTYLE
105
18
330
9
100
AcDbSymbolTableRecord
100
AcDbDimStyleTableRecord
  2
STANDARD
 70
     0
340
17
  0
DIMSTYLE
105
218
330
9
100
AcDbSymbolTableRecord
100
AcDbDimStyleTableRecord
  2
ME10_DIM_0
 70
     0
  3
{\Fgdt;n}<>
 41
2.45
 42
1.0
 44
1.0
 73
     0
 74
     0
 77
     1
 78
     8
140
3.5
147
0.625
172
     1
173
     1
176
     2
177
     2
178
     3
271
     2
340
20F
341
212
343
212
344
212
  0
DIMSTYLE
105
225
330
9
100
AcDbSymbolTableRecord
100
AcDbDimStyleTableRecord
  2
ME10_DIM_1
 70
     0
 41
2.45
 42
1.0
 44
1.0
 73
     0
 74
     0
 77
     1
 78
     8
140
3.5
147
0.625
172
     1
173
     1
176
     2
177
     2
178
     3
271
     2
340
20F
341
212
343
212
344
212
  0
DIMSTYLE
105
232
330
9
100
AcDbSymbolTableRecord
100
AcDbDimStyleTableRecord
  2
ME10_DIM_2
 70
     0
  3
{\Fgdt;n}<>
 41
2.45
 42
1.0
 44
1.0
 73
     0
 74
     0
 77
     1
 78
     8
140
3.5
147
0.625
172
     1
173
     1
176
     2
177
     2
178
     3
271
     2
340
20F
341
212
343
212
344
212
  0
DIMSTYLE
105
23F
330
9
100
AcDbSymbolTableRecord
100
AcDbDimStyleTableRecord
  2
ME10_DIM_3
 70
     0
 41
2.45
 42
1.0
 44
1.0
 73
     0
 74
     0
 77
     1
 78
     8
140
3.5
147
0.625
172
     1
173
     1
176
     2
177
     2
178
     3
271
     2
340
20F
341
212
343
212
344
212
  0
DIMSTYLE
105
24C
330
9
100
AcDbSymbolTableRecord
100
AcDbDimStyleTableRecord
  2
ME10_DIM_4
 70
     0
 41
2.45
 42
1.0
 44
1.0
 73
     0
 74
     0
 77
     1
 78
     8
140
3.5
147
0.625
172
     1
173
     1
176
     2
177
     2
178
     3
271
     2
340
20F
341
212
343
212
344
212
  0
DIMSTYLE
105
259
330
9
100
AcDbSymbolTableRecord
100
AcDbDimStyleTableRecord
  2
ME10_DIM_5
 70
     0
 41
2.45
 42
1.0
 44
1.0
 73
     0
 74
     0
 77
     1
 78
     8
140
3.5
147
0.625
172
     1
173
     1
176
     2
177
     2
178
     3
271
     2
340
20F
341
212
343
212
344
212
  0
DIMSTYLE
105
266
330
9
100
AcDbSymbolTableRecord
100
AcDbDimStyleTableRecord
  2
ME10_DIM_6
 70
     0
 41
2.45
 42
1.0
 44
1.0
 73
     0
 74
     0
 77
     1
 78
     8
140
3.5
147
0.625
172
     1
173
     1
176
     2
177
     2
178
     3
271
     2
340
20F
341
212
343
212
344
212
  0
DIMSTYLE
105
273
330
9
100
AcDbSymbolTableRecord
100
AcDbDimStyleTableRecord
  2
ME10_DIM_7
 70
     0
 41
2.45
 42
1.0
 44
1.0
 73
     0
 74
     0
 77
     1
 78
     8
140
3.5
147
0.625
172
     1
173
     1
176
     2
177
     2
178
     3
271
     2
340
20F
341
212
343
212
344
212
  0
DIMSTYLE
105
280
330
9
100
AcDbSymbolTableRecord
100
AcDbDimStyleTableRecord
  2
ME10_DIM_8
 70
     0
 41
2.45
 42
1.0
 44
1.0
 73
     0
 74
     0
 77
     1
 78
     8
140
3.5
147
0.625
172
     1
173
     1
176
     2
177
     2
178
     3
271
     2
340
20F
341
212
343
212
344
212
  0
DIMSTYLE
105
28D
330
9
100
AcDbSymbolTableRecord
100
AcDbDimStyleTableRecord
  2
ME10_DIM_9
 70
     0
 41
2.45
 42
1.0
 44
1.0
 73
     0
 74
     0
 77
     1
 78
     8
140
3.5
147
0.625
172
     1
173
     1
176
     2
177
     2
178
     3
271
     2
340
20F
341
212
343
212
344
212
  0
DIMSTYLE
105
2A3
330
9
100
AcDbSymbolTableRecord
100
AcDbDimStyleTableRecord
  2
ME10_DIM_10
 70
     0
 41
1.0
 42
1.0
 44
1.0
 73
     0
 74
     0
 77
     1
 78
     8
140
3.5
147
0.625
172
     1
173
     1
176
     2
177
     2
178
     3
271
     2
340
20F
341
212
343
212
344
29B
  0
DIMSTYLE
105
2B3
330
9
100
AcDbSymbolTableRecord
100
AcDbDimStyleTableRecord
  2
ME10_DIM_11
 70
     0
 41
2.45
 42
1.0
 44
1.0
 73
     0
 74
     0
 77
     1
 78
     8
140
3.5
147
0.625
172
     1
173
     1
176
     2
177
     2
178
     3
271
     2
340
20F
341
2B0
343
2B0
344
212
  0
DIMSTYLE
105
2C0
330
9
100
AcDbSymbolTableRecord
100
AcDbDimStyleTableRecord
  2
ME10_DIM_12
 70
     0
 41
2.45
 42
1.0
 44
1.0
 73
     0
 74
     0
 77
     1
 78
     8
140
3.5
147
0.625
172
     1
173
     1
176
     2
177
     2
178
     3
271
     2
340
20F
341
212
343
212
344
212
  0
DIMSTYLE
105
2CD
330
9
100
AcDbSymbolTableRecord
100
AcDbDimStyleTableRecord
  2
ME10_DIM_13
 70
     0
 41
2.45
 42
1.0
 44
1.0
 73
     0
 74
     0
 77
     1
 78
     8
140
3.5
147
0.625
172
     1
173
     1
176
     2
177
     2
178
     3
271
     2
340
20F
341
212
343
212
344
212
  0
DIMSTYLE
105
2DA
330
9
100
AcDbSymbolTableRecord
100
AcDbDimStyleTableRecord
  2
ME10_DIM_14
 70
     0
 41
2.45
 42
1.0
 44
1.0
 73
     0
 74
     0
 77
     1
 78
     8
140
3.5
147
0.625
172
     1
173
     1
176
     2
177
     2
178
     3
271
     2
340
20F
341
212
343
212
344
212
  0
DIMSTYLE
105
2E7
330
9
100
AcDbSymbolTableRecord
100
AcDbDimStyleTableRecord
  2
ME10_DIM_15
 70
     0
 41
2.45
 42
1.0
 44
1.0
 73
     0
 74
     0
 77
     1
 78
     8
140
3.5
147
0.625
172
     1
173
     1
176
     2
177
     2
178
     3
271
     2
340
20F
341
212
343
212
344
212
  0
DIMSTYLE
105
2F5
330
9
100
AcDbSymbolTableRecord
100
AcDbDimStyleTableRecord
  2
ME10_DIM_16
 70
     0
 41
2.45
 42
1.0
 44
1.0
 73
     0
 74
     0
 77
     1
 78
     8
140
3.5
147
0.625
172
     1
173
     1
176
     2
177
     2
178
     3
271
     2
340
20F
341
212
343
212
344
212
  0
ENDTAB
  0
TABLE
  2
BLOCK_RECORD
  5
1
330
0
100
AcDbSymbolTable
 70
    29
  0
BLOCK_RECORD
  5
A
102
{ACAD_XDICTIONARY
360
359
102
}
330
1
100
AcDbSymbolTableRecord
100
AcDbBlockTableRecord
  2
*MODEL_SPACE
340
347
  0
BLOCK_RECORD
  5
B
330
1
100
AcDbSymbolTableRecord
100
AcDbBlockTableRecord
  2
*PAPER_SPACE
340
348
  0
BLOCK_RECORD
  5
25
330
1
100
AcDbSymbolTableRecord
100
AcDbBlockTableRecord
  2
______
340
0
102
{BLKREFS
331
29
102
}
  0
BLOCK_RECORD
  5
27
330
1
100
AcDbSymbolTableRecord
100
AcDbBlockTableRecord
  2
FORMAT_A3
340
0
102
{BLKREFS
331
2C
102
}
  0
BLOCK_RECORD
  5
2A
330
1
100
AcDbSymbolTableRecord
100
AcDbBlockTableRecord
  2
_6
340
0
  0
BLOCK_RECORD
  5
2D
330
1
100
AcDbSymbolTableRecord
100
AcDbBlockTableRecord
  2
_1
340
0
  0
BLOCK_RECORD
  5
2F
330
1
100
AcDbSymbolTableRecord
100
AcDbBlockTableRecord
  2
_2
340
0
  0
BLOCK_RECORD
  5
31
330
1
100
AcDbSymbolTableRecord
100
AcDbBlockTableRecord
  2
_3
340
0
  0
BLOCK_RECORD
  5
33
330
1
100
AcDbSymbolTableRecord
100
AcDbBlockTableRecord
  2
_4
340
0
  0
BLOCK_RECORD
  5
35
330
1
100
AcDbSymbolTableRecord
100
AcDbBlockTableRecord
  2
_5
340
0
  0
BLOCK_RECORD
  5
204
330
1
100
AcDbSymbolTableRecord
100
AcDbBlockTableRecord
  2
*D8
340
0
  0
BLOCK_RECORD
  5
212
330
1
100
AcDbSymbolTableRecord
100
AcDbBlockTableRecord
  2
_OPEN30
340
0
  0
BLOCK_RECORD
  5
21A
330
1
100
AcDbSymbolTableRecord
100
AcDbBlockTableRecord
  2
*D10
340
0
  0
BLOCK_RECORD
  5
227
330
1
100
AcDbSymbolTableRecord
100
AcDbBlockTableRecord
  2
*D11
340
0
  0
BLOCK_RECORD
  5
234
330
1
100
AcDbSymbolTableRecord
100
AcDbBlockTableRecord
  2
*D12
340
0
  0
BLOCK_RECORD
  5
241
330
1
100
AcDbSymbolTableRecord
100
AcDbBlockTableRecord
  2
*D13
340
0
  0
BLOCK_RECORD
  5
24E
330
1
100
AcDbSymbolTableRecord
100
AcDbBlockTableRecord
  2
*D14
340
0
  0
BLOCK_RECORD
  5
25B
330
1
100
AcDbSymbolTableRecord
100
AcDbBlockTableRecord
  2
*D15
340
0
  0
BLOCK_RECORD
  5
268
330
1
100
AcDbSymbolTableRecord
100
AcDbBlockTableRecord
  2
*D16
340
0
  0
BLOCK_RECORD
  5
275
330
1
100
AcDbSymbolTableRecord
100
AcDbBlockTableRecord
  2
*D17
340
0
  0
BLOCK_RECORD
  5
282
330
1
100
AcDbSymbolTableRecord
100
AcDbBlockTableRecord
  2
*D18
340
0
  0
BLOCK_RECORD
  5
28F
330
1
100
AcDbSymbolTableRecord
100
AcDbBlockTableRecord
  2
*D19
340
0
  0
BLOCK_RECORD
  5
29B
330
1
100
AcDbSymbolTableRecord
100
AcDbBlockTableRecord
  2
_DOT
340
0
  0
BLOCK_RECORD
  5
2A5
330
1
100
AcDbSymbolTableRecord
100
AcDbBlockTableRecord
  2
*D21
340
0
  0
BLOCK_RECORD
  5
2B0
330
1
100
AcDbSymbolTableRecord
100
AcDbBlockTableRecord
  2
_NONE
340
0
  0
BLOCK_RECORD
  5
2B5
330
1
100
AcDbSymbolTableRecord
100
AcDbBlockTableRecord
  2
*D23
340
0
  0
BLOCK_RECORD
  5
2C2
330
1
100
AcDbSymbolTableRecord
100
AcDbBlockTableRecord
  2
*D24
340
0
  0
BLOCK_RECORD
  5
2CF
330
1
100
AcDbSymbolTableRecord
100
AcDbBlockTableRecord
  2
*D25
340
0
  0
BLOCK_RECORD
  5
2DC
330
1
100
AcDbSymbolTableRecord
100
AcDbBlockTableRecord
  2
*D26
340
0
  0
BLOCK_RECORD
  5
2E9
330
1
100
AcDbSymbolTableRecord
100
AcDbBlockTableRecord
  2
*D27
340
0
  0
ENDTAB
  0
ENDSEC
  0
SECTION
  2
BLOCKS
  0
BLOCK
  5
D
330
A
100
AcDbEntity
  8
0
100
AcDbBlockBegin
  2
*MODEL_SPACE
 70
     0
 10
0.0
 20
0.0
 30
0.0
  3
*MODEL_SPACE
  1

  0
ENDBLK
  5
E
330
A
100
AcDbEntity
  8
0
100
AcDbBlockEnd
  0
BLOCK
  5
F
330
B
100
AcDbEntity
 67
     1
  8
0
100
AcDbBlockBegin
  2
*PAPER_SPACE
 70
     0
 10
0.0
 20
0.0
 30
0.0
  3
*PAPER_SPACE
  1

  0
ENDBLK
  5
10
330
B
100
AcDbEntity
 67
     1
  8
0
100
AcDbBlockEnd
  0
BLOCK
  5
26
330
25
100
AcDbEntity
  8
0
100
AcDbBlockBegin
  2
______
 70
     0
 10
1045.878712978437
 20
105.6987887814188
 30
0.0
  3
______
  1

  0
MTEXT
  5
186
102
{ACAD_XDICTIONARY
360
4AE
102
}
330
25
100
AcDbEntity
  8
1
 62
     3
100
AcDbMText
 10
835.458749269379
 20
403.0703333478951
 30
0.0
 40
3.5
 41
0.0
 71
     4
 72
     1
  1
\U+0192V\U+0192\U+0192\U+0192t\U+0192g
  7
CONVERTER_1
 73
     1
 44
1.0
1001
ACAD
1000
MTEXTBEGIN
1070
    73
1070
     1
1070
    44
1040
1.0
1070
    74
1070
     0
1000
MTEXTEND
  0
MTEXT
  5
185
102
{ACAD_XDICTIONARY
360
4AC
102
}
330
25
100
AcDbEntity
  8
1
 62
     3
100
AcDbMText
 10
930.4587492693789
 20
410.0703333478956
 30
0.0
 40
3.5
 41
0.0
 71
     4
 72
     1
  1
\U+008D\U+2022\U+0090F
  7
CONVERTER_1
 73
     1
 44
1.0
1001
ACAD
1000
MTEXTBEGIN
1070
    73
1070
     1
1070
    44
1040
1.0
1070
    74
1070
     0
1000
MTEXTEND
  0
MTEXT
  5
184
102
{ACAD_XDICTIONARY
360
4AA
102
}
330
25
100
AcDbEntity
  8
1
 62
     3
100
AcDbMText
 10
835.458749269379
 20
410.0703333478953
 30
0.0
 40
3.5
 41
0.0
 71
     4
 72
     1
  1
\U+0192\U+008D\U+0081[\U+0192\U+2030\U+0081[\U+0192K\U+0192C\U+0192h
  7
CONVERTER_1
 73
     1
 44
1.0
1001
ACAD
1000
MTEXTBEGIN
1070
    73
1070
     1
1070
    44
1040
1.0
1070
    74
1070
     0
1000
MTEXTEND
  0
MTEXT
  5
183
102
{ACAD_XDICTIONARY
360
4A8
102
}
330
25
100
AcDbEntity
  8
1
 62
     3
100
AcDbMText
 10
885.458749269379
 20
410.0703333478953
 30
0.0
 40
3.5
 41
0.0
 71
     4
 72
     1
  1
6\U+0192i\U+0192C\U+0192\U+008D\U+0192\U+201C
  7
CONVERTER_1
 73
     1
 44
1.0
1001
ACAD
1000
MTEXTBEGIN
1070
    73
1070
     1
1070
    44
1040
1.0
1070
    74
1070
     0
1000
MTEXTEND
  0
MTEXT
  5
182
330
25
100
AcDbEntity
  8
1
 62
     3
100
AcDbMText
 10
920.9587492693788
 20
410.0703333478953
 30
0.0
 40
3.5
 41
0.0
 71
     5
 72
     1
  1
1
  7
CONVERTER_1
 73
     1
 44
1.0
1001
ACAD
1000
MTEXTBEGIN
1070
    73
1070
     1
1070
    44
1040
1.0
1070
    74
1070
     0
1000
MTEXTEND
  0
MTEXT
  5
181
102
{ACAD_XDICTIONARY
360
4A6
102
}
330
25
100
AcDbEntity
  8
1
 62
     3
100
AcDbMText
 10
970.4587492693789
 20
424.070333347894
 30
0.0
 40
3.5
 41
0.0
 71
     4
 72
     1
  1
\U+0192\U+00C66.3\U+0081~\U+0152\U+0160\U+0192\U+00C64.4
  7
CONVERTER_1
 73
     1
 44
1.0
1001
ACAD
1000
MTEXTBEGIN
1070
    73
1070
     1
1070
    44
1040
1.0
1070
    74
1070
     0
1000
MTEXTEND
  0
MTEXT
  5
180
330
25
100
AcDbEntity
  8
1
 62
     3
100
AcDbMText
 10
920.9587492693788
 20
424.070333347894
 30
0.0
 40
3.5
 41
0.0
 71
     5
 72
     1
  1
1
  7
CONVERTER_1
 73
     1
 44
1.0
1001
ACAD
1000
MTEXTBEGIN
1070
    73
1070
     1
1070
    44
1040
1.0
1070
    74
1070
     0
1000
MTEXTEND
  0
MTEXT
  5
17F
102
{ACAD_XDICTIONARY
360
4A4
102
}
330
25
100
AcDbEntity
  8
1
 62
     3
100
AcDbMText
 10
885.458749269379
 20
424.070333347894
 30
0.0
 40
3.5
 41
0.0
 71
     4
 72
     1
  1
SPCC \U+201A\U+201D\U+0081\U+00810.5
  7
CONVERTER_1
 73
     1
 44
1.0
1001
ACAD
1000
MTEXTBEGIN
1070
    73
1070
     1
1070
    44
1040
1.0
1070
    74
1070
     0
1000
MTEXTEND
  0
MTEXT
  5
17E
102
{ACAD_XDICTIONARY
360
4A2
102
}
330
25
100
AcDbEntity
  8
1
 62
     3
100
AcDbMText
 10
835.458749269379
 20
424.070333347894
 30
0.0
 40
3.5
 41
0.0
 71
     4
 72
     1
  1
\U+0192\U+008F\U+0192b\U+0192V\U+0192\U+0192\U+0081[
  7
CONVERTER_1
 73
     1
 44
1.0
1001
ACAD
1000
MTEXTBEGIN
1070
    73
1070
     1
1070
    44
1040
1.0
1070
    74
1070
     0
1000
MTEXTEND
  0
MTEXT
  5
17D
330
25
100
AcDbEntity
  8
1
 62
     3
100
AcDbMText
 10
825.9587492693787
 20
431.070333347894
 30
0.0
 40
3.5
 41
0.0
 71
     5
 72
     1
  1
7
  7
CONVERTER_1
 73
     1
 44
1.0
1001
ACAD
1000
MTEXTBEGIN
1070
    73
1070
     1
1070
    44
1040
1.0
1070
    74
1070
     0
1000
MTEXTEND
  0
MTEXT
  5
17C
102
{ACAD_XDICTIONARY
360
4A0
102
}
330
25
100
AcDbEntity
  8
1
 62
     3
100
AcDbMText
 10
930.4587492693789
 20
424.070333347894
 30
0.0
 40
3.5
 41
0.0
 71
     4
 72
     1
  1
\U+0192N\U+0192\U+008D\U+0192\U+0081\U+0081[\U+0192g
  7
CONVERTER_1
 73
     1
 44
1.0
1001
ACAD
1000
MTEXTBEGIN
1070
    73
1070
     1
1070
    44
1040
1.0
1070
    74
1070
     0
1000
MTEXTEND
  0
MTEXT
  5
17B
102
{ACAD_XDICTIONARY
360
49E
102
}
330
25
100
AcDbEntity
  8
1
 62
     3
100
AcDbMText
 10
970.4587492693789
 20
431.0703333478937
 30
0.0
 40
3.5
 41
0.0
 71
     4
 72
     1
  1
\U+201A\U+00E0\U+201A\U+00E6\U+0192\U+0152b\U+0192s\U+0192\U+201C3.5\U+0081~30
  7
CONVERTER_1
 73
     1
 44
1.0
1001
ACAD
1000
MTEXTBEGIN
1070
    73
1070
     1
1070
    44
1040
1.0
1070
    74
1070
     0
1000
MTEXTEND
  0
MTEXT
  5
17A
102
{ACAD_XDICTIONARY
360
49C
102
}
330
25
100
AcDbEntity
  8
1
 62
     3
100
AcDbMText
 10
970.4587492693789
 20
417.0703333478942
 30
0.0
 40
3.5
 41
0.0
 71
     4
 72
     1
  1
\U+017DM\U+0192r\U+0192X 4\U+0081~20
  7
CONVERTER_1
 73
     1
 44
1.0
1001
ACAD
1000
MTEXTBEGIN
1070
    73
1070
     1
1070
    44
1040
1.0
1070
    74
1070
     0
1000
MTEXTEND
  0
MTEXT
  5
179
102
{ACAD_XDICTIONARY
360
49A
102
}
330
25
100
AcDbEntity
  8
1
 62
     3
100
AcDbMText
 10
930.4587492693789
 20
431.0703333478937
 30
0.0
 40
3.5
 41
0.0
 71
     4
 72
     1
  1
\U+0192N\U+0192\U+008D\U+0192\U+0081\U+0081[\U+0192g
  7
CONVERTER_1
 73
     1
 44
1.0
1001
ACAD
1000
MTEXTBEGIN
1070
    73
1070
     1
1070
    44
1040
1.0
1070
    74
1070
     0
1000
MTEXTEND
  0
MTEXT
  5
178
102
{ACAD_XDICTIONARY
360
498
102
}
330
25
100
AcDbEntity
  8
1
 62
     3
100
AcDbMText
 10
930.4587492693789
 20
417.0703333478942
 30
0.0
 40
3.5
 41
0.0
 71
     4
 72
     1
  1
GB\U+0192\U+0081\U+0192b\U+0192L
  7
CONVERTER_1
 73
     1
 44
1.0
1001
ACAD
1000
MTEXTBEGIN
1070
    73
1070
     1
1070
    44
1040
1.0
1070
    74
1070
     0
1000
MTEXTEND
  0
MTEXT
  5
177
330
25
100
AcDbEntity
  8
1
 62
     3
100
AcDbMText
 10
920.9587492693788
 20
431.0703333478937
 30
0.0
 40
3.5
 41
0.0
 71
     5
 72
     1
  1
3
  7
CONVERTER_1
 73
     1
 44
1.0
1001
ACAD
1000
MTEXTBEGIN
1070
    73
1070
     1
1070
    44
1040
1.0
1070
    74
1070
     0
1000
MTEXTEND
  0
MTEXT
  5
176
330
25
100
AcDbEntity
  8
1
 62
     3
100
AcDbMText
 10
920.9587492693788
 20
417.0703333478942
 30
0.0
 40
3.5
 41
0.0
 71
     5
 72
     1
  1
1
  7
CONVERTER_1
 73
     1
 44
1.0
1001
ACAD
1000
MTEXTBEGIN
1070
    73
1070
     1
1070
    44
1040
1.0
1070
    74
1070
     0
1000
MTEXTEND
  0
MTEXT
  5
175
102
{ACAD_XDICTIONARY
360
496
102
}
330
25
100
AcDbEntity
  8
1
 62
     3
100
AcDbMText
 10
885.458749269379
 20
431.0703333478937
 30
0.0
 40
3.5
 41
0.0
 71
     4
 72
     1
  1
\U+017Ds\U+201D\U+00E4\U+2022i \U+02C6\U+00F5\U+017D\U+00DA
  7
CONVERTER_1
 73
     1
 44
1.0
1001
ACAD
1000
MTEXTBEGIN
1070
    73
1070
     1
1070
    44
1040
1.0
1070
    74
1070
     0
1000
MTEXTEND
  0
MTEXT
  5
174
102
{ACAD_XDICTIONARY
360
494
102
}
330
25
100
AcDbEntity
  8
1
 62
     3
100
AcDbMText
 10
885.458749269379
 20
417.0703333478942
 30
0.0
 40
3.5
 41
0.0
 71
     4
 72
     1
  1
\U+017Ds\U+201D\U+00E4\U+2022i
  7
CONVERTER_1
 73
     1
 44
1.0
1001
ACAD
1000
MTEXTBEGIN
1070
    73
1070
     1
1070
    44
1040
1.0
1070
    74
1070
     0
1000
MTEXTEND
  0
MTEXT
  5
173
102
{ACAD_XDICTIONARY
360
492
102
}
330
25
100
AcDbEntity
  8
1
 62
     3
100
AcDbMText
 10
835.458749269379
 20
431.0703333478937
 30
0.0
 40
3.5
 41
0.0
 71
     4
 72
     1
  1
\U+017D\U+00CC\U+2022t\U+201A\U+00A3%%dp\U+201CY\U+2022t\U+201A\U+00F9\U+201A\U+00D1
  7
CONVERTER_1
 73
     1
 44
1.0
1001
ACAD
1000
MTEXTBEGIN
1070
    73
1070
     1
1070
    44
1040
1.0
1070
    74
1070
     0
1000
MTEXTEND
  0
MTEXT
  5
172
102
{ACAD_XDICTIONARY
360
490
102
}
330
25
100
AcDbEntity
  8
1
 62
     3
100
AcDbMText
 10
835.458749269379
 20
417.0703333478942
 30
0.0
 40
3.5
 41
0.0
 71
     4
 72
     1
  1
\U+2019\U+2026\U+2019E\U+0192z\U+0192\U+2039\U+0192_\U+0081[\U+017D\U+00CC\U+2022t\U+201A\U+00A3\U+201A\U+00F9\U+201A\U+00D1
  7
CONVERTER_1
 73
     1
 44
1.0
1001
ACAD
1000
MTEXTBEGIN
1070
    73
1070
     1
1070
    44
1040
1.0
1070
    74
1070
     0
1000
MTEXTEND
  0
MTEXT
  5
171
330
25
100
AcDbEntity
  8
1
 62
     4
100
AcDbMText
 10
865.757459066733
 20
343.4835258706572
 30
0.0
 40
2.0
 41
0.0
 71
     5
 72
     1
  1
110
  7
CONVERTER_3
 73
     1
 44
1.0
1001
ACAD
1000
MTEXTBEGIN
1070
    73
1070
     1
1070
    44
1040
1.0
1070
    74
1070
     0
1000
MTEXTEND
  0
MTEXT
  5
170
330
25
100
AcDbEntity
  8
1
 62
     4
100
AcDbMText
 10
864.5795609028422
 20
338.3793330898467
 30
0.0
 40
2.0
 41
0.0
 71
     5
 72
     1
  1
TEL
  7
CONVERTER_4
 73
     1
 44
1.0
1001
ACAD
1000
MTEXTBEGIN
1070
    73
1070
     1
1070
    44
1040
1.0
1070
    74
1070
     0
1000
MTEXTEND
  0
MTEXT
  5
16E
102
{ACAD_XDICTIONARY
360
48E
102
}
330
25
100
AcDbEntity
  8
1
 62
     4
100
AcDbMText
 10
861.6085380823669
 20
343.4210687852001
 30
0.0
 40
2.5
 41
0.0
 71
     5
 72
     1
  1
\U+0081\U+00CF
  7
CONVERTER_3
 73
     1
 44
1.0
1001
ACAD
1000
MTEXTBEGIN
1070
    73
1070
     1
1070
    44
1040
1.0
1070
    74
1070
     0
1000
MTEXTEND
  0
MTEXT
  5
16D
330
25
100
AcDbEntity
  8
1
 62
     4
100
AcDbMText
 10
880.2449539562633
 20
338.3593950789665
 30
0.0
 40
2.0
 41
0.0
 71
     5
 72
     1
  1
03 (3876) 0600
  7
CONVERTER_3
 73
     1
 44
1.0
1001
ACAD
1000
MTEXTBEGIN
1070
    73
1070
     1
1070
    44
1040
1.0
1070
    74
1070
     0
1000
MTEXTEND
  0
MTEXT
  5
16C
330
25
100
AcDbEntity
  8
1
 62
     4
100
AcDbMText
 10
899.3706521972178
 20
343.536640195461
 30
0.0
 40
2.0
 41
0.0
 71
     5
 72
     1
  1
1-27-4
  7
CONVERTER_3
 73
     1
 44
1.0
1001
ACAD
1000
MTEXTBEGIN
1070
    73
1070
     1
1070
    44
1040
1.0
1070
    74
1070
     0
1000
MTEXTEND
  0
MTEXT
  5
16B
102
{ACAD_XDICTIONARY
360
48C
102
}
330
25
100
AcDbEntity
  8
1
 62
     4
100
AcDbMText
 10
883.0946058790088
 20
343.5182224850259
 30
0.0
 40
2.5
 41
0.0
 71
     5
 72
     1
  1
\U+201C\U+0152\U+2039\U+20AC\U+201Cs\U+2018\U+00F0\U+201C\U+0152\U+2039\U+00CC\U+201C*\U+2019J
  7
CONVERTER_3
 73
     1
 44
1.0
1001
ACAD
1000
MTEXTBEGIN
1070
    73
1070
     1
1070
    44
1040
1.0
1070
    74
1070
     0
1000
MTEXTEND
  0
MTEXT
  5
16A
102
{ACAD_XDICTIONARY
360
48A
102
}
330
25
100
AcDbEntity
  8
1
 62
     4
100
AcDbMText
 10
862.9484613969722
 20
348.2471289651051
 30
0.0
 40
3.0
 41
0.0
 71
     5
 72
     1
  1
\U+00B2{\U+017D\U+00C5
  7
CONVERTER_3
 73
     1
 44
1.0
1001
ACAD
1000
MTEXTBEGIN
1070
    73
1070
     1
1070
    44
1040
1.0
1070
    74
1070
     0
1000
MTEXTEND
  0
MTEXT
  5
169
102
{ACAD_XDICTIONARY
360
488
102
}
330
25
100
AcDbEntity
  8
1
 62
     4
100
AcDbMText
 10
835.383664098969
 20
337.976703637428
 30
0.0
 40
4.0
 41
0.0
 71
     5
 72
     1
  1
\U+008D\U+201A\U+2039\U+00C7\U+2039\U+00C1\U+2022\U+00B4\U+0160\U+201D\U+017D\U+00DB\U+2030\U+00FF\U+017D\U+00C5
  7
CONVERTER_3
 73
     1
 44
1.0
1001
ACAD
1000
MTEXTBEGIN
1070
    73
1070
     1
1070
    44
1040
1.0
1070
    74
1070
     0
1000
MTEXTEND
  0
MTEXT
  5
168
102
{ACAD_XDICTIONARY
360
486
102
}
330
25
100
AcDbEntity
  8
1
 62
     4
100
AcDbMText
 10
822.6458207679101
 20
376.0634773243885
 30
0.0
 40
4.0
 41
0.0
 71
     5
 72
     1
  1
\U+017D\U+00D6\U+201Cx
  7
CONVERTER_3
 73
     1
 44
1.0
1001
ACAD
1000
MTEXTBEGIN
1070
    73
1070
     1
1070
    44
1040
1.0
1070
    74
1070
     0
1000
MTEXTEND
  0
MTEXT
  5
167
102
{ACAD_XDICTIONARY
360
484
102
}
330
25
100
AcDbEntity
  8
1
 62
     4
100
AcDbMText
 10
901.458749269379
 20
375.0703333478948
 30
0.0
 40
4.0
 41
0.0
 71
     5
 72
     1
  1
\U+2019S  \U+201C\U+00B2
  7
CONVERTER_3
 73
     1
 44
1.0
1001
ACAD
1000
MTEXTBEGIN
1070
    73
1070
     1
1070
    44
1040
1.0
1070
    74
1070
     0
1000
MTEXTEND
  0
MTEXT
  5
166
102
{ACAD_XDICTIONARY
360
482
102
}
330
25
100
AcDbEntity
  8
1
 62
     4
100
AcDbMText
 10
881.4587492693789
 20
375.0703333478948
 30
0.0
 40
4.0
 41
0.0
 71
     5
 72
     1
  1
\U+0152\U+0081  \U+0090}
  7
CONVERTER_3
 73
     1
 44
1.0
1001
ACAD
1000
MTEXTBEGIN
1070
    73
1070
     1
1070
    44
1040
1.0
1070
    74
1070
     0
1000
MTEXTEND
  0
MTEXT
  5
165
102
{ACAD_XDICTIONARY
360
480
102
}
330
25
100
AcDbEntity
  8
1
 62
     4
100
AcDbMText
 10
861.4587492693789
 20
375.0703333478948
 30
0.0
 40
4.0
 41
0.0
 71
     5
 72
     1
  1
\U+008F\U+00B0  \U+201DF
  7
CONVERTER_3
 73
     1
 44
1.0
1001
ACAD
1000
MTEXTBEGIN
1070
    73
1070
     1
1070
    44
1040
1.0
1070
    74
1070
     0
1000
MTEXTEND
  0
MTEXT
  5
164
102
{ACAD_XDICTIONARY
360
47E
102
}
330
25
100
AcDbEntity
  8
1
 62
     4
100
AcDbMText
 10
983.4587492693788
 20
382.0703333478948
 30
0.0
 40
4.0
 41
0.0
 71
     5
 72
     1
  1
\U+2039L   \U+017D\U+00B2
  7
CONVERTER_3
 73
     1
 44
1.0
1001
ACAD
1000
MTEXTBEGIN
1070
    73
1070
     1
1070
    44
1040
1.0
1070
    74
1070
     0
1000
MTEXTEND
  0
MTEXT
  5
163
102
{ACAD_XDICTIONARY
360
47C
102
}
330
25
100
AcDbEntity
  8
1
 62
     4
100
AcDbMText
 10
948.4587492693789
 20
382.0703333478948
 30
0.0
 40
4.0
 41
0.0
 71
     5
 72
     1
  1
\U+017Dd   \U+008F\U+00D0   \U+201A\U+00AF
  7
CONVERTER_3
 73
     1
 44
1.0
1001
ACAD
1000
MTEXTBEGIN
1070
    73
1070
     1
1070
    44
1040
1.0
1070
    74
1070
     0
1000
MTEXTEND
  0
MTEXT
  5
162
102
{ACAD_XDICTIONARY
360
47A
102
}
330
25
100
AcDbEntity
  8
1
 62
     4
100
AcDbMText
 10
920.9587492693788
 20
382.0703333478948
 30
0.0
 40
4.0
 41
0.0
 71
     5
 72
     1
  1
\U+0090\U+201D %%d%%d
  7
CONVERTER_3
 73
     1
 44
1.0
1001
ACAD
1000
MTEXTBEGIN
1070
    73
1070
     1
1070
    44
1040
1.0
1070
    74
1070
     0
1000
MTEXTEND
  0
MTEXT
  5
161
102
{ACAD_XDICTIONARY
360
478
102
}
330
25
100
AcDbEntity
  8
1
 62
     4
100
AcDbMText
 10
898.4587492693789
 20
382.0703333478949
 30
0.0
 40
4.0
 41
0.0
 71
     5
 72
     1
  1
\U+008D\U+00DF   \U+017D\U+00A2
  7
CONVERTER_3
 73
     1
 44
1.0
1001
ACAD
1000
MTEXTBEGIN
1070
    73
1070
     1
1070
    44
1040
1.0
1070
    74
1070
     0
1000
MTEXTEND
  0
MTEXT
  5
160
102
{ACAD_XDICTIONARY
360
476
102
}
330
25
100
AcDbEntity
  8
1
 62
     4
100
AcDbMText
 10
858.4587492693788
 20
382.0703333478949
 30
0.0
 40
4.0
 41
0.0
 71
     5
 72
     1
  1
\U+2022i        \U+00B2\U+00A5
  7
CONVERTER_3
 73
     1
 44
1.0
1001
ACAD
1000
MTEXTBEGIN
1070
    73
1070
     1
1070
    44
1040
1.0
1070
    74
1070
     0
1000
MTEXTEND
  0
MTEXT
  5
15F
102
{ACAD_XDICTIONARY
360
474
102
}
330
25
100
AcDbEntity
  8
1
 62
     4
100
AcDbMText
 10
825.9587492693787
 20
382.0703333478949
 30
0.0
 40
4.0
 41
0.0
 71
     5
 72
     1
  1
\U+2022i \U+201D\U+00E5
  7
CONVERTER_3
 73
     1
 44
1.0
1001
ACAD
1000
MTEXTBEGIN
1070
    73
1070
     1
1070
    44
1040
1.0
1070
    74
1070
     0
1000
MTEXTEND
  0
MTEXT
  5
15E
102
{ACAD_XDICTIONARY
360
472
102
}
330
25
100
AcDbEntity
  8
1
 62
     4
100
AcDbMText
 10
911.358749269379
 20
341.0703333478948
 30
0.0
 40
4.0
 41
0.0
 71
     4
 72
     1
  1
\U+0090}\P\U+201D\U+00E5
  7
CONVERTER_3
 73
     1
 44
1.0
1001
ACAD
1000
MTEXTBEGIN
1070
    73
1070
     1
1070
    44
1040
1.0
1070
    74
1070
     0
1000
MTEXTEND
  0
MTEXT
  5
15D
102
{ACAD_XDICTIONARY
360
470
102
}
330
25
100
AcDbEntity
  8
1
 62
     4
100
AcDbMText
 10
911.358749269379
 20
356.0703333478948
 30
0.0
 40
4.0
 41
0.0
 71
     4
 72
     1
  1
\U+0090}\P\U+00B2\U+00A5
  7
CONVERTER_3
 73
     1
 44
1.0
1001
ACAD
1000
MTEXTBEGIN
1070
    73
1070
     1
1070
    44
1040
1.0
1070
    74
1070
     0
1000
MTEXTEND
  0
MTEXT
  5
15C
102
{ACAD_XDICTIONARY
360
46E
102
}
330
25
100
AcDbEntity
  8
1
 62
     4
100
AcDbMText
 10
911.358749269379
 20
371.0703333478948
 30
0.0
 40
4.0
 41
0.0
 71
     4
 72
     1
  1
\U+2022i\P\U+00B2\U+00A5
  7
CONVERTER_3
 73
     1
 44
1.0
1001
ACAD
1000
MTEXTBEGIN
1070
    73
1070
     1
1070
    44
1040
1.0
1070
    74
1070
     0
1000
MTEXTEND
  0
MTEXT
  5
15A
330
25
100
AcDbEntity
  8
1
 62
     3
100
AcDbMText
 10
920.9587492693788
 20
389.0703333478949
 30
0.0
 40
3.5
 41
0.0
 71
     5
 72
     1
  1
1
  7
CONVERTER_1
 73
     1
 44
1.0
1001
ACAD
1000
MTEXTBEGIN
1070
    73
1070
     1
1070
    44
1040
1.0
1070
    74
1070
     0
1000
MTEXTEND
  0
MTEXT
  5
159
330
25
100
AcDbEntity
  8
1
 62
     3
100
AcDbMText
 10
825.9587492693787
 20
389.0703333478949
 30
0.0
 40
3.5
 41
0.0
 71
     5
 72
     1
  1
1
  7
CONVERTER_1
 73
     1
 44
1.0
1001
ACAD
1000
MTEXTBEGIN
1070
    73
1070
     1
1070
    44
1040
1.0
1070
    74
1070
     0
1000
MTEXTEND
  0
MTEXT
  5
158
330
25
100
AcDbEntity
  8
1
 62
     3
100
AcDbMText
 10
834.9587492693789
 20
373.5703333478948
 30
0.0
 40
6.0
 41
0.0
 71
     5
 72
     1
  1
1 : 1
  7
CONVERTER_1
 73
     1
 44
1.0
1001
ACAD
1000
MTEXTBEGIN
1070
    73
1070
     1
1070
    44
1040
1.0
1070
    74
1070
     0
1000
MTEXTEND
  0
MTEXT
  5
157
102
{ACAD_XDICTIONARY
360
46C
102
}
330
25
100
AcDbEntity
  8
1
 62
     3
100
AcDbMText
 10
861.4587492693789
 20
366.0703333478948
 30
0.0
 40
6.0
 41
0.0
 71
     5
 72
     1
  1
\U+02C6\U+00CF\U+008D\U+00E3
  7
CONVERTER_1
 73
     1
 44
1.0
1001
ACAD
1000
MTEXTBEGIN
1070
    73
1070
     1
1070
    44
1040
1.0
1070
    74
1070
     0
1000
MTEXTEND
  0
MTEXT
  5
156
330
25
100
AcDbEntity
  8
1
 62
     3
100
AcDbMText
 10
861.4587492693789
 20
357.0703333478948
 30
0.0
 40
3.5
 41
0.0
 71
     5
 72
     1
  1
99.1.5.
  7
CONVERTER_1
 73
     1
 44
1.0
1001
ACAD
1000
MTEXTBEGIN
1070
    73
1070
     1
1070
    44
1040
1.0
1070
    74
1070
     0
1000
MTEXTEND
  0
MTEXT
  5
155
330
25
100
AcDbEntity
  8
1
 62
     3
100
AcDbMText
 10
881.4587492693789
 20
357.0703333478948
 30
0.0
 40
3.5
 41
0.0
 71
     5
 72
     1
  1
99.1.5.
  7
CONVERTER_1
 73
     1
 44
1.0
1001
ACAD
1000
MTEXTBEGIN
1070
    73
1070
     1
1070
    44
1040
1.0
1070
    74
1070
     0
1000
MTEXTEND
  0
MTEXT
  5
154
102
{ACAD_XDICTIONARY
360
46A
102
}
330
25
100
AcDbEntity
  8
1
 62
     3
100
AcDbMText
 10
881.4587492693789
 20
366.0703333478948
 30
0.0
 40
6.0
 41
0.0
 71
     5
 72
     1
  1
\U+2019\U+2020\U+201C\U+2021
  7
CONVERTER_1
 73
     1
 44
1.0
1001
ACAD
1000
MTEXTBEGIN
1070
    73
1070
     1
1070
    44
1040
1.0
1070
    74
1070
     0
1000
MTEXTEND
  0
MTEXT
  5
153
102
{ACAD_XDICTIONARY
360
468
102
}
330
25
100
AcDbEntity
  8
1
 62
     3
100
AcDbMText
 10
901.458749269379
 20
366.0703333478948
 30
0.0
 40
6.0
 41
0.0
 71
     5
 72
     1
  1
\U+008F\U+008F\U+2022\U+00AB
  7
CONVERTER_1
 73
     1
 44
1.0
1001
ACAD
1000
MTEXTBEGIN
1070
    73
1070
     1
1070
    44
1040
1.0
1070
    74
1070
     0
1000
MTEXTEND
  0
MTEXT
  5
152
330
25
100
AcDbEntity
  8
1
 62
     3
100
AcDbMText
 10
901.458749269379
 20
357.0703333478948
 30
0.0
 40
3.5
 41
0.0
 71
     5
 72
     1
  1
99.1.5.
  7
CONVERTER_1
 73
     1
 44
1.0
1001
ACAD
1000
MTEXTBEGIN
1070
    73
1070
     1
1070
    44
1040
1.0
1070
    74
1070
     0
1000
MTEXTEND
  0
MTEXT
  5
151
330
25
100
AcDbEntity
  8
1
 62
     3
100
AcDbMText
 10
920.4587492693789
 20
371.0703333478948
 30
0.0
 40
6.0
 41
0.0
 71
     4
 72
     1
  1
AFD-420
  7
CONVERTER_1
 73
     1
 44
1.0
1001
ACAD
1000
MTEXTBEGIN
1070
    73
1070
     1
1070
    44
1040
1.0
1070
    74
1070
     0
1000
MTEXTEND
  0
MTEXT
  5
150
102
{ACAD_XDICTIONARY
360
466
102
}
330
25
100
AcDbEntity
  8
1
 62
     3
100
AcDbMText
 10
920.4587492693789
 20
356.0703333478948
 30
0.0
 40
6.0
 41
0.0
 71
     4
 72
     1
  1
\U+2018g%%d\U+00CF\U+0090}
  7
CONVERTER_1
 73
     1
 44
1.0
1001
ACAD
1000
MTEXTBEGIN
1070
    73
1070
     1
1070
    44
1040
1.0
1070
    74
1070
     0
1000
MTEXTEND
  0
MTEXT
  5
14F
330
25
100
AcDbEntity
  8
1
 62
     3
100
AcDbMText
 10
920.4587492693789
 20
341.0703333478948
 30
0.0
 40
6.0
 41
0.0
 71
     4
 72
     1
  1
GDFD-AD2-A14
  7
CONVERTER_1
 73
     1
 44
1.0
1001
ACAD
1000
MTEXTBEGIN
1070
    73
1070
     1
1070
    44
1040
1.0
1070
    74
1070
     0
1000
MTEXTEND
  0
MTEXT
  5
14E
102
{ACAD_XDICTIONARY
360
464
102
}
330
25
100
AcDbEntity
  8
1
 62
     3
100
AcDbMText
 10
930.4587492693789
 20
389.0703333478949
 30
0.0
 40
3.5
 41
0.0
 71
     4
 72
     1
  1
\U+0192N\U+0192\U+008D\U+0192\U+0081\U+0081[\U+0192g
  7
CONVERTER_1
 73
     1
 44
1.0
1001
ACAD
1000
MTEXTBEGIN
1070
    73
1070
     1
1070
    44
1040
1.0
1070
    74
1070
     0
1000
MTEXTEND
  0
MTEXT
  5
14D
330
25
100
AcDbEntity
  8
1
 62
     3
100
AcDbMText
 10
885.458749269379
 20
389.0703333478949
 30
0.0
 40
3.5
 41
0.0
 71
     4
 72
     1
  1
ZDC 2
  7
CONVERTER_1
 73
     1
 44
1.0
1001
ACAD
1000
MTEXTBEGIN
1070
    73
1070
     1
1070
    44
1040
1.0
1070
    74
1070
     0
1000
MTEXTEND
  0
MTEXT
  5
14C
102
{ACAD_XDICTIONARY
360
462
102
}
330
25
100
AcDbEntity
  8
1
 62
     3
100
AcDbMText
 10
835.458749269379
 20
389.0703333478949
 30
0.0
 40
3.5
 41
0.0
 71
     4
 72
     1
  1
\U+0152\U+00E9\U+2019%%c\U+0192J\U+0192b\U+0192v
  7
CONVERTER_1
 73
     1
 44
1.0
1001
ACAD
1000
MTEXTBEGIN
1070
    73
1070
     1
1070
    44
1040
1.0
1070
    74
1070
     0
1000
MTEXTEND
  0
MTEXT
  5
14B
330
25
100
AcDbEntity
  8
1
 62
     3
100
AcDbMText
 10
825.9587492693787
 20
396.0703333478948
 30
0.0
 40
3.5
 41
0.0
 71
     5
 72
     1
  1
2
  7
CONVERTER_1
 73
     1
 44
1.0
1001
ACAD
1000
MTEXTBEGIN
1070
    73
1070
     1
1070
    44
1040
1.0
1070
    74
1070
     0
1000
MTEXTEND
  0
MTEXT
  5
14A
330
25
100
AcDbEntity
  8
1
 62
     3
100
AcDbMText
 10
825.9587492693787
 20
403.0703333478945
 30
0.0
 40
3.5
 41
0.0
 71
     5
 72
     1
  1
3
  7
CONVERTER_1
 73
     1
 44
1.0
1001
ACAD
1000
MTEXTBEGIN
1070
    73
1070
     1
1070
    44
1040
1.0
1070
    74
1070
     0
1000
MTEXTEND
  0
MTEXT
  5
149
330
25
100
AcDbEntity
  8
1
 62
     3
100
AcDbMText
 10
825.9587492693787
 20
410.0703333478945
 30
0.0
 40
3.5
 41
0.0
 71
     5
 72
     1
  1
4
  7
CONVERTER_1
 73
     1
 44
1.0
1001
ACAD
1000
MTEXTBEGIN
1070
    73
1070
     1
1070
    44
1040
1.0
1070
    74
1070
     0
1000
MTEXTEND
  0
MTEXT
  5
148
330
25
100
AcDbEntity
  8
1
 62
     3
100
AcDbMText
 10
825.9587492693787
 20
417.0703333478943
 30
0.0
 40
3.5
 41
0.0
 71
     5
 72
     1
  1
5
  7
CONVERTER_1
 73
     1
 44
1.0
1001
ACAD
1000
MTEXTBEGIN
1070
    73
1070
     1
1070
    44
1040
1.0
1070
    74
1070
     0
1000
MTEXTEND
  0
MTEXT
  5
147
102
{ACAD_XDICTIONARY
360
460
102
}
330
25
100
AcDbEntity
  8
1
 62
     3
100
AcDbMText
 10
835.458749269379
 20
396.0703333478948
 30
0.0
 40
3.5
 41
0.0
 71
     4
 72
     1
  1
\U+2019\U+2026\U+2019E\U+0192z\U+0192\U+2039\U+0192_\U+0081[
  7
CONVERTER_1
 73
     1
 44
1.0
1001
ACAD
1000
MTEXTBEGIN
1070
    73
1070
     1
1070
    44
1040
1.0
1070
    74
1070
     0
1000
MTEXTEND
  0
MTEXT
  5
146
102
{ACAD_XDICTIONARY
360
45E
102
}
330
25
100
AcDbEntity
  8
1
 62
     3
100
AcDbMText
 10
885.458749269379
 20
396.0703333478948
 30
0.0
 40
3.5
 41
0.0
 71
     4
 72
     1
  1
6\U+0192i\U+0192C\U+0192\U+008D\U+0192\U+201C(\U+0192t\U+0192B\U+0192\U+2030\U+0081[\U+201C*\U+201A%%c)
  7
CONVERTER_2
 73
     1
 44
1.0
1001
ACAD
1000
MTEXTBEGIN
1070
    73
1070
     1
1070
    44
1040
1.0
1070
    74
1070
     0
1000
MTEXTEND
  0
MTEXT
  5
144
330
25
100
AcDbEntity
  8
1
 62
     3
100
AcDbMText
 10
885.458749269379
 20
403.0703333478945
 30
0.0
 40
3.5
 41
0.0
 71
     4
 72
     1
  1
SWCH 10 A
  7
CONVERTER_1
 73
     1
 44
1.0
1001
ACAD
1000
MTEXTBEGIN
1070
    73
1070
     1
1070
    44
1040
1.0
1070
    74
1070
     0
1000
MTEXTEND
  0
MTEXT
  5
143
330
25
100
AcDbEntity
  8
1
 62
     3
100
AcDbMText
 10
920.9587492693788
 20
396.0703333478948
 30
0.0
 40
3.5
 41
0.0
 71
     5
 72
     1
  1
1
  7
CONVERTER_1
 73
     1
 44
1.0
1001
ACAD
1000
MTEXTBEGIN
1070
    73
1070
     1
1070
    44
1040
1.0
1070
    74
1070
     0
1000
MTEXTEND
  0
MTEXT
  5
142
330
25
100
AcDbEntity
  8
1
 62
     3
100
AcDbMText
 10
920.9587492693788
 20
403.0703333478945
 30
0.0
 40
3.5
 41
0.0
 71
     5
 72
     1
  1
1
  7
CONVERTER_1
 73
     1
 44
1.0
1001
ACAD
1000
MTEXTBEGIN
1070
    73
1070
     1
1070
    44
1040
1.0
1070
    74
1070
     0
1000
MTEXTEND
  0
MTEXT
  5
141
102
{ACAD_XDICTIONARY
360
45C
102
}
330
25
100
AcDbEntity
  8
1
 62
     3
100
AcDbMText
 10
930.4587492693789
 20
396.0703333478948
 30
0.0
 40
3.5
 41
0.0
 71
     4
 72
     1
  1
\U+0192`\U+0192\U+2021\U+0192R\U+0090F
  7
CONVERTER_1
 73
     1
 44
1.0
1001
ACAD
1000
MTEXTBEGIN
1070
    73
1070
     1
1070
    44
1040
1.0
1070
    74
1070
     0
1000
MTEXTEND
  0
MTEXT
  5
140
102
{ACAD_XDICTIONARY
360
45A
102
}
330
25
100
AcDbEntity
  8
1
 62
     3
100
AcDbMText
 10
930.4587492693789
 20
403.0703333478945
 30
0.0
 40
3.5
 41
0.0
 71
     4
 72
     1
  1
\U+0192N\U+0192\U+008D\U+0192\U+0081\U+0081[\U+0192g
  7
CONVERTER_1
 73
     1
 44
1.0
1001
ACAD
1000
MTEXTBEGIN
1070
    73
1070
     1
1070
    44
1040
1.0
1070
    74
1070
     0
1000
MTEXTEND
  0
MTEXT
  5
13F
330
25
100
AcDbEntity
  8
1
 62
     3
100
AcDbMText
 10
825.9587492693787
 20
424.0703333478943
 30
0.0
 40
3.5
 41
0.0
 71
     5
 72
     1
  1
6
  7
CONVERTER_1
 73
     1
 44
1.0
1001
ACAD
1000
MTEXTBEGIN
1070
    73
1070
     1
1070
    44
1040
1.0
1070
    74
1070
     0
1000
MTEXTEND
  0
ARC
  5
13D
330
25
100
AcDbEntity
  8
1
  6
Continuous
 62
     7
100
AcDbCircle
 10
849.5278717257598
 20
343.0029292732696
 30
0.0
 40
0.26152226372199
100
AcDbArc
 50
180.0
 51
-90.0
  0
ARC
  5
13C
330
25
100
AcDbEntity
  8
1
  6
Continuous
 62
     7
100
AcDbCircle
 10
847.226475805002
 20
343.0029292732696
 30
0.0
 40
0.2615222637225
100
AcDbArc
 50
-90.0
 51
0.0
  0
ARC
  5
13B
330
25
100
AcDbEntity
  8
1
  6
Continuous
 62
     7
100
AcDbCircle
 10
849.5278717257598
 20
348.6518101696756
 30
0.0
 40
0.2615222637225
100
AcDbArc
 50
90.0
 51
180.0
  0
ARC
  5
13A
330
25
100
AcDbEntity
  8
1
  6
Continuous
 62
     7
100
AcDbCircle
 10
847.331084710491
 20
348.7612501816256
 30
0.0
 40
0.15691335823396
100
AcDbArc
 50
0.0
 51
164.9999999999659
  0
ARC
  5
139
330
25
100
AcDbEntity
  8
1
  6
Continuous
 62
     7
100
AcDbCircle
 10
845.8142555809011
 20
346.3337889946864
 30
0.0
 40
0.15691335823394
100
AcDbArc
 50
-165.0000000000519
 51
-15.00000000003408
  0
ARC
  5
138
330
25
100
AcDbEntity
  8
1
  6
Continuous
 62
     7
100
AcDbCircle
 10
842.9898151326979
 20
348.7911887726
 30
0.0
 40
0.15691335823299
100
AcDbArc
 50
15.00000000008492
 51
180.0
  0
ARC
  5
137
330
25
100
AcDbEntity
  8
1
  6
Continuous
 62
     7
100
AcDbCircle
 10
842.9898151326979
 20
342.8983203677806
 30
0.0
 40
0.15691335823408
100
AcDbArc
 50
180.0
 51
-90.0
  0
ARC
  5
136
330
25
100
AcDbEntity
  8
1
  6
Continuous
 62
     7
100
AcDbCircle
 10
842.1529438887858
 20
342.8983203677806
 30
0.0
 40
0.15691335823351
100
AcDbArc
 50
-90.0
 51
0.0
  0
ARC
  5
135
330
25
100
AcDbEntity
  8
1
  6
Continuous
 62
     7
100
AcDbCircle
 10
842.1529438887858
 20
348.7564190751646
 30
0.0
 40
0.15691335823294
100
AcDbArc
 50
0.0
 51
90.0
  0
ARC
  5
134
330
25
100
AcDbEntity
  8
1
  6
Continuous
 62
     7
100
AcDbCircle
 10
843.1467284909309
 20
342.6367981040581
 30
0.0
 40
0.10460890548904
100
AcDbArc
 50
0.0
 51
90.0
  0
ARC
  5
133
330
25
100
AcDbEntity
  8
1
  6
Continuous
 62
     7
100
AcDbCircle
 10
841.891421625063
 20
342.6367981040581
 30
0.0
 40
0.10460890548904
100
AcDbArc
 50
90.0
 51
180.0
  0
ARC
  5
132
330
25
100
AcDbEntity
  8
1
  6
Continuous
 62
     7
100
AcDbCircle
 10
847.0172579940239
 20
342.6367981040581
 30
0.0
 40
0.10460890548904
100
AcDbArc
 50
90.0
 51
180.0
  0
ARC
  5
131
330
25
100
AcDbEntity
  8
1
  6
Continuous
 62
     7
100
AcDbCircle
 10
849.7370895367378
 20
342.6367981040581
 30
0.0
 40
0.10460890548893
100
AcDbArc
 50
0.0
 51
90.0
  0
ARC
  5
130
330
25
100
AcDbEntity
  8
1
  6
Continuous
 62
     7
100
AcDbCircle
 10
849.7370895367378
 20
349.0179413388871
 30
0.0
 40
0.10460890548899
100
AcDbArc
 50
-90.0
 51
0.0
  0
ARC
  5
12F
330
25
100
AcDbEntity
  8
1
  6
Continuous
 62
     7
100
AcDbCircle
 10
841.891421625063
 20
349.0179413388871
 30
0.0
 40
0.10460890548904
100
AcDbArc
 50
180.0
 51
-90.0
  0
ARC
  5
12E
330
25
100
AcDbEntity
  8
1
  6
Continuous
 62
     7
100
AcDbCircle
 10
828.972221797172
 20
342.6367981040581
 30
0.0
 40
0.10460890548904
100
AcDbArc
 50
90.0
 51
180.0
  0
ARC
  5
12D
330
25
100
AcDbEntity
  8
1
  6
Continuous
 62
     7
100
AcDbCircle
 10
831.9012711508639
 20
342.6367981040581
 30
0.0
 40
0.10460890548904
100
AcDbArc
 50
0.0
 51
90.0
  0
ARC
  5
12C
330
25
100
AcDbEntity
  8
1
  6
Continuous
 62
     7
100
AcDbCircle
 10
831.692053339886
 20
343.0029292732696
 30
0.0
 40
0.26152226372301
100
AcDbArc
 50
180.0
 51
-90.0
  0
ARC
  5
12B
330
25
100
AcDbEntity
  8
1
  6
Continuous
 62
     7
100
AcDbCircle
 10
829.1814396081498
 20
343.0029292732696
 30
0.0
 40
0.2615222637225
100
AcDbArc
 50
-90.0
 51
0.0
  0
ARC
  5
12A
330
25
100
AcDbEntity
  8
1
  6
Continuous
 62
     7
100
AcDbCircle
 10
828.9263263912738
 20
348.1810700949751
 30
0.0
 40
0.7322623384230301
100
AcDbArc
 50
90.0
 51
162.5271147297048
  0
ARC
  5
129
330
25
100
AcDbEntity
  8
1
  6
Continuous
 62
     7
100
AcDbCircle
 10
831.9471665567609
 20
348.1810700949751
 30
0.0
 40
0.73226233842328
100
AcDbArc
 50
17.47288527029252
 51
90.0
  0
ARC
  5
128
330
25
100
AcDbEntity
  8
1
  6
Continuous
 62
     7
100
AcDbCircle
 10
831.796662245375
 20
348.5472012641865
 30
0.0
 40
0.36613116921154
100
AcDbArc
 50
90.0
 51
180.0
  0
ARC
  5
127
330
25
100
AcDbEntity
  8
1
  6
Continuous
 62
     7
100
AcDbCircle
 10
829.076830702661
 20
348.5472012641865
 30
0.0
 40
0.36613116921092
100
AcDbArc
 50
0.0
 51
90.0
  0
ARC
  5
126
330
25
100
AcDbEntity
  8
1
  6
Continuous
 62
     7
100
AcDbCircle
 10
827.8738282895371
 20
342.6367981040581
 30
0.0
 40
0.10460890548893
100
AcDbArc
 50
0.0
 51
90.0
  0
ARC
  5
125
330
25
100
AcDbEntity
  8
1
  6
Continuous
 62
     7
100
AcDbCircle
 10
824.9447789358452
 20
342.6367981040581
 30
0.0
 40
0.10460890548904
100
AcDbArc
 50
90.0
 51
180.0
  0
ARC
  5
124
330
25
100
AcDbEntity
  8
1
  6
Continuous
 62
     7
100
AcDbCircle
 10
822.538774109598
 20
342.6367981040581
 30
0.0
 40
0.10460890548893
100
AcDbArc
 50
0.0
 51
90.0
  0
ARC
  5
123
330
25
100
AcDbEntity
  8
1
  6
Continuous
 62
     7
100
AcDbCircle
 10
821.074249432752
 20
342.6367981040581
 30
0.0
 40
0.10460890548904
100
AcDbArc
 50
90.0
 51
180.0
  0
ARC
  5
122
330
25
100
AcDbEntity
  8
1
  6
Continuous
 62
     7
100
AcDbCircle
 10
827.5155598669293
 20
343.0029292732696
 30
0.0
 40
0.26152226372228
100
AcDbArc
 50
-162.9999999999796
 51
-90.0
  0
ARC
  5
121
330
25
100
AcDbEntity
  8
1
  6
Continuous
 62
     7
100
AcDbCircle
 10
821.33057179044
 20
343.0029292732696
 30
0.0
 40
0.2615222637225
100
AcDbArc
 50
-90.0
 51
-17.00000000000578
  0
ARC
  5
120
330
25
100
AcDbEntity
  8
1
  6
Continuous
 62
     7
100
AcDbCircle
 10
825.2343888702855
 20
342.9506248205251
 30
0.0
 40
0.20921781097809
100
AcDbArc
 50
-90.0
 51
16.99999999995978
  0
ARC
  5
11F
330
25
100
AcDbEntity
  8
1
  6
Continuous
 62
     7
100
AcDbCircle
 10
824.7226744388965
 20
344.6243673083492
 30
0.0
 40
0.20921781097807
100
AcDbArc
 50
16.99999999998956
 51
90.0
  0
ARC
  5
11E
330
25
100
AcDbEntity
  8
1
  6
Continuous
 62
     7
100
AcDbCircle
 10
822.2830876696034
 20
342.8983203677806
 30
0.0
 40
0.15691335823345
100
AcDbArc
 50
162.9999999999933
 51
-90.0
  0
ARC
  5
11D
330
25
100
AcDbEntity
  8
1
  6
Continuous
 62
     7
100
AcDbCircle
 10
822.826784252954
 20
344.6766717610936
 30
0.0
 40
0.15691335823362
100
AcDbArc
 50
90.0
 51
163.0000000000176
  0
ARC
  5
11C
330
25
100
AcDbEntity
  8
1
  6
Continuous
 62
     7
100
AcDbCircle
 10
824.505520482284
 20
345.5135430050057
 30
0.0
 40
0.1569133582334
100
AcDbArc
 50
-90.0
 51
16.99999999998239
  0
ARC
  5
11B
330
25
100
AcDbEntity
  8
1
  6
Continuous
 62
     7
100
AcDbCircle
 10
823.0826414686481
 20
345.5135430050057
 30
0.0
 40
0.15691335823345
100
AcDbArc
 50
162.9999999999933
 51
-90.0
  0
ARC
  5
11A
330
25
100
AcDbEntity
  8
1
  6
Continuous
 62
     7
100
AcDbCircle
 10
823.7940809754661
 20
347.8405567787741
 30
0.0
 40
0.15691335823367
100
AcDbArc
 50
16.99999999998239
 51
162.9999999999933
  0
CIRCLE
  5
119
330
25
100
AcDbEntity
  8
1
  6
Continuous
 62
     5
100
AcDbCircle
 10
826.5341957306956
 20
361.0703333478948
 30
0.0
 40
4.0
  0
CIRCLE
  5
118
330
25
100
AcDbEntity
  8
1
  6
Continuous
 62
     5
100
AcDbCircle
 10
826.5341957306956
 20
361.0703333478948
 30
0.0
 40
2.0
  0
CIRCLE
  5
117
330
25
100
AcDbEntity
  8
1
  6
Continuous
 62
     7
100
AcDbCircle
 10
837.4455431417811
 20
345.8273697214726
 30
0.0
 40
3.81822505034802
  0
ARC
  5
116
330
25
100
AcDbEntity
  8
1
  6
Continuous
 62
     7
100
AcDbCircle
 10
835.7072559803519
 20
344.089082560044
 30
0.0
 40
0.83687124391174
100
AcDbArc
 50
134.9999999999945
 51
-45.00000000001651
  0
ARC
  5
115
330
25
100
AcDbEntity
  8
1
  6
Continuous
 62
     7
100
AcDbCircle
 10
839.1838303032091
 20
347.5656568829013
 30
0.0
 40
0.8368712439118198
100
AcDbArc
 50
-45.000000000011
 51
134.999999999989
  0
ARC
  5
114
330
25
100
AcDbEntity
  8
1
  6
Continuous
 62
     7
100
AcDbCircle
 10
827.7692193840479
 20
347.8149389257636
 30
0.0
 40
0.26152226372241
100
AcDbArc
 50
178.147562714672
 51
-17.47288527028598
  0
ARC
  5
113
330
25
100
AcDbEntity
  8
1
  6
Continuous
 62
     7
100
AcDbCircle
 10
833.104273563987
 20
347.8149389257636
 30
0.0
 40
0.26152226372176
100
AcDbArc
 50
-162.5271147296468
 51
1.85243728531311
  0
LINE
  5
112
330
25
100
AcDbEntity
  8
1
  6
Continuous
 62
     5
100
AcDbLine
 10
928.4587492693789
 20
427.5703333478942
 30
0.0
 11
968.458749269379
 21
427.5703333478942
 31
0.0
  0
LINE
  5
111
330
25
100
AcDbEntity
  8
1
  6
Continuous
 62
     5
100
AcDbLine
 10
968.458749269379
 20
434.5703333478939
 30
0.0
 11
998.4587492693789
 21
434.5703333478939
 31
0.0
  0
LINE
  5
110
330
25
100
AcDbEntity
  8
1
  6
Continuous
 62
     5
100
AcDbLine
 10
968.458749269379
 20
434.5703333478939
 30
0.0
 11
968.458749269379
 21
427.5703333478942
 31
0.0
  0
LINE
  5
10F
330
25
100
AcDbEntity
  8
1
  6
Continuous
 62
     5
100
AcDbLine
 10
928.4587492693789
 20
434.5703333478939
 30
0.0
 11
968.458749269379
 21
434.5703333478939
 31
0.0
  0
LINE
  5
10E
330
25
100
AcDbEntity
  8
1
  6
Continuous
 62
     5
100
AcDbLine
 10
928.4587492693789
 20
434.5703333478939
 30
0.0
 11
928.4587492693789
 21
427.5703333478942
 31
0.0
  0
LINE
  5
10D
330
25
100
AcDbEntity
  8
1
  6
Continuous
 62
     5
100
AcDbLine
 10
913.4587492693789
 20
434.5703333478939
 30
0.0
 11
928.4587492693789
 21
434.5703333478939
 31
0.0
  0
LINE
  5
10C
330
25
100
AcDbEntity
  8
1
  6
Continuous
 62
     5
100
AcDbLine
 10
913.4587492693789
 20
434.5703333478939
 30
0.0
 11
913.4587492693789
 21
427.5703333478942
 31
0.0
  0
LINE
  5
10B
330
25
100
AcDbEntity
  8
1
  6
Continuous
 62
     5
100
AcDbLine
 10
883.4587492693788
 20
434.5703333478939
 30
0.0
 11
913.4587492693789
 21
434.5703333478939
 31
0.0
  0
LINE
  5
10A
330
25
100
AcDbEntity
  8
1
  6
Continuous
 62
     5
100
AcDbLine
 10
883.4587492693788
 20
434.5703333478939
 30
0.0
 11
883.4587492693788
 21
427.5703333478942
 31
0.0
  0
LINE
  5
109
330
25
100
AcDbEntity
  8
1
  6
Continuous
 62
     5
100
AcDbLine
 10
833.4587492693788
 20
434.5703333478939
 30
0.0
 11
883.4587492693788
 21
434.5703333478939
 31
0.0
  0
LINE
  5
108
330
25
100
AcDbEntity
  8
1
  6
Continuous
 62
     5
100
AcDbLine
 10
833.4587492693788
 20
434.5703333478939
 30
0.0
 11
833.4587492693788
 21
427.5703333478942
 31
0.0
  0
LINE
  5
107
330
25
100
AcDbEntity
  8
1
  6
Continuous
 62
     5
100
AcDbLine
 10
818.4587492693788
 20
434.5703333478939
 30
0.0
 11
833.4587492693788
 21
434.5703333478939
 31
0.0
  0
LINE
  5
106
330
25
100
AcDbEntity
  8
1
  6
Continuous
 62
     5
100
AcDbLine
 10
818.4587492693788
 20
427.5703333478942
 30
0.0
 11
818.4587492693788
 21
434.5703333478939
 31
0.0
  0
LINE
  5
105
330
25
100
AcDbEntity
  8
1
  6
Continuous
 62
     5
100
AcDbLine
 10
826.5341957306956
 20
359.8750840003441
 30
0.0
 11
826.5341957306956
 21
355.0731632020039
 31
0.0
  0
LINE
  5
104
330
25
100
AcDbEntity
  8
1
  6
Continuous
 62
     5
100
AcDbLine
 10
826.5341957306956
 20
361.864451188228
 30
0.0
 11
826.5341957306956
 21
360.3552760801782
 31
0.0
  0
LINE
  5
103
330
25
100
AcDbEntity
  8
1
  6
Continuous
 62
     5
100
AcDbLine
 10
826.5341957306956
 20
366.6663719865682
 30
0.0
 11
826.5341957306956
 21
362.3103438337881
 31
0.0
  0
LINE
  5
102
330
25
100
AcDbEntity
  8
1
  6
Continuous
 62
     5
100
AcDbLine
 10
842.28438349209
 20
361.0703333478948
 30
0.0
 11
848.7326771355759
 21
361.0703333478948
 31
0.0
  0
LINE
  5
101
330
25
100
AcDbEntity
  8
1
  6
Continuous
 62
     5
100
AcDbLine
 10
840.672310081219
 20
361.0703333478948
 30
0.0
 11
841.5297959380659
 21
361.0703333478948
 31
0.0
  0
LINE
  5
100
330
25
100
AcDbEntity
  8
1
  6
Continuous
 62
     5
100
AcDbLine
 10
828.084417702713
 20
361.0703333478948
 30
0.0
 11
840.1578185671109
 21
361.0703333478948
 31
0.0
  0
LINE
  5
FF
330
25
100
AcDbEntity
  8
1
  6
Continuous
 62
     5
100
AcDbLine
 10
825.6491578692685
 20
361.0703333478948
 30
0.0
 11
827.6042256228787
 21
361.0703333478948
 31
0.0
  0
LINE
  5
FE
330
25
100
AcDbEntity
  8
1
  6
Continuous
 62
     5
100
AcDbLine
 10
821.0530336765719
 20
361.0703333478948
 30
0.0
 11
825.1003669208866
 21
361.0703333478948
 31
0.0
  0
LINE
  5
FD
330
25
100
AcDbEntity
  8
1
  6
Continuous
 62
     5
100
AcDbLine
 10
846.3404321664258
 20
357.0703333478948
 30
0.0
 11
836.509075674777
 21
359.0703333478948
 31
0.0
  0
LINE
  5
FC
330
25
100
AcDbEntity
  8
1
  6
Continuous
 62
     5
100
AcDbLine
 10
846.3404321664258
 20
365.0703333478948
 30
0.0
 11
846.3404321664258
 21
357.0703333478948
 31
0.0
  0
LINE
  5
FB
330
25
100
AcDbEntity
  8
1
  6
Continuous
 62
     5
100
AcDbLine
 10
836.509075674777
 20
363.0703333478948
 30
0.0
 11
846.3404321664258
 21
365.0703333478948
 31
0.0
  0
LINE
  5
FA
330
25
100
AcDbEntity
  8
1
  6
Continuous
 62
     5
100
AcDbLine
 10
836.509075674777
 20
359.0703333478948
 30
0.0
 11
836.509075674777
 21
363.0703333478948
 31
0.0
  0
LINE
  5
F9
330
25
100
AcDbEntity
  8
1
  6
Continuous
 62
     7
100
AcDbLine
 10
847.487998068725
 20
348.7612501816256
 30
0.0
 11
847.487998068725
 21
343.0029292732696
 31
0.0
  0
LINE
  5
F8
330
25
100
AcDbEntity
  8
1
  6
Continuous
 62
     7
100
AcDbLine
 10
845.415474573069
 20
342.2183624821021
 30
0.0
 11
847.179518045284
 21
348.8018623471674
 31
0.0
  0
LINE
  5
F7
330
25
100
AcDbEntity
  8
1
  6
Continuous
 62
     7
100
AcDbLine
 10
843.1413817979048
 20
348.8318009381418
 30
0.0
 11
844.9134472913939
 21
342.2183624821021
 31
0.0
  0
LINE
  5
F6
330
25
100
AcDbEntity
  8
1
  6
Continuous
 62
     7
100
AcDbLine
 10
842.8329017744639
 20
342.8983203677806
 30
0.0
 11
842.8329017744639
 21
348.7911887726
 31
0.0
  0
LINE
  5
F5
330
25
100
AcDbEntity
  8
1
  6
Continuous
 62
     7
100
AcDbLine
 10
845.415474573069
 20
342.2183624821021
 30
0.0
 11
844.9134472913939
 21
342.2183624821021
 31
0.0
  0
LINE
  5
F4
330
25
100
AcDbEntity
  8
1
  6
Continuous
 62
     7
100
AcDbLine
 10
847.0172579940239
 20
342.7414070095471
 30
0.0
 11
847.226475805002
 21
342.7414070095471
 31
0.0
  0
LINE
  5
F3
330
25
100
AcDbEntity
  8
1
  6
Continuous
 62
     7
100
AcDbLine
 10
846.9126490885349
 20
342.2183624821021
 30
0.0
 11
846.9126490885349
 21
342.6367981040581
 31
0.0
  0
LINE
  5
F2
330
25
100
AcDbEntity
  8
1
  6
Continuous
 62
     7
100
AcDbLine
 10
849.8416984422268
 20
342.2183624821021
 30
0.0
 11
846.9126490885349
 21
342.2183624821021
 31
0.0
  0
LINE
  5
F1
330
25
100
AcDbEntity
  8
1
  6
Continuous
 62
     7
100
AcDbLine
 10
849.8416984422268
 20
342.6367981040581
 30
0.0
 11
849.8416984422268
 21
342.2183624821021
 31
0.0
  0
LINE
  5
F0
330
25
100
AcDbEntity
  8
1
  6
Continuous
 62
     7
100
AcDbLine
 10
849.5278717257598
 20
342.7414070095471
 30
0.0
 11
849.7370895367378
 21
342.7414070095471
 31
0.0
  0
LINE
  5
EF
330
25
100
AcDbEntity
  8
1
  6
Continuous
 62
     7
100
AcDbLine
 10
849.2663494620378
 20
348.6518101696756
 30
0.0
 11
849.2663494620378
 21
343.0029292732696
 31
0.0
  0
LINE
  5
EE
330
25
100
AcDbEntity
  8
1
  6
Continuous
 62
     7
100
AcDbLine
 10
849.7370895367378
 20
348.9133324333981
 30
0.0
 11
849.5278717257598
 21
348.9133324333981
 31
0.0
  0
LINE
  5
ED
330
25
100
AcDbEntity
  8
1
  6
Continuous
 62
     7
100
AcDbLine
 10
849.8416984422268
 20
349.4363769608431
 30
0.0
 11
849.8416984422268
 21
349.0179413388871
 31
0.0
  0
LINE
  5
EC
330
25
100
AcDbEntity
  8
1
  6
Continuous
 62
     7
100
AcDbLine
 10
846.808040183046
 20
349.4363769608431
 30
0.0
 11
849.8416984422268
 21
349.4363769608431
 31
0.0
  0
LINE
  5
EB
330
25
100
AcDbEntity
  8
1
  6
Continuous
 62
     7
100
AcDbLine
 10
841.7868127195738
 20
349.4363769608431
 30
0.0
 11
844.820470978755
 21
349.4363769608431
 31
0.0
  0
LINE
  5
EA
330
25
100
AcDbEntity
  8
1
  6
Continuous
 62
     7
100
AcDbLine
 10
841.7868127195738
 20
349.0179413388871
 30
0.0
 11
841.7868127195738
 21
349.4363769608431
 31
0.0
  0
LINE
  5
E9
330
25
100
AcDbEntity
  8
1
  6
Continuous
 62
     7
100
AcDbLine
 10
842.1529438887858
 20
348.9133324333981
 30
0.0
 11
841.891421625063
 21
348.9133324333981
 31
0.0
  0
LINE
  5
E8
330
25
100
AcDbEntity
  8
1
  6
Continuous
 62
     7
100
AcDbLine
 10
842.3098572470188
 20
342.8983203677806
 30
0.0
 11
842.3098572470188
 21
348.7564190751646
 31
0.0
  0
LINE
  5
E7
330
25
100
AcDbEntity
  8
1
  6
Continuous
 62
     7
100
AcDbLine
 10
841.891421625063
 20
342.7414070095471
 30
0.0
 11
842.1529438887858
 21
342.7414070095471
 31
0.0
  0
LINE
  5
E6
330
25
100
AcDbEntity
  8
1
  6
Continuous
 62
     7
100
AcDbLine
 10
841.7868127195738
 20
342.2183624821021
 30
0.0
 11
841.7868127195738
 21
342.6367981040581
 31
0.0
  0
LINE
  5
E5
330
25
100
AcDbEntity
  8
1
  6
Continuous
 62
     7
100
AcDbLine
 10
843.25133739642
 20
342.2183624821021
 30
0.0
 11
841.7868127195738
 21
342.2183624821021
 31
0.0
  0
LINE
  5
E4
330
25
100
AcDbEntity
  8
1
  6
Continuous
 62
     7
100
AcDbLine
 10
843.25133739642
 20
342.6367981040581
 30
0.0
 11
843.25133739642
 21
342.2183624821021
 31
0.0
  0
LINE
  5
E3
330
25
100
AcDbEntity
  8
1
  6
Continuous
 62
     7
100
AcDbLine
 10
842.9898151326979
 20
342.7414070095471
 30
0.0
 11
843.1467284909309
 21
342.7414070095471
 31
0.0
  0
LINE
  5
E2
330
25
100
AcDbEntity
  8
1
  6
Continuous
 62
     7
100
AcDbLine
 10
845.9658222461079
 20
346.2931768291446
 30
0.0
 11
846.808040183046
 21
349.4363769608431
 31
0.0
  0
LINE
  5
E1
330
25
100
AcDbEntity
  8
1
  6
Continuous
 62
     7
100
AcDbLine
 10
844.820470978755
 20
349.4363769608431
 30
0.0
 11
845.6626889156931
 21
346.2931768291446
 31
0.0
  0
LINE
  5
E0
330
25
100
AcDbEntity
  8
1
  6
Continuous
 62
     7
100
AcDbLine
 10
835.1154986488019
 20
344.6808398915941
 30
0.0
 11
838.5920729716589
 21
348.1574142144515
 31
0.0
  0
LINE
  5
DF
330
25
100
AcDbEntity
  8
1
  6
Continuous
 62
     7
100
AcDbLine
 10
839.775587634759
 20
346.9738995513511
 30
0.0
 11
836.2990133119017
 21
343.4973252284937
 31
0.0
  0
LINE
  5
DE
330
25
100
AcDbEntity
  8
1
  6
Continuous
 62
     7
100
AcDbLine
 10
830.4367464740179
 20
342.2183624821021
 30
0.0
 11
828.8676128916829
 21
342.2183624821021
 31
0.0
  0
LINE
  5
DD
330
25
100
AcDbEntity
  8
1
  6
Continuous
 62
     7
100
AcDbLine
 10
828.8676128916829
 20
342.2183624821021
 30
0.0
 11
828.8676128916829
 21
342.6367981040581
 31
0.0
  0
LINE
  5
DC
330
25
100
AcDbEntity
  8
1
  6
Continuous
 62
     7
100
AcDbLine
 10
828.972221797172
 20
342.7414070095471
 30
0.0
 11
829.1814396081498
 21
342.7414070095471
 31
0.0
  0
LINE
  5
DB
330
25
100
AcDbEntity
  8
1
  6
Continuous
 62
     7
100
AcDbLine
 10
829.4429618718719
 20
343.0029292732696
 30
0.0
 11
829.4429618718719
 21
348.5472012641865
 31
0.0
  0
LINE
  5
DA
330
25
100
AcDbEntity
  8
1
  6
Continuous
 62
     7
100
AcDbLine
 10
829.076830702661
 20
348.9133324333981
 30
0.0
 11
828.9263263912738
 21
348.9133324333981
 31
0.0
  0
LINE
  5
D9
330
25
100
AcDbEntity
  8
1
  6
Continuous
 62
     7
100
AcDbLine
 10
828.22785125931
 20
348.4009351042442
 30
0.0
 11
828.018674788321
 21
347.7364157081675
 31
0.0
  0
LINE
  5
D8
330
25
100
AcDbEntity
  8
1
  6
Continuous
 62
     7
100
AcDbLine
 10
827.5078337932864
 20
347.82339276304
 30
0.0
 11
827.5600015730701
 21
349.4363769608431
 31
0.0
  0
LINE
  5
D7
330
25
100
AcDbEntity
  8
1
  6
Continuous
 62
     7
100
AcDbLine
 10
827.5600015730701
 20
349.4363769608431
 30
0.0
 11
830.4367464740179
 21
349.4363769608431
 31
0.0
  0
LINE
  5
D6
330
25
100
AcDbEntity
  8
1
  6
Continuous
 62
     7
100
AcDbLine
 10
832.0058800563529
 20
342.2183624821021
 30
0.0
 11
830.4367464740179
 21
342.2183624821021
 31
0.0
  0
LINE
  5
D5
330
25
100
AcDbEntity
  8
1
  6
Continuous
 62
     7
100
AcDbLine
 10
832.0058800563529
 20
342.6367981040581
 30
0.0
 11
832.0058800563529
 21
342.2183624821021
 31
0.0
  0
LINE
  5
D4
330
25
100
AcDbEntity
  8
1
  6
Continuous
 62
     7
100
AcDbLine
 10
831.692053339886
 20
342.7414070095471
 30
0.0
 11
831.9012711508639
 21
342.7414070095471
 31
0.0
  0
LINE
  5
D3
330
25
100
AcDbEntity
  8
1
  6
Continuous
 62
     7
100
AcDbLine
 10
831.430531076163
 20
348.5472012641865
 30
0.0
 11
831.430531076163
 21
343.0029292732696
 31
0.0
  0
LINE
  5
D2
330
25
100
AcDbEntity
  8
1
  6
Continuous
 62
     7
100
AcDbLine
 10
831.9471665567609
 20
348.9133324333981
 30
0.0
 11
831.796662245375
 21
348.9133324333981
 31
0.0
  0
LINE
  5
D1
330
25
100
AcDbEntity
  8
1
  6
Continuous
 62
     7
100
AcDbLine
 10
832.8548181597149
 20
347.7364157081675
 30
0.0
 11
832.645641688725
 21
348.4009351042442
 31
0.0
  0
LINE
  5
D0
330
25
100
AcDbEntity
  8
1
  6
Continuous
 62
     7
100
AcDbLine
 10
833.3134913749651
 20
349.4363769608431
 30
0.0
 11
833.3656591547491
 21
347.8233927630399
 31
0.0
  0
LINE
  5
CF
330
25
100
AcDbEntity
  8
1
  6
Continuous
 62
     7
100
AcDbLine
 10
830.4367464740179
 20
349.4363769608431
 30
0.0
 11
833.3134913749651
 21
349.4363769608431
 31
0.0
  0
LINE
  5
CE
330
25
100
AcDbEntity
  8
1
  6
Continuous
 62
     7
100
AcDbLine
 10
824.6555774730369
 20
345.5594200310462
 30
0.0
 11
823.944137966219
 21
347.8864338048146
 31
0.0
  0
LINE
  5
CD
330
25
100
AcDbEntity
  8
1
  6
Continuous
 62
     7
100
AcDbLine
 10
823.0826414686481
 20
345.3566296467721
 30
0.0
 11
824.505520482284
 21
345.3566296467721
 31
0.0
  0
LINE
  5
CC
330
25
100
AcDbEntity
  8
1
  6
Continuous
 62
     7
100
AcDbLine
 10
823.6440239847134
 20
347.8864338048146
 30
0.0
 11
822.9325844778955
 21
345.5594200310462
 31
0.0
  0
LINE
  5
CB
330
25
100
AcDbEntity
  8
1
  6
Continuous
 62
     7
100
AcDbLine
 10
822.643383015087
 20
342.6367981040581
 30
0.0
 11
822.643383015087
 21
342.2183624821021
 31
0.0
  0
LINE
  5
CA
330
25
100
AcDbEntity
  8
1
  6
Continuous
 62
     7
100
AcDbLine
 10
822.2830876696034
 20
342.7414070095471
 30
0.0
 11
822.538774109598
 21
342.7414070095471
 31
0.0
  0
LINE
  5
C9
330
25
100
AcDbEntity
  8
1
  6
Continuous
 62
     7
100
AcDbLine
 10
822.6767272622009
 20
344.7225487871341
 30
0.0
 11
822.1330306788505
 21
342.9441973938212
 31
0.0
  0
LINE
  5
C8
330
25
100
AcDbEntity
  8
1
  6
Continuous
 62
     7
100
AcDbLine
 10
824.7226744388965
 20
344.8335851193272
 30
0.0
 11
822.826784252954
 21
344.8335851193272
 31
0.0
  0
LINE
  5
C7
330
25
100
AcDbEntity
  8
1
  6
Continuous
 62
     7
100
AcDbLine
 10
825.4344648579559
 20
343.0117941885791
 30
0.0
 11
824.9227504265673
 21
344.6855366764031
 31
0.0
  0
LINE
  5
C6
330
25
100
AcDbEntity
  8
1
  6
Continuous
 62
     7
100
AcDbLine
 10
824.9447789358452
 20
342.7414070095471
 30
0.0
 11
825.2343888702855
 21
342.7414070095471
 31
0.0
  0
LINE
  5
C5
330
25
100
AcDbEntity
  8
1
  6
Continuous
 62
     7
100
AcDbLine
 10
824.8401700303562
 20
342.2183624821021
 30
0.0
 11
824.8401700303562
 21
342.6367981040581
 31
0.0
  0
LINE
  5
C4
330
25
100
AcDbEntity
  8
1
  6
Continuous
 62
     7
100
AcDbLine
 10
827.9784371950261
 20
342.2183624821021
 30
0.0
 11
824.8401700303562
 21
342.2183624821021
 31
0.0
  0
LINE
  5
C3
330
25
100
AcDbEntity
  8
1
  6
Continuous
 62
     7
100
AcDbLine
 10
827.9784371950261
 20
342.6367981040581
 30
0.0
 11
827.9784371950261
 21
342.2183624821021
 31
0.0
  0
LINE
  5
C2
330
25
100
AcDbEntity
  8
1
  6
Continuous
 62
     7
100
AcDbLine
 10
827.5155598669293
 20
342.7414070095471
 30
0.0
 11
827.8738282895371
 21
342.7414070095471
 31
0.0
  0
LINE
  5
C1
330
25
100
AcDbEntity
  8
1
  6
Continuous
 62
     7
100
AcDbLine
 10
825.2751858459667
 20
349.4363769608431
 30
0.0
 11
827.2654648823415
 21
342.9264675632022
 31
0.0
  0
LINE
  5
C0
330
25
100
AcDbEntity
  8
1
  6
Continuous
 62
     7
100
AcDbLine
 10
823.570945811403
 20
349.4363769608431
 30
0.0
 11
825.2751858459667
 21
349.4363769608431
 31
0.0
  0
LINE
  5
BF
330
25
100
AcDbEntity
  8
1
  6
Continuous
 62
     7
100
AcDbLine
 10
821.580666775028
 20
342.9264675632022
 30
0.0
 11
823.570945811403
 21
349.4363769608431
 31
0.0
  0
LINE
  5
BE
330
25
100
AcDbEntity
  8
1
  6
Continuous
 62
     7
100
AcDbLine
 10
821.074249432752
 20
342.7414070095471
 30
0.0
 11
821.33057179044
 21
342.7414070095471
 31
0.0
  0
LINE
  5
BD
330
25
100
AcDbEntity
  8
1
  6
Continuous
 62
     7
100
AcDbLine
 10
820.9696405272632
 20
342.2183624821021
 30
0.0
 11
820.9696405272632
 21
342.6367981040581
 31
0.0
  0
LINE
  5
BC
330
25
100
AcDbEntity
  8
1
  6
Continuous
 62
     7
100
AcDbLine
 10
822.643383015087
 20
342.2183624821021
 30
0.0
 11
820.9696405272632
 21
342.2183624821021
 31
0.0
  0
LINE
  5
BB
330
25
100
AcDbEntity
  8
1
  6
Continuous
 62
     7
100
AcDbLine
 10
911.4587492693789
 20
360.5703333478948
 30
0.0
 11
911.4587492693789
 21
353.5703333478948
 31
0.0
  0
LINE
  5
BA
330
25
100
AcDbEntity
  8
1
  6
Continuous
 62
     7
100
AcDbLine
 10
851.4587492693788
 20
360.5703333478948
 30
0.0
 11
851.4587492693788
 21
353.5703333478948
 31
0.0
  0
LINE
  5
B9
330
25
100
AcDbEntity
  8
1
  6
Continuous
 62
     5
100
AcDbLine
 10
851.4587492693788
 20
360.5703333478948
 30
0.0
 11
911.4587492693789
 21
360.5703333478948
 31
0.0
  0
LINE
  5
B8
330
25
100
AcDbEntity
  8
1
  6
Continuous
 62
     5
100
AcDbLine
 10
833.4587492693788
 20
392.5703333478948
 30
0.0
 11
883.4587492693788
 21
392.5703333478948
 31
0.0
  0
LINE
  5
B7
330
25
100
AcDbEntity
  8
1
  6
Continuous
 62
     5
100
AcDbLine
 10
833.4587492693788
 20
392.5703333478948
 30
0.0
 11
833.4587492693788
 21
385.5703333478949
 31
0.0
  0
LINE
  5
B6
330
25
100
AcDbEntity
  8
1
  6
Continuous
 62
     5
100
AcDbLine
 10
883.4587492693788
 20
392.5703333478948
 30
0.0
 11
913.4587492693789
 21
392.5703333478948
 31
0.0
  0
LINE
  5
B5
330
25
100
AcDbEntity
  8
1
  6
Continuous
 62
     5
100
AcDbLine
 10
883.4587492693788
 20
392.5703333478948
 30
0.0
 11
883.4587492693788
 21
385.5703333478949
 31
0.0
  0
LINE
  5
B4
330
25
100
AcDbEntity
  8
1
  6
Continuous
 62
     5
100
AcDbLine
 10
913.4587492693789
 20
392.5703333478948
 30
0.0
 11
928.4587492693789
 21
392.5703333478948
 31
0.0
  0
LINE
  5
B3
330
25
100
AcDbEntity
  8
1
  6
Continuous
 62
     5
100
AcDbLine
 10
913.4587492693789
 20
392.5703333478948
 30
0.0
 11
913.4587492693789
 21
385.5703333478949
 31
0.0
  0
LINE
  5
B2
330
25
100
AcDbEntity
  8
1
  6
Continuous
 62
     5
100
AcDbLine
 10
928.4587492693789
 20
392.5703333478948
 30
0.0
 11
968.458749269379
 21
392.5703333478948
 31
0.0
  0
LINE
  5
B1
330
25
100
AcDbEntity
  8
1
  6
Continuous
 62
     5
100
AcDbLine
 10
928.4587492693789
 20
392.5703333478948
 30
0.0
 11
928.4587492693789
 21
385.5703333478949
 31
0.0
  0
LINE
  5
B0
330
25
100
AcDbEntity
  8
1
  6
Continuous
 62
     5
100
AcDbLine
 10
968.458749269379
 20
392.5703333478948
 30
0.0
 11
998.4587492693789
 21
392.5703333478948
 31
0.0
  0
LINE
  5
AF
330
25
100
AcDbEntity
  8
1
  6
Continuous
 62
     5
100
AcDbLine
 10
968.458749269379
 20
392.5703333478948
 30
0.0
 11
968.458749269379
 21
385.5703333478949
 31
0.0
  0
LINE
  5
AE
330
25
100
AcDbEntity
  8
1
  6
Continuous
 62
     5
100
AcDbLine
 10
818.4587492693788
 20
392.5703333478948
 30
0.0
 11
833.4587492693788
 21
392.5703333478948
 31
0.0
  0
LINE
  5
AD
330
25
100
AcDbEntity
  8
1
  6
Continuous
 62
     5
100
AcDbLine
 10
818.4587492693788
 20
385.5703333478949
 30
0.0
 11
818.4587492693788
 21
392.5703333478948
 31
0.0
  0
LINE
  5
AC
330
25
100
AcDbEntity
  8
1
  6
Continuous
 62
     7
100
AcDbLine
 10
833.4587492693788
 20
378.5703333478948
 30
0.0
 11
851.4587492693788
 21
378.5703333478948
 31
0.0
  0
LINE
  5
AB
330
25
100
AcDbEntity
  8
1
  6
Continuous
 62
     7
100
AcDbLine
 10
833.4587492693788
 20
385.5703333478949
 30
0.0
 11
818.4587492693788
 21
385.5703333478949
 31
0.0
  0
LINE
  5
AA
330
25
100
AcDbEntity
  8
1
  6
Continuous
 62
     7
100
AcDbLine
 10
833.4587492693788
 20
385.5703333478949
 30
0.0
 11
833.4587492693788
 21
378.5703333478948
 31
0.0
  0
LINE
  5
A9
330
25
100
AcDbEntity
  8
1
  6
Continuous
 62
     7
100
AcDbLine
 10
883.4587492693788
 20
378.5703333478948
 30
0.0
 11
891.4587492693788
 21
378.5703333478948
 31
0.0
  0
LINE
  5
A8
330
25
100
AcDbEntity
  8
1
  6
Continuous
 62
     7
100
AcDbLine
 10
883.4587492693788
 20
385.5703333478949
 30
0.0
 11
833.4587492693788
 21
385.5703333478949
 31
0.0
  0
LINE
  5
A7
330
25
100
AcDbEntity
  8
1
  6
Continuous
 62
     7
100
AcDbLine
 10
883.4587492693788
 20
385.5703333478949
 30
0.0
 11
883.4587492693788
 21
378.5703333478948
 31
0.0
  0
LINE
  5
A6
330
25
100
AcDbEntity
  8
1
  6
Continuous
 62
     7
100
AcDbLine
 10
913.4587492693789
 20
378.5703333478948
 30
0.0
 11
918.458749269379
 21
378.5703333478948
 31
0.0
  0
LINE
  5
A5
330
25
100
AcDbEntity
  8
1
  6
Continuous
 62
     7
100
AcDbLine
 10
913.4587492693789
 20
385.5703333478949
 30
0.0
 11
883.4587492693788
 21
385.5703333478949
 31
0.0
  0
LINE
  5
A4
330
25
100
AcDbEntity
  8
1
  6
Continuous
 62
     7
100
AcDbLine
 10
913.4587492693789
 20
385.5703333478949
 30
0.0
 11
913.4587492693789
 21
378.5703333478948
 31
0.0
  0
LINE
  5
A3
330
25
100
AcDbEntity
  8
1
  6
Continuous
 62
     7
100
AcDbLine
 10
928.4587492693789
 20
378.5703333478948
 30
0.0
 11
968.458749269379
 21
378.5703333478948
 31
0.0
  0
LINE
  5
A2
330
25
100
AcDbEntity
  8
1
  6
Continuous
 62
     7
100
AcDbLine
 10
928.4587492693789
 20
385.5703333478949
 30
0.0
 11
913.4587492693789
 21
385.5703333478949
 31
0.0
  0
LINE
  5
A1
330
25
100
AcDbEntity
  8
1
  6
Continuous
 62
     7
100
AcDbLine
 10
928.4587492693789
 20
385.5703333478949
 30
0.0
 11
928.4587492693789
 21
378.5703333478948
 31
0.0
  0
LINE
  5
A0
330
25
100
AcDbEntity
  8
1
  6
Continuous
 62
     7
100
AcDbLine
 10
968.458749269379
 20
378.5703333478948
 30
0.0
 11
998.4587492693789
 21
378.5703333478948
 31
0.0
  0
LINE
  5
9F
330
25
100
AcDbEntity
  8
1
  6
Continuous
 62
     7
100
AcDbLine
 10
968.458749269379
 20
385.5703333478949
 30
0.0
 11
928.4587492693789
 21
385.5703333478949
 31
0.0
  0
LINE
  5
9E
330
25
100
AcDbEntity
  8
1
  6
Continuous
 62
     7
100
AcDbLine
 10
968.458749269379
 20
385.5703333478949
 30
0.0
 11
968.458749269379
 21
378.5703333478948
 31
0.0
  0
LINE
  5
9D
330
25
100
AcDbEntity
  8
1
  6
Continuous
 62
     7
100
AcDbLine
 10
851.4587492693788
 20
368.5703333478948
 30
0.0
 11
851.4587492693788
 21
360.5703333478948
 31
0.0
  0
LINE
  5
9C
330
25
100
AcDbEntity
  8
1
  6
Continuous
 62
     7
100
AcDbLine
 10
818.4587492693788
 20
368.5703333478948
 30
0.0
 11
818.4587492693788
 21
353.5703333478948
 31
0.0
  0
LINE
  5
9B
330
25
100
AcDbEntity
  8
1
  6
Continuous
 62
     7
100
AcDbLine
 10
818.4587492693788
 20
368.5703333478948
 30
0.0
 11
851.4587492693788
 21
368.5703333478948
 31
0.0
  0
LINE
  5
9A
330
25
100
AcDbEntity
  8
1
  6
Continuous
 62
     7
100
AcDbLine
 10
891.4587492693788
 20
353.5703333478948
 30
0.0
 11
911.4587492693789
 21
353.5703333478948
 31
0.0
  0
LINE
  5
99
330
25
100
AcDbEntity
  8
1
  6
Continuous
 62
     7
100
AcDbLine
 10
891.4587492693788
 20
378.5703333478948
 30
0.0
 11
911.4587492693789
 21
378.5703333478948
 31
0.0
  0
LINE
  5
98
330
25
100
AcDbEntity
  8
1
  6
Continuous
 62
     7
100
AcDbLine
 10
891.4587492693788
 20
378.5703333478948
 30
0.0
 11
891.4587492693788
 21
353.5703333478948
 31
0.0
  0
LINE
  5
97
330
25
100
AcDbEntity
  8
1
  6
Continuous
 62
     7
100
AcDbLine
 10
871.4587492693789
 20
353.5703333478948
 30
0.0
 11
891.4587492693788
 21
353.5703333478948
 31
0.0
  0
LINE
  5
96
330
25
100
AcDbEntity
  8
1
  6
Continuous
 62
     7
100
AcDbLine
 10
871.4587492693789
 20
378.5703333478948
 30
0.0
 11
883.4587492693788
 21
378.5703333478948
 31
0.0
  0
LINE
  5
95
330
25
100
AcDbEntity
  8
1
  6
Continuous
 62
     7
100
AcDbLine
 10
871.4587492693789
 20
378.5703333478948
 30
0.0
 11
871.4587492693789
 21
353.5703333478948
 31
0.0
  0
LINE
  5
94
330
25
100
AcDbEntity
  8
1
  6
Continuous
 62
     7
100
AcDbLine
 10
911.4587492693789
 20
371.5703333478948
 30
0.0
 11
911.4587492693789
 21
363.5703333478948
 31
0.0
  0
LINE
  5
93
330
25
100
AcDbEntity
  8
1
  6
Continuous
 62
     7
100
AcDbLine
 10
851.4587492693788
 20
371.5703333478948
 30
0.0
 11
851.4587492693788
 21
368.5703333478948
 31
0.0
  0
LINE
  5
92
330
25
100
AcDbEntity
  8
1
  6
Continuous
 62
     7
100
AcDbLine
 10
851.4587492693788
 20
371.5703333478948
 30
0.0
 11
911.4587492693789
 21
371.5703333478948
 31
0.0
  0
LINE
  5
91
330
25
100
AcDbEntity
  8
1
  6
Continuous
 62
     7
100
AcDbLine
 10
911.4587492693789
 20
353.5703333478948
 30
0.0
 11
911.4587492693789
 21
348.5703333478948
 31
0.0
  0
LINE
  5
90
330
25
100
AcDbEntity
  8
1
  6
Continuous
 62
     7
100
AcDbLine
 10
818.4587492693788
 20
353.5703333478948
 30
0.0
 11
818.4587492693788
 21
333.5703333478948
 31
0.0
  0
LINE
  5
8F
330
25
100
AcDbEntity
  8
1
  6
Continuous
 62
     7
100
AcDbLine
 10
818.4587492693788
 20
353.5703333478948
 30
0.0
 11
871.4587492693789
 21
353.5703333478948
 31
0.0
  0
LINE
  5
8E
330
25
100
AcDbEntity
  8
1
  6
Continuous
 62
     7
100
AcDbLine
 10
851.4587492693788
 20
378.5703333478948
 30
0.0
 11
871.4587492693789
 21
378.5703333478948
 31
0.0
  0
LINE
  5
8D
330
25
100
AcDbEntity
  8
1
  6
Continuous
 62
     7
100
AcDbLine
 10
851.4587492693788
 20
378.5703333478948
 30
0.0
 11
851.4587492693788
 21
371.5703333478948
 31
0.0
  0
LINE
  5
8C
330
25
100
AcDbEntity
  8
1
  6
Continuous
 62
     7
100
AcDbLine
 10
998.4587492693789
 20
348.5703333478948
 30
0.0
 11
998.4587492693789
 21
363.5703333478948
 31
0.0
  0
LINE
  5
8B
330
25
100
AcDbEntity
  8
1
  6
Continuous
 62
     7
100
AcDbLine
 10
911.4587492693789
 20
348.5703333478948
 30
0.0
 11
911.4587492693789
 21
333.5703333478948
 31
0.0
  0
LINE
  5
8A
330
25
100
AcDbEntity
  8
1
  6
Continuous
 62
     7
100
AcDbLine
 10
911.4587492693789
 20
348.5703333478948
 30
0.0
 11
998.4587492693789
 21
348.5703333478948
 31
0.0
  0
LINE
  5
89
330
25
100
AcDbEntity
  8
1
  6
Continuous
 62
     7
100
AcDbLine
 10
998.4587492693789
 20
363.5703333478948
 30
0.0
 11
998.4587492693789
 21
378.5703333478948
 31
0.0
  0
LINE
  5
88
330
25
100
AcDbEntity
  8
1
  6
Continuous
 62
     7
100
AcDbLine
 10
911.4587492693789
 20
363.5703333478948
 30
0.0
 11
911.4587492693789
 21
360.5703333478948
 31
0.0
  0
LINE
  5
87
330
25
100
AcDbEntity
  8
1
  6
Continuous
 62
     7
100
AcDbLine
 10
911.4587492693789
 20
363.5703333478948
 30
0.0
 11
998.4587492693789
 21
363.5703333478948
 31
0.0
  0
LINE
  5
86
330
25
100
AcDbEntity
  8
1
  6
Continuous
 62
     7
100
AcDbLine
 10
918.458749269379
 20
333.5703333478948
 30
0.0
 11
998.4587492693789
 21
333.5703333478948
 31
0.0
  0
LINE
  5
85
330
25
100
AcDbEntity
  8
1
  6
Continuous
 62
     7
100
AcDbLine
 10
918.458749269379
 20
378.5703333478948
 30
0.0
 11
928.4587492693789
 21
378.5703333478948
 31
0.0
  0
LINE
  5
84
330
25
100
AcDbEntity
  8
1
  6
Continuous
 62
     7
100
AcDbLine
 10
918.458749269379
 20
378.5703333478948
 30
0.0
 11
918.458749269379
 21
333.5703333478948
 31
0.0
  0
LINE
  5
83
330
25
100
AcDbEntity
  8
1
  6
Continuous
 62
     7
100
AcDbLine
 10
911.4587492693789
 20
333.5703333478948
 30
0.0
 11
918.458749269379
 21
333.5703333478948
 31
0.0
  0
LINE
  5
82
330
25
100
AcDbEntity
  8
1
  6
Continuous
 62
     7
100
AcDbLine
 10
911.4587492693789
 20
378.5703333478948
 30
0.0
 11
913.4587492693789
 21
378.5703333478948
 31
0.0
  0
LINE
  5
81
330
25
100
AcDbEntity
  8
1
  6
Continuous
 62
     7
100
AcDbLine
 10
911.4587492693789
 20
378.5703333478948
 30
0.0
 11
911.4587492693789
 21
371.5703333478948
 31
0.0
  0
LINE
  5
80
330
25
100
AcDbEntity
  8
1
  6
Continuous
 62
     7
100
AcDbLine
 10
998.4587492693789
 20
378.5703333478948
 30
0.0
 11
998.4587492693789
 21
385.5703333478949
 31
0.0
  0
LINE
  5
7F
330
25
100
AcDbEntity
  8
1
  6
Continuous
 62
     7
100
AcDbLine
 10
818.4587492693788
 20
378.5703333478948
 30
0.0
 11
818.4587492693788
 21
368.5703333478948
 31
0.0
  0
LINE
  5
7E
330
25
100
AcDbEntity
  8
1
  6
Continuous
 62
     7
100
AcDbLine
 10
818.4587492693788
 20
378.5703333478948
 30
0.0
 11
833.4587492693788
 21
378.5703333478948
 31
0.0
  0
LINE
  5
7D
330
25
100
AcDbEntity
  8
1
  6
Continuous
 62
     7
100
AcDbLine
 10
818.4587492693788
 20
385.5703333478949
 30
0.0
 11
818.4587492693788
 21
378.5703333478948
 31
0.0
  0
LINE
  5
7C
330
25
100
AcDbEntity
  8
1
  6
Continuous
 62
     7
100
AcDbLine
 10
998.4587492693789
 20
385.5703333478949
 30
0.0
 11
968.458749269379
 21
385.5703333478949
 31
0.0
  0
LINE
  5
7B
330
25
100
AcDbEntity
  8
1
  6
Continuous
 62
     7
100
AcDbLine
 10
998.4587492693789
 20
333.5703333478948
 30
0.0
 11
998.4587492693789
 21
348.5703333478948
 31
0.0
  0
LINE
  5
7A
330
25
100
AcDbEntity
  8
1
  6
Continuous
 62
     7
100
AcDbLine
 10
818.4587492693788
 20
333.5703333478948
 30
0.0
 11
911.4587492693789
 21
333.5703333478948
 31
0.0
  0
LINE
  5
79
330
25
100
AcDbEntity
  8
1
  6
Continuous
 62
     5
100
AcDbLine
 10
818.4587492693788
 20
399.5703333478946
 30
0.0
 11
833.4587492693788
 21
399.5703333478946
 31
0.0
  0
LINE
  5
78
330
25
100
AcDbEntity
  8
1
  6
Continuous
 62
     5
100
AcDbLine
 10
818.4587492693788
 20
406.5703333478945
 30
0.0
 11
833.4587492693788
 21
406.5703333478945
 31
0.0
  0
LINE
  5
77
330
25
100
AcDbEntity
  8
1
  6
Continuous
 62
     5
100
AcDbLine
 10
818.4587492693788
 20
413.5703333478945
 30
0.0
 11
833.4587492693788
 21
413.5703333478945
 31
0.0
  0
LINE
  5
76
330
25
100
AcDbEntity
  8
1
  6
Continuous
 62
     5
100
AcDbLine
 10
818.4587492693788
 20
420.5703333478943
 30
0.0
 11
833.4587492693788
 21
420.5703333478943
 31
0.0
  0
LINE
  5
75
330
25
100
AcDbEntity
  8
1
  6
Continuous
 62
     5
100
AcDbLine
 10
818.4587492693788
 20
392.5703333478948
 30
0.0
 11
818.4587492693788
 21
399.5703333478946
 31
0.0
  0
LINE
  5
74
330
25
100
AcDbEntity
  8
1
  6
Continuous
 62
     5
100
AcDbLine
 10
818.4587492693788
 20
399.5703333478946
 30
0.0
 11
818.4587492693788
 21
406.5703333478945
 31
0.0
  0
LINE
  5
73
330
25
100
AcDbEntity
  8
1
  6
Continuous
 62
     5
100
AcDbLine
 10
818.4587492693788
 20
406.5703333478945
 30
0.0
 11
818.4587492693788
 21
413.5703333478945
 31
0.0
  0
LINE
  5
72
330
25
100
AcDbEntity
  8
1
  6
Continuous
 62
     5
100
AcDbLine
 10
818.4587492693788
 20
413.5703333478945
 30
0.0
 11
818.4587492693788
 21
420.5703333478943
 31
0.0
  0
LINE
  5
71
330
25
100
AcDbEntity
  8
1
  6
Continuous
 62
     5
100
AcDbLine
 10
833.4587492693788
 20
399.5703333478946
 30
0.0
 11
833.4587492693788
 21
392.5703333478948
 31
0.0
  0
LINE
  5
70
330
25
100
AcDbEntity
  8
1
  6
Continuous
 62
     5
100
AcDbLine
 10
833.4587492693788
 20
406.5703333478945
 30
0.0
 11
833.4587492693788
 21
399.5703333478946
 31
0.0
  0
LINE
  5
6F
330
25
100
AcDbEntity
  8
1
  6
Continuous
 62
     5
100
AcDbLine
 10
833.4587492693788
 20
413.5703333478945
 30
0.0
 11
833.4587492693788
 21
406.5703333478945
 31
0.0
  0
LINE
  5
6E
330
25
100
AcDbEntity
  8
1
  6
Continuous
 62
     5
100
AcDbLine
 10
833.4587492693788
 20
420.5703333478943
 30
0.0
 11
833.4587492693788
 21
413.5703333478945
 31
0.0
  0
LINE
  5
6D
330
25
100
AcDbEntity
  8
1
  6
Continuous
 62
     5
100
AcDbLine
 10
833.4587492693788
 20
399.5703333478946
 30
0.0
 11
883.4587492693788
 21
399.5703333478946
 31
0.0
  0
LINE
  5
6C
330
25
100
AcDbEntity
  8
1
  6
Continuous
 62
     5
100
AcDbLine
 10
833.4587492693788
 20
406.5703333478945
 30
0.0
 11
883.4587492693788
 21
406.5703333478945
 31
0.0
  0
LINE
  5
6B
330
25
100
AcDbEntity
  8
1
  6
Continuous
 62
     5
100
AcDbLine
 10
833.4587492693788
 20
413.5703333478945
 30
0.0
 11
883.4587492693788
 21
413.5703333478945
 31
0.0
  0
LINE
  5
6A
330
25
100
AcDbEntity
  8
1
  6
Continuous
 62
     5
100
AcDbLine
 10
833.4587492693788
 20
420.5703333478943
 30
0.0
 11
883.4587492693788
 21
420.5703333478943
 31
0.0
  0
LINE
  5
69
330
25
100
AcDbEntity
  8
1
  6
Continuous
 62
     5
100
AcDbLine
 10
883.4587492693788
 20
399.5703333478946
 30
0.0
 11
883.4587492693788
 21
392.5703333478948
 31
0.0
  0
LINE
  5
68
330
25
100
AcDbEntity
  8
1
  6
Continuous
 62
     5
100
AcDbLine
 10
883.4587492693788
 20
399.5703333478946
 30
0.0
 11
913.4587492693789
 21
399.5703333478946
 31
0.0
  0
LINE
  5
67
330
25
100
AcDbEntity
  8
1
  6
Continuous
 62
     5
100
AcDbLine
 10
883.4587492693788
 20
406.5703333478945
 30
0.0
 11
883.4587492693788
 21
399.5703333478946
 31
0.0
  0
LINE
  5
66
330
25
100
AcDbEntity
  8
1
  6
Continuous
 62
     5
100
AcDbLine
 10
883.4587492693788
 20
406.5703333478945
 30
0.0
 11
913.4587492693789
 21
406.5703333478945
 31
0.0
  0
LINE
  5
65
330
25
100
AcDbEntity
  8
1
  6
Continuous
 62
     5
100
AcDbLine
 10
883.4587492693788
 20
413.5703333478945
 30
0.0
 11
883.4587492693788
 21
406.5703333478945
 31
0.0
  0
LINE
  5
64
330
25
100
AcDbEntity
  8
1
  6
Continuous
 62
     5
100
AcDbLine
 10
883.4587492693788
 20
420.5703333478943
 30
0.0
 11
883.4587492693788
 21
413.5703333478945
 31
0.0
  0
LINE
  5
63
330
25
100
AcDbEntity
  8
1
  6
Continuous
 62
     5
100
AcDbLine
 10
883.4587492693788
 20
413.5703333478945
 30
0.0
 11
913.4587492693789
 21
413.5703333478945
 31
0.0
  0
LINE
  5
62
330
25
100
AcDbEntity
  8
1
  6
Continuous
 62
     5
100
AcDbLine
 10
883.4587492693788
 20
420.5703333478943
 30
0.0
 11
913.4587492693789
 21
420.5703333478943
 31
0.0
  0
LINE
  5
61
330
25
100
AcDbEntity
  8
1
  6
Continuous
 62
     5
100
AcDbLine
 10
913.4587492693789
 20
399.5703333478946
 30
0.0
 11
913.4587492693789
 21
392.5703333478948
 31
0.0
  0
LINE
  5
60
330
25
100
AcDbEntity
  8
1
  6
Continuous
 62
     5
100
AcDbLine
 10
913.4587492693789
 20
406.5703333478945
 30
0.0
 11
913.4587492693789
 21
399.5703333478946
 31
0.0
  0
LINE
  5
5F
330
25
100
AcDbEntity
  8
1
  6
Continuous
 62
     5
100
AcDbLine
 10
913.4587492693789
 20
413.5703333478945
 30
0.0
 11
913.4587492693789
 21
406.5703333478945
 31
0.0
  0
LINE
  5
5E
330
25
100
AcDbEntity
  8
1
  6
Continuous
 62
     5
100
AcDbLine
 10
913.4587492693789
 20
420.5703333478943
 30
0.0
 11
913.4587492693789
 21
413.5703333478945
 31
0.0
  0
LINE
  5
5D
330
25
100
AcDbEntity
  8
1
  6
Continuous
 62
     5
100
AcDbLine
 10
913.4587492693789
 20
399.5703333478946
 30
0.0
 11
928.4587492693789
 21
399.5703333478946
 31
0.0
  0
LINE
  5
5C
330
25
100
AcDbEntity
  8
1
  6
Continuous
 62
     5
100
AcDbLine
 10
913.4587492693789
 20
406.5703333478945
 30
0.0
 11
928.4587492693789
 21
406.5703333478945
 31
0.0
  0
LINE
  5
5B
330
25
100
AcDbEntity
  8
1
  6
Continuous
 62
     5
100
AcDbLine
 10
913.4587492693789
 20
413.5703333478945
 30
0.0
 11
928.4587492693789
 21
413.5703333478945
 31
0.0
  0
LINE
  5
5A
330
25
100
AcDbEntity
  8
1
  6
Continuous
 62
     5
100
AcDbLine
 10
913.4587492693789
 20
420.5703333478943
 30
0.0
 11
928.4587492693789
 21
420.5703333478943
 31
0.0
  0
LINE
  5
59
330
25
100
AcDbEntity
  8
1
  6
Continuous
 62
     5
100
AcDbLine
 10
928.4587492693789
 20
399.5703333478946
 30
0.0
 11
928.4587492693789
 21
392.5703333478948
 31
0.0
  0
LINE
  5
58
330
25
100
AcDbEntity
  8
1
  6
Continuous
 62
     5
100
AcDbLine
 10
928.4587492693789
 20
406.5703333478945
 30
0.0
 11
928.4587492693789
 21
399.5703333478946
 31
0.0
  0
LINE
  5
57
330
25
100
AcDbEntity
  8
1
  6
Continuous
 62
     5
100
AcDbLine
 10
928.4587492693789
 20
413.5703333478945
 30
0.0
 11
928.4587492693789
 21
406.5703333478945
 31
0.0
  0
LINE
  5
56
330
25
100
AcDbEntity
  8
1
  6
Continuous
 62
     5
100
AcDbLine
 10
928.4587492693789
 20
420.5703333478943
 30
0.0
 11
928.4587492693789
 21
413.5703333478945
 31
0.0
  0
LINE
  5
55
330
25
100
AcDbEntity
  8
1
  6
Continuous
 62
     5
100
AcDbLine
 10
928.4587492693789
 20
399.5703333478946
 30
0.0
 11
968.458749269379
 21
399.5703333478946
 31
0.0
  0
LINE
  5
54
330
25
100
AcDbEntity
  8
1
  6
Continuous
 62
     5
100
AcDbLine
 10
928.4587492693789
 20
406.5703333478945
 30
0.0
 11
968.458749269379
 21
406.5703333478945
 31
0.0
  0
LINE
  5
53
330
25
100
AcDbEntity
  8
1
  6
Continuous
 62
     5
100
AcDbLine
 10
928.4587492693789
 20
413.5703333478945
 30
0.0
 11
968.458749269379
 21
413.5703333478945
 31
0.0
  0
LINE
  5
52
330
25
100
AcDbEntity
  8
1
  6
Continuous
 62
     5
100
AcDbLine
 10
928.4587492693789
 20
420.5703333478943
 30
0.0
 11
968.458749269379
 21
420.5703333478943
 31
0.0
  0
LINE
  5
51
330
25
100
AcDbEntity
  8
1
  6
Continuous
 62
     5
100
AcDbLine
 10
968.458749269379
 20
399.5703333478946
 30
0.0
 11
968.458749269379
 21
392.5703333478948
 31
0.0
  0
LINE
  5
50
330
25
100
AcDbEntity
  8
1
  6
Continuous
 62
     5
100
AcDbLine
 10
968.458749269379
 20
406.5703333478945
 30
0.0
 11
968.458749269379
 21
399.5703333478946
 31
0.0
  0
LINE
  5
4F
330
25
100
AcDbEntity
  8
1
  6
Continuous
 62
     5
100
AcDbLine
 10
968.458749269379
 20
413.5703333478945
 30
0.0
 11
968.458749269379
 21
406.5703333478945
 31
0.0
  0
LINE
  5
4E
330
25
100
AcDbEntity
  8
1
  6
Continuous
 62
     5
100
AcDbLine
 10
968.458749269379
 20
420.5703333478943
 30
0.0
 11
968.458749269379
 21
413.5703333478945
 31
0.0
  0
LINE
  5
4D
330
25
100
AcDbEntity
  8
1
  6
Continuous
 62
     5
100
AcDbLine
 10
968.458749269379
 20
399.5703333478946
 30
0.0
 11
998.4587492693789
 21
399.5703333478946
 31
0.0
  0
LINE
  5
4C
330
25
100
AcDbEntity
  8
1
  6
Continuous
 62
     5
100
AcDbLine
 10
968.458749269379
 20
406.5703333478945
 30
0.0
 11
998.4587492693789
 21
406.5703333478945
 31
0.0
  0
LINE
  5
4B
330
25
100
AcDbEntity
  8
1
  6
Continuous
 62
     5
100
AcDbLine
 10
968.458749269379
 20
413.5703333478945
 30
0.0
 11
998.4587492693789
 21
413.5703333478945
 31
0.0
  0
LINE
  5
4A
330
25
100
AcDbEntity
  8
1
  6
Continuous
 62
     5
100
AcDbLine
 10
968.458749269379
 20
420.5703333478943
 30
0.0
 11
998.4587492693789
 21
420.5703333478943
 31
0.0
  0
LINE
  5
49
330
25
100
AcDbEntity
  8
1
  6
Continuous
 62
     5
100
AcDbLine
 10
913.4587492693789
 20
427.5703333478942
 30
0.0
 11
928.4587492693789
 21
427.5703333478942
 31
0.0
  0
LINE
  5
48
330
25
100
AcDbEntity
  8
1
  6
Continuous
 62
     5
100
AcDbLine
 10
913.4587492693789
 20
427.5703333478942
 30
0.0
 11
913.4587492693789
 21
420.5703333478943
 31
0.0
  0
LINE
  5
47
330
25
100
AcDbEntity
  8
1
  6
Continuous
 62
     5
100
AcDbLine
 10
928.4587492693789
 20
427.5703333478942
 30
0.0
 11
928.4587492693789
 21
420.5703333478943
 31
0.0
  0
LINE
  5
46
330
25
100
AcDbEntity
  8
1
  6
Continuous
 62
     5
100
AcDbLine
 10
968.458749269379
 20
427.5703333478942
 30
0.0
 11
968.458749269379
 21
420.5703333478943
 31
0.0
  0
LINE
  5
45
330
25
100
AcDbEntity
  8
1
  6
Continuous
 62
     5
100
AcDbLine
 10
968.458749269379
 20
427.5703333478942
 30
0.0
 11
998.4587492693789
 21
427.5703333478942
 31
0.0
  0
LINE
  5
44
330
25
100
AcDbEntity
  8
1
  6
Continuous
 62
     5
100
AcDbLine
 10
883.4587492693788
 20
427.5703333478942
 30
0.0
 11
883.4587492693788
 21
420.5703333478943
 31
0.0
  0
LINE
  5
43
330
25
100
AcDbEntity
  8
1
  6
Continuous
 62
     5
100
AcDbLine
 10
833.4587492693788
 20
427.5703333478942
 30
0.0
 11
883.4587492693788
 21
427.5703333478942
 31
0.0
  0
LINE
  5
42
330
25
100
AcDbEntity
  8
1
  6
Continuous
 62
     5
100
AcDbLine
 10
883.4587492693788
 20
427.5703333478942
 30
0.0
 11
913.4587492693789
 21
427.5703333478942
 31
0.0
  0
LINE
  5
41
330
25
100
AcDbEntity
  8
1
  6
Continuous
 62
     5
100
AcDbLine
 10
833.4587492693788
 20
427.5703333478942
 30
0.0
 11
833.4587492693788
 21
420.5703333478943
 31
0.0
  0
LINE
  5
40
330
25
100
AcDbEntity
  8
1
  6
Continuous
 62
     5
100
AcDbLine
 10
818.4587492693788
 20
427.5703333478942
 30
0.0
 11
833.4587492693788
 21
427.5703333478942
 31
0.0
  0
LINE
  5
3F
330
25
100
AcDbEntity
  8
1
  6
Continuous
 62
     5
100
AcDbLine
 10
818.4587492693788
 20
420.5703333478943
 30
0.0
 11
818.4587492693788
 21
427.5703333478942
 31
0.0
  0
ENDBLK
  5
187
330
25
100
AcDbEntity
  8
0
100
AcDbBlockEnd
  0
BLOCK
  5
28
330
27
100
AcDbEntity
  8
0
100
AcDbBlockBegin
  2
FORMAT_A3
 70
     0
 10
1426.62425412785
 20
127.3244524860418
 30
0.0
  3
FORMAT_A3
  1

  0
LINE
  5
18B
330
27
100
AcDbEntity
  8
1
  6
Continuous
 62
     7
100
AcDbLine
 10
818.4587492693788
 20
333.5703333478952
 30
0.0
 11
623.4587492693783
 21
333.5703333478957
 31
0.0
  0
LINE
  5
18A
330
27
100
AcDbEntity
  8
1
  6
Continuous
 62
     7
100
AcDbLine
 10
998.4587492693789
 20
385.5703333478948
 30
0.0
 11
998.4587492693789
 21
603.570333347894
 31
0.0
  0
LINE
  5
189
330
27
100
AcDbEntity
  8
1
  6
Continuous
 62
     7
100
AcDbLine
 10
998.4587492693789
 20
603.570333347894
 30
0.0
 11
623.4587492693784
 21
603.5703333478947
 31
0.0
  0
LINE
  5
188
330
27
100
AcDbEntity
  8
1
  6
Continuous
 62
     7
100
AcDbLine
 10
623.4587492693784
 20
603.5703333478947
 30
0.0
 11
623.4587492693783
 21
333.5703333478957
 31
0.0
  0
INSERT
  5
29
330
27
100
AcDbEntity
  8
0
100
AcDbBlockReference
  2
______
 10
1045.878712978437
 20
105.6987887814188
 30
0.0
  0
ENDBLK
  5
18C
330
27
100
AcDbEntity
  8
0
100
AcDbBlockEnd
  0
BLOCK
  5
2B
330
2A
100
AcDbEntity
  8
0
100
AcDbBlockBegin
  2
_6
 70
     0
 10
397.7293746346889
 20
168.2851666739474
 30
0.0
  3
_6
  1

  0
INSERT
  5
2C
330
2A
100
AcDbEntity
  8
0
100
AcDbBlockReference
  2
FORMAT_A3
 10
713.312127063925
 20
63.66222624302089
 30
0.0
  0
ENDBLK
  5
18D
330
2A
100
AcDbEntity
  8
0
100
AcDbBlockEnd
  0
BLOCK
  5
2E
330
2D
100
AcDbEntity
  8
0
100
AcDbBlockBegin
  2
_1
 70
     0
 10
492.739553369667
 20
328.0
 30
0.0
  3
_1
  1

  0
ARC
  5
19E
330
2D
100
AcDbEntity
  8
1
  6
Continuous
 62
     7
100
AcDbCircle
 10
3.71798804642231
 20
472.2329127192637
 30
0.0
 40
7.89999999999992
100
AcDbArc
 50
0.0
 51
90.0
  0
ARC
  5
19D
330
2D
100
AcDbEntity
  8
1
  6
Continuous
 62
     7
100
AcDbCircle
 10
3.71798804642231
 20
472.2329127192637
 30
0.0
 40
7.89999999999986
100
AcDbArc
 50
90.0
 51
180.0
  0
LINE
  5
19C
330
2D
100
AcDbEntity
  8
1
  6
DOT_CENTER
 62
     2
100
AcDbLine
 10
135.739553369667
 20
447.1329127192636
 30
0.0
 11
130.239553369667
 21
447.1329127192636
 31
0.0
  0
LINE
  5
19B
330
2D
100
AcDbEntity
  8
1
  6
DOT_CENTER
 62
     2
100
AcDbLine
 10
127.739553369667
 20
476.6329127192636
 30
0.0
 11
127.739553369667
 21
482.1329127192636
 31
0.0
  0
LINE
  5
19A
330
2D
100
AcDbEntity
  8
1
  6
DOT_CENTER
 62
     2
100
AcDbLine
 10
105.739553369667
 20
482.1329127192636
 30
0.0
 11
105.739553369667
 21
476.6329127192636
 31
0.0
  0
LINE
  5
199
330
2D
100
AcDbEntity
  8
1
  6
Continuous
 62
     7
100
AcDbLine
 10
128.1645533696669
 20
435.1329127192636
 30
0.0
 11
132.739553369667
 21
435.1329127192636
 31
0.0
  0
LINE
  5
198
330
2D
100
AcDbEntity
  8
1
  6
Continuous
 62
     7
100
AcDbLine
 10
132.739553369667
 20
435.1329127192636
 30
0.0
 11
132.739553369667
 21
480.1329127192636
 31
0.0
  0
LINE
  5
197
330
2D
100
AcDbEntity
  8
1
  6
Continuous
 62
     7
100
AcDbLine
 10
132.739553369667
 20
480.1329127192636
 30
0.0
 11
133.739553369667
 21
479.1329127192636
 31
0.0
  0
LINE
  5
196
330
2D
100
AcDbEntity
  8
1
  6
Continuous
 62
     7
100
AcDbLine
 10
133.739553369667
 20
435.1329127192636
 30
0.0
 11
133.739553369667
 21
479.1329127192636
 31
0.0
  0
LINE
  5
195
330
2D
100
AcDbEntity
  8
1
  6
Continuous
 62
     7
100
AcDbLine
 10
132.739553369667
 20
480.1329127192636
 30
0.0
 11
101.239553369667
 21
480.1329127192636
 31
0.0
  0
LINE
  5
194
330
2D
100
AcDbEntity
  8
1
  6
Continuous
 62
     7
100
AcDbLine
 10
101.239553369667
 20
480.1329127192636
 30
0.0
 11
101.239553369667
 21
435.1329127192636
 31
0.0
  0
LINE
  5
193
330
2D
100
AcDbEntity
  8
1
  6
Continuous
 62
     7
100
AcDbLine
 10
132.739553369667
 20
435.1329127192636
 30
0.0
 11
133.739553369667
 21
435.1329127192636
 31
0.0
  0
LINE
  5
192
330
2D
100
AcDbEntity
  8
1
  6
DOT_CENTER
 62
     2
100
AcDbLine
 10
124.739553369667
 20
485.1329127192636
 30
0.0
 11
124.739553369667
 21
413.6812421771925
 31
0.0
  0
LINE
  5
191
330
2D
100
AcDbEntity
  8
1
  6
Continuous
 62
     7
100
AcDbLine
 10
-4.182011953577729
 20
472.2329127192637
 30
0.0
 11
-4.182011953577729
 21
435.1329127192636
 31
0.0
  0
LINE
  5
190
330
2D
100
AcDbEntity
  8
1
  6
Continuous
 62
     7
100
AcDbLine
 10
121.314553369667
 20
435.1329127192636
 30
0.0
 11
128.1645533696669
 21
435.1329127192636
 31
0.0
  0
LINE
  5
18F
330
2D
100
AcDbEntity
  8
1
  6
Continuous
 62
     7
100
AcDbLine
 10
101.239553369667
 20
435.1329127192636
 30
0.0
 11
121.314553369667
 21
435.1329127192636
 31
0.0
  0
LINE
  5
18E
330
2D
100
AcDbEntity
  8
1
  6
Continuous
 62
     7
100
AcDbLine
 10
11.61798804642228
 20
435.1329127192636
 30
0.0
 11
11.61798804642223
 21
472.2329127192637
 31
0.0
  0
ENDBLK
  5
19F
330
2D
100
AcDbEntity
  8
0
100
AcDbBlockEnd
  0
BLOCK
  5
30
330
2F
100
AcDbEntity
  8
0
100
AcDbBlockBegin
  2
_2
 70
     0
 10
422.1999999999999
 20
328.5
 30
0.0
  3
_2
  1

  0
ARC
  5
1C2
330
2F
100
AcDbEntity
  8
1
  6
Continuous
 62
     7
100
AcDbCircle
 10
4.617988046422299
 20
472.1329127192636
 30
0.0
 40
0.5
100
AcDbArc
 50
180.0
 51
-90.0
  0
ARC
  5
1C1
330
2F
100
AcDbEntity
  8
1
  6
Continuous
 62
     7
100
AcDbCircle
 10
2.817988046422309
 20
472.1329127192636
 30
0.0
 40
0.5
100
AcDbArc
 50
-90.0
 51
0.0
  0
ARC
  5
1C0
330
2F
100
AcDbEntity
  8
1
  6
Continuous
 62
     7
100
AcDbCircle
 10
2.817988046422309
 20
470.3329127192636
 30
0.0
 40
0.5
100
AcDbArc
 50
0.0
 51
90.0
  0
ARC
  5
1BF
330
2F
100
AcDbEntity
  8
1
  6
Continuous
 62
     7
100
AcDbCircle
 10
4.617988046422299
 20
470.3329127192636
 30
0.0
 40
0.5
100
AcDbArc
 50
90.0
 51
180.0
  0
ARC
  5
1BE
330
2F
100
AcDbEntity
  8
1
  6
Continuous
 62
     7
100
AcDbCircle
 10
3.71798804642231
 20
471.7329127192637
 30
0.0
 40
7.89999999999997
100
AcDbArc
 50
0.0
 51
180.0
  0
LWPOLYLINE
  5
1BD
330
2F
100
AcDbEntity
  8
1
  6
Continuous
 62
     7
100
AcDbPolyline
 90
        2
 70
     1
 43
0.0
 10
3.71798804642231
 20
444.6329127192636
 42
1.0
 10
3.71798804642231
 20
449.6329127192636
 42
1.0
  0
LWPOLYLINE
  5
1BC
330
2F
100
AcDbEntity
  8
1
  6
Continuous
 62
     7
100
AcDbPolyline
 90
        2
 70
     1
 43
0.0
 10
3.71798804642231
 20
445.4829127192637
 42
1.0
 10
3.71798804642231
 20
448.7829127192633
 42
1.0
  0
LWPOLYLINE
  5
1BB
330
2F
100
AcDbEntity
  8
1
  6
Continuous
 62
     7
100
AcDbPolyline
 90
        2
 70
     1
 43
0.0
 10
3.71798804642231
 20
466.9829127192636
 42
1.0
 10
3.71798804642231
 20
475.4829127192636
 42
1.0
  0
LWPOLYLINE
  5
1BA
330
2F
100
AcDbEntity
  8
1
  6
Continuous
 62
     7
100
AcDbPolyline
 90
        2
 70
     1
 43
0.0
 10
4.102988046422299
 20
467.4022110864032
 42
1.0
 10
3.332988046422309
 20
475.0636143521241
 42
1.0
  0
LINE
  5
1B9
330
2F
100
AcDbEntity
  8
1
  6
Continuous
 62
     7
100
AcDbLine
 10
97.23955336966703
 20
435.1329127192636
 30
0.0
 11
100.739553369667
 21
435.1329127192636
 31
0.0
  0
LINE
  5
1B8
330
2F
100
AcDbEntity
  8
1
  6
Continuous
 62
     7
100
AcDbLine
 10
100.739553369667
 20
435.1329127192636
 30
0.0
 11
100.739553369667
 21
479.6329127192636
 31
0.0
  0
LINE
  5
1B7
330
2F
100
AcDbEntity
  8
1
  6
Continuous
 62
     7
100
AcDbLine
 10
100.739553369667
 20
479.6329127192636
 30
0.0
 11
101.239553369667
 21
479.1329127192636
 31
0.0
  0
LINE
  5
1B6
330
2F
100
AcDbEntity
  8
1
  6
Continuous
 62
     7
100
AcDbLine
 10
101.239553369667
 20
435.1329127192636
 30
0.0
 11
101.239553369667
 21
479.1329127192636
 31
0.0
  0
LINE
  5
1B5
330
2F
100
AcDbEntity
  8
1
  6
Continuous
 62
     7
100
AcDbLine
 10
100.739553369667
 20
479.6329127192636
 30
0.0
 11
97.23955336966703
 21
479.6329127192636
 31
0.0
  0
LINE
  5
1B4
330
2F
100
AcDbEntity
  8
1
  6
Continuous
 62
     7
100
AcDbLine
 10
97.23955336966703
 20
479.6329127192636
 30
0.0
 11
97.23955336966703
 21
435.1329127192636
 31
0.0
  0
LINE
  5
1B3
330
2F
100
AcDbEntity
  8
1
  6
Continuous
 62
     7
100
AcDbLine
 10
100.739553369667
 20
435.1329127192636
 30
0.0
 11
101.239553369667
 21
435.1329127192636
 31
0.0
  0
LINE
  5
1B2
330
2F
100
AcDbEntity
  8
1
  6
Continuous
 62
     7
100
AcDbLine
 10
-4.182011953577729
 20
471.7329127192637
 30
0.0
 11
-4.182011953577729
 21
435.1329127192636
 31
0.0
  0
LINE
  5
1B1
330
2F
100
AcDbEntity
  8
1
  6
Continuous
 62
     7
100
AcDbLine
 10
11.61798804642228
 20
435.1329127192636
 30
0.0
 11
11.61798804642228
 21
471.7329127192637
 31
0.0
  0
LINE
  5
1B0
330
2F
100
AcDbEntity
  8
1
  6
Continuous
 62
     7
100
AcDbLine
 10
3.317988046422309
 20
469.0829127192635
 30
0.0
 11
4.117988046422299
 21
469.0829127192635
 31
0.0
  0
LINE
  5
1AF
330
2F
100
AcDbEntity
  8
1
  6
Continuous
 62
     7
100
AcDbLine
 10
3.317988046422309
 20
470.3329127192636
 30
0.0
 11
3.317988046422309
 21
469.0829127192635
 31
0.0
  0
LINE
  5
1AE
330
2F
100
AcDbEntity
  8
1
  6
Continuous
 62
     7
100
AcDbLine
 10
1.56798804642231
 20
470.8329127192635
 30
0.0
 11
2.817988046422309
 21
470.8329127192635
 31
0.0
  0
LINE
  5
1AD
330
2F
100
AcDbEntity
  8
1
  6
Continuous
 62
     7
100
AcDbLine
 10
1.56798804642231
 20
471.6329127192635
 30
0.0
 11
1.56798804642231
 21
470.8329127192635
 31
0.0
  0
LINE
  5
1AC
330
2F
100
AcDbEntity
  8
1
  6
Continuous
 62
     7
100
AcDbLine
 10
2.817988046422309
 20
471.6329127192635
 30
0.0
 11
1.56798804642231
 21
471.6329127192635
 31
0.0
  0
LINE
  5
1AB
330
2F
100
AcDbEntity
  8
1
  6
Continuous
 62
     7
100
AcDbLine
 10
3.317988046422309
 20
473.3829127192636
 30
0.0
 11
3.317988046422309
 21
472.1329127192636
 31
0.0
  0
LINE
  5
1AA
330
2F
100
AcDbEntity
  8
1
  6
Continuous
 62
     7
100
AcDbLine
 10
4.117988046422299
 20
473.3829127192636
 30
0.0
 11
3.317988046422309
 21
473.3829127192636
 31
0.0
  0
LINE
  5
1A9
330
2F
100
AcDbEntity
  8
1
  6
Continuous
 62
     7
100
AcDbLine
 10
4.117988046422299
 20
472.1329127192636
 30
0.0
 11
4.117988046422299
 21
473.3829127192636
 31
0.0
  0
LINE
  5
1A8
330
2F
100
AcDbEntity
  8
1
  6
Continuous
 62
     7
100
AcDbLine
 10
5.867988046422309
 20
471.6329127192635
 30
0.0
 11
4.617988046422299
 21
471.6329127192635
 31
0.0
  0
LINE
  5
1A7
330
2F
100
AcDbEntity
  8
1
  6
Continuous
 62
     7
100
AcDbLine
 10
5.867988046422309
 20
470.8329127192635
 30
0.0
 11
5.867988046422309
 21
471.6329127192635
 31
0.0
  0
LINE
  5
1A6
330
2F
100
AcDbEntity
  8
1
  6
Continuous
 62
     7
100
AcDbLine
 10
4.617988046422299
 20
470.8329127192635
 30
0.0
 11
5.867988046422309
 21
470.8329127192635
 31
0.0
  0
LINE
  5
1A5
330
2F
100
AcDbEntity
  8
1
  6
Continuous
 62
     7
100
AcDbLine
 10
4.117988046422299
 20
469.0829127192635
 30
0.0
 11
4.117988046422299
 21
470.3329127192636
 31
0.0
  0
LINE
  5
1A4
330
2F
100
AcDbEntity
  8
1
  6
DOT_CENTER
 62
     2
100
AcDbLine
 10
-1.782011953577689
 20
447.1329127192636
 30
0.0
 11
9.217988046422311
 21
447.1329127192636
 31
0.0
  0
LINE
  5
1A3
330
2F
100
AcDbEntity
  8
1
  6
DOT_CENTER
 62
     2
100
AcDbLine
 10
3.71798804642231
 20
485.1329127192636
 30
0.0
 11
3.71798804642231
 21
413.6812421771925
 31
0.0
  0
LINE
  5
1A2
330
2F
100
AcDbEntity
  8
1
  6
DOT_CENTER
 62
     2
100
AcDbLine
 10
-2.532011953577689
 20
471.2329127192637
 30
0.0
 11
9.967988046422311
 21
471.2329127192637
 31
0.0
  0
LINE
  5
1A1
330
2F
100
AcDbEntity
  8
1
  6
Continuous
 62
     7
100
AcDbLine
 10
-4.182011953577729
 20
435.1329127192636
 30
0.0
 11
11.61798804642228
 21
435.1329127192636
 31
0.0
  0
LINE
  5
1A0
330
2F
100
AcDbEntity
  8
1
  6
Continuous
 62
     7
100
AcDbLine
 10
-4.182011953577729
 20
435.1329127192636
 30
0.0
 11
11.61798804642228
 21
435.1329127192636
 31
0.0
  0
ENDBLK
  5
1C3
330
2F
100
AcDbEntity
  8
0
100
AcDbBlockEnd
  0
BLOCK
  5
32
330
31
100
AcDbEntity
  8
0
100
AcDbBlockBegin
  2
_3
 70
     0
 10
1.21798804642231
 20
426.1812421771925
 30
0.0
  3
_3
  1

  0
LINE
  5
1C9
330
31
100
AcDbEntity
  8
1
  6
Continuous
 62
     7
100
AcDbLine
 10
6.217988046422339
 20
435.1329127192636
 30
0.0
 11
6.217988046422309
 21
426.1812421771925
 31
0.0
  0
LINE
  5
1C8
330
31
100
AcDbEntity
  8
1
  6
Continuous
 62
     7
100
AcDbLine
 10
1.21798804642231
 20
426.1812421771925
 30
0.0
 11
1.21798804642233
 21
435.1329127192636
 31
0.0
  0
LINE
  5
1C7
330
31
100
AcDbEntity
  8
1
  6
Continuous
 62
     7
100
AcDbLine
 10
6.217988046422309
 20
426.1812421771925
 30
0.0
 11
1.21798804642231
 21
426.1812421771925
 31
0.0
  0
LINE
  5
1C6
330
31
100
AcDbEntity
  8
1
  6
Continuous
 62
     7
100
AcDbLine
 10
127.239553369667
 20
435.1329127192636
 30
0.0
 11
127.239553369667
 21
426.1812421771925
 31
0.0
  0
LINE
  5
1C5
330
31
100
AcDbEntity
  8
1
  6
Continuous
 62
     7
100
AcDbLine
 10
122.239553369667
 20
426.1812421771925
 30
0.0
 11
122.239553369667
 21
435.1329127192636
 31
0.0
  0
LINE
  5
1C4
330
31
100
AcDbEntity
  8
1
  6
Continuous
 62
     7
100
AcDbLine
 10
127.239553369667
 20
426.1812421771925
 30
0.0
 11
122.239553369667
 21
426.1812421771925
 31
0.0
  0
ENDBLK
  5
1CA
330
31
100
AcDbEntity
  8
0
100
AcDbBlockEnd
  0
BLOCK
  5
34
330
33
100
AcDbEntity
  8
0
100
AcDbBlockBegin
  2
_4
 70
     0
 10
0.5679880464223301
 20
425.6812421771924
 30
0.0
  3
_4
  1

  0
LINE
  5
1D2
330
33
100
AcDbEntity
  8
1
  6
Continuous
 62
     7
100
AcDbLine
 10
6.867988046422279
 20
426.1812421771925
 30
0.0
 11
0.5679880464223301
 21
426.1812421771925
 31
0.0
  0
LINE
  5
1D1
330
33
100
AcDbEntity
  8
1
  6
Continuous
 62
     7
100
AcDbLine
 10
0.5679880464223301
 20
426.1812421771925
 30
0.0
 11
0.5679880464223301
 21
425.6812421771924
 31
0.0
  0
LINE
  5
1D0
330
33
100
AcDbEntity
  8
1
  6
Continuous
 62
     7
100
AcDbLine
 10
0.5679880464223301
 20
425.6812421771924
 30
0.0
 11
6.867988046422279
 21
425.6812421771924
 31
0.0
  0
LINE
  5
1CF
330
33
100
AcDbEntity
  8
1
  6
Continuous
 62
     7
100
AcDbLine
 10
6.867988046422279
 20
425.6812421771924
 30
0.0
 11
6.867988046422279
 21
426.1812421771925
 31
0.0
  0
LINE
  5
1CE
330
33
100
AcDbEntity
  8
1
  6
Continuous
 62
     7
100
AcDbLine
 10
127.889553369667
 20
426.1812421771925
 30
0.0
 11
121.589553369667
 21
426.1812421771925
 31
0.0
  0
LINE
  5
1CD
330
33
100
AcDbEntity
  8
1
  6
Continuous
 62
     7
100
AcDbLine
 10
121.589553369667
 20
426.1812421771925
 30
0.0
 11
121.589553369667
 21
425.6812421771924
 31
0.0
  0
LINE
  5
1CC
330
33
100
AcDbEntity
  8
1
  6
Continuous
 62
     7
100
AcDbLine
 10
121.589553369667
 20
425.6812421771924
 30
0.0
 11
127.889553369667
 21
425.6812421771924
 31
0.0
  0
LINE
  5
1CB
330
33
100
AcDbEntity
  8
1
  6
Continuous
 62
     7
100
AcDbLine
 10
127.889553369667
 20
425.6812421771924
 30
0.0
 11
127.889553369667
 21
426.1812421771925
 31
0.0
  0
ENDBLK
  5
1D3
330
33
100
AcDbEntity
  8
0
100
AcDbBlockEnd
  0
BLOCK
  5
36
330
35
100
AcDbEntity
  8
0
100
AcDbBlockBegin
  2
_5
 70
     0
 10
-4.282011953577719
 20
418.6812421771925
 30
0.0
  3
_5
  1

  0
ARC
  5
1E3
330
35
100
AcDbEntity
  8
1
  6
Continuous
 62
     7
100
AcDbCircle
 10
11.21798804642228
 20
419.778207688653
 30
0.0
 40
0.5000000000000901
100
AcDbArc
 50
-60.00000000000599
 51
0.0
  0
ARC
  5
1E2
330
35
100
AcDbEntity
  8
1
  6
Continuous
 62
     7
100
AcDbCircle
 10
-3.78201195357772
 20
419.778207688653
 30
0.0
 40
0.5
100
AcDbArc
 50
180.0
 51
-119.9999999999941
  0
ARC
  5
1E1
330
35
100
AcDbEntity
  8
1
  6
Continuous
 62
     7
100
AcDbCircle
 10
132.239553369667
 20
419.778207688653
 30
0.0
 40
0.5000000000000901
100
AcDbArc
 50
-60.00000000000599
 51
0.0
  0
ARC
  5
1E0
330
35
100
AcDbEntity
  8
1
  6
Continuous
 62
     7
100
AcDbCircle
 10
117.239553369667
 20
419.778207688653
 30
0.0
 40
0.5
100
AcDbArc
 50
180.0
 51
-119.999999999994
  0
LINE
  5
1DF
330
35
100
AcDbEntity
  8
1
  6
Continuous
 62
     7
100
AcDbLine
 10
11.71798804642228
 20
425.6812421771924
 30
0.0
 11
-4.282011953577719
 21
425.6812421771924
 31
0.0
  0
LINE
  5
1DE
330
35
100
AcDbEntity
  8
1
  6
Continuous
 62
     7
100
AcDbLine
 10
11.71798804642228
 20
425.6812421771924
 30
0.0
 11
11.71798804642228
 21
419.778207688653
 31
0.0
  0
LINE
  5
1DD
330
35
100
AcDbEntity
  8
1
  6
Continuous
 62
     7
100
AcDbLine
 10
11.46798804642228
 20
419.3451949867607
 30
0.0
 11
10.3179880464223
 21
418.6812421771925
 31
0.0
  0
LINE
  5
1DC
330
35
100
AcDbEntity
  8
1
  6
Continuous
 62
     7
100
AcDbLine
 10
10.3179880464223
 20
418.6812421771925
 30
0.0
 11
-2.882011953577749
 21
418.6812421771925
 31
0.0
  0
LINE
  5
1DB
330
35
100
AcDbEntity
  8
1
  6
Continuous
 62
     7
100
AcDbLine
 10
-2.882011953577749
 20
418.6812421771925
 30
0.0
 11
-4.032011953577719
 21
419.3451949867607
 31
0.0
  0
LINE
  5
1DA
330
35
100
AcDbEntity
  8
1
  6
Continuous
 62
     7
100
AcDbLine
 10
-4.282011953577719
 20
419.778207688653
 30
0.0
 11
-4.282011953577719
 21
425.6812421771924
 31
0.0
  0
LINE
  5
1D9
330
35
100
AcDbEntity
  8
1
  6
Continuous
 62
     7
100
AcDbLine
 10
132.739553369667
 20
425.6812421771924
 30
0.0
 11
116.739553369667
 21
425.6812421771924
 31
0.0
  0
LINE
  5
1D8
330
35
100
AcDbEntity
  8
1
  6
Continuous
 62
     7
100
AcDbLine
 10
132.739553369667
 20
425.6812421771924
 30
0.0
 11
132.739553369667
 21
419.778207688653
 31
0.0
  0
LINE
  5
1D7
330
35
100
AcDbEntity
  8
1
  6
Continuous
 62
     7
100
AcDbLine
 10
132.489553369667
 20
419.3451949867607
 30
0.0
 11
131.339553369667
 21
418.6812421771925
 31
0.0
  0
LINE
  5
1D6
330
35
100
AcDbEntity
  8
1
  6
Continuous
 62
     7
100
AcDbLine
 10
131.339553369667
 20
418.6812421771925
 30
0.0
 11
118.1395533696669
 21
418.6812421771925
 31
0.0
  0
LINE
  5
1D5
330
35
100
AcDbEntity
  8
1
  6
Continuous
 62
     7
100
AcDbLine
 10
118.1395533696669
 20
418.6812421771925
 30
0.0
 11
116.989553369667
 21
419.3451949867607
 31
0.0
  0
LINE
  5
1D4
330
35
100
AcDbEntity
  8
1
  6
Continuous
 62
     7
100
AcDbLine
 10
116.739553369667
 20
419.778207688653
 30
0.0
 11
116.739553369667
 21
425.6812421771924
 31
0.0
  0
ENDBLK
  5
1E4
330
35
100
AcDbEntity
  8
0
100
AcDbBlockEnd
  0
BLOCK
  5
205
330
204
100
AcDbEntity
  8
0
100
AcDbBlockBegin
  2
*D8
 70
     1
 10
0.0
 20
0.0
 30
0.0
  3
*D8
  1

  0
LINE
  5
206
330
204
100
AcDbEntity
  8
0
  6
Continuous
 62
     2
100
AcDbLine
 10
6.217988046422309
 20
428.239269835819
 30
0.0
 11
18.5687887850177
 21
428.239269835819
 31
0.0
  0
LINE
  5
207
330
204
100
AcDbEntity
  8
0
  6
Continuous
 62
     2
100
AcDbLine
 10
1.2179880464223
 20
428.239269835819
 30
0.0
 11
6.217988046422309
 21
428.239269835819
 31
0.0
  0
LINE
  5
208
330
204
100
AcDbEntity
  8
0
  6
Continuous
 62
     2
100
AcDbLine
 10
-3.68201195357769
 20
428.239269835819
 30
0.0
 11
1.2179880464223
 21
428.239269835819
 31
0.0
  0
LINE
  5
209
330
204
100
AcDbEntity
  8
0
  6
Continuous
 62
     2
100
AcDbLine
 10
6.217988046422309
 20
427.1812421771925
 30
0.0
 11
6.217988046422309
 21
429.2392698358191
 31
0.0
  0
LINE
  5
20A
330
204
100
AcDbEntity
  8
0
  6
Continuous
 62
     2
100
AcDbLine
 10
1.2179880464223
 20
427.1812421771925
 30
0.0
 11
1.2179880464223
 21
429.2392698358191
 31
0.0
  0
LINE
  5
20B
330
204
100
AcDbEntity
  8
0
 62
     2
100
AcDbLine
 10
6.217988046422309
 20
428.239269835819
 30
0.0
 11
8.66798804642231
 21
428.8957453572752
 31
0.0
  0
LINE
  5
20C
330
204
100
AcDbEntity
  8
0
 62
     2
100
AcDbLine
 10
6.217988046422309
 20
428.239269835819
 30
0.0
 11
8.66798804642231
 21
427.5827943143627
 31
0.0
  0
LINE
  5
20D
330
204
100
AcDbEntity
  8
0
 62
     2
100
AcDbLine
 10
1.2179880464223
 20
428.239269835819
 30
0.0
 11
-1.232011953577699
 21
427.5827943143627
 31
0.0
  0
LINE
  5
20E
330
204
100
AcDbEntity
  8
0
 62
     2
100
AcDbLine
 10
1.2179880464223
 20
428.239269835819
 30
0.0
 11
-1.232011953577699
 21
428.8957453572752
 31
0.0
  0
MTEXT
  5
210
330
204
100
AcDbEntity
  8
0
 62
     3
100
AcDbMText
 10
11.35878878503456
 20
429.2392559216664
 30
0.0
 40
3.5
 41
0.0
 71
     7
 72
     1
  1
\C3;{\Fgdt;n}\C3;5
  7
CONVERTER_5
 11
0.999999999997062
 21
0.00000242406841
 31
0.0
 73
     1
 44
1.0
1001
ACAD
1000
MTEXTBEGIN
1070
    73
1070
     1
1070
    44
1040
1.0
1070
    74
1070
     0
1000
MTEXTEND
  0
ENDBLK
  5
211
330
204
100
AcDbEntity
  8
0
100
AcDbBlockEnd
  0
BLOCK
  5
213
330
212
100
AcDbEntity
  8
0
 62
     0
100
AcDbBlockBegin
  2
_OPEN30
 70
     0
 10
0.0
 20
0.0
 30
0.0
  3
_OPEN30
  1

  0
LINE
  5
214
330
212
100
AcDbEntity
  8
0
  6
ByBlock
 62
     0
100
AcDbLine
 10
-1.0
 20
0.267949
 30
0.0
 11
0.0
 21
0.0
 31
0.0
  0
LINE
  5
215
330
212
100
AcDbEntity
  8
0
  6
ByBlock
 62
     0
100
AcDbLine
 10
0.0
 20
0.0
 30
0.0
 11
-1.0
 21
-0.267949
 31
0.0
  0
LINE
  5
216
330
212
100
AcDbEntity
  8
0
  6
ByBlock
 62
     0
100
AcDbLine
 10
0.0
 20
0.0
 30
0.0
 11
-1.0
 21
0.0
 31
0.0
  0
ENDBLK
  5
217
330
212
100
AcDbEntity
  8
0
 62
     0
100
AcDbBlockEnd
  0
BLOCK
  5
21B
330
21A
100
AcDbEntity
  8
0
100
AcDbBlockBegin
  2
*D10
 70
     1
 10
0.0
 20
0.0
 30
0.0
  3
*D10
  1

  0
LINE
  5
21C
330
21A
100
AcDbEntity
  8
0
  6
Continuous
 62
     2
100
AcDbLine
 10
25.61798804642227
 20
418.6812421771925
 30
0.0
 11
25.61798804642227
 21
425.6812421771924
 31
0.0
  0
LINE
  5
21D
330
21A
100
AcDbEntity
  8
0
  6
Continuous
 62
     2
100
AcDbLine
 10
12.71798804642228
 20
425.6812421771924
 30
0.0
 11
26.61798804642228
 21
425.6812421771924
 31
0.0
  0
LINE
  5
21E
330
21A
100
AcDbEntity
  8
0
  6
Continuous
 62
     2
100
AcDbLine
 10
11.3179880464223
 20
418.6812421771925
 30
0.0
 11
26.61798804642228
 21
418.6812421771925
 31
0.0
  0
LINE
  5
21F
330
21A
100
AcDbEntity
  8
0
 62
     2
100
AcDbLine
 10
25.61798804642227
 20
425.6812421771924
 30
0.0
 11
26.27446356787852
 21
423.2312421771926
 31
0.0
  0
LINE
  5
220
330
21A
100
AcDbEntity
  8
0
 62
     2
100
AcDbLine
 10
25.61798804642227
 20
425.6812421771924
 30
0.0
 11
24.96151252496602
 21
423.2312421771926
 31
0.0
  0
LINE
  5
221
330
21A
100
AcDbEntity
  8
0
 62
     2
100
AcDbLine
 10
25.61798804642227
 20
418.6812421771925
 30
0.0
 11
24.96151252496602
 21
421.1312421771925
 31
0.0
  0
LINE
  5
222
330
21A
100
AcDbEntity
  8
0
 62
     2
100
AcDbLine
 10
25.61798804642227
 20
418.6812421771925
 30
0.0
 11
26.27446356787852
 21
421.1312421771925
 31
0.0
  0
MTEXT
  5
223
330
21A
100
AcDbEntity
  8
0
 62
     3
100
AcDbMText
 10
24.61798804642227
 20
421.4462421771925
 30
0.0
 40
3.5
 41
0.0
 71
     7
 72
     1
  1
7
  7
CONVERTER_5
 11
0.0
 21
1.0
 31
0.0
 73
     1
 44
1.0
1001
ACAD
1000
MTEXTBEGIN
1070
    73
1070
     1
1070
    44
1040
1.0
1070
    74
1070
     0
1000
MTEXTEND
  0
ENDBLK
  5
224
330
21A
100
AcDbEntity
  8
0
100
AcDbBlockEnd
  0
BLOCK
  5
228
330
227
100
AcDbEntity
  8
0
100
AcDbBlockBegin
  2
*D11
 70
     1
 10
0.0
 20
0.0
 30
0.0
  3
*D11
  1

  0
LINE
  5
229
330
227
100
AcDbEntity
  8
0
  6
Continuous
 62
     2
100
AcDbLine
 10
-4.282011953577719
 20
397.6812421771925
 30
0.0
 11
11.71798804642228
 21
397.6812421771925
 31
0.0
  0
LINE
  5
22A
330
227
100
AcDbEntity
  8
0
  6
Continuous
 62
     2
100
AcDbLine
 10
11.71798804642228
 20
418.7782076886529
 30
0.0
 11
11.71798804642228
 21
396.6812421771925
 31
0.0
  0
LINE
  5
22B
330
227
100
AcDbEntity
  8
0
  6
Continuous
 62
     2
100
AcDbLine
 10
-4.282011953577719
 20
418.7782076886529
 30
0.0
 11
-4.282011953577719
 21
396.6812421771925
 31
0.0
  0
LINE
  5
22C
330
227
100
AcDbEntity
  8
0
 62
     2
100
AcDbLine
 10
11.71798804642228
 20
397.6812421771925
 30
0.0
 11
9.267988046422278
 21
397.0247666557364
 31
0.0
  0
LINE
  5
22D
330
227
100
AcDbEntity
  8
0
 62
     2
100
AcDbLine
 10
11.71798804642228
 20
397.6812421771925
 30
0.0
 11
9.267988046422278
 21
398.3377176986488
 31
0.0
  0
LINE
  5
22E
330
227
100
AcDbEntity
  8
0
 62
     2
100
AcDbLine
 10
-4.282011953577719
 20
397.6812421771925
 30
0.0
 11
-1.832011953577719
 21
398.3377176986488
 31
0.0
  0
LINE
  5
22F
330
227
100
AcDbEntity
  8
0
 62
     2
100
AcDbLine
 10
-4.282011953577719
 20
397.6812421771925
 30
0.0
 11
-1.832011953577719
 21
397.0247666557364
 31
0.0
  0
MTEXT
  5
230
330
227
100
AcDbEntity
  8
0
 62
     3
100
AcDbMText
 10
-1.75951195356086
 20
398.68122826304
 30
0.0
 40
3.5
 41
0.0
 71
     7
 72
     1
  1
\C3;{\Fgdt;n}\C3;16
  7
CONVERTER_5
 11
0.999999999997062
 21
0.00000242406841
 31
0.0
 73
     1
 44
1.0
1001
ACAD
1000
MTEXTBEGIN
1070
    73
1070
     1
1070
    44
1040
1.0
1070
    74
1070
     0
1000
MTEXTEND
  0
ENDBLK
  5
231
330
227
100
AcDbEntity
  8
0
100
AcDbBlockEnd
  0
BLOCK
  5
235
330
234
100
AcDbEntity
  8
0
100
AcDbBlockBegin
  2
*D12
 70
     1
 10
0.0
 20
0.0
 30
0.0
  3
*D12
  1

  0
LINE
  5
236
330
234
100
AcDbEntity
  8
0
  6
Continuous
 62
     2
100
AcDbLine
 10
25.61798804642227
 20
471.2329127192636
 30
0.0
 11
25.61798804642227
 21
480.1329127192636
 31
0.0
  0
LINE
  5
237
330
234
100
AcDbEntity
  8
0
  6
Continuous
 62
     2
100
AcDbLine
 10
10.96798804642231
 20
471.2329127192636
 30
0.0
 11
26.61798804642228
 21
471.2329127192636
 31
0.0
  0
LINE
  5
238
330
234
100
AcDbEntity
  8
0
  6
Continuous
 62
     2
100
AcDbLine
 10
4.717988046422309
 20
480.1329127192636
 30
0.0
 11
26.61798804642228
 21
480.1329127192636
 31
0.0
  0
LINE
  5
239
330
234
100
AcDbEntity
  8
0
 62
     2
100
AcDbLine
 10
25.61798804642227
 20
480.1329127192636
 30
0.0
 11
26.27446356787852
 21
477.6829127192636
 31
0.0
  0
LINE
  5
23A
330
234
100
AcDbEntity
  8
0
 62
     2
100
AcDbLine
 10
25.61798804642227
 20
480.1329127192636
 30
0.0
 11
24.96151252496602
 21
477.6829127192636
 31
0.0
  0
LINE
  5
23B
330
234
100
AcDbEntity
  8
0
 62
     2
100
AcDbLine
 10
25.61798804642227
 20
471.2329127192636
 30
0.0
 11
24.96151252496602
 21
473.6829127192636
 31
0.0
  0
LINE
  5
23C
330
234
100
AcDbEntity
  8
0
 62
     2
100
AcDbLine
 10
25.61798804642227
 20
471.2329127192636
 30
0.0
 11
26.27446356787852
 21
473.6829127192636
 31
0.0
  0
MTEXT
  5
23D
330
234
100
AcDbEntity
  8
0
 62
     3
100
AcDbMText
 10
24.61798804642227
 20
473.2941627192636
 30
0.0
 40
3.5
 41
0.0
 71
     7
 72
     1
  1
8.9
  7
CONVERTER_5
 11
0.0
 21
1.0
 31
0.0
 73
     1
 44
1.0
1001
ACAD
1000
MTEXTBEGIN
1070
    73
1070
     1
1070
    44
1040
1.0
1070
    74
1070
     0
1000
MTEXTEND
  0
ENDBLK
  5
23E
330
234
100
AcDbEntity
  8
0
100
AcDbBlockEnd
  0
BLOCK
  5
242
330
241
100
AcDbEntity
  8
0
100
AcDbBlockBegin
  2
*D13
 70
     1
 10
0.0
 20
0.0
 30
0.0
  3
*D13
  1

  0
LINE
  5
243
330
241
100
AcDbEntity
  8
0
  6
Continuous
 62
     2
100
AcDbLine
 10
25.61798804642227
 20
447.1329127192636
 30
0.0
 11
25.61798804642227
 21
471.2329127192636
 31
0.0
  0
LINE
  5
244
330
241
100
AcDbEntity
  8
0
  6
Continuous
 62
     2
100
AcDbLine
 10
10.21798804642231
 20
447.1329127192636
 30
0.0
 11
26.61798804642228
 21
447.1329127192636
 31
0.0
  0
LINE
  5
245
330
241
100
AcDbEntity
  8
0
  6
Continuous
 62
     2
100
AcDbLine
 10
10.96798804642231
 20
471.2329127192636
 30
0.0
 11
26.61798804642228
 21
471.2329127192636
 31
0.0
  0
LINE
  5
246
330
241
100
AcDbEntity
  8
0
 62
     2
100
AcDbLine
 10
25.61798804642227
 20
447.1329127192636
 30
0.0
 11
24.96151252496602
 21
449.5829127192636
 31
0.0
  0
LINE
  5
247
330
241
100
AcDbEntity
  8
0
 62
     2
100
AcDbLine
 10
25.61798804642227
 20
447.1329127192636
 30
0.0
 11
26.27446356787852
 21
449.5829127192636
 31
0.0
  0
LINE
  5
248
330
241
100
AcDbEntity
  8
0
 62
     2
100
AcDbLine
 10
25.61798804642227
 20
471.2329127192636
 30
0.0
 11
26.27446356787852
 21
468.7829127192635
 31
0.0
  0
LINE
  5
249
330
241
100
AcDbEntity
  8
0
 62
     2
100
AcDbLine
 10
25.61798804642227
 20
471.2329127192636
 30
0.0
 11
24.96151252496602
 21
468.7829127192635
 31
0.0
  0
MTEXT
  5
24A
330
241
100
AcDbEntity
  8
0
 62
     3
100
AcDbMText
 10
24.61798804642227
 20
456.1816627192635
 30
0.0
 40
3.5
 41
0.0
 71
     7
 72
     1
  1
24.1
  7
CONVERTER_5
 11
0.0
 21
1.0
 31
0.0
 73
     1
 44
1.0
1001
ACAD
1000
MTEXTBEGIN
1070
    73
1070
     1
1070
    44
1040
1.0
1070
    74
1070
     0
1000
MTEXTEND
  0
ENDBLK
  5
24B
330
241
100
AcDbEntity
  8
0
100
AcDbBlockEnd
  0
BLOCK
  5
24F
330
24E
100
AcDbEntity
  8
0
100
AcDbBlockBegin
  2
*D14
 70
     1
 10
0.0
 20
0.0
 30
0.0
  3
*D14
  1

  0
LINE
  5
250
330
24E
100
AcDbEntity
  8
0
  6
Continuous
 62
     2
100
AcDbLine
 10
97.23955336966703
 20
508.1329127192637
 30
0.0
 11
133.739553369667
 21
508.1329127192637
 31
0.0
  0
LINE
  5
251
330
24E
100
AcDbEntity
  8
0
  6
Continuous
 62
     2
100
AcDbLine
 10
97.23955336966703
 20
480.6329127192636
 30
0.0
 11
97.23955336966703
 21
509.1329127192636
 31
0.0
  0
LINE
  5
252
330
24E
100
AcDbEntity
  8
0
  6
Continuous
 62
     2
100
AcDbLine
 10
133.739553369667
 20
480.1329127192636
 30
0.0
 11
133.739553369667
 21
509.1329127192636
 31
0.0
  0
LINE
  5
253
330
24E
100
AcDbEntity
  8
0
 62
     2
100
AcDbLine
 10
133.739553369667
 20
508.1329127192637
 30
0.0
 11
131.289553369667
 21
507.4764371978075
 31
0.0
  0
LINE
  5
254
330
24E
100
AcDbEntity
  8
0
 62
     2
100
AcDbLine
 10
133.739553369667
 20
508.1329127192637
 30
0.0
 11
131.289553369667
 21
508.7893882407199
 31
0.0
  0
LINE
  5
255
330
24E
100
AcDbEntity
  8
0
 62
     2
100
AcDbLine
 10
97.23955336966703
 20
508.1329127192637
 30
0.0
 11
99.689553369667
 21
508.7893882407199
 31
0.0
  0
LINE
  5
256
330
24E
100
AcDbEntity
  8
0
 62
     2
100
AcDbLine
 10
97.23955336966703
 20
508.1329127192637
 30
0.0
 11
99.689553369667
 21
507.4764371978075
 31
0.0
  0
MTEXT
  5
257
330
24E
100
AcDbEntity
  8
0
 62
     3
100
AcDbMText
 10
112.120803369667
 20
509.1329127192636
 30
0.0
 40
3.5
 41
0.0
 71
     7
 72
     1
  1
36.5
  7
CONVERTER_5
 11
0.999999999997062
 21
0.00000242406841
 31
0.0
 73
     1
 44
1.0
1001
ACAD
1000
MTEXTBEGIN
1070
    73
1070
     1
1070
    44
1040
1.0
1070
    74
1070
     0
1000
MTEXTEND
  0
ENDBLK
  5
258
330
24E
100
AcDbEntity
  8
0
100
AcDbBlockEnd
  0
BLOCK
  5
25C
330
25B
100
AcDbEntity
  8
0
100
AcDbBlockBegin
  2
*D15
 70
     1
 10
0.0
 20
0.0
 30
0.0
  3
*D15
  1

  0
LINE
  5
25D
330
25B
100
AcDbEntity
  8
0
  6
Continuous
 62
     2
100
AcDbLine
 10
32.61798804642226
 20
435.1329127192636
 30
0.0
 11
32.61798804642226
 21
480.1329127192636
 31
0.0
  0
LINE
  5
25E
330
25B
100
AcDbEntity
  8
0
  6
Continuous
 62
     2
100
AcDbLine
 10
12.61798804642228
 20
435.1329127192636
 30
0.0
 11
33.61798804642226
 21
435.1329127192636
 31
0.0
  0
LINE
  5
25F
330
25B
100
AcDbEntity
  8
0
  6
Continuous
 62
     2
100
AcDbLine
 10
4.717988046422309
 20
480.1329127192636
 30
0.0
 11
33.61798804642226
 21
480.1329127192636
 31
0.0
  0
LINE
  5
260
330
25B
100
AcDbEntity
  8
0
 62
     2
100
AcDbLine
 10
32.61798804642226
 20
480.1329127192636
 30
0.0
 11
33.27446356787851
 21
477.6829127192637
 31
0.0
  0
LINE
  5
261
330
25B
100
AcDbEntity
  8
0
 62
     2
100
AcDbLine
 10
32.61798804642226
 20
480.1329127192636
 30
0.0
 11
31.961512524966
 21
477.6829127192637
 31
0.0
  0
LINE
  5
262
330
25B
100
AcDbEntity
  8
0
 62
     2
100
AcDbLine
 10
32.61798804642226
 20
435.1329127192636
 30
0.0
 11
31.961512524966
 21
437.5829127192637
 31
0.0
  0
LINE
  5
263
330
25B
100
AcDbEntity
  8
0
 62
     2
100
AcDbLine
 10
32.61798804642226
 20
435.1329127192636
 30
0.0
 11
33.27446356787851
 21
437.5829127192637
 31
0.0
  0
MTEXT
  5
264
330
25B
100
AcDbEntity
  8
0
 62
     3
100
AcDbMText
 10
31.61798804642226
 20
455.7954127192637
 30
0.0
 40
3.5
 41
0.0
 71
     7
 72
     1
  1
45
  7
CONVERTER_5
 11
0.0
 21
1.0
 31
0.0
 73
     1
 44
1.0
1001
ACAD
1000
MTEXTBEGIN
1070
    73
1070
     1
1070
    44
1040
1.0
1070
    74
1070
     0
1000
MTEXTEND
  0
ENDBLK
  5
265
330
25B
100
AcDbEntity
  8
0
100
AcDbBlockEnd
  0
BLOCK
  5
269
330
268
100
AcDbEntity
  8
0
100
AcDbBlockBegin
  2
*D16
 70
     1
 10
0.0
 20
0.0
 30
0.0
  3
*D16
  1

  0
LINE
  5
26A
330
268
100
AcDbEntity
  8
0
  6
Continuous
 62
     2
100
AcDbLine
 10
25.61798804642227
 20
435.1329127192636
 30
0.0
 11
25.61798804642227
 21
447.1329127192636
 31
0.0
  0
LINE
  5
26B
330
268
100
AcDbEntity
  8
0
  6
Continuous
 62
     2
100
AcDbLine
 10
12.61798804642228
 20
435.1329127192636
 30
0.0
 11
26.61798804642228
 21
435.1329127192636
 31
0.0
  0
LINE
  5
26C
330
268
100
AcDbEntity
  8
0
  6
Continuous
 62
     2
100
AcDbLine
 10
10.21798804642231
 20
447.1329127192636
 30
0.0
 11
26.61798804642228
 21
447.1329127192636
 31
0.0
  0
LINE
  5
26D
330
268
100
AcDbEntity
  8
0
 62
     2
100
AcDbLine
 10
25.61798804642227
 20
435.1329127192636
 30
0.0
 11
24.96151252496602
 21
437.5829127192637
 31
0.0
  0
LINE
  5
26E
330
268
100
AcDbEntity
  8
0
 62
     2
100
AcDbLine
 10
25.61798804642227
 20
435.1329127192636
 30
0.0
 11
26.27446356787852
 21
437.5829127192637
 31
0.0
  0
LINE
  5
26F
330
268
100
AcDbEntity
  8
0
 62
     2
100
AcDbLine
 10
25.61798804642227
 20
447.1329127192636
 30
0.0
 11
26.27446356787852
 21
444.6829127192637
 31
0.0
  0
LINE
  5
270
330
268
100
AcDbEntity
  8
0
 62
     2
100
AcDbLine
 10
25.61798804642227
 20
447.1329127192636
 30
0.0
 11
24.96151252496602
 21
444.6829127192637
 31
0.0
  0
MTEXT
  5
271
330
268
100
AcDbEntity
  8
0
 62
     3
100
AcDbMText
 10
24.61798804642227
 20
439.6629127192636
 30
0.0
 40
3.5
 41
0.0
 71
     7
 72
     1
  1
12
  7
CONVERTER_5
 11
0.0
 21
1.0
 31
0.0
 73
     1
 44
1.0
1001
ACAD
1000
MTEXTBEGIN
1070
    73
1070
     1
1070
    44
1040
1.0
1070
    74
1070
     0
1000
MTEXTEND
  0
ENDBLK
  5
272
330
268
100
AcDbEntity
  8
0
100
AcDbBlockEnd
  0
BLOCK
  5
276
330
275
100
AcDbEntity
  8
0
100
AcDbBlockBegin
  2
*D17
 70
     1
 10
0.0
 20
0.0
 30
0.0
  3
*D17
  1

  0
LINE
  5
277
330
275
100
AcDbEntity
  8
0
  6
Continuous
 62
     2
100
AcDbLine
 10
97.23955336966703
 20
501.1329127192636
 30
0.0
 11
105.739553369667
 21
501.1329127192636
 31
0.0
  0
LINE
  5
278
330
275
100
AcDbEntity
  8
0
  6
Continuous
 62
     2
100
AcDbLine
 10
97.23955336966703
 20
480.6329127192636
 30
0.0
 11
97.23955336966703
 21
502.1329127192636
 31
0.0
  0
LINE
  5
279
330
275
100
AcDbEntity
  8
0
  6
Continuous
 62
     2
100
AcDbLine
 10
105.739553369667
 20
483.1329127192636
 30
0.0
 11
105.739553369667
 21
502.1329127192636
 31
0.0
  0
LINE
  5
27A
330
275
100
AcDbEntity
  8
0
 62
     2
100
AcDbLine
 10
105.739553369667
 20
501.1329127192636
 30
0.0
 11
103.289553369667
 21
500.4764371978073
 31
0.0
  0
LINE
  5
27B
330
275
100
AcDbEntity
  8
0
 62
     2
100
AcDbLine
 10
105.739553369667
 20
501.1329127192636
 30
0.0
 11
103.289553369667
 21
501.7893882407198
 31
0.0
  0
LINE
  5
27C
330
275
100
AcDbEntity
  8
0
 62
     2
100
AcDbLine
 10
97.23955336966703
 20
501.1329127192636
 30
0.0
 11
99.689553369667
 21
501.7893882407198
 31
0.0
  0
LINE
  5
27D
330
275
100
AcDbEntity
  8
0
 62
     2
100
AcDbLine
 10
97.23955336966703
 20
501.1329127192636
 30
0.0
 11
99.689553369667
 21
500.4764371978073
 31
0.0
  0
MTEXT
  5
27E
330
275
100
AcDbEntity
  8
0
 62
     3
100
AcDbMText
 10
99.100803369667
 20
502.1329127192636
 30
0.0
 40
3.5
 41
0.0
 71
     7
 72
     1
  1
8.5
  7
CONVERTER_5
 11
0.999999999997062
 21
0.00000242406841
 31
0.0
 73
     1
 44
1.0
1001
ACAD
1000
MTEXTBEGIN
1070
    73
1070
     1
1070
    44
1040
1.0
1070
    74
1070
     0
1000
MTEXTEND
  0
ENDBLK
  5
27F
330
275
100
AcDbEntity
  8
0
100
AcDbBlockEnd
  0
BLOCK
  5
283
330
282
100
AcDbEntity
  8
0
100
AcDbBlockBegin
  2
*D18
 70
     1
 10
0.0
 20
0.0
 30
0.0
  3
*D18
  1

  0
LINE
  5
284
330
282
100
AcDbEntity
  8
0
  6
Continuous
 62
     2
100
AcDbLine
 10
105.739553369667
 20
501.1329127192636
 30
0.0
 11
124.739553369667
 21
501.1329127192636
 31
0.0
  0
LINE
  5
285
330
282
100
AcDbEntity
  8
0
  6
Continuous
 62
     2
100
AcDbLine
 10
105.739553369667
 20
483.1329127192636
 30
0.0
 11
105.739553369667
 21
502.1329127192636
 31
0.0
  0
LINE
  5
286
330
282
100
AcDbEntity
  8
0
  6
Continuous
 62
     2
100
AcDbLine
 10
124.739553369667
 20
486.1329127192636
 30
0.0
 11
124.739553369667
 21
502.1329127192636
 31
0.0
  0
LINE
  5
287
330
282
100
AcDbEntity
  8
0
 62
     2
100
AcDbLine
 10
124.739553369667
 20
501.1329127192636
 30
0.0
 11
122.289553369667
 21
500.4764371978073
 31
0.0
  0
LINE
  5
288
330
282
100
AcDbEntity
  8
0
 62
     2
100
AcDbLine
 10
124.739553369667
 20
501.1329127192636
 30
0.0
 11
122.289553369667
 21
501.7893882407198
 31
0.0
  0
LINE
  5
289
330
282
100
AcDbEntity
  8
0
 62
     2
100
AcDbLine
 10
105.739553369667
 20
501.1329127192636
 30
0.0
 11
108.189553369667
 21
501.7893882407198
 31
0.0
  0
LINE
  5
28A
330
282
100
AcDbEntity
  8
0
 62
     2
100
AcDbLine
 10
105.739553369667
 20
501.1329127192636
 30
0.0
 11
108.189553369667
 21
500.4764371978073
 31
0.0
  0
MTEXT
  5
28B
330
282
100
AcDbEntity
  8
0
 62
     3
100
AcDbMText
 10
113.769553369667
 20
502.1329127192636
 30
0.0
 40
3.5
 41
0.0
 71
     7
 72
     1
  1
19
  7
CONVERTER_5
 11
0.999999999997062
 21
0.00000242406841
 31
0.0
 73
     1
 44
1.0
1001
ACAD
1000
MTEXTBEGIN
1070
    73
1070
     1
1070
    44
1040
1.0
1070
    74
1070
     0
1000
MTEXTEND
  0
ENDBLK
  5
28C
330
282
100
AcDbEntity
  8
0
100
AcDbBlockEnd
  0
BLOCK
  5
290
330
28F
100
AcDbEntity
  8
0
100
AcDbBlockBegin
  2
*D19
 70
     1
 10
0.0
 20
0.0
 30
0.0
  3
*D19
  1

  0
LINE
  5
291
330
28F
100
AcDbEntity
  8
0
  6
Continuous
 62
     2
100
AcDbLine
 10
124.739553369667
 20
501.1329127192636
 30
0.0
 11
127.739553369667
 21
501.1329127192636
 31
0.0
  0
LINE
  5
292
330
28F
100
AcDbEntity
  8
0
  6
Continuous
 62
     2
100
AcDbLine
 10
124.739553369667
 20
501.1329127192636
 30
0.0
 11
119.839553369667
 21
501.1329127192636
 31
0.0
  0
LINE
  5
293
330
28F
100
AcDbEntity
  8
0
  6
Continuous
 62
     2
100
AcDbLine
 10
124.739553369667
 20
486.1329127192636
 30
0.0
 11
124.739553369667
 21
502.1329127192636
 31
0.0
  0
LINE
  5
294
330
28F
100
AcDbEntity
  8
0
  6
Continuous
 62
     2
100
AcDbLine
 10
127.739553369667
 20
483.1329127192636
 30
0.0
 11
127.739553369667
 21
502.1329127192636
 31
0.0
  0
CIRCLE
  5
295
330
28F
100
AcDbEntity
  8
0
 62
     2
100
AcDbCircle
 10
127.739553369667
 20
501.1329127192636
 30
0.0
 40
0.5
  0
HATCH
  5
296
330
28F
100
AcDbEntity
  8
0
 62
     2
100
AcDbHatch
 10
0.0
 20
0.0
 30
0.0
210
0.0
220
0.0
230
1.0
  2
SOLID
 70
     1
 71
     1
 91
        1
 92
        1
 93
        1
 72
     2
 10
127.739553369667
 20
501.1329127192636
 40
0.5
 50
-180.0
 51
180.0
 73
     1
 97
        1
330
295
 75
     0
 76
     1
 98
        1
 10
0.0
 20
0.0
  0
LINE
  5
297
330
28F
100
AcDbEntity
  8
0
 62
     2
100
AcDbLine
 10
124.739553369667
 20
501.1329127192636
 30
0.0
 11
122.289553369667
 21
500.4764371978073
 31
0.0
  0
LINE
  5
298
330
28F
100
AcDbEntity
  8
0
 62
     2
100
AcDbLine
 10
124.739553369667
 20
501.1329127192636
 30
0.0
 11
122.289553369667
 21
501.7893882407198
 31
0.0
  0
MTEXT
  5
299
330
28F
100
AcDbEntity
  8
0
 62
     3
100
AcDbMText
 10
125.504553369667
 20
502.1329127192636
 30
0.0
 40
3.5
 41
0.0
 71
     7
 72
     1
  1
3
  7
CONVERTER_5
 11
0.999999999997062
 21
0.00000242406841
 31
0.0
 73
     1
 44
1.0
1001
ACAD
1000
MTEXTBEGIN
1070
    73
1070
     1
1070
    44
1040
1.0
1070
    74
1070
     0
1000
MTEXTEND
  0
ENDBLK
  5
29A
330
28F
100
AcDbEntity
  8
0
100
AcDbBlockEnd
  0
BLOCK
  5
29C
330
29B
100
AcDbEntity
  8
0
 62
     0
100
AcDbBlockBegin
  2
_DOT
 70
     0
 10
0.0
 20
0.0
 30
0.0
  3
_DOT
  1

  0
LWPOLYLINE
  5
29D
330
29B
100
AcDbEntity
  8
0
  6
ByBlock
 62
     0
100
AcDbPolyline
 90
        2
 70
     1
 43
0.5
 10
-0.25
 20
0.0
 42
1.0
 10
0.25
 20
0.0
 42
1.0
  0
LINE
  5
2A1
330
29B
100
AcDbEntity
  8
0
  6
ByBlock
 62
     0
100
AcDbLine
 10
-0.5
 20
0.0
 30
0.0
 11
-1.0
 21
0.0
 31
0.0
  0
ENDBLK
  5
2A2
330
29B
100
AcDbEntity
  8
0
 62
     0
100
AcDbBlockEnd
  0
BLOCK
  5
2A6
330
2A5
100
AcDbEntity
  8
0
100
AcDbBlockBegin
  2
*D21
 70
     1
 10
0.0
 20
0.0
 30
0.0
  3
*D21
  1

  0
LINE
  5
2A7
330
2A5
100
AcDbEntity
  8
0
  6
Continuous
 62
     2
100
AcDbLine
 10
127.739553369667
 20
501.1329127192636
 30
0.0
 11
133.739553369667
 21
501.1329127192636
 31
0.0
  0
LINE
  5
2A8
330
2A5
100
AcDbEntity
  8
0
  6
Continuous
 62
     2
100
AcDbLine
 10
127.739553369667
 20
501.1329127192636
 30
0.0
 11
127.739553369667
 21
501.1329127192636
 31
0.0
  0
LINE
  5
2A9
330
2A5
100
AcDbEntity
  8
0
  6
Continuous
 62
     2
100
AcDbLine
 10
133.739553369667
 20
501.1329127192636
 30
0.0
 11
138.639553369667
 21
501.1329127192636
 31
0.0
  0
LINE
  5
2AA
330
2A5
100
AcDbEntity
  8
0
  6
Continuous
 62
     2
100
AcDbLine
 10
127.739553369667
 20
483.1329127192636
 30
0.0
 11
127.739553369667
 21
502.1329127192636
 31
0.0
  0
LINE
  5
2AB
330
2A5
100
AcDbEntity
  8
0
  6
Continuous
 62
     2
100
AcDbLine
 10
133.739553369667
 20
480.1329127192636
 30
0.0
 11
133.739553369667
 21
502.1329127192636
 31
0.0
  0
LINE
  5
2AC
330
2A5
100
AcDbEntity
  8
0
 62
     2
100
AcDbLine
 10
133.739553369667
 20
501.1329127192636
 30
0.0
 11
136.189553369667
 21
501.7893882407199
 31
0.0
  0
LINE
  5
2AD
330
2A5
100
AcDbEntity
  8
0
 62
     2
100
AcDbLine
 10
133.739553369667
 20
501.1329127192636
 30
0.0
 11
136.189553369667
 21
500.4764371978074
 31
0.0
  0
MTEXT
  5
2AE
330
2A5
100
AcDbEntity
  8
0
 62
     3
100
AcDbMText
 10
130.004553369667
 20
502.1329127192636
 30
0.0
 40
3.5
 41
0.0
 71
     7
 72
     1
  1
6
  7
CONVERTER_5
 11
0.999999999997062
 21
0.00000242406841
 31
0.0
 73
     1
 44
1.0
1001
ACAD
1000
MTEXTBEGIN
1070
    73
1070
     1
1070
    44
1040
1.0
1070
    74
1070
     0
1000
MTEXTEND
  0
ENDBLK
  5
2AF
330
2A5
100
AcDbEntity
  8
0
100
AcDbBlockEnd
  0
BLOCK
  5
2B1
330
2B0
100
AcDbEntity
  8
0
 62
     0
100
AcDbBlockBegin
  2
_NONE
 70
     0
 10
0.0
 20
0.0
 30
0.0
  3
_NONE
  1

  0
ENDBLK
  5
2B2
330
2B0
100
AcDbEntity
  8
0
 62
     0
100
AcDbBlockEnd
  0
BLOCK
  5
2B6
330
2B5
100
AcDbEntity
  8
0
100
AcDbBlockBegin
  2
*D23
 70
     1
 10
0.0
 20
0.0
 30
0.0
  3
*D23
  1

  0
LINE
  5
2B7
330
2B5
100
AcDbEntity
  8
0
  6
Continuous
 62
     2
100
AcDbLine
 10
154.739553369667
 20
447.1329127192636
 30
0.0
 11
154.739553369667
 21
480.1329127192636
 31
0.0
  0
LINE
  5
2B8
330
2B5
100
AcDbEntity
  8
0
  6
Continuous
 62
     2
100
AcDbLine
 10
136.739553369667
 20
447.1329127192636
 30
0.0
 11
155.739553369667
 21
447.1329127192636
 31
0.0
  0
LINE
  5
2B9
330
2B5
100
AcDbEntity
  8
0
  6
Continuous
 62
     2
100
AcDbLine
 10
133.739553369667
 20
480.1329127192636
 30
0.0
 11
155.739553369667
 21
480.1329127192636
 31
0.0
  0
LINE
  5
2BA
330
2B5
100
AcDbEntity
  8
0
 62
     2
100
AcDbLine
 10
154.739553369667
 20
447.1329127192636
 30
0.0
 11
154.0830778482107
 21
449.5829127192636
 31
0.0
  0
LINE
  5
2BB
330
2B5
100
AcDbEntity
  8
0
 62
     2
100
AcDbLine
 10
154.739553369667
 20
447.1329127192636
 30
0.0
 11
155.3960288911232
 21
449.5829127192636
 31
0.0
  0
LINE
  5
2BC
330
2B5
100
AcDbEntity
  8
0
 62
     2
100
AcDbLine
 10
154.739553369667
 20
480.1329127192636
 30
0.0
 11
155.3960288911232
 21
477.6829127192636
 31
0.0
  0
LINE
  5
2BD
330
2B5
100
AcDbEntity
  8
0
 62
     2
100
AcDbLine
 10
154.739553369667
 20
480.1329127192636
 30
0.0
 11
154.0830778482107
 21
477.6829127192636
 31
0.0
  0
MTEXT
  5
2BE
330
2B5
100
AcDbEntity
  8
0
 62
     3
100
AcDbMText
 10
153.739553369667
 20
461.7954127192636
 30
0.0
 40
3.5
 41
0.0
 71
     7
 72
     1
  1
33
  7
CONVERTER_5
 11
0.0
 21
1.0
 31
0.0
 73
     1
 44
1.0
1001
ACAD
1000
MTEXTBEGIN
1070
    73
1070
     1
1070
    44
1040
1.0
1070
    74
1070
     0
1000
MTEXTEND
  0
ENDBLK
  5
2BF
330
2B5
100
AcDbEntity
  8
0
100
AcDbBlockEnd
  0
BLOCK
  5
2C3
330
2C2
100
AcDbEntity
  8
0
100
AcDbBlockBegin
  2
*D24
 70
     1
 10
0.0
 20
0.0
 30
0.0
  3
*D24
  1

  0
LINE
  5
2C4
330
2C2
100
AcDbEntity
  8
0
  6
Continuous
 62
     2
100
AcDbLine
 10
154.739553369667
 20
435.1329127192636
 30
0.0
 11
154.739553369667
 21
447.1329127192636
 31
0.0
  0
LINE
  5
2C5
330
2C2
100
AcDbEntity
  8
0
  6
Continuous
 62
     2
100
AcDbLine
 10
134.739553369667
 20
435.1329127192636
 30
0.0
 11
155.739553369667
 21
435.1329127192636
 31
0.0
  0
LINE
  5
2C6
330
2C2
100
AcDbEntity
  8
0
  6
Continuous
 62
     2
100
AcDbLine
 10
136.739553369667
 20
447.1329127192636
 30
0.0
 11
155.739553369667
 21
447.1329127192636
 31
0.0
  0
LINE
  5
2C7
330
2C2
100
AcDbEntity
  8
0
 62
     2
100
AcDbLine
 10
154.739553369667
 20
435.1329127192636
 30
0.0
 11
154.0830778482107
 21
437.5829127192637
 31
0.0
  0
LINE
  5
2C8
330
2C2
100
AcDbEntity
  8
0
 62
     2
100
AcDbLine
 10
154.739553369667
 20
435.1329127192636
 30
0.0
 11
155.3960288911232
 21
437.5829127192637
 31
0.0
  0
LINE
  5
2C9
330
2C2
100
AcDbEntity
  8
0
 62
     2
100
AcDbLine
 10
154.739553369667
 20
447.1329127192636
 30
0.0
 11
155.3960288911232
 21
444.6829127192637
 31
0.0
  0
LINE
  5
2CA
330
2C2
100
AcDbEntity
  8
0
 62
     2
100
AcDbLine
 10
154.739553369667
 20
447.1329127192636
 30
0.0
 11
154.0830778482107
 21
444.6829127192637
 31
0.0
  0
MTEXT
  5
2CB
330
2C2
100
AcDbEntity
  8
0
 62
     3
100
AcDbMText
 10
153.739553369667
 20
439.6629127192636
 30
0.0
 40
3.5
 41
0.0
 71
     7
 72
     1
  1
12
  7
CONVERTER_5
 11
0.0
 21
1.0
 31
0.0
 73
     1
 44
1.0
1001
ACAD
1000
MTEXTBEGIN
1070
    73
1070
     1
1070
    44
1040
1.0
1070
    74
1070
     0
1000
MTEXTEND
  0
ENDBLK
  5
2CC
330
2C2
100
AcDbEntity
  8
0
100
AcDbBlockEnd
  0
BLOCK
  5
2D0
330
2CF
100
AcDbEntity
  8
0
100
AcDbBlockBegin
  2
*D25
 70
     1
 10
0.0
 20
0.0
 30
0.0
  3
*D25
  1

  0
LINE
  5
2D1
330
2CF
100
AcDbEntity
  8
0
  6
Continuous
 62
     2
100
AcDbLine
 10
97.239553369667
 20
397.6812421771925
 30
0.0
 11
124.739553369667
 21
397.6812421771925
 31
0.0
  0
LINE
  5
2D2
330
2CF
100
AcDbEntity
  8
0
  6
Continuous
 62
     2
100
AcDbLine
 10
124.739553369667
 20
412.6812421771925
 30
0.0
 11
124.739553369667
 21
396.6812421771925
 31
0.0
  0
LINE
  5
2D3
330
2CF
100
AcDbEntity
  8
0
  6
Continuous
 62
     2
100
AcDbLine
 10
97.239553369667
 20
434.1329127192636
 30
0.0
 11
97.239553369667
 21
396.6812421771925
 31
0.0
  0
LINE
  5
2D4
330
2CF
100
AcDbEntity
  8
0
 62
     2
100
AcDbLine
 10
124.739553369667
 20
397.6812421771925
 30
0.0
 11
122.289553369667
 21
397.0247666557364
 31
0.0
  0
LINE
  5
2D5
330
2CF
100
AcDbEntity
  8
0
 62
     2
100
AcDbLine
 10
124.739553369667
 20
397.6812421771925
 30
0.0
 11
122.289553369667
 21
398.3377176986488
 31
0.0
  0
LINE
  5
2D6
330
2CF
100
AcDbEntity
  8
0
 62
     2
100
AcDbLine
 10
97.239553369667
 20
397.6812421771925
 30
0.0
 11
99.689553369667
 21
398.3377176986488
 31
0.0
  0
LINE
  5
2D7
330
2CF
100
AcDbEntity
  8
0
 62
     2
100
AcDbLine
 10
97.239553369667
 20
397.6812421771925
 30
0.0
 11
99.689553369667
 21
397.0247666557364
 31
0.0
  0
MTEXT
  5
2D8
330
2CF
100
AcDbEntity
  8
0
 62
     3
100
AcDbMText
 10
107.620803369667
 20
398.6812421771925
 30
0.0
 40
3.5
 41
0.0
 71
     7
 72
     1
  1
27.5
  7
CONVERTER_5
 11
0.999999999997062
 21
0.00000242406841
 31
0.0
 73
     1
 44
1.0
1001
ACAD
1000
MTEXTBEGIN
1070
    73
1070
     1
1070
    44
1040
1.0
1070
    74
1070
     0
1000
MTEXTEND
  0
ENDBLK
  5
2D9
330
2CF
100
AcDbEntity
  8
0
100
AcDbBlockEnd
  0
BLOCK
  5
2DD
330
2DC
100
AcDbEntity
  8
0
100
AcDbBlockBegin
  2
*D26
 70
     1
 10
0.0
 20
0.0
 30
0.0
  3
*D26
  1

  0
LINE
  5
2DE
330
2DC
100
AcDbEntity
  8
0
  6
Continuous
 62
     2
100
AcDbLine
 10
-4.182011953577729
 20
501.1329127192636
 30
0.0
 11
11.61798804642223
 21
501.1329127192636
 31
0.0
  0
LINE
  5
2DF
330
2DC
100
AcDbEntity
  8
0
  6
Continuous
 62
     2
100
AcDbLine
 10
-4.182011953577729
 20
473.2329127192636
 30
0.0
 11
-4.182011953577729
 21
502.1329127192636
 31
0.0
  0
LINE
  5
2E0
330
2DC
100
AcDbEntity
  8
0
  6
Continuous
 62
     2
100
AcDbLine
 10
11.61798804642223
 20
473.2329127192636
 30
0.0
 11
11.61798804642223
 21
502.1329127192636
 31
0.0
  0
LINE
  5
2E1
330
2DC
100
AcDbEntity
  8
0
 62
     2
100
AcDbLine
 10
11.61798804642223
 20
501.1329127192636
 30
0.0
 11
9.16798804642223
 21
500.4764371978074
 31
0.0
  0
LINE
  5
2E2
330
2DC
100
AcDbEntity
  8
0
 62
     2
100
AcDbLine
 10
11.61798804642223
 20
501.1329127192636
 30
0.0
 11
9.16798804642223
 21
501.7893882407199
 31
0.0
  0
LINE
  5
2E3
330
2DC
100
AcDbEntity
  8
0
 62
     2
100
AcDbLine
 10
-4.182011953577729
 20
501.1329127192636
 30
0.0
 11
-1.73201195357773
 21
501.7893882407199
 31
0.0
  0
LINE
  5
2E4
330
2DC
100
AcDbEntity
  8
0
 62
     2
100
AcDbLine
 10
-4.182011953577729
 20
501.1329127192636
 30
0.0
 11
-1.73201195357773
 21
500.4764371978074
 31
0.0
  0
MTEXT
  5
2E5
330
2DC
100
AcDbEntity
  8
0
 62
     3
100
AcDbMText
 10
0.71673804642225
 20
502.1329127192636
 30
0.0
 40
3.5
 41
0.0
 71
     7
 72
     1
  1
15.8
  7
CONVERTER_5
 11
0.999999999997062
 21
0.00000242406841
 31
0.0
 73
     1
 44
1.0
1001
ACAD
1000
MTEXTBEGIN
1070
    73
1070
     1
1070
    44
1040
1.0
1070
    74
1070
     0
1000
MTEXTEND
  0
ENDBLK
  5
2E6
330
2DC
100
AcDbEntity
  8
0
100
AcDbBlockEnd
  0
BLOCK
  5
2EA
330
2E9
100
AcDbEntity
  8
0
100
AcDbBlockBegin
  2
*D27
 70
     1
 10
0.0
 20
0.0
 30
0.0
  3
*D27
  1

  0
LINE
  5
2EB
330
2E9
100
AcDbEntity
  8
0
  6
Continuous
 62
     2
100
AcDbLine
 10
154.739553369667
 20
426.1812421771925
 30
0.0
 11
154.739553369667
 21
435.1329127192636
 31
0.0
  0
LINE
  5
2EC
330
2E9
100
AcDbEntity
  8
0
  6
Continuous
 62
     2
100
AcDbLine
 10
154.739553369667
 20
426.1812421771925
 30
0.0
 11
154.739553369667
 21
410.1255552642488
 31
0.0
  0
LINE
  5
2ED
330
2E9
100
AcDbEntity
  8
0
  6
Continuous
 62
     2
100
AcDbLine
 10
128.889553369667
 20
426.1812421771925
 30
0.0
 11
155.739553369667
 21
426.1812421771925
 31
0.0
  0
LINE
  5
2EE
330
2E9
100
AcDbEntity
  8
0
  6
Continuous
 62
     2
100
AcDbLine
 10
134.739553369667
 20
435.1329127192636
 30
0.0
 11
155.739553369667
 21
435.1329127192636
 31
0.0
  0
LINE
  5
2EF
330
2E9
100
AcDbEntity
  8
0
 62
     2
100
AcDbLine
 10
154.739553369667
 20
435.1329127192636
 30
0.0
 11
155.3960288911232
 21
432.6829127192636
 31
0.0
  0
LINE
  5
2F0
330
2E9
100
AcDbEntity
  8
0
 62
     2
100
AcDbLine
 10
154.739553369667
 20
435.1329127192636
 30
0.0
 11
154.0830778482107
 21
432.6829127192636
 31
0.0
  0
LINE
  5
2F1
330
2E9
100
AcDbEntity
  8
0
 62
     2
100
AcDbLine
 10
154.739553369667
 20
426.1812421771925
 30
0.0
 11
154.0830778482107
 21
428.6312421771925
 31
0.0
  0
LINE
  5
2F2
330
2E9
100
AcDbEntity
  8
0
 62
     2
100
AcDbLine
 10
154.739553369667
 20
426.1812421771925
 30
0.0
 11
155.3960288911232
 21
428.6312421771925
 31
0.0
  0
MTEXT
  5
2F3
102
{ACAD_XDICTIONARY
360
4B0
102
}
330
2E9
100
AcDbEntity
  8
0
 62
     3
100
AcDbMText
 10
153.739553369667
 20
410.1255552642488
 30
0.0
 40
3.5
 41
0.0
 71
     7
 72
     1
  1
5.5\U+0081`12.5
  7
CONVERTER_5
 11
0.0
 21
1.0
 31
0.0
 73
     1
 44
1.0
1001
ACAD
1000
MTEXTBEGIN
1070
    73
1070
     1
1070
    44
1040
1.0
1070
    74
1070
     0
1000
MTEXTEND
  0
ENDBLK
  5
2F4
330
2E9
100
AcDbEntity
  8
0
100
AcDbBlockEnd
  0
ENDSEC
  0
SECTION
  2
ENTITIES
  0
LINE
  5
3D5
330
A
100
AcDbEntity
  8
1
  6
Continuous
 62
     2
100
AcDbLine
 10
1.2179880464223
 20
428.239269835819
 30
0.0
 11
6.217988046422309
 21
428.239269835819
 31
0.0
  0
LINE
  5
3D7
330
A
100
AcDbEntity
  8
1
  6
Continuous
 62
     2
100
AcDbLine
 10
6.217988046422309
 20
427.1812421771925
 30
0.0
 11
6.217988046422309
 21
429.2392698358191
 31
0.0
  0
LINE
  5
3D8
330
A
100
AcDbEntity
  8
1
  6
Continuous
 62
     2
100
AcDbLine
 10
1.2179880464223
 20
427.1812421771925
 30
0.0
 11
1.2179880464223
 21
429.2392698358191
 31
0.0
  0
ARC
  5
3ED
330
A
100
AcDbEntity
  8
1
  6
Continuous
 62
     7
100
AcDbCircle
 10
11.21798804642228
 20
419.778207688653
 30
0.0
 40
0.5000000000000901
100
AcDbArc
 50
299.9999999999941
 51
0.0
  0
ARC
  5
3EE
330
A
100
AcDbEntity
  8
1
  6
Continuous
 62
     7
100
AcDbCircle
 10
-3.78201195357772
 20
419.778207688653
 30
0.0
 40
0.5
100
AcDbArc
 50
180.0
 51
240.0000000000059
  0
ARC
  5
3EF
330
A
100
AcDbEntity
  8
1
  6
Continuous
 62
     7
100
AcDbCircle
 10
132.239553369667
 20
419.778207688653
 30
0.0
 40
0.5000000000000901
100
AcDbArc
 50
299.9999999999941
 51
0.0
  0
ARC
  5
3F0
330
A
100
AcDbEntity
  8
1
  6
Continuous
 62
     7
100
AcDbCircle
 10
117.239553369667
 20
419.778207688653
 30
0.0
 40
0.5
100
AcDbArc
 50
180.0
 51
240.0000000000059
  0
LINE
  5
3F1
330
A
100
AcDbEntity
  8
1
  6
Continuous
 62
     7
100
AcDbLine
 10
11.71798804642228
 20
425.6812421771924
 30
0.0
 11
-4.282011953577719
 21
425.6812421771924
 31
0.0
  0
LINE
  5
3F2
330
A
100
AcDbEntity
  8
1
  6
Continuous
 62
     7
100
AcDbLine
 10
11.71798804642228
 20
425.6812421771924
 30
0.0
 11
11.71798804642228
 21
419.778207688653
 31
0.0
  0
LINE
  5
3F3
330
A
100
AcDbEntity
  8
1
  6
Continuous
 62
     7
100
AcDbLine
 10
11.46798804642228
 20
419.3451949867607
 30
0.0
 11
10.3179880464223
 21
418.6812421771925
 31
0.0
  0
LINE
  5
3F4
330
A
100
AcDbEntity
  8
1
  6
Continuous
 62
     7
100
AcDbLine
 10
10.3179880464223
 20
418.6812421771925
 30
0.0
 11
-2.882011953577749
 21
418.6812421771925
 31
0.0
  0
LINE
  5
3F5
330
A
100
AcDbEntity
  8
1
  6
Continuous
 62
     7
100
AcDbLine
 10
-2.882011953577749
 20
418.6812421771925
 30
0.0
 11
-4.032011953577719
 21
419.3451949867607
 31
0.0
  0
LINE
  5
3F6
330
A
100
AcDbEntity
  8
1
  6
Continuous
 62
     7
100
AcDbLine
 10
-4.282011953577719
 20
419.778207688653
 30
0.0
 11
-4.282011953577719
 21
425.6812421771924
 31
0.0
  0
LINE
  5
3F7
330
A
100
AcDbEntity
  8
1
  6
Continuous
 62
     7
100
AcDbLine
 10
132.739553369667
 20
425.6812421771924
 30
0.0
 11
116.739553369667
 21
425.6812421771924
 31
0.0
  0
LINE
  5
3F8
330
A
100
AcDbEntity
  8
1
  6
Continuous
 62
     7
100
AcDbLine
 10
132.739553369667
 20
425.6812421771924
 30
0.0
 11
132.739553369667
 21
419.778207688653
 31
0.0
  0
LINE
  5
3F9
330
A
100
AcDbEntity
  8
1
  6
Continuous
 62
     7
100
AcDbLine
 10
132.489553369667
 20
419.3451949867607
 30
0.0
 11
131.339553369667
 21
418.6812421771925
 31
0.0
  0
LINE
  5
3FA
330
A
100
AcDbEntity
  8
1
  6
Continuous
 62
     7
100
AcDbLine
 10
131.339553369667
 20
418.6812421771925
 30
0.0
 11
118.1395533696669
 21
418.6812421771925
 31
0.0
  0
LINE
  5
3FB
330
A
100
AcDbEntity
  8
1
  6
Continuous
 62
     7
100
AcDbLine
 10
118.1395533696669
 20
418.6812421771925
 30
0.0
 11
116.989553369667
 21
419.3451949867607
 31
0.0
  0
LINE
  5
3FC
330
A
100
AcDbEntity
  8
1
  6
Continuous
 62
     7
100
AcDbLine
 10
116.739553369667
 20
419.778207688653
 30
0.0
 11
116.739553369667
 21
425.6812421771924
 31
0.0
  0
LINE
  5
3FD
330
A
100
AcDbEntity
  8
1
  6
Continuous
 62
     7
100
AcDbLine
 10
6.867988046422279
 20
426.1812421771925
 30
0.0
 11
0.5679880464223301
 21
426.1812421771925
 31
0.0
  0
LINE
  5
3FE
330
A
100
AcDbEntity
  8
1
  6
Continuous
 62
     7
100
AcDbLine
 10
0.5679880464223301
 20
426.1812421771925
 30
0.0
 11
0.5679880464223301
 21
425.6812421771924
 31
0.0
  0
LINE
  5
3FF
330
A
100
AcDbEntity
  8
1
  6
Continuous
 62
     7
100
AcDbLine
 10
0.5679880464223301
 20
425.6812421771924
 30
0.0
 11
6.867988046422279
 21
425.6812421771924
 31
0.0
  0
LINE
  5
400
330
A
100
AcDbEntity
  8
1
  6
Continuous
 62
     7
100
AcDbLine
 10
6.867988046422279
 20
425.6812421771924
 30
0.0
 11
6.867988046422279
 21
426.1812421771925
 31
0.0
  0
LINE
  5
401
330
A
100
AcDbEntity
  8
1
  6
Continuous
 62
     7
100
AcDbLine
 10
127.889553369667
 20
426.1812421771925
 30
0.0
 11
121.589553369667
 21
426.1812421771925
 31
0.0
  0
LINE
  5
402
330
A
100
AcDbEntity
  8
1
  6
Continuous
 62
     7
100
AcDbLine
 10
121.589553369667
 20
426.1812421771925
 30
0.0
 11
121.589553369667
 21
425.6812421771924
 31
0.0
  0
LINE
  5
403
330
A
100
AcDbEntity
  8
1
  6
Continuous
 62
     7
100
AcDbLine
 10
121.589553369667
 20
425.6812421771924
 30
0.0
 11
127.889553369667
 21
425.6812421771924
 31
0.0
  0
LINE
  5
404
330
A
100
AcDbEntity
  8
1
  6
Continuous
 62
     7
100
AcDbLine
 10
127.889553369667
 20
425.6812421771924
 30
0.0
 11
127.889553369667
 21
426.1812421771925
 31
0.0
  0
LINE
  5
405
330
A
100
AcDbEntity
  8
1
  6
Continuous
 62
     7
100
AcDbLine
 10
6.217988046422339
 20
435.1329127192636
 30
0.0
 11
6.217988046422309
 21
426.1812421771925
 31
0.0
  0
LINE
  5
406
330
A
100
AcDbEntity
  8
1
  6
Continuous
 62
     7
100
AcDbLine
 10
1.21798804642231
 20
426.1812421771925
 30
0.0
 11
1.21798804642233
 21
435.1329127192636
 31
0.0
  0
LINE
  5
407
330
A
100
AcDbEntity
  8
1
  6
Continuous
 62
     7
100
AcDbLine
 10
6.217988046422309
 20
426.1812421771925
 30
0.0
 11
1.21798804642231
 21
426.1812421771925
 31
0.0
  0
LINE
  5
408
330
A
100
AcDbEntity
  8
1
  6
Continuous
 62
     7
100
AcDbLine
 10
127.239553369667
 20
435.1329127192636
 30
0.0
 11
127.239553369667
 21
426.1812421771925
 31
0.0
  0
LINE
  5
409
330
A
100
AcDbEntity
  8
1
  6
Continuous
 62
     7
100
AcDbLine
 10
122.239553369667
 20
426.1812421771925
 30
0.0
 11
122.239553369667
 21
435.1329127192636
 31
0.0
  0
LINE
  5
40A
330
A
100
AcDbEntity
  8
1
  6
Continuous
 62
     7
100
AcDbLine
 10
127.239553369667
 20
426.1812421771925
 30
0.0
 11
122.239553369667
 21
426.1812421771925
 31
0.0
  0
ARC
  5
40B
330
A
100
AcDbEntity
  8
1
  6
Continuous
 62
     7
100
AcDbCircle
 10
4.617988046422299
 20
472.1329127192636
 30
0.0
 40
0.5
100
AcDbArc
 50
180.0
 51
270.0
  0
ARC
  5
40C
330
A
100
AcDbEntity
  8
1
  6
Continuous
 62
     7
100
AcDbCircle
 10
2.817988046422309
 20
472.1329127192636
 30
0.0
 40
0.5
100
AcDbArc
 50
270.0
 51
0.0
  0
ARC
  5
40D
330
A
100
AcDbEntity
  8
1
  6
Continuous
 62
     7
100
AcDbCircle
 10
2.817988046422309
 20
470.3329127192636
 30
0.0
 40
0.5
100
AcDbArc
 50
0.0
 51
90.0
  0
ARC
  5
40E
330
A
100
AcDbEntity
  8
1
  6
Continuous
 62
     7
100
AcDbCircle
 10
4.617988046422299
 20
470.3329127192636
 30
0.0
 40
0.5
100
AcDbArc
 50
90.0
 51
180.0
  0
ARC
  5
40F
330
A
100
AcDbEntity
  8
1
  6
Continuous
 62
     7
100
AcDbCircle
 10
3.71798804642231
 20
471.7329127192637
 30
0.0
 40
7.89999999999997
100
AcDbArc
 50
0.0
 51
180.0
  0
LWPOLYLINE
  5
410
330
A
100
AcDbEntity
  8
1
  6
Continuous
 62
     7
100
AcDbPolyline
 90
        2
 70
     1
 43
0.0
 10
3.71798804642231
 20
444.6329127192636
 42
1.0
 10
3.71798804642231
 20
449.6329127192636
 42
1.0
  0
LWPOLYLINE
  5
411
330
A
100
AcDbEntity
  8
1
  6
Continuous
 62
     7
100
AcDbPolyline
 90
        2
 70
     1
 43
0.0
 10
3.71798804642231
 20
445.4829127192637
 42
1.0
 10
3.71798804642231
 20
448.7829127192633
 42
1.0
  0
LWPOLYLINE
  5
412
330
A
100
AcDbEntity
  8
1
  6
Continuous
 62
     7
100
AcDbPolyline
 90
        2
 70
     1
 43
0.0
 10
3.71798804642231
 20
466.9829127192636
 42
1.0
 10
3.71798804642231
 20
475.4829127192636
 42
1.0
  0
LWPOLYLINE
  5
413
330
A
100
AcDbEntity
  8
1
  6
Continuous
 62
     7
100
AcDbPolyline
 90
        2
 70
     1
 43
0.0
 10
4.102988046422299
 20
467.4022110864032
 42
1.0
 10
3.332988046422309
 20
475.0636143521241
 42
1.0
  0
LINE
  5
414
330
A
100
AcDbEntity
  8
1
  6
Continuous
 62
     7
100
AcDbLine
 10
97.23955336966703
 20
435.1329127192636
 30
0.0
 11
100.739553369667
 21
435.1329127192636
 31
0.0
  0
LINE
  5
415
330
A
100
AcDbEntity
  8
1
  6
Continuous
 62
     7
100
AcDbLine
 10
100.739553369667
 20
435.1329127192636
 30
0.0
 11
100.739553369667
 21
479.6329127192636
 31
0.0
  0
LINE
  5
416
330
A
100
AcDbEntity
  8
1
  6
Continuous
 62
     7
100
AcDbLine
 10
100.739553369667
 20
479.6329127192636
 30
0.0
 11
101.239553369667
 21
479.1329127192636
 31
0.0
  0
LINE
  5
417
330
A
100
AcDbEntity
  8
1
  6
Continuous
 62
     7
100
AcDbLine
 10
101.239553369667
 20
435.1329127192636
 30
0.0
 11
101.239553369667
 21
479.1329127192636
 31
0.0
  0
LINE
  5
418
330
A
100
AcDbEntity
  8
1
  6
Continuous
 62
     7
100
AcDbLine
 10
100.739553369667
 20
479.6329127192636
 30
0.0
 11
97.23955336966703
 21
479.6329127192636
 31
0.0
  0
LINE
  5
419
330
A
100
AcDbEntity
  8
1
  6
Continuous
 62
     7
100
AcDbLine
 10
97.23955336966703
 20
479.6329127192636
 30
0.0
 11
97.23955336966703
 21
435.1329127192636
 31
0.0
  0
LINE
  5
41A
330
A
100
AcDbEntity
  8
1
  6
Continuous
 62
     7
100
AcDbLine
 10
100.739553369667
 20
435.1329127192636
 30
0.0
 11
101.239553369667
 21
435.1329127192636
 31
0.0
  0
LINE
  5
41B
330
A
100
AcDbEntity
  8
1
  6
Continuous
 62
     7
100
AcDbLine
 10
-4.182011953577729
 20
471.7329127192637
 30
0.0
 11
-4.182011953577729
 21
435.1329127192636
 31
0.0
  0
LINE
  5
41C
330
A
100
AcDbEntity
  8
1
  6
Continuous
 62
     7
100
AcDbLine
 10
11.61798804642228
 20
435.1329127192636
 30
0.0
 11
11.61798804642228
 21
471.7329127192637
 31
0.0
  0
LINE
  5
41D
330
A
100
AcDbEntity
  8
1
  6
Continuous
 62
     7
100
AcDbLine
 10
3.317988046422309
 20
469.0829127192635
 30
0.0
 11
4.117988046422299
 21
469.0829127192635
 31
0.0
  0
LINE
  5
41E
330
A
100
AcDbEntity
  8
1
  6
Continuous
 62
     7
100
AcDbLine
 10
3.317988046422309
 20
470.3329127192636
 30
0.0
 11
3.317988046422309
 21
469.0829127192635
 31
0.0
  0
LINE
  5
41F
330
A
100
AcDbEntity
  8
1
  6
Continuous
 62
     7
100
AcDbLine
 10
1.56798804642231
 20
470.8329127192635
 30
0.0
 11
2.817988046422309
 21
470.8329127192635
 31
0.0
  0
LINE
  5
420
330
A
100
AcDbEntity
  8
1
  6
Continuous
 62
     7
100
AcDbLine
 10
1.56798804642231
 20
471.6329127192635
 30
0.0
 11
1.56798804642231
 21
470.8329127192635
 31
0.0
  0
LINE
  5
421
330
A
100
AcDbEntity
  8
1
  6
Continuous
 62
     7
100
AcDbLine
 10
2.817988046422309
 20
471.6329127192635
 30
0.0
 11
1.56798804642231
 21
471.6329127192635
 31
0.0
  0
LINE
  5
422
330
A
100
AcDbEntity
  8
1
  6
Continuous
 62
     7
100
AcDbLine
 10
3.317988046422309
 20
473.3829127192636
 30
0.0
 11
3.317988046422309
 21
472.1329127192636
 31
0.0
  0
LINE
  5
423
330
A
100
AcDbEntity
  8
1
  6
Continuous
 62
     7
100
AcDbLine
 10
4.117988046422299
 20
473.3829127192636
 30
0.0
 11
3.317988046422309
 21
473.3829127192636
 31
0.0
  0
LINE
  5
424
330
A
100
AcDbEntity
  8
1
  6
Continuous
 62
     7
100
AcDbLine
 10
4.117988046422299
 20
472.1329127192636
 30
0.0
 11
4.117988046422299
 21
473.3829127192636
 31
0.0
  0
LINE
  5
425
330
A
100
AcDbEntity
  8
1
  6
Continuous
 62
     7
100
AcDbLine
 10
5.867988046422309
 20
471.6329127192635
 30
0.0
 11
4.617988046422299
 21
471.6329127192635
 31
0.0
  0
LINE
  5
426
330
A
100
AcDbEntity
  8
1
  6
Continuous
 62
     7
100
AcDbLine
 10
5.867988046422309
 20
470.8329127192635
 30
0.0
 11
5.867988046422309
 21
471.6329127192635
 31
0.0
  0
LINE
  5
427
330
A
100
AcDbEntity
  8
1
  6
Continuous
 62
     7
100
AcDbLine
 10
4.617988046422299
 20
470.8329127192635
 30
0.0
 11
5.867988046422309
 21
470.8329127192635
 31
0.0
  0
LINE
  5
428
330
A
100
AcDbEntity
  8
1
  6
Continuous
 62
     7
100
AcDbLine
 10
4.117988046422299
 20
469.0829127192635
 30
0.0
 11
4.117988046422299
 21
470.3329127192636
 31
0.0
  0
LINE
  5
429
330
A
100
AcDbEntity
  8
1
  6
DOT_CENTER
 62
     2
100
AcDbLine
 10
-1.782011953577689
 20
447.1329127192636
 30
0.0
 11
9.217988046422311
 21
447.1329127192636
 31
0.0
  0
LINE
  5
42A
330
A
100
AcDbEntity
  8
1
  6
DOT_CENTER
 62
     2
100
AcDbLine
 10
3.71798804642231
 20
485.1329127192636
 30
0.0
 11
3.71798804642231
 21
413.6812421771925
 31
0.0
  0
LINE
  5
42B
330
A
100
AcDbEntity
  8
1
  6
DOT_CENTER
 62
     2
100
AcDbLine
 10
-2.532011953577689
 20
471.2329127192637
 30
0.0
 11
9.967988046422311
 21
471.2329127192637
 31
0.0
  0
LINE
  5
42C
330
A
100
AcDbEntity
  8
1
  6
Continuous
 62
     7
100
AcDbLine
 10
-4.182011953577729
 20
435.1329127192636
 30
0.0
 11
11.61798804642228
 21
435.1329127192636
 31
0.0
  0
LINE
  5
42D
330
A
100
AcDbEntity
  8
1
  6
Continuous
 62
     7
100
AcDbLine
 10
-4.182011953577729
 20
435.1329127192636
 30
0.0
 11
11.61798804642228
 21
435.1329127192636
 31
0.0
  0
ARC
  5
42E
330
A
100
AcDbEntity
  8
1
  6
Continuous
 62
     7
100
AcDbCircle
 10
3.71798804642231
 20
472.2329127192637
 30
0.0
 40
7.89999999999992
100
AcDbArc
 50
0.0
 51
90.0
  0
ARC
  5
42F
330
A
100
AcDbEntity
  8
1
  6
Continuous
 62
     7
100
AcDbCircle
 10
3.71798804642231
 20
472.2329127192637
 30
0.0
 40
7.89999999999986
100
AcDbArc
 50
90.0
 51
180.0
  0
LINE
  5
433
330
A
100
AcDbEntity
  8
1
  6
Continuous
 62
     7
100
AcDbLine
 10
128.1645533696669
 20
435.1329127192636
 30
0.0
 11
132.739553369667
 21
435.1329127192636
 31
0.0
  0
LINE
  5
434
330
A
100
AcDbEntity
  8
1
  6
Continuous
 62
     7
100
AcDbLine
 10
132.739553369667
 20
435.1329127192636
 30
0.0
 11
132.739553369667
 21
480.1329127192636
 31
0.0
  0
LINE
  5
435
330
A
100
AcDbEntity
  8
1
  6
Continuous
 62
     7
100
AcDbLine
 10
132.739553369667
 20
480.1329127192636
 30
0.0
 11
133.739553369667
 21
479.1329127192636
 31
0.0
  0
LINE
  5
436
330
A
100
AcDbEntity
  8
1
  6
Continuous
 62
     7
100
AcDbLine
 10
133.739553369667
 20
435.1329127192636
 30
0.0
 11
133.739553369667
 21
479.1329127192636
 31
0.0
  0
LINE
  5
437
330
A
100
AcDbEntity
  8
1
  6
Continuous
 62
     7
100
AcDbLine
 10
132.739553369667
 20
480.1329127192636
 30
0.0
 11
101.239553369667
 21
480.1329127192636
 31
0.0
  0
LINE
  5
438
330
A
100
AcDbEntity
  8
1
  6
Continuous
 62
     7
100
AcDbLine
 10
101.239553369667
 20
480.1329127192636
 30
0.0
 11
101.239553369667
 21
435.1329127192636
 31
0.0
  0
LINE
  5
439
330
A
100
AcDbEntity
  8
1
  6
Continuous
 62
     7
100
AcDbLine
 10
132.739553369667
 20
435.1329127192636
 30
0.0
 11
133.739553369667
 21
435.1329127192636
 31
0.0
  0
LINE
  5
43A
330
A
100
AcDbEntity
  8
1
  6
DOT_CENTER
 62
     2
100
AcDbLine
 10
124.739553369667
 20
485.1329127192636
 30
0.0
 11
124.739553369667
 21
413.6812421771925
 31
0.0
  0
LINE
  5
43B
330
A
100
AcDbEntity
  8
1
  6
Continuous
 62
     7
100
AcDbLine
 10
-4.182011953577729
 20
472.2329127192637
 30
0.0
 11
-4.182011953577729
 21
435.1329127192636
 31
0.0
  0
LINE
  5
43C
330
A
100
AcDbEntity
  8
1
  6
Continuous
 62
     7
100
AcDbLine
 10
121.314553369667
 20
435.1329127192636
 30
0.0
 11
128.1645533696669
 21
435.1329127192636
 31
0.0
  0
LINE
  5
43D
330
A
100
AcDbEntity
  8
1
  6
Continuous
 62
     7
100
AcDbLine
 10
101.239553369667
 20
435.1329127192636
 30
0.0
 11
121.314553369667
 21
435.1329127192636
 31
0.0
  0
LINE
  5
43E
330
A
100
AcDbEntity
  8
1
  6
Continuous
 62
     7
100
AcDbLine
 10
11.61798804642228
 20
435.1329127192636
 30
0.0
 11
11.61798804642223
 21
472.2329127192637
 31
0.0
  0
ENDSEC
  0
SECTION
  2
OBJECTS
  0
DICTIONARY
  5
19
330
0
100
AcDbDictionary
281
     1
  3
ACAD_CIP_PREVIOUS_PRODUCT_INFO
350
34C
  3
ACAD_COLOR
350
32E
  3
ACAD_GROUP
350
1A
  3
ACAD_LAYOUT
350
345
  3
ACAD_MATERIAL
350
2FC
  3
ACAD_MLEADERSTYLE
350
343
  3
ACAD_MLINESTYLE
350
1B
  3
ACAD_PLOTSETTINGS
350
346
  3
ACAD_PLOTSTYLENAME
350
2FA
  3
ACAD_SCALELIST
350
331
  3
ACAD_TABLESTYLE
350
32F
  3
ACAD_VISUALSTYLE
350
315
  3
ACDB_RECOMPOSE_DATA
350
458
  3
AcDbVariableDictionary
350
44D
  3
ASE_INDEX_DICTIONARY
350
44A
  3
DWGPROPS
350
459
  0
DICTIONARY
  5
445
330
14
100
AcDbDictionary
280
     1
281
     1
  3
ADSK_XREC_LAYER_RECONCILED
360
446
  0
DICTIONARY
  5
447
330
24
100
AcDbDictionary
280
     1
281
     1
  3
ADSK_XREC_LAYER_RECONCILED
360
448
  0
DICTIONARY
  5
359
330
A
100
AcDbDictionary
280
     1
281
     1
  3
ACAD_SORTENTS
360
35A
  0
DICTIONARY
  5
4AE
330
186
100
AcDbDictionary
280
     1
281
     1
  3
ACAD_MTEXT_RT
360
4AF
  0
DICTIONARY
  5
4AC
330
185
100
AcDbDictionary
280
     1
281
     1
  3
ACAD_MTEXT_RT
360
4AD
  0
DICTIONARY
  5
4AA
330
184
100
AcDbDictionary
280
     1
281
     1
  3
ACAD_MTEXT_RT
360
4AB
  0
DICTIONARY
  5
4A8
330
183
100
AcDbDictionary
280
     1
281
     1
  3
ACAD_MTEXT_RT
360
4A9
  0
DICTIONARY
  5
4A6
330
181
100
AcDbDictionary
280
     1
281
     1
  3
ACAD_MTEXT_RT
360
4A7
  0
DICTIONARY
  5
4A4
330
17F
100
AcDbDictionary
280
     1
281
     1
  3
ACAD_MTEXT_RT
360
4A5
  0
DICTIONARY
  5
4A2
330
17E
100
AcDbDictionary
280
     1
281
     1
  3
ACAD_MTEXT_RT
360
4A3
  0
DICTIONARY
  5
4A0
330
17C
100
AcDbDictionary
280
     1
281
     1
  3
ACAD_MTEXT_RT
360
4A1
  0
DICTIONARY
  5
49E
330
17B
100
AcDbDictionary
280
     1
281
     1
  3
ACAD_MTEXT_RT
360
49F
  0
DICTIONARY
  5
49C
330
17A
100
AcDbDictionary
280
     1
281
     1
  3
ACAD_MTEXT_RT
360
49D
  0
DICTIONARY
  5
49A
330
179
100
AcDbDictionary
280
     1
281
     1
  3
ACAD_MTEXT_RT
360
49B
  0
DICTIONARY
  5
498
330
178
100
AcDbDictionary
280
     1
281
     1
  3
ACAD_MTEXT_RT
360
499
  0
DICTIONARY
  5
496
330
175
100
AcDbDictionary
280
     1
281
     1
  3
ACAD_MTEXT_RT
360
497
  0
DICTIONARY
  5
494
330
174
100
AcDbDictionary
280
     1
281
     1
  3
ACAD_MTEXT_RT
360
495
  0
DICTIONARY
  5
492
330
173
100
AcDbDictionary
280
     1
281
     1
  3
ACAD_MTEXT_RT
360
493
  0
DICTIONARY
  5
490
330
172
100
AcDbDictionary
280
     1
281
     1
  3
ACAD_MTEXT_RT
360
491
  0
DICTIONARY
  5
48E
330
16E
100
AcDbDictionary
280
     1
281
     1
  3
ACAD_MTEXT_RT
360
48F
  0
DICTIONARY
  5
48C
330
16B
100
AcDbDictionary
280
     1
281
     1
  3
ACAD_MTEXT_RT
360
48D
  0
DICTIONARY
  5
48A
330
16A
100
AcDbDictionary
280
     1
281
     1
  3
ACAD_MTEXT_RT
360
48B
  0
DICTIONARY
  5
488
330
169
100
AcDbDictionary
280
     1
281
     1
  3
ACAD_MTEXT_RT
360
489
  0
DICTIONARY
  5
486
330
168
100
AcDbDictionary
280
     1
281
     1
  3
ACAD_MTEXT_RT
360
487
  0
DICTIONARY
  5
484
330
167
100
AcDbDictionary
280
     1
281
     1
  3
ACAD_MTEXT_RT
360
485
  0
DICTIONARY
  5
482
330
166
100
AcDbDictionary
280
     1
281
     1
  3
ACAD_MTEXT_RT
360
483
  0
DICTIONARY
  5
480
330
165
100
AcDbDictionary
280
     1
281
     1
  3
ACAD_MTEXT_RT
360
481
  0
DICTIONARY
  5
47E
330
164
100
AcDbDictionary
280
     1
281
     1
  3
ACAD_MTEXT_RT
360
47F
  0
DICTIONARY
  5
47C
330
163
100
AcDbDictionary
280
     1
281
     1
  3
ACAD_MTEXT_RT
360
47D
  0
DICTIONARY
  5
47A
330
162
100
AcDbDictionary
280
     1
281
     1
  3
ACAD_MTEXT_RT
360
47B
  0
DICTIONARY
  5
478
330
161
100
AcDbDictionary
280
     1
281
     1
  3
ACAD_MTEXT_RT
360
479
  0
DICTIONARY
  5
476
330
160
100
AcDbDictionary
280
     1
281
     1
  3
ACAD_MTEXT_RT
360
477
  0
DICTIONARY
  5
474
330
15F
100
AcDbDictionary
280
     1
281
     1
  3
ACAD_MTEXT_RT
360
475
  0
DICTIONARY
  5
472
330
15E
100
AcDbDictionary
280
     1
281
     1
  3
ACAD_MTEXT_RT
360
473
  0
DICTIONARY
  5
470
330
15D
100
AcDbDictionary
280
     1
281
     1
  3
ACAD_MTEXT_RT
360
471
  0
DICTIONARY
  5
46E
330
15C
100
AcDbDictionary
280
     1
281
     1
  3
ACAD_MTEXT_RT
360
46F
  0
DICTIONARY
  5
46C
330
157
100
AcDbDictionary
280
     1
281
     1
  3
ACAD_MTEXT_RT
360
46D
  0
DICTIONARY
  5
46A
330
154
100
AcDbDictionary
280
     1
281
     1
  3
ACAD_MTEXT_RT
360
46B
  0
DICTIONARY
  5
468
330
153
100
AcDbDictionary
280
     1
281
     1
  3
ACAD_MTEXT_RT
360
469
  0
DICTIONARY
  5
466
330
150
100
AcDbDictionary
280
     1
281
     1
  3
ACAD_MTEXT_RT
360
467
  0
DICTIONARY
  5
464
330
14E
100
AcDbDictionary
280
     1
281
     1
  3
ACAD_MTEXT_RT
360
465
  0
DICTIONARY
  5
462
330
14C
100
AcDbDictionary
280
     1
281
     1
  3
ACAD_MTEXT_RT
360
463
  0
DICTIONARY
  5
460
330
147
100
AcDbDictionary
280
     1
281
     1
  3
ACAD_MTEXT_RT
360
461
  0
DICTIONARY
  5
45E
330
146
100
AcDbDictionary
280
     1
281
     1
  3
ACAD_MTEXT_RT
360
45F
  0
DICTIONARY
  5
45C
330
141
100
AcDbDictionary
280
     1
281
     1
  3
ACAD_MTEXT_RT
360
45D
  0
DICTIONARY
  5
45A
330
140
100
AcDbDictionary
280
     1
281
     1
  3
ACAD_MTEXT_RT
360
45B
  0
DICTIONARY
  5
4B0
330
2F3
100
AcDbDictionary
280
     1
281
     1
  3
ACAD_MTEXT_RT
360
4B1
  0
XRECORD
  5
34C
102
{ACAD_REACTORS
330
19
102
}
330
19
100
AcDbXrecord
280
     1
300
ACD
300
2012
300
ACD_F_S
  0
DICTIONARY
  5
32E
102
{ACAD_REACTORS
330
19
102
}
330
19
100
AcDbDictionary
281
     1
  0
DICTIONARY
  5
1A
102
{ACAD_REACTORS
330
19
102
}
330
19
100
AcDbDictionary
281
     1
  0
DICTIONARY
  5
345
102
{ACAD_REACTORS
330
19
102
}
330
19
100
AcDbDictionary
281
     1
  3
Model
350
347
  3
レイアウト1
350
348
  0
DICTIONARY
  5
2FC
102
{ACAD_REACTORS
330
19
102
}
330
19
100
AcDbDictionary
281
     1
  3
ByBlock
350
305
  3
ByLayer
350
2FD
  3
Global
350
30D
  0
DICTIONARY
  5
343
102
{ACAD_REACTORS
330
19
102
}
330
19
100
AcDbDictionary
281
     1
  3
Standard
350
344
  0
DICTIONARY
  5
1B
102
{ACAD_REACTORS
330
19
102
}
330
19
100
AcDbDictionary
281
     1
  3
STANDARD
350
1C
  0
DICTIONARY
  5
346
102
{ACAD_REACTORS
330
19
102
}
330
19
100
AcDbDictionary
281
     1
  0
ACDBDICTIONARYWDFLT
  5
2FA
102
{ACAD_REACTORS
330
19
102
}
330
19
100
AcDbDictionary
281
     1
  3
Normal
350
2FB
100
AcDbDictionaryWithDefault
340
2FB
  0
DICTIONARY
  5
331
102
{ACAD_REACTORS
330
19
102
}
330
19
100
AcDbDictionary
281
     1
  3
A0
350
332
  3
A1
350
333
  3
A2
350
334
  3
A3
350
335
  3
A4
350
336
  3
A5
350
337
  3
A6
350
338
  3
A7
350
339
  3
A8
350
33A
  3
A9
350
33B
  3
B0
350
33C
  3
B1
350
33D
  3
B2
350
33E
  3
B3
350
33F
  3
B4
350
340
  3
B5
350
341
  3
B6
350
342
  0
DICTIONARY
  5
32F
102
{ACAD_REACTORS
330
19
102
}
330
19
100
AcDbDictionary
281
     1
  3
Standard
350
330
  0
DICTIONARY
  5
315
102
{ACAD_REACTORS
330
19
102
}
330
19
100
AcDbDictionary
281
     1
  3
2dWireframe
350
31B
  3
Basic
350
31A
  3
Brighten
350
321
  3
ColorChange
350
325
  3
Conceptual
350
31E
  3
Dim
350
320
  3
EdgeColorOff
350
32D
  3
Facepattern
350
324
  3
Flat
350
316
  3
FlatWithEdges
350
317
  3
Gouraud
350
318
  3
GouraudWithEdges
350
319
  3
Hidden
350
31D
  3
JitterOff
350
32B
  3
Linepattern
350
323
  3
OverhangOff
350
32C
  3
Realistic
350
31F
  3
Shaded
350
32A
  3
Shaded with edges
350
329
  3
Shades of Gray
350
326
  3
Sketchy
350
327
  3
Thicken
350
322
  3
Wireframe
350
31C
  3
X-Ray
350
328
  0
XRECORD
  5
458
102
{ACAD_REACTORS
330
19
102
}
330
19
100
AcDbXrecord
280
     1
 90
        1
330
330
  0
DICTIONARY
  5
44D
102
{ACAD_REACTORS
330
19
102
}
330
19
100
AcDbDictionary
281
     1
  3
CANNOSCALE
350
450
  3
CMLEADERSTYLE
350
44F
  3
CTABLESTYLE
350
44E
  3
DIMASSOC
350
453
  3
INDEXCTL
350
452
  3
SORTENTS
350
451
  3
XCLIPFRAME
350
454
  0
DICTIONARY
  5
44A
102
{ACAD_REACTORS
330
19
102
}
330
19
100
AcDbDictionary
281
     1
  3
ASEBlockHierarchyIndexRecord
350
44C
1001
DCO15
1040
1882589403.146
  0
XRECORD
  5
459
102
{ACAD_REACTORS
330
19
102
}
330
19
100
AcDbXrecord
280
     1
  1
DWGPROPS COOKIE
  2

  3

  4

  6

  7

  8
0035sekine
  9

300
=
301
=
302
=
303
=
304
=
305
=
306
=
307
=
308
=
309
=
 40
0.0012837268518519
 41
2305814.417110764
 42
2457592.441054931
  1

 90
        0
  0
XRECORD
  5
446
102
{ACAD_REACTORS
330
445
102
}
330
445
100
AcDbXrecord
280
     1
290
     1
  0
XRECORD
  5
448
102
{ACAD_REACTORS
330
447
102
}
330
447
100
AcDbXrecord
280
     1
290
     1
  0
SORTENTSTABLE
  5
35A
102
{ACAD_REACTORS
330
359
102
}
330
359
100
AcDbSortentsTable
330
A
331
42A
  5
370
331
406
  5
375
331
419
  5
35F
331
43B
  5
1FB
331
3F5
  5
38A
331
428
  5
36E
331
404
  5
381
331
417
  5
35D
331
439
  5
1F8
331
3F3
  5
388
331
402
  5
37F
331
415
  5
35B
331
437
  5
1F5
331
3F1
  5
386
331
426
  5
36C
331
400
  5
37D
331
413
  5
357
331
435
  5
1F2
331
3EF
  5
384
331
424
  5
36A
331
3FE
  5
37B
331
411
  5
355
331
3ED
  5
382
331
422
  5
368
331
40F
  5
353
331
433
  5
1EF
331
3FC
  5
391
331
420
  5
366
331
40D
  5
351
331
3D8
  5
3B7
331
3FA
  5
38F
331
42F
  5
1EA
331
41E
  5
364
331
40B
  5
203
331
3F8
  5
38D
331
42D
  5
373
331
409
  5
378
331
41C
  5
362
331
43E
  5
202
331
42B
  5
371
331
407
  5
376
331
41A
  5
360
331
43C
  5
1FC
331
3F6
  5
38B
331
429
  5
36F
331
405
  5
374
331
418
  5
35E
331
43A
  5
1F9
331
3F4
  5
389
331
403
  5
380
331
416
  5
35C
331
438
  5
1F6
331
3F2
  5
387
331
427
  5
36D
331
401
  5
37E
331
414
  5
358
331
436
  5
1F3
331
3F0
  5
385
331
425
  5
36B
331
3FF
  5
37C
331
412
  5
356
331
434
  5
1F0
331
3EE
  5
383
331
423
  5
369
331
3FD
  5
37A
331
421
  5
367
331
40E
  5
352
331
410
  5
354
331
3FB
  5
390
331
41F
  5
365
331
40C
  5
350
331
3F9
  5
38E
331
42E
  5
1E8
331
40A
  5
379
331
41D
  5
363
331
3D7
  5
3B6
331
42C
  5
372
331
408
  5
377
331
41B
  5
361
331
3D5
  5
3B4
331
43D
  5
200
331
3F7
  5
38C
  0
XRECORD
  5
4AF
102
{ACAD_REACTORS
330
4AE
102
}
330
4AE
100
AcDbXrecord
280
     1
 40
47482.0
  1
\U+0192V\U+0192\U+0192\U+0192t\U+0192g
  0
XRECORD
  5
4AD
102
{ACAD_REACTORS
330
4AC
102
}
330
4AC
100
AcDbXrecord
280
     1
 40
14977.0
  1
\U+008D\U+2022\U+0090F
  0
XRECORD
  5
4AB
102
{ACAD_REACTORS
330
4AA
102
}
330
4AA
100
AcDbXrecord
280
     1
 40
146405.0
  1
\U+0192\U+008D\U+0081[\U+0192\U+2030\U+0081[\U+0192K\U+0192C\U+0192h
  0
XRECORD
  5
4A9
102
{ACAD_REACTORS
330
4A8
102
}
330
4A8
100
AcDbXrecord
280
     1
 40
63091.0
  1
6\U+0192i\U+0192C\U+0192\U+008D\U+0192\U+201C
  0
XRECORD
  5
4A7
102
{ACAD_REACTORS
330
4A6
102
}
330
4A6
100
AcDbXrecord
280
     1
 40
95307.0
  1
\U+0192\U+00C66.3\U+0081~\U+0152\U+0160\U+0192\U+00C64.4
  0
XRECORD
  5
4A5
102
{ACAD_REACTORS
330
4A4
102
}
330
4A4
100
AcDbXrecord
280
     1
 40
38532.0
  1
SPCC \U+201A\U+201D\U+0081\U+00810.5
  0
XRECORD
  5
4A3
102
{ACAD_REACTORS
330
4A2
102
}
330
4A2
100
AcDbXrecord
280
     1
 40
85509.0
  1
\U+0192\U+008F\U+0192b\U+0192V\U+0192\U+0192\U+0081[
  0
XRECORD
  5
4A1
102
{ACAD_REACTORS
330
4A0
102
}
330
4A0
100
AcDbXrecord
280
     1
 40
86044.0
  1
\U+0192N\U+0192\U+008D\U+0192\U+0081\U+0081[\U+0192g
  0
XRECORD
  5
49F
102
{ACAD_REACTORS
330
49E
102
}
330
49E
100
AcDbXrecord
280
     1
 40
191404.0
  1
\U+201A\U+00E0\U+201A\U+00E6\U+0192\U+0152b\U+0192s\U+0192\U+201C3.5\U+0081~30
  0
XRECORD
  5
49D
102
{ACAD_REACTORS
330
49C
102
}
330
49C
100
AcDbXrecord
280
     1
 40
41764.0
  1
\U+017DM\U+0192r\U+0192X 4\U+0081~20
  0
XRECORD
  5
49B
102
{ACAD_REACTORS
330
49A
102
}
330
49A
100
AcDbXrecord
280
     1
 40
86044.0
  1
\U+0192N\U+0192\U+008D\U+0192\U+0081\U+0081[\U+0192g
  0
XRECORD
  5
499
102
{ACAD_REACTORS
330
498
102
}
330
498
100
AcDbXrecord
280
     1
 40
32646.0
  1
GB\U+0192\U+0081\U+0192b\U+0192L
  0
XRECORD
  5
497
102
{ACAD_REACTORS
330
496
102
}
330
496
100
AcDbXrecord
280
     1
 40
110596.0
  1
\U+017Ds\U+201D\U+00E4\U+2022i \U+02C6\U+00F5\U+017D\U+00DA
  0
XRECORD
  5
495
102
{ACAD_REACTORS
330
494
102
}
330
494
100
AcDbXrecord
280
     1
 40
29618.0
  1
\U+017Ds\U+201D\U+00E4\U+2022i
  0
XRECORD
  5
493
102
{ACAD_REACTORS
330
492
102
}
330
492
100
AcDbXrecord
280
     1
 40
226025.0
  1
\U+017D\U+00CC\U+2022t\U+201A\U+00A3%%dp\U+201CY\U+2022t\U+201A\U+00F9\U+201A\U+00D1
  0
XRECORD
  5
491
102
{ACAD_REACTORS
330
490
102
}
330
490
100
AcDbXrecord
280
     1
 40
485464.0
  1
\U+2019\U+2026\U+2019E\U+0192z\U+0192\U+2039\U+0192_\U+0081[\U+017D\U+00CC\U+2022t\U+201A\U+00A3\U+201A\U+00F9\U+201A\U+00D1
  0
XRECORD
  5
48F
102
{ACAD_REACTORS
330
48E
102
}
330
48E
100
AcDbXrecord
280
     1
 40
6388.0
  1
\U+0081\U+00CF
  0
XRECORD
  5
48D
102
{ACAD_REACTORS
330
48C
102
}
330
48C
100
AcDbXrecord
280
     1
 40
274718.0
  1
\U+201C\U+0152\U+2039\U+20AC\U+201Cs\U+2018\U+00F0\U+201C\U+0152\U+2039\U+00CC\U+201C*\U+2019J
  0
XRECORD
  5
48B
102
{ACAD_REACTORS
330
48A
102
}
330
48A
100
AcDbXrecord
280
     1
 40
15843.0
  1
\U+00B2{\U+017D\U+00C5
  0
XRECORD
  5
489
102
{ACAD_REACTORS
330
488
102
}
330
488
100
AcDbXrecord
280
     1
 40
391180.0
  1
\U+008D\U+201A\U+2039\U+00C7\U+2039\U+00C1\U+2022\U+00B4\U+0160\U+201D\U+017D\U+00DB\U+2030\U+00FF\U+017D\U+00C5
  0
XRECORD
  5
487
102
{ACAD_REACTORS
330
486
102
}
330
486
100
AcDbXrecord
280
     1
 40
16619.0
  1
\U+017D\U+00D6\U+201Cx
  0
XRECORD
  5
485
102
{ACAD_REACTORS
330
484
102
}
330
484
100
AcDbXrecord
280
     1
 40
17643.0
  1
\U+2019S  \U+201C\U+00B2
  0
XRECORD
  5
483
102
{ACAD_REACTORS
330
482
102
}
330
482
100
AcDbXrecord
280
     1
 40
18174.0
  1
\U+0152\U+0081  \U+0090}
  0
XRECORD
  5
481
102
{ACAD_REACTORS
330
480
102
}
330
480
100
AcDbXrecord
280
     1
 40
17447.0
  1
\U+008F\U+00B0  \U+201DF
  0
XRECORD
  5
47F
102
{ACAD_REACTORS
330
47E
102
}
330
47E
100
AcDbXrecord
280
     1
 40
18923.0
  1
\U+2039L   \U+017D\U+00B2
  0
XRECORD
  5
47D
102
{ACAD_REACTORS
330
47C
102
}
330
47C
100
AcDbXrecord
280
     1
 40
53004.0
  1
\U+017Dd   \U+008F\U+00D0   \U+201A\U+00AF
  0
XRECORD
  5
47B
102
{ACAD_REACTORS
330
47A
102
}
330
47A
100
AcDbXrecord
280
     1
 40
13191.0
  1
\U+0090\U+201D %%d%%d
  0
XRECORD
  5
479
102
{ACAD_REACTORS
330
478
102
}
330
478
100
AcDbXrecord
280
     1
 40
29091.0
  1
\U+008D\U+00DF   \U+017D\U+00A2
  0
XRECORD
  5
477
102
{ACAD_REACTORS
330
476
102
}
330
476
100
AcDbXrecord
280
     1
 40
25568.0
  1
\U+2022i        \U+00B2\U+00A5
  0
XRECORD
  5
475
102
{ACAD_REACTORS
330
474
102
}
330
474
100
AcDbXrecord
280
     1
 40
16741.0
  1
\U+2022i \U+201D\U+00E5
  0
XRECORD
  5
473
102
{ACAD_REACTORS
330
472
102
}
330
472
100
AcDbXrecord
280
     1
 40
19134.0
  1
\U+0090}\P\U+201D\U+00E5
  0
XRECORD
  5
471
102
{ACAD_REACTORS
330
470
102
}
330
470
100
AcDbXrecord
280
     1
 40
18980.0
  1
\U+0090}\P\U+00B2\U+00A5
  0
XRECORD
  5
46F
102
{ACAD_REACTORS
330
46E
102
}
330
46E
100
AcDbXrecord
280
     1
 40
18800.0
  1
\U+2022i\P\U+00B2\U+00A5
  0
XRECORD
  5
46D
102
{ACAD_REACTORS
330
46C
102
}
330
46C
100
AcDbXrecord
280
     1
 40
25044.0
  1
\U+02C6\U+00CF\U+008D\U+00E3
  0
XRECORD
  5
46B
102
{ACAD_REACTORS
330
46A
102
}
330
46A
100
AcDbXrecord
280
     1
 40
23804.0
  1
\U+2019\U+2020\U+201C\U+2021
  0
XRECORD
  5
469
102
{ACAD_REACTORS
330
468
102
}
330
468
100
AcDbXrecord
280
     1
 40
24787.0
  1
\U+008F\U+008F\U+2022\U+00AB
  0
XRECORD
  5
467
102
{ACAD_REACTORS
330
466
102
}
330
466
100
AcDbXrecord
280
     1
 40
23171.0
  1
\U+2018g%%d\U+00CF\U+0090}
  0
XRECORD
  5
465
102
{ACAD_REACTORS
330
464
102
}
330
464
100
AcDbXrecord
280
     1
 40
86044.0
  1
\U+0192N\U+0192\U+008D\U+0192\U+0081\U+0081[\U+0192g
  0
XRECORD
  5
463
102
{ACAD_REACTORS
330
462
102
}
330
462
100
AcDbXrecord
280
     1
 40
74943.0
  1
\U+0152\U+00E9\U+2019%%c\U+0192J\U+0192b\U+0192v
  0
XRECORD
  5
461
102
{ACAD_REACTORS
330
460
102
}
330
460
100
AcDbXrecord
280
     1
 40
114981.0
  1
\U+2019\U+2026\U+2019E\U+0192z\U+0192\U+2039\U+0192_\U+0081[
  0
XRECORD
  5
45F
102
{ACAD_REACTORS
330
45E
102
}
330
45E
100
AcDbXrecord
280
     1
 40
324919.0
  1
6\U+0192i\U+0192C\U+0192\U+008D\U+0192\U+201C(\U+0192t\U+0192B\U+0192\U+2030\U+0081[\U+201C*\U+201A%%c)
  0
XRECORD
  5
45D
102
{ACAD_REACTORS
330
45C
102
}
330
45C
100
AcDbXrecord
280
     1
 40
45028.0
  1
\U+0192`\U+0192\U+2021\U+0192R\U+0090F
  0
XRECORD
  5
45B
102
{ACAD_REACTORS
330
45A
102
}
330
45A
100
AcDbXrecord
280
     1
 40
86044.0
  1
\U+0192N\U+0192\U+008D\U+0192\U+0081\U+0081[\U+0192g
  0
XRECORD
  5
4B1
102
{ACAD_REACTORS
330
4B0
102
}
330
4B0
100
AcDbXrecord
280
     1
 40
6802.0
  1
5.5\U+0081`12.5
  0
LAYOUT
  5
347
102
{ACAD_XDICTIONARY
360
4E7
102
}
102
{ACAD_REACTORS
330
345
102
}
330
345
100
AcDbPlotSettings
  1

  2
\\asrv0030\DocuCentre 230 - 本社９階　開発部
  4

  6

 40
0.0
 41
0.0
 42
0.0
 43
0.0
 44
0.0
 45
0.0
 46
0.0
 47
0.0
 48
0.0
 49
0.0
140
0.0
141
0.0
142
1.0
143
1.0
 70
  1712
 72
     0
 73
     0
 74
     0
  7

 75
     0
147
1.0
148
0.0
149
0.0
100
AcDbLayout
  1
Model
 70
     1
 71
     0
 10
0.0
 20
0.0
 11
12.0
 21
9.0
 12
0.0
 22
0.0
 32
0.0
 14
0.0
 24
0.0
 34
0.0
 15
0.0
 25
0.0
 35
0.0
146
0.0
 13
0.0
 23
0.0
 33
0.0
 16
1.0
 26
0.0
 36
0.0
 17
0.0
 27
1.0
 37
0.0
 76
     0
330
A
331
15
  0
LAYOUT
  5
348
102
{ACAD_XDICTIONARY
360
4E9
102
}
102
{ACAD_REACTORS
330
345
102
}
330
345
100
AcDbPlotSettings
  1

  2
\\asrv0030\DocuCentre 230 - 本社９階　開発部
  4

  6

 40
0.0
 41
0.0
 42
0.0
 43
0.0
 44
0.0
 45
0.0
 46
0.0
 47
0.0
 48
0.0
 49
0.0
140
0.0
141
0.0
142
1.0
143
1.0
 70
   688
 72
     0
 73
     0
 74
     5
  7

 75
    16
147
1.0
148
0.0
149
0.0
100
AcDbLayout
  1
レイアウト1
 70
     0
 71
     1
 10
0.0
 20
0.0
 11
12.0
 21
9.0
 12
0.0
 22
0.0
 32
0.0
 14
1.000000000000000E+20
 24
1.000000000000000E+20
 34
1.000000000000000E+20
 15
-1.000000000000000E+20
 25
-1.000000000000000E+20
 35
-1.000000000000000E+20
146
0.0
 13
0.0
 23
0.0
 33
0.0
 16
1.0
 26
0.0
 36
0.0
 17
0.0
 27
1.0
 37
0.0
 76
     0
330
B
  0
MATERIAL
  5
305
102
{ACAD_XDICTIONARY
360
306
102
}
102
{ACAD_REACTORS
330
2FC
102
}
330
2FC
100
AcDbMaterial
  1
ByBlock
 72
     0
 43
0.0208333333333333
 43
0.0
 43
0.0
 43
0.0
 43
0.0
 43
0.0208333333333333
 43
0.0
 43
0.0
 43
0.0
 43
0.0
 43
1.0
 43
0.0
 43
0.0
 43
0.0
 43
0.0
 43
1.0
 77
     0
 47
0.0208333333333333
 47
0.0
 47
0.0
 47
0.0
 47
0.0
 47
0.0208333333333333
 47
0.0
 47
0.0
 47
0.0
 47
0.0
 47
1.0
 47
0.0
 47
0.0
 47
0.0
 47
0.0
 47
1.0
171
     0
 49
0.0208333333333333
 49
0.0
 49
0.0
 49
0.0
 49
0.0
 49
0.0208333333333333
 49
0.0
 49
0.0
 49
0.0
 49
0.0
 49
1.0
 49
0.0
 49
0.0
 49
0.0
 49
0.0
 49
1.0
175
     0
142
0.0208333333333333
142
0.0
142
0.0
142
0.0
142
0.0
142
0.0208333333333333
142
0.0
142
0.0
142
0.0
142
0.0
142
1.0
142
0.0
142
0.0
142
0.0
142
0.0
142
1.0
179
     0
144
0.0208333333333333
144
0.0
144
0.0
144
0.0
144
0.0
144
0.0208333333333333
144
0.0
144
0.0
144
0.0
144
0.0
144
1.0
144
0.0
144
0.0
144
0.0
144
0.0
144
1.0
147
0.0208333333333333
147
0.0
147
0.0
147
0.0
147
0.0
147
0.0208333333333333
147
0.0
147
0.0
147
0.0
147
0.0
147
1.0
147
0.0
147
0.0
147
0.0
147
0.0
147
1.0
  0
MATERIAL
  5
2FD
102
{ACAD_XDICTIONARY
360
2FE
102
}
102
{ACAD_REACTORS
330
2FC
102
}
330
2FC
100
AcDbMaterial
  1
ByLayer
 72
     0
 43
0.0208333333333333
 43
0.0
 43
0.0
 43
0.0
 43
0.0
 43
0.0208333333333333
 43
0.0
 43
0.0
 43
0.0
 43
0.0
 43
1.0
 43
0.0
 43
0.0
 43
0.0
 43
0.0
 43
1.0
 77
     0
 47
0.0208333333333333
 47
0.0
 47
0.0
 47
0.0
 47
0.0
 47
0.0208333333333333
 47
0.0
 47
0.0
 47
0.0
 47
0.0
 47
1.0
 47
0.0
 47
0.0
 47
0.0
 47
0.0
 47
1.0
171
     0
 49
0.0208333333333333
 49
0.0
 49
0.0
 49
0.0
 49
0.0
 49
0.0208333333333333
 49
0.0
 49
0.0
 49
0.0
 49
0.0
 49
1.0
 49
0.0
 49
0.0
 49
0.0
 49
0.0
 49
1.0
175
     0
142
0.0208333333333333
142
0.0
142
0.0
142
0.0
142
0.0
142
0.0208333333333333
142
0.0
142
0.0
142
0.0
142
0.0
142
1.0
142
0.0
142
0.0
142
0.0
142
0.0
142
1.0
179
     0
144
0.0208333333333333
144
0.0
144
0.0
144
0.0
144
0.0
144
0.0208333333333333
144
0.0
144
0.0
144
0.0
144
0.0
144
1.0
144
0.0
144
0.0
144
0.0
144
0.0
144
1.0
147
0.0208333333333333
147
0.0
147
0.0
147
0.0
147
0.0
147
0.0208333333333333
147
0.0
147
0.0
147
0.0
147
0.0
147
1.0
147
0.0
147
0.0
147
0.0
147
0.0
147
1.0
  0
MATERIAL
  5
30D
102
{ACAD_XDICTIONARY
360
30E
102
}
102
{ACAD_REACTORS
330
2FC
102
}
330
2FC
100
AcDbMaterial
  1
Global
 72
     0
 43
0.0208333333333333
 43
0.0
 43
0.0
 43
0.0
 43
0.0
 43
0.0208333333333333
 43
0.0
 43
0.0
 43
0.0
 43
0.0
 43
1.0
 43
0.0
 43
0.0
 43
0.0
 43
0.0
 43
1.0
 77
     0
 47
0.0208333333333333
 47
0.0
 47
0.0
 47
0.0
 47
0.0
 47
0.0208333333333333
 47
0.0
 47
0.0
 47
0.0
 47
0.0
 47
1.0
 47
0.0
 47
0.0
 47
0.0
 47
0.0
 47
1.0
171
     0
 49
0.0208333333333333
 49
0.0
 49
0.0
 49
0.0
 49
0.0
 49
0.0208333333333333
 49
0.0
 49
0.0
 49
0.0
 49
0.0
 49
1.0
 49
0.0
 49
0.0
 49
0.0
 49
0.0
 49
1.0
175
     0
142
0.0208333333333333
142
0.0
142
0.0
142
0.0
142
0.0
142
0.0208333333333333
142
0.0
142
0.0
142
0.0
142
0.0
142
1.0
142
0.0
142
0.0
142
0.0
142
0.0
142
1.0
179
     0
144
0.0208333333333333
144
0.0
144
0.0
144
0.0
144
0.0
144
0.0208333333333333
144
0.0
144
0.0
144
0.0
144
0.0
144
1.0
144
0.0
144
0.0
144
0.0
144
0.0
144
1.0
147
0.0208333333333333
147
0.0
147
0.0
147
0.0
147
0.0
147
0.0208333333333333
147
0.0
147
0.0
147
0.0
147
0.0
147
1.0
147
0.0
147
0.0
147
0.0
147
0.0
147
1.0
  0
MLEADERSTYLE
  5
344
102
{ACAD_REACTORS
330
343
102
}
330
343
100
AcDbMLeaderStyle
170
     2
171
     1
172
     0
 90
        2
 40
0.0
 41
0.0
173
     1
 91
-1056964608
340
11
 92
       -2
290
     1
 42
2.0
291
     1
 43
0.36
  3
Standard
 44
4.0
300

342
17
174
     1
178
     6
175
     1
176
     0
 93
-1056964608
 45
4.0
292
     0
297
     0
 46
4.0
 94
-1056964608
 47
1.0
 49
1.0
140
1.0
293
     1
141
0.0
294
     1
177
     0
142
1.0
295
     0
296
     0
143
0.125
1001
ACAD_MLEADERVER
1070
     2
  0
MLINESTYLE
  5
1C
102
{ACAD_REACTORS
330
1B
102
}
330
1B
100
AcDbMlineStyle
  2
STANDARD
 70
     0
  3

 62
     0
 51
90.0
 52
90.0
 71
     2
 49
0.5
 62
   256
  6
BYLAYER
 49
-0.5
 62
   256
  6
BYLAYER
  0
ACDBPLACEHOLDER
  5
2FB
102
{ACAD_REACTORS
330
2FA
102
}
330
2FA
  0
SCALE
  5
332
102
{ACAD_REACTORS
330
331
102
}
330
331
100
AcDbScale
 70
     0
300
1:1
140
1.0
141
1.0
290
     1
  0
SCALE
  5
333
102
{ACAD_REACTORS
330
331
102
}
330
331
100
AcDbScale
 70
     0
300
1:2
140
1.0
141
2.0
290
     0
  0
SCALE
  5
334
102
{ACAD_REACTORS
330
331
102
}
330
331
100
AcDbScale
 70
     0
300
1:4
140
1.0
141
4.0
290
     0
  0
SCALE
  5
335
102
{ACAD_REACTORS
330
331
102
}
330
331
100
AcDbScale
 70
     0
300
1:5
140
1.0
141
5.0
290
     0
  0
SCALE
  5
336
102
{ACAD_REACTORS
330
331
102
}
330
331
100
AcDbScale
 70
     0
300
1:8
140
1.0
141
8.0
290
     0
  0
SCALE
  5
337
102
{ACAD_REACTORS
330
331
102
}
330
331
100
AcDbScale
 70
     0
300
1:10
140
1.0
141
10.0
290
     0
  0
SCALE
  5
338
102
{ACAD_REACTORS
330
331
102
}
330
331
100
AcDbScale
 70
     0
300
1:16
140
1.0
141
16.0
290
     0
  0
SCALE
  5
339
102
{ACAD_REACTORS
330
331
102
}
330
331
100
AcDbScale
 70
     0
300
1:20
140
1.0
141
20.0
290
     0
  0
SCALE
  5
33A
102
{ACAD_REACTORS
330
331
102
}
330
331
100
AcDbScale
 70
     0
300
1:30
140
1.0
141
30.0
290
     0
  0
SCALE
  5
33B
102
{ACAD_REACTORS
330
331
102
}
330
331
100
AcDbScale
 70
     0
300
1:40
140
1.0
141
40.0
290
     0
  0
SCALE
  5
33C
102
{ACAD_REACTORS
330
331
102
}
330
331
100
AcDbScale
 70
     0
300
1:50
140
1.0
141
50.0
290
     0
  0
SCALE
  5
33D
102
{ACAD_REACTORS
330
331
102
}
330
331
100
AcDbScale
 70
     0
300
1:100
140
1.0
141
100.0
290
     0
  0
SCALE
  5
33E
102
{ACAD_REACTORS
330
331
102
}
330
331
100
AcDbScale
 70
     0
300
2:1
140
2.0
141
1.0
290
     0
  0
SCALE
  5
33F
102
{ACAD_REACTORS
330
331
102
}
330
331
100
AcDbScale
 70
     0
300
4:1
140
4.0
141
1.0
290
     0
  0
SCALE
  5
340
102
{ACAD_REACTORS
330
331
102
}
330
331
100
AcDbScale
 70
     0
300
8:1
140
8.0
141
1.0
290
     0
  0
SCALE
  5
341
102
{ACAD_REACTORS
330
331
102
}
330
331
100
AcDbScale
 70
     0
300
10:1
140
10.0
141
1.0
290
     0
  0
SCALE
  5
342
102
{ACAD_REACTORS
330
331
102
}
330
331
100
AcDbScale
 70
     0
300
100:1
140
100.0
141
1.0
290
     0
  0
TABLESTYLE
  5
330
102
{ACAD_XDICTIONARY
360
456
102
}
102
{ACAD_REACTORS
330
32F
102
}
330
32F
100
AcDbTableStyle
  3
Standard
 70
     0
 71
     0
 40
1.5
 41
1.5
280
     0
281
     0
  7
STANDARD
140
4.5
170
     2
 62
     0
 63
     7
283
     0
274
    -2
284
     1
 64
     0
275
    -2
285
     1
 65
     0
276
    -2
286
     1
 66
     0
277
    -2
287
     1
 67
     0
278
    -2
288
     1
 68
     0
279
    -2
289
     1
 69
     0
  7
STANDARD
140
6.0
170
     5
 62
     0
 63
     7
283
     0
274
    -2
284
     1
 64
     0
275
    -2
285
     1
 65
     0
276
    -2
286
     1
 66
     0
277
    -2
287
     1
 67
     0
278
    -2
288
     1
 68
     0
279
    -2
289
     1
 69
     0
  7
STANDARD
140
4.5
170
     5
 62
     0
 63
     7
283
     0
274
    -2
284
     1
 64
     0
275
    -2
285
     1
 65
     0
276
    -2
286
     1
 66
     0
277
    -2
287
     1
 67
     0
278
    -2
288
     1
 68
     0
279
    -2
289
     1
 69
     0
  0
VISUALSTYLE
  5
31B
102
{ACAD_XDICTIONARY
360
4BF
102
}
102
{ACAD_REACTORS
330
315
102
}
330
315
100
AcDbVisualStyle
  2
2dWireframe
 70
     4
 71
     0
 72
     2
 73
     0
 90
        0
 40
-0.6
 41
-30.0
 62
     5
 63
     7
 74
     1
 91
        4
 64
     7
 65
   257
 75
     1
175
     1
 42
1.0
 92
        0
 66
   257
 43
1.0
 76
     1
 77
     6
 78
     2
 67
     7
 79
     5
170
     0
171
     0
290
     0
174
     0
 93
        1
 44
0.0
173
     0
291
     0
 45
0.0
1001
ACAD
1000
AcDbSavedByObjectVersion
1070
     0
  0
VISUALSTYLE
  5
31A
102
{ACAD_XDICTIONARY
360
4BD
102
}
102
{ACAD_REACTORS
330
315
102
}
330
315
100
AcDbVisualStyle
  2
Basic
 70
     7
 71
     1
 72
     0
 73
     1
 90
        0
 40
-0.6
 41
-30.0
 62
     5
 63
     7
 74
     0
 91
        4
 64
     7
 65
   257
 75
     1
175
     1
 42
1.0
 92
        8
 66
     7
 43
1.0
 76
     1
 77
     6
 78
     2
 67
     7
 79
     5
170
     0
171
     0
290
     0
174
     0
 93
        1
 44
0.0
173
     0
291
     1
 45
0.0
1001
ACAD
1000
AcDbSavedByObjectVersion
1070
     0
  0
VISUALSTYLE
  5
321
102
{ACAD_XDICTIONARY
360
4CB
102
}
102
{ACAD_REACTORS
330
315
102
}
330
315
100
AcDbVisualStyle
  2
Brighten
 70
    12
 71
     2
 72
     2
 73
     0
 90
        0
 40
-0.6
 41
-30.0
 62
     5
 63
     7
 74
     1
 91
        4
 64
     7
 65
   257
 75
     1
175
     1
 42
1.0
 92
        8
 66
     7
 43
1.0
 76
     1
 77
     6
 78
     2
 67
     7
 79
     5
170
     0
171
     0
290
     0
174
     0
 93
        1
 44
50.0
173
     0
291
     1
 45
0.0
1001
ACAD
1000
AcDbSavedByObjectVersion
1070
     0
  0
VISUALSTYLE
  5
325
102
{ACAD_XDICTIONARY
360
4D3
102
}
102
{ACAD_REACTORS
330
315
102
}
330
315
100
AcDbVisualStyle
  2
ColorChange
 70
    16
 71
     2
 72
     2
 73
     3
 90
        0
 40
-0.6
 41
-30.0
 62
     5
 63
     8
 74
     1
 91
        4
 64
     7
 65
   257
 75
     1
175
     1
 42
1.0
 92
        8
 66
     8
 43
1.0
 76
     1
 77
     6
 78
     2
 67
     7
 79
     5
170
     0
171
     0
290
     0
174
     0
 93
        1
 44
0.0
173
     0
291
     1
 45
0.0
1001
ACAD
1000
AcDbSavedByObjectVersion
1070
     0
  0
VISUALSTYLE
  5
31E
102
{ACAD_XDICTIONARY
360
4C5
102
}
102
{ACAD_REACTORS
330
315
102
}
330
315
100
AcDbVisualStyle
  2
Conceptual
 70
     9
 71
     3
 72
     2
 73
     0
 90
        0
 40
-0.6
 41
-30.0
 62
     5
 63
     7
 74
     2
 91
        2
 64
     7
 65
   257
 75
     1
175
     1
 42
179.0
 92
        8
 66
     7
 43
1.0
 76
     1
 77
     6
 78
     2
 67
     7
 79
     3
170
     0
171
     0
290
     0
174
     0
 93
        1
 44
0.0
173
     0
291
     0
 45
0.0
1001
ACAD
1000
AcDbSavedByObjectVersion
1070
     0
  0
VISUALSTYLE
  5
320
102
{ACAD_XDICTIONARY
360
4C9
102
}
102
{ACAD_REACTORS
330
315
102
}
330
315
100
AcDbVisualStyle
  2
Dim
 70
    11
 71
     2
 72
     2
 73
     0
 90
        0
 40
-0.6
 41
-30.0
 62
     5
 63
     7
 74
     1
 91
        4
 64
     7
 65
   257
 75
     1
175
     1
 42
1.0
 92
        8
 66
     7
 43
1.0
 76
     1
 77
     6
 78
     2
 67
     7
 79
     5
170
     0
171
     0
290
     0
174
     0
 93
        1
 44
-50.0
173
     0
291
     1
 45
0.0
1001
ACAD
1000
AcDbSavedByObjectVersion
1070
     0
  0
VISUALSTYLE
  5
32D
102
{ACAD_XDICTIONARY
360
4E3
102
}
102
{ACAD_REACTORS
330
315
102
}
330
315
100
AcDbVisualStyle
  2
EdgeColorOff
 70
    22
 71
     2
 72
     2
 73
     0
 90
        0
 40
-0.6
 41
-30.0
 62
     5
 63
     7
 74
     1
 91
        4
 64
     7
 65
   257
 75
     1
175
     1
 42
1.0
 92
        8
 66
     7
 43
1.0
 76
     1
 77
     6
 78
     2
 67
     7
 79
     5
170
     0
171
     0
290
     0
174
     0
 93
        1
 44
0.0
173
     0
291
     1
 45
0.0
1001
ACAD
1000
AcDbSavedByObjectVersion
1070
     0
  0
VISUALSTYLE
  5
324
102
{ACAD_XDICTIONARY
360
4D1
102
}
102
{ACAD_REACTORS
330
315
102
}
330
315
100
AcDbVisualStyle
  2
Facepattern
 70
    15
 71
     2
 72
     2
 73
     0
 90
        0
 40
-0.6
 41
-30.0
 62
     5
 63
     7
 74
     1
 91
        4
 64
     7
 65
   257
 75
     1
175
     1
 42
1.0
 92
        8
 66
     7
 43
1.0
 76
     1
 77
     6
 78
     2
 67
     7
 79
     5
170
     0
171
     0
290
     0
174
     0
 93
        1
 44
0.0
173
     0
291
     1
 45
0.0
1001
ACAD
1000
AcDbSavedByObjectVersion
1070
     0
  0
VISUALSTYLE
  5
316
102
{ACAD_XDICTIONARY
360
4B5
102
}
102
{ACAD_REACTORS
330
315
102
}
330
315
100
AcDbVisualStyle
  2
Flat
 70
     0
 71
     2
 72
     1
 73
     1
 90
        2
 40
-0.6
 41
30.0
 62
     5
 63
     7
 74
     0
 91
        0
 64
     7
 65
   257
 75
     1
175
     1
 42
1.0
 92
        8
 66
     7
 43
1.0
 76
     1
 77
     6
 78
     2
 67
     7
 79
     5
170
     0
171
     0
290
     0
174
     0
 93
       13
 44
0.0
173
     0
291
     1
 45
0.0
1001
ACAD
1000
AcDbSavedByObjectVersion
1070
     0
  0
VISUALSTYLE
  5
317
102
{ACAD_XDICTIONARY
360
4B7
102
}
102
{ACAD_REACTORS
330
315
102
}
330
315
100
AcDbVisualStyle
  2
FlatWithEdges
 70
     1
 71
     2
 72
     1
 73
     1
 90
        2
 40
-0.6
 41
30.0
 62
     5
 63
     7
 74
     1
 91
        0
 64
     7
 65
   257
 75
     1
175
     1
 42
1.0
 92
        0
 66
   257
 43
1.0
 76
     1
 77
     6
 78
     2
 67
     7
 79
     5
170
     0
171
     0
290
     0
174
     0
 93
       13
 44
0.0
173
     0
291
     1
 45
0.0
1001
ACAD
1000
AcDbSavedByObjectVersion
1070
     0
  0
VISUALSTYLE
  5
318
102
{ACAD_XDICTIONARY
360
4B9
102
}
102
{ACAD_REACTORS
330
315
102
}
330
315
100
AcDbVisualStyle
  2
Gouraud
 70
     2
 71
     2
 72
     2
 73
     1
 90
        2
 40
-0.6
 41
30.0
 62
     5
 63
     7
 74
     0
 91
        0
 64
     7
 65
   257
 75
     1
175
     1
 42
1.0
 92
        0
 66
     7
 43
1.0
 76
     1
 77
     6
 78
     2
 67
     7
 79
     5
170
     0
171
     0
290
     0
174
     0
 93
       13
 44
0.0
173
     0
291
     1
 45
0.0
1001
ACAD
1000
AcDbSavedByObjectVersion
1070
     0
  0
VISUALSTYLE
  5
319
102
{ACAD_XDICTIONARY
360
4BB
102
}
102
{ACAD_REACTORS
330
315
102
}
330
315
100
AcDbVisualStyle
  2
GouraudWithEdges
 70
     3
 71
     2
 72
     2
 73
     1
 90
        2
 40
-0.6
 41
30.0
 62
     5
 63
     7
 74
     1
 91
        0
 64
     7
 65
   257
 75
     1
175
     1
 42
1.0
 92
        0
 66
   257
 43
1.0
 76
     1
 77
     6
 78
     2
 67
     7
 79
     5
170
     0
171
     0
290
     0
174
     0
 93
       13
 44
0.0
173
     0
291
     1
 45
0.0
1001
ACAD
1000
AcDbSavedByObjectVersion
1070
     0
  0
VISUALSTYLE
  5
31D
102
{ACAD_XDICTIONARY
360
4C3
102
}
102
{ACAD_REACTORS
330
315
102
}
330
315
100
AcDbVisualStyle
  2
Hidden
 70
     6
 71
     1
 72
     2
 73
     2
 90
        0
 40
-0.6
 41
-30.0
 62
     5
 63
     7
 74
     2
 91
        2
 64
     7
 65
   257
 75
     2
175
     1
 42
40.0
 92
        0
 66
   257
 43
1.0
 76
     1
 77
     6
 78
     2
 67
     7
 79
     3
170
     0
171
     0
290
     0
174
     0
 93
        1
 44
0.0
173
     0
291
     0
 45
0.0
1001
ACAD
1000
AcDbSavedByObjectVersion
1070
     0
  0
VISUALSTYLE
  5
32B
102
{ACAD_XDICTIONARY
360
4DF
102
}
102
{ACAD_REACTORS
330
315
102
}
330
315
100
AcDbVisualStyle
  2
JitterOff
 70
    20
 71
     2
 72
     2
 73
     0
 90
        0
 40
-0.6
 41
-30.0
 62
     5
 63
     7
 74
     1
 91
        4
 64
     7
 65
   257
 75
     1
175
     1
 42
1.0
 92
       10
 66
     7
 43
1.0
 76
     1
 77
     6
 78
     2
 67
     7
 79
     5
170
     0
171
     0
290
     0
174
     0
 93
        1
 44
0.0
173
     0
291
     1
 45
0.0
1001
ACAD
1000
AcDbSavedByObjectVersion
1070
     0
  0
VISUALSTYLE
  5
323
102
{ACAD_XDICTIONARY
360
4CF
102
}
102
{ACAD_REACTORS
330
315
102
}
330
315
100
AcDbVisualStyle
  2
Linepattern
 70
    14
 71
     2
 72
     2
 73
     0
 90
        0
 40
-0.6
 41
-30.0
 62
     5
 63
     7
 74
     1
 91
        4
 64
     7
 65
   257
 75
     7
175
     7
 42
1.0
 92
        8
 66
     7
 43
1.0
 76
     1
 77
     6
 78
     2
 67
     7
 79
     5
170
     0
171
     0
290
     0
174
     0
 93
        1
 44
0.0
173
     0
291
     1
 45
0.0
1001
ACAD
1000
AcDbSavedByObjectVersion
1070
     0
  0
VISUALSTYLE
  5
32C
102
{ACAD_XDICTIONARY
360
4E1
102
}
102
{ACAD_REACTORS
330
315
102
}
330
315
100
AcDbVisualStyle
  2
OverhangOff
 70
    21
 71
     2
 72
     2
 73
     0
 90
        0
 40
-0.6
 41
-30.0
 62
     5
 63
     7
 74
     1
 91
        4
 64
     7
 65
   257
 75
     1
175
     1
 42
1.0
 92
        9
 66
     7
 43
1.0
 76
     1
 77
     6
 78
     2
 67
     7
 79
     5
170
     0
171
     0
290
     0
174
     0
 93
        1
 44
0.0
173
     0
291
     1
 45
0.0
1001
ACAD
1000
AcDbSavedByObjectVersion
1070
     0
  0
VISUALSTYLE
  5
31F
102
{ACAD_XDICTIONARY
360
4C7
102
}
102
{ACAD_REACTORS
330
315
102
}
330
315
100
AcDbVisualStyle
  2
Realistic
 70
     8
 71
     2
 72
     3
 73
     0
 90
        2
 40
-0.6
 41
30.0
 62
     5
 63
     7
 74
     0
 91
        0
 64
     7
 65
   257
 75
     1
175
     1
 42
1.0
 92
        8
 66
   257
 43
1.0
 76
     1
 77
     6
 78
     2
 67
     7
 79
     3
170
     0
171
     0
290
     0
174
     0
 93
       13
 44
0.0
173
     0
291
     0
 45
0.0
1001
ACAD
1000
AcDbSavedByObjectVersion
1070
     0
  0
VISUALSTYLE
  5
32A
102
{ACAD_XDICTIONARY
360
4DD
102
}
102
{ACAD_REACTORS
330
315
102
}
330
315
100
AcDbVisualStyle
  2
Shaded
 70
    27
 71
     2
 72
     2
 73
     1
 90
        2
 40
-0.6
 41
30.0
 62
     5
 63
     7
 74
     0
 91
        4
 64
     7
 65
   257
 75
     1
175
     1
 42
1.0
 92
        8
 66
   257
 43
1.0
 76
     1
 77
     6
 78
     2
 67
     8
 79
     3
170
     0
171
     0
290
     0
174
     0
 93
        5
 44
0.0
173
     0
291
     0
 45
0.0
1001
ACAD
1000
AcDbSavedByObjectVersion
1070
     0
  0
VISUALSTYLE
  5
329
102
{ACAD_XDICTIONARY
360
4DB
102
}
102
{ACAD_REACTORS
330
315
102
}
330
315
100
AcDbVisualStyle
  2
Shaded with edges
 70
    26
 71
     2
 72
     2
 73
     1
 90
        2
 40
-0.6
 41
30.0
 62
     5
 63
     7
 74
     1
 91
       10
 64
     7
 65
   257
 75
     2
175
     1
 42
1.0
 92
        8
 66
   257
 43
1.0
 76
     1
 77
     6
 78
     2
 67
     7
 79
     3
170
     0
171
     0
290
     0
174
     0
 93
        5
 44
0.0
173
     0
291
     0
 45
0.0
1001
ACAD
1000
AcDbSavedByObjectVersion
1070
     0
  0
VISUALSTYLE
  5
326
102
{ACAD_XDICTIONARY
360
4D5
102
}
102
{ACAD_REACTORS
330
315
102
}
330
315
100
AcDbVisualStyle
  2
Shades of Gray
 70
    23
 71
     2
 72
     2
 73
     3
 90
        0
 40
-0.6
 41
-30.0
 62
     5
 63
     7
 74
     2
 91
        2
 64
     7
 65
     7
 75
     1
175
     1
 42
40.0
 92
        8
 66
     7
 43
1.0
 76
     1
 77
     6
 78
     2
 67
     7
 79
     3
170
     0
171
     0
290
     0
174
     0
 93
        1
 44
0.0
173
     0
291
     0
 45
0.0
1001
ACAD
1000
AcDbSavedByObjectVersion
1070
     0
  0
VISUALSTYLE
  5
327
102
{ACAD_XDICTIONARY
360
4D7
102
}
102
{ACAD_REACTORS
330
315
102
}
330
315
100
AcDbVisualStyle
  2
Sketchy
 70
    24
 71
     1
 72
     2
 73
     2
 90
        0
 40
-0.6
 41
-30.0
 62
     5
 63
     7
 74
     2
 91
        2
 64
     7
 65
     7
 75
     1
175
     1
 42
40.0
 92
       11
 66
     7
 43
1.0
 76
     1
 77
     6
 78
     2
 67
     7
 79
     6
170
     0
171
     0
290
     0
174
     0
 93
        1
 44
0.0
173
     0
291
     0
 45
0.0
1001
ACAD
1000
AcDbSavedByObjectVersion
1070
     0
  0
VISUALSTYLE
  5
322
102
{ACAD_XDICTIONARY
360
4CD
102
}
102
{ACAD_REACTORS
330
315
102
}
330
315
100
AcDbVisualStyle
  2
Thicken
 70
    13
 71
     2
 72
     2
 73
     0
 90
        0
 40
-0.6
 41
-30.0
 62
     5
 63
     7
 74
     1
 91
        4
 64
     7
 65
   257
 75
     1
175
     1
 42
1.0
 92
       12
 66
     7
 43
1.0
 76
     1
 77
     6
 78
     2
 67
     7
 79
     5
170
     0
171
     0
290
     0
174
     0
 93
        1
 44
0.0
173
     0
291
     1
 45
0.0
1001
ACAD
1000
AcDbSavedByObjectVersion
1070
     0
  0
VISUALSTYLE
  5
31C
102
{ACAD_XDICTIONARY
360
4C1
102
}
102
{ACAD_REACTORS
330
315
102
}
330
315
100
AcDbVisualStyle
  2
Wireframe
 70
     5
 71
     0
 72
     2
 73
     0
 90
        0
 40
-0.6
 41
-30.0
 62
     5
 63
     7
 74
     1
 91
        4
 64
     7
 65
   257
 75
     1
175
     1
 42
1.0
 92
        0
 66
   257
 43
1.0
 76
     1
 77
     6
 78
     2
 67
     7
 79
     3
170
     0
171
     0
290
     0
174
     0
 93
        1
 44
0.0
173
     0
291
     0
 45
0.0
1001
ACAD
1000
AcDbSavedByObjectVersion
1070
     0
  0
VISUALSTYLE
  5
328
102
{ACAD_XDICTIONARY
360
4D9
102
}
102
{ACAD_REACTORS
330
315
102
}
330
315
100
AcDbVisualStyle
  2
X-Ray
 70
    25
 71
     2
 72
     2
 73
     1
 90
        1
 40
0.5
 41
-30.0
 62
     5
 63
     7
 74
     1
 91
        0
 64
     7
 65
   257
 75
     1
175
     1
 42
1.0
 92
        8
 66
     7
 43
1.0
 76
     1
 77
     6
 78
     2
 67
     7
 79
     3
170
     0
171
     0
290
     0
174
     0
 93
       13
 44
0.0
173
     0
291
     0
 45
0.0
1001
ACAD
1000
AcDbSavedByObjectVersion
1070
     0
  0
DICTIONARYVAR
  5
450
102
{ACAD_REACTORS
330
44D
102
}
330
44D
100
DictionaryVariables
280
     0
  1
1:1
  0
DICTIONARYVAR
  5
44F
102
{ACAD_REACTORS
330
44D
102
}
330
44D
100
DictionaryVariables
280
     0
  1
STANDARD
  0
DICTIONARYVAR
  5
44E
102
{ACAD_REACTORS
330
44D
102
}
330
44D
100
DictionaryVariables
280
     0
  1
STANDARD
  0
DICTIONARYVAR
  5
453
102
{ACAD_REACTORS
330
44D
102
}
330
44D
100
DictionaryVariables
280
     0
  1
1
  0
DICTIONARYVAR
  5
452
102
{ACAD_REACTORS
330
44D
102
}
330
44D
100
DictionaryVariables
280
     0
  1
0
  0
DICTIONARYVAR
  5
451
102
{ACAD_REACTORS
330
44D
102
}
330
44D
100
DictionaryVariables
280
     0
  1
127
  0
DICTIONARYVAR
  5
454
102
{ACAD_REACTORS
330
44D
102
}
330
44D
100
DictionaryVariables
280
     0
  1
2
  0
XRECORD
  5
44C
102
{ACAD_REACTORS
330
44A
102
}
330
44A
100
AcDbXrecord
280
     1
330
29
330
2C
  0
DICTIONARY
  5
4E7
330
347
100
AcDbDictionary
280
     1
281
     1
  3
ACAD_XREC_ROUNDTRIP
360
4E8
  0
DICTIONARY
  5
4E9
330
348
100
AcDbDictionary
280
     1
281
     1
  3
ACAD_XREC_ROUNDTRIP
360
4EA
  0
DICTIONARY
  5
306
330
305
100
AcDbDictionary
280
     1
281
     1
  3
ACAD_XREC_ROUNDTRIP
360
4B3
  3
BUMPTILE
360
308
  3
DIFFUSETILE
360
307
  3
OPACITYTILE
360
30B
  3
REFLECTIONTILE
360
30A
  3
REFRACTIONTILE
360
30C
  3
SPECULARTILE
360
309
  0
DICTIONARY
  5
2FE
330
2FD
100
AcDbDictionary
280
     1
281
     1
  3
ACAD_XREC_ROUNDTRIP
360
4B2
  3
BUMPTILE
360
300
  3
DIFFUSETILE
360
2FF
  3
OPACITYTILE
360
303
  3
REFLECTIONTILE
360
302
  3
REFRACTIONTILE
360
304
  3
SPECULARTILE
360
301
  0
DICTIONARY
  5
30E
330
30D
100
AcDbDictionary
280
     1
281
     1
  3
ACAD_XREC_ROUNDTRIP
360
4B4
  3
BUMPTILE
360
310
  3
DIFFUSETILE
360
30F
  3
OPACITYTILE
360
313
  3
REFLECTIONTILE
360
312
  3
REFRACTIONTILE
360
314
  3
SPECULARTILE
360
311
  0
DICTIONARY
  5
456
330
330
100
AcDbDictionary
280
     1
281
     1
  3
ACAD_ROUNDTRIP_2008_TABLESTYLE_CELLSTYLEMAP
360
457
  3
ACAD_XREC_ROUNDTRIP
360
4E5
  0
DICTIONARY
  5
4BF
330
31B
100
AcDbDictionary
280
     1
281
     1
  3
ACAD_XREC_ROUNDTRIP
360
4C0
  0
DICTIONARY
  5
4BD
330
31A
100
AcDbDictionary
280
     1
281
     1
  3
ACAD_XREC_ROUNDTRIP
360
4BE
  0
DICTIONARY
  5
4CB
330
321
100
AcDbDictionary
280
     1
281
     1
  3
ACAD_XREC_ROUNDTRIP
360
4CC
  0
DICTIONARY
  5
4D3
330
325
100
AcDbDictionary
280
     1
281
     1
  3
ACAD_XREC_ROUNDTRIP
360
4D4
  0
DICTIONARY
  5
4C5
330
31E
100
AcDbDictionary
280
     1
281
     1
  3
ACAD_XREC_ROUNDTRIP
360
4C6
  0
DICTIONARY
  5
4C9
330
320
100
AcDbDictionary
280
     1
281
     1
  3
ACAD_XREC_ROUNDTRIP
360
4CA
  0
DICTIONARY
  5
4E3
330
32D
100
AcDbDictionary
280
     1
281
     1
  3
ACAD_XREC_ROUNDTRIP
360
4E4
  0
DICTIONARY
  5
4D1
330
324
100
AcDbDictionary
280
     1
281
     1
  3
ACAD_XREC_ROUNDTRIP
360
4D2
  0
DICTIONARY
  5
4B5
330
316
100
AcDbDictionary
280
     1
281
     1
  3
ACAD_XREC_ROUNDTRIP
360
4B6
  0
DICTIONARY
  5
4B7
330
317
100
AcDbDictionary
280
     1
281
     1
  3
ACAD_XREC_ROUNDTRIP
360
4B8
  0
DICTIONARY
  5
4B9
330
318
100
AcDbDictionary
280
     1
281
     1
  3
ACAD_XREC_ROUNDTRIP
360
4BA
  0
DICTIONARY
  5
4BB
330
319
100
AcDbDictionary
280
     1
281
     1
  3
ACAD_XREC_ROUNDTRIP
360
4BC
  0
DICTIONARY
  5
4C3
330
31D
100
AcDbDictionary
280
     1
281
     1
  3
ACAD_XREC_ROUNDTRIP
360
4C4
  0
DICTIONARY
  5
4DF
330
32B
100
AcDbDictionary
280
     1
281
     1
  3
ACAD_XREC_ROUNDTRIP
360
4E0
  0
DICTIONARY
  5
4CF
330
323
100
AcDbDictionary
280
     1
281
     1
  3
ACAD_XREC_ROUNDTRIP
360
4D0
  0
DICTIONARY
  5
4E1
330
32C
100
AcDbDictionary
280
     1
281
     1
  3
ACAD_XREC_ROUNDTRIP
360
4E2
  0
DICTIONARY
  5
4C7
330
31F
100
AcDbDictionary
280
     1
281
     1
  3
ACAD_XREC_ROUNDTRIP
360
4C8
  0
DICTIONARY
  5
4DD
330
32A
100
AcDbDictionary
280
     1
281
     1
  3
ACAD_XREC_ROUNDTRIP
360
4DE
  0
DICTIONARY
  5
4DB
330
329
100
AcDbDictionary
280
     1
281
     1
  3
ACAD_XREC_ROUNDTRIP
360
4DC
  0
DICTIONARY
  5
4D5
330
326
100
AcDbDictionary
280
     1
281
     1
  3
ACAD_XREC_ROUNDTRIP
360
4D6
  0
DICTIONARY
  5
4D7
330
327
100
AcDbDictionary
280
     1
281
     1
  3
ACAD_XREC_ROUNDTRIP
360
4D8
  0
DICTIONARY
  5
4CD
330
322
100
AcDbDictionary
280
     1
281
     1
  3
ACAD_XREC_ROUNDTRIP
360
4CE
  0
DICTIONARY
  5
4C1
330
31C
100
AcDbDictionary
280
     1
281
     1
  3
ACAD_XREC_ROUNDTRIP
360
4C2
  0
DICTIONARY
  5
4D9
330
328
100
AcDbDictionary
280
     1
281
     1
  3
ACAD_XREC_ROUNDTRIP
360
4DA
  0
XRECORD
  5
4E8
102
{ACAD_REACTORS
330
4E7
102
}
330
4E7
100
AcDbXrecord
280
     1
102
SHADEPLOT
 70
     0
102
SHADEPLOTRESLEVEL
 70
     2
102
SHADEPLOTCUSTOMDPI
 70
   300
  0
XRECORD
  5
4EA
102
{ACAD_REACTORS
330
4E9
102
}
330
4E9
100
AcDbXrecord
280
     1
102
SHADEPLOT
 70
     0
102
SHADEPLOTRESLEVEL
 70
     2
102
SHADEPLOTCUSTOMDPI
 70
   300
  0
XRECORD
  5
4B3
102
{ACAD_REACTORS
330
306
102
}
330
306
100
AcDbXrecord
280
     1
102
MATERIAL
148
0.0
149
0.0
149
0.0
 93
        0
 94
      127
282
     0
 72
     0
 77
     0
171
     0
175
     0
179
     0
273
     0
  0
XRECORD
  5
308
102
{ACAD_REACTORS
330
306
102
}
330
306
100
AcDbXrecord
280
     1
270
     1
271
     1
  0
XRECORD
  5
307
102
{ACAD_REACTORS
330
306
102
}
330
306
100
AcDbXrecord
280
     1
270
     1
271
     1
  0
XRECORD
  5
30B
102
{ACAD_REACTORS
330
306
102
}
330
306
100
AcDbXrecord
280
     1
270
     1
271
     1
  0
XRECORD
  5
30A
102
{ACAD_REACTORS
330
306
102
}
330
306
100
AcDbXrecord
280
     1
270
     1
271
     1
  0
XRECORD
  5
30C
102
{ACAD_REACTORS
330
306
102
}
330
306
100
AcDbXrecord
280
     1
270
     1
271
     1
  0
XRECORD
  5
309
102
{ACAD_REACTORS
330
306
102
}
330
306
100
AcDbXrecord
280
     1
270
     1
271
     1
  0
XRECORD
  5
4B2
102
{ACAD_REACTORS
330
2FE
102
}
330
2FE
100
AcDbXrecord
280
     1
102
MATERIAL
148
0.0
149
0.0
149
0.0
 93
        0
 94
      127
282
     0
 72
     0
 77
     0
171
     0
175
     0
179
     0
273
     0
  0
XRECORD
  5
300
102
{ACAD_REACTORS
330
2FE
102
}
330
2FE
100
AcDbXrecord
280
     1
270
     1
271
     1
  0
XRECORD
  5
2FF
102
{ACAD_REACTORS
330
2FE
102
}
330
2FE
100
AcDbXrecord
280
     1
270
     1
271
     1
  0
XRECORD
  5
303
102
{ACAD_REACTORS
330
2FE
102
}
330
2FE
100
AcDbXrecord
280
     1
270
     1
271
     1
  0
XRECORD
  5
302
102
{ACAD_REACTORS
330
2FE
102
}
330
2FE
100
AcDbXrecord
280
     1
270
     1
271
     1
  0
XRECORD
  5
304
102
{ACAD_REACTORS
330
2FE
102
}
330
2FE
100
AcDbXrecord
280
     1
270
     1
271
     1
  0
XRECORD
  5
301
102
{ACAD_REACTORS
330
2FE
102
}
330
2FE
100
AcDbXrecord
280
     1
270
     1
271
     1
  0
XRECORD
  5
4B4
102
{ACAD_REACTORS
330
30E
102
}
330
30E
100
AcDbXrecord
280
     1
102
MATERIAL
148
0.0
149
0.0
149
0.0
 93
        0
 94
      127
282
     0
 72
     0
 77
     0
171
     0
175
     0
179
     0
273
     0
  0
XRECORD
  5
310
102
{ACAD_REACTORS
330
30E
102
}
330
30E
100
AcDbXrecord
280
     1
270
     1
271
     1
  0
XRECORD
  5
30F
102
{ACAD_REACTORS
330
30E
102
}
330
30E
100
AcDbXrecord
280
     1
270
     1
271
     1
  0
XRECORD
  5
313
102
{ACAD_REACTORS
330
30E
102
}
330
30E
100
AcDbXrecord
280
     1
270
     1
271
     1
  0
XRECORD
  5
312
102
{ACAD_REACTORS
330
30E
102
}
330
30E
100
AcDbXrecord
280
     1
270
     1
271
     1
  0
XRECORD
  5
314
102
{ACAD_REACTORS
330
30E
102
}
330
30E
100
AcDbXrecord
280
     1
270
     1
271
     1
  0
XRECORD
  5
311
102
{ACAD_REACTORS
330
30E
102
}
330
30E
100
AcDbXrecord
280
     1
270
     1
271
     1
  0
CELLSTYLEMAP
  5
457
102
{ACAD_REACTORS
330
456
102
}
330
456
100
AcDbCellStyleMap
 90
        3
300
CELLSTYLE
  1
TABLEFORMAT_BEGIN
 90
        5
170
     1
 91
        0
 92
    32768
 62
   257
 93
        1
300
CONTENTFORMAT
  1
CONTENTFORMAT_BEGIN
 90
        0
 91
        0
 92
      512
 93
        0
300

 40
0.0
140
1.0
 94
        5
 62
     0
340
17
144
6.0
309
CONTENTFORMAT_END
171
     1
301
MARGIN
  1
CELLMARGIN_BEGIN
 40
1.5
 40
1.5
 40
1.5
 40
1.5
 40
4.5
 40
4.5
309
CELLMARGIN_END
 94
        6
 95
        1
302
GRIDFORMAT
  1
GRIDFORMAT_BEGIN
 90
        0
 91
        1
 62
     0
 92
       -2
340
0
 93
        0
 40
1.125
309
GRIDFORMAT_END
 95
        2
302
GRIDFORMAT
  1
GRIDFORMAT_BEGIN
 90
        0
 91
        1
 62
     0
 92
       -2
340
0
 93
        0
 40
1.125
309
GRIDFORMAT_END
 95
        4
302
GRIDFORMAT
  1
GRIDFORMAT_BEGIN
 90
        0
 91
        1
 62
     0
 92
       -2
340
0
 93
        0
 40
1.125
309
GRIDFORMAT_END
 95
        8
302
GRIDFORMAT
  1
GRIDFORMAT_BEGIN
 90
        0
 91
        1
 62
     0
 92
       -2
340
0
 93
        0
 40
1.125
309
GRIDFORMAT_END
 95
       16
302
GRIDFORMAT
  1
GRIDFORMAT_BEGIN
 90
        0
 91
        1
 62
     0
 92
       -2
340
0
 93
        0
 40
1.125
309
GRIDFORMAT_END
 95
       32
302
GRIDFORMAT
  1
GRIDFORMAT_BEGIN
 90
        0
 91
        1
 62
     0
 92
       -2
340
0
 93
        0
 40
1.125
309
GRIDFORMAT_END
309
TABLEFORMAT_END
  1
CELLSTYLE_BEGIN
 90
        1
 91
        1
300
_TITLE
309
CELLSTYLE_END
300
CELLSTYLE
  1
TABLEFORMAT_BEGIN
 90
        5
170
     1
 91
        0
 92
        0
 62
   257
 93
        1
300
CONTENTFORMAT
  1
CONTENTFORMAT_BEGIN
 90
        0
 91
        0
 92
      512
 93
        0
300

 40
0.0
140
1.0
 94
        5
 62
     0
340
17
144
4.5
309
CONTENTFORMAT_END
171
     1
301
MARGIN
  1
CELLMARGIN_BEGIN
 40
1.5
 40
1.5
 40
1.5
 40
1.5
 40
4.5
 40
4.5
309
CELLMARGIN_END
 94
        6
 95
        1
302
GRIDFORMAT
  1
GRIDFORMAT_BEGIN
 90
        0
 91
        1
 62
     0
 92
       -2
340
0
 93
        0
 40
1.125
309
GRIDFORMAT_END
 95
        2
302
GRIDFORMAT
  1
GRIDFORMAT_BEGIN
 90
        0
 91
        1
 62
     0
 92
       -2
340
0
 93
        0
 40
1.125
309
GRIDFORMAT_END
 95
        4
302
GRIDFORMAT
  1
GRIDFORMAT_BEGIN
 90
        0
 91
        1
 62
     0
 92
       -2
340
0
 93
        0
 40
1.125
309
GRIDFORMAT_END
 95
        8
302
GRIDFORMAT
  1
GRIDFORMAT_BEGIN
 90
        0
 91
        1
 62
     0
 92
       -2
340
0
 93
        0
 40
1.125
309
GRIDFORMAT_END
 95
       16
302
GRIDFORMAT
  1
GRIDFORMAT_BEGIN
 90
        0
 91
        1
 62
     0
 92
       -2
340
0
 93
        0
 40
1.125
309
GRIDFORMAT_END
 95
       32
302
GRIDFORMAT
  1
GRIDFORMAT_BEGIN
 90
        0
 91
        1
 62
     0
 92
       -2
340
0
 93
        0
 40
1.125
309
GRIDFORMAT_END
309
TABLEFORMAT_END
  1
CELLSTYLE_BEGIN
 90
        2
 91
        1
300
_HEADER
309
CELLSTYLE_END
300
CELLSTYLE
  1
TABLEFORMAT_BEGIN
 90
        5
170
     1
 91
        0
 92
        0
 62
   257
 93
        1
300
CONTENTFORMAT
  1
CONTENTFORMAT_BEGIN
 90
        0
 91
        0
 92
      512
 93
        0
300

 40
0.0
140
1.0
 94
        2
 62
     0
340
17
144
4.5
309
CONTENTFORMAT_END
171
     1
301
MARGIN
  1
CELLMARGIN_BEGIN
 40
1.5
 40
1.5
 40
1.5
 40
1.5
 40
4.5
 40
4.5
309
CELLMARGIN_END
 94
        6
 95
        1
302
GRIDFORMAT
  1
GRIDFORMAT_BEGIN
 90
        0
 91
        1
 62
     0
 92
       -2
340
0
 93
        0
 40
1.125
309
GRIDFORMAT_END
 95
        2
302
GRIDFORMAT
  1
GRIDFORMAT_BEGIN
 90
        0
 91
        1
 62
     0
 92
       -2
340
0
 93
        0
 40
1.125
309
GRIDFORMAT_END
 95
        4
302
GRIDFORMAT
  1
GRIDFORMAT_BEGIN
 90
        0
 91
        1
 62
     0
 92
       -2
340
0
 93
        0
 40
1.125
309
GRIDFORMAT_END
 95
        8
302
GRIDFORMAT
  1
GRIDFORMAT_BEGIN
 90
        0
 91
        1
 62
     0
 92
       -2
340
0
 93
        0
 40
1.125
309
GRIDFORMAT_END
 95
       16
302
GRIDFORMAT
  1
GRIDFORMAT_BEGIN
 90
        0
 91
        1
 62
     0
 92
       -2
340
0
 93
        0
 40
1.125
309
GRIDFORMAT_END
 95
       32
302
GRIDFORMAT
  1
GRIDFORMAT_BEGIN
 90
        0
 91
        1
 62
     0
 92
       -2
340
0
 93
        0
 40
1.125
309
GRIDFORMAT_END
309
TABLEFORMAT_END
  1
CELLSTYLE_BEGIN
 90
        3
 91
        2
300
_DATA
309
CELLSTYLE_END
  0
XRECORD
  5
4E5
102
{ACAD_REACTORS
330
456
102
}
330
456
100
AcDbXrecord
280
     1
102
ACAD_ROUNDTRIP_PRE2007_TABLESTYLE
 90
      512
 91
        0
  1

 92
      512
 93
        0
  2

 94
      512
 95
        0
  3

  0
XRECORD
  5
4C0
102
{ACAD_REACTORS
330
4BF
102
}
330
4BF
100
AcDbXrecord
280
     1
102
RTVSPropertyOp0
 70
     1
102
RTVSPropertyOp1
 70
     1
102
RTVSPropertyOp2
 70
     1
102
RTVSPropertyOp3
 70
     1
102
RTVSPropertyOp4
 70
     1
102
RTVSPropertyOp5
 70
     1
102
RTVSPropertyOp6
 70
     1
102
RTVSPropertyOp7
 70
     1
102
RTVSPropertyOp8
 70
     1
102
RTVSPropertyOp9
 70
     1
102
RTVSPropertyOp10
 70
     1
102
RTVSPropertyOp11
 70
     1
102
RTVSPropertyOp12
 70
     1
102
RTVSPropertyOp13
 70
     1
102
RTVSPropertyOp14
 70
     1
102
RTVSPropertyOp15
 70
     1
102
RTVSPropertyOp16
 70
     1
102
RTVSPropertyOp17
 70
     1
102
RTVSPropertyOp18
 70
     1
102
RTVSPropertyOp19
 70
     1
102
RTVSPropertyOp20
 70
     1
102
RTVSPropertyOp21
 70
     1
102
RTVSPropertyOp22
 70
     1
102
RTVSPropertyOp23
 70
     1
102
RTVSPropertyOp24
 70
     1
102
RTVSPropertyOp25
 70
     1
102
RTVSPropertyOp26
 70
     1
102
RTVSPropertyOp27
 70
     1
102
RTVSPropertyOp28
 70
     1
102
RTVSPropertyOp29
 70
     1
102
RTVSPropertyOp30
 70
     1
102
RTVSPropertyOp31
 70
     1
102
RTVSPropertyOp32
 70
     1
  0
XRECORD
  5
4BE
102
{ACAD_REACTORS
330
4BD
102
}
330
4BD
100
AcDbXrecord
280
     1
102
RTVSPropertyOp0
 70
     1
102
RTVSPropertyOp1
 70
     1
102
RTVSPropertyOp2
 70
     1
102
RTVSPropertyOp3
 70
     1
102
RTVSPropertyOp4
 70
     1
102
RTVSPropertyOp5
 70
     1
102
RTVSPropertyOp6
 70
     1
102
RTVSPropertyOp7
 70
     1
102
RTVSPropertyOp8
 70
     1
102
RTVSPropertyOp9
 70
     1
102
RTVSPropertyOp10
 70
     1
102
RTVSPropertyOp11
 70
     1
102
RTVSPropertyOp12
 70
     1
102
RTVSPropertyOp13
 70
     1
102
RTVSPropertyOp14
 70
     1
102
RTVSPropertyOp15
 70
     1
102
RTVSPropertyOp16
 70
     1
102
RTVSPropertyOp17
 70
     1
102
RTVSPropertyOp18
 70
     1
102
RTVSPropertyOp19
 70
     1
102
RTVSPropertyOp20
 70
     1
102
RTVSPropertyOp21
 70
     1
102
RTVSPropertyOp22
 70
     1
102
RTVSPropertyOp23
 70
     1
102
RTVSPropertyOp24
 70
     1
102
RTVSPropertyOp25
 70
     1
102
RTVSPropertyOp26
 70
     1
102
RTVSPropertyOp27
 70
     1
102
RTVSPropertyOp28
 70
     1
102
RTVSPropertyOp29
 70
     1
102
RTVSPropertyOp30
 70
     1
102
RTVSPropertyOp31
 70
     1
102
RTVSPropertyOp32
 70
     1
  0
XRECORD
  5
4CC
102
{ACAD_REACTORS
330
4CB
102
}
330
4CB
100
AcDbXrecord
280
     1
102
RTVSPropertyOp0
 70
     1
102
RTVSPropertyOp1
 70
     1
102
RTVSPropertyOp2
 70
     1
102
RTVSPropertyOp3
 70
     1
102
RTVSPropertyOp4
 70
     1
102
RTVSPropertyOp5
 70
     1
102
RTVSPropertyOp6
 70
     1
102
RTVSPropertyOp7
 70
     1
102
RTVSPropertyOp8
 70
     1
102
RTVSPropertyOp9
 70
     1
102
RTVSPropertyOp10
 70
     1
102
RTVSPropertyOp11
 70
     1
102
RTVSPropertyOp12
 70
     1
102
RTVSPropertyOp13
 70
     1
102
RTVSPropertyOp14
 70
     1
102
RTVSPropertyOp15
 70
     1
102
RTVSPropertyOp16
 70
     1
102
RTVSPropertyOp17
 70
     1
102
RTVSPropertyOp18
 70
     1
102
RTVSPropertyOp19
 70
     1
102
RTVSPropertyOp20
 70
     1
102
RTVSPropertyOp21
 70
     1
102
RTVSPropertyOp22
 70
     1
102
RTVSPropertyOp23
 70
     1
102
RTVSPropertyOp24
 70
     1
102
RTVSPropertyOp25
 70
     1
102
RTVSPropertyOp26
 70
     1
102
RTVSPropertyOp27
 70
     1
102
RTVSPropertyOp28
 70
     1
102
RTVSPropertyOp29
 70
     1
102
RTVSPropertyOp30
 70
     1
102
RTVSPropertyOp31
 70
     1
102
RTVSPropertyOp32
 70
     1
  0
XRECORD
  5
4D4
102
{ACAD_REACTORS
330
4D3
102
}
330
4D3
100
AcDbXrecord
280
     1
102
RTVSPropertyOp0
 70
     1
102
RTVSPropertyOp1
 70
     1
102
RTVSPropertyOp2
 70
     1
102
RTVSPropertyOp3
 70
     1
102
RTVSPropertyOp4
 70
     1
102
RTVSPropertyOp5
 70
     1
102
RTVSPropertyOp6
 70
     1
102
RTVSPropertyOp7
 70
     1
102
RTVSPropertyOp8
 70
     1
102
RTVSPropertyOp9
 70
     1
102
RTVSPropertyOp10
 70
     1
102
RTVSPropertyOp11
 70
     1
102
RTVSPropertyOp12
 70
     1
102
RTVSPropertyOp13
 70
     1
102
RTVSPropertyOp14
 70
     1
102
RTVSPropertyOp15
 70
     1
102
RTVSPropertyOp16
 70
     1
102
RTVSPropertyOp17
 70
     1
102
RTVSPropertyOp18
 70
     1
102
RTVSPropertyOp19
 70
     1
102
RTVSPropertyOp20
 70
     1
102
RTVSPropertyOp21
 70
     1
102
RTVSPropertyOp22
 70
     1
102
RTVSPropertyOp23
 70
     1
102
RTVSPropertyOp24
 70
     1
102
RTVSPropertyOp25
 70
     1
102
RTVSPropertyOp26
 70
     1
102
RTVSPropertyOp27
 70
     1
102
RTVSPropertyOp28
 70
     1
102
RTVSPropertyOp29
 70
     1
102
RTVSPropertyOp30
 70
     1
102
RTVSPropertyOp31
 70
     1
102
RTVSPropertyOp32
 70
     1
  0
XRECORD
  5
4C6
102
{ACAD_REACTORS
330
4C5
102
}
330
4C5
100
AcDbXrecord
280
     1
102
RTVSPropertyOp0
 70
     1
102
RTVSPropertyOp1
 70
     1
102
RTVSPropertyOp2
 70
     1
102
RTVSPropertyOp3
 70
     1
102
RTVSPropertyOp4
 70
     1
102
RTVSPropertyOp5
 70
     1
102
RTVSPropertyOp6
 70
     1
102
RTVSPropertyOp7
 70
     1
102
RTVSPropertyOp8
 70
     1
102
RTVSPropertyOp9
 70
     1
102
RTVSPropertyOp10
 70
     1
102
RTVSPropertyOp11
 70
     1
102
RTVSPropertyOp12
 70
     1
102
RTVSPropertyOp13
 70
     1
102
RTVSPropertyOp14
 70
     1
102
RTVSPropertyOp15
 70
     1
102
RTVSPropertyOp16
 70
     1
102
RTVSPropertyOp17
 70
     1
102
RTVSPropertyOp18
 70
     1
102
RTVSPropertyOp19
 70
     1
102
RTVSPropertyOp20
 70
     1
102
RTVSPropertyOp21
 70
     1
102
RTVSPropertyOp22
 70
     1
102
RTVSPropertyOp23
 70
     1
102
RTVSPropertyOp24
 70
     1
102
RTVSPropertyOp25
 70
     1
102
RTVSPropertyOp26
 70
     1
102
RTVSPropertyOp27
 70
     1
102
RTVSPropertyOp28
 70
     1
102
RTVSPropertyOp29
 70
     1
102
RTVSPropertyOp30
 70
     1
102
RTVSPropertyOp31
 70
     1
102
RTVSPropertyOp32
 70
     1
  0
XRECORD
  5
4CA
102
{ACAD_REACTORS
330
4C9
102
}
330
4C9
100
AcDbXrecord
280
     1
102
RTVSPropertyOp0
 70
     1
102
RTVSPropertyOp1
 70
     1
102
RTVSPropertyOp2
 70
     1
102
RTVSPropertyOp3
 70
     1
102
RTVSPropertyOp4
 70
     1
102
RTVSPropertyOp5
 70
     1
102
RTVSPropertyOp6
 70
     1
102
RTVSPropertyOp7
 70
     1
102
RTVSPropertyOp8
 70
     1
102
RTVSPropertyOp9
 70
     1
102
RTVSPropertyOp10
 70
     1
102
RTVSPropertyOp11
 70
     1
102
RTVSPropertyOp12
 70
     1
102
RTVSPropertyOp13
 70
     1
102
RTVSPropertyOp14
 70
     1
102
RTVSPropertyOp15
 70
     1
102
RTVSPropertyOp16
 70
     1
102
RTVSPropertyOp17
 70
     1
102
RTVSPropertyOp18
 70
     1
102
RTVSPropertyOp19
 70
     1
102
RTVSPropertyOp20
 70
     1
102
RTVSPropertyOp21
 70
     1
102
RTVSPropertyOp22
 70
     1
102
RTVSPropertyOp23
 70
     1
102
RTVSPropertyOp24
 70
     1
102
RTVSPropertyOp25
 70
     1
102
RTVSPropertyOp26
 70
     1
102
RTVSPropertyOp27
 70
     1
102
RTVSPropertyOp28
 70
     1
102
RTVSPropertyOp29
 70
     1
102
RTVSPropertyOp30
 70
     1
102
RTVSPropertyOp31
 70
     1
102
RTVSPropertyOp32
 70
     1
  0
XRECORD
  5
4E4
102
{ACAD_REACTORS
330
4E3
102
}
330
4E3
100
AcDbXrecord
280
     1
102
RTVSPropertyOp0
 70
     0
102
RTVSPropertyOp1
 70
     0
102
RTVSPropertyOp2
 70
     0
102
RTVSPropertyOp3
 70
     0
102
RTVSPropertyOp4
 70
     0
102
RTVSPropertyOp5
 70
     0
102
RTVSPropertyOp6
 70
     0
102
RTVSPropertyOp7
 70
     0
102
RTVSPropertyOp8
 70
     0
102
RTVSPropertyOp9
 70
     0
102
RTVSPropertyOp10
 70
     0
102
RTVSPropertyOp11
 70
     0
102
RTVSPropertyOp12
 70
     0
102
RTVSPropertyOp13
 70
     0
102
RTVSPropertyOp14
 70
     2
102
RTVSPropertyOp15
 70
     0
102
RTVSPropertyOp16
 70
     0
102
RTVSPropertyOp17
 70
     0
102
RTVSPropertyOp18
 70
     0
102
RTVSPropertyOp19
 70
     0
102
RTVSPropertyOp20
 70
     0
102
RTVSPropertyOp21
 70
     0
102
RTVSPropertyOp22
 70
     0
102
RTVSPropertyOp23
 70
     0
102
RTVSPropertyOp24
 70
     0
102
RTVSPropertyOp25
 70
     0
102
RTVSPropertyOp26
 70
     0
102
RTVSPropertyOp27
 70
     0
102
RTVSPropertyOp28
 70
     0
102
RTVSPropertyOp29
 70
     0
102
RTVSPropertyOp30
 70
     0
102
RTVSPropertyOp31
 70
     0
102
RTVSPropertyOp32
 70
     0
  0
XRECORD
  5
4D2
102
{ACAD_REACTORS
330
4D1
102
}
330
4D1
100
AcDbXrecord
280
     1
102
RTVSPropertyOp0
 70
     1
102
RTVSPropertyOp1
 70
     1
102
RTVSPropertyOp2
 70
     1
102
RTVSPropertyOp3
 70
     1
102
RTVSPropertyOp4
 70
     1
102
RTVSPropertyOp5
 70
     1
102
RTVSPropertyOp6
 70
     1
102
RTVSPropertyOp7
 70
     1
102
RTVSPropertyOp8
 70
     1
102
RTVSPropertyOp9
 70
     1
102
RTVSPropertyOp10
 70
     1
102
RTVSPropertyOp11
 70
     1
102
RTVSPropertyOp12
 70
     1
102
RTVSPropertyOp13
 70
     1
102
RTVSPropertyOp14
 70
     1
102
RTVSPropertyOp15
 70
     1
102
RTVSPropertyOp16
 70
     1
102
RTVSPropertyOp17
 70
     1
102
RTVSPropertyOp18
 70
     1
102
RTVSPropertyOp19
 70
     1
102
RTVSPropertyOp20
 70
     1
102
RTVSPropertyOp21
 70
     1
102
RTVSPropertyOp22
 70
     1
102
RTVSPropertyOp23
 70
     1
102
RTVSPropertyOp24
 70
     1
102
RTVSPropertyOp25
 70
     1
102
RTVSPropertyOp26
 70
     1
102
RTVSPropertyOp27
 70
     1
102
RTVSPropertyOp28
 70
     1
102
RTVSPropertyOp29
 70
     1
102
RTVSPropertyOp30
 70
     1
102
RTVSPropertyOp31
 70
     1
102
RTVSPropertyOp32
 70
     1
  0
XRECORD
  5
4B6
102
{ACAD_REACTORS
330
4B5
102
}
330
4B5
100
AcDbXrecord
280
     1
102
RTVSPropertyOp0
 70
     1
102
RTVSPropertyOp1
 70
     1
102
RTVSPropertyOp2
 70
     1
102
RTVSPropertyOp3
 70
     1
102
RTVSPropertyOp4
 70
     1
102
RTVSPropertyOp5
 70
     1
102
RTVSPropertyOp6
 70
     1
102
RTVSPropertyOp7
 70
     1
102
RTVSPropertyOp8
 70
     1
102
RTVSPropertyOp9
 70
     1
102
RTVSPropertyOp10
 70
     1
102
RTVSPropertyOp11
 70
     1
102
RTVSPropertyOp12
 70
     1
102
RTVSPropertyOp13
 70
     1
102
RTVSPropertyOp14
 70
     1
102
RTVSPropertyOp15
 70
     1
102
RTVSPropertyOp16
 70
     1
102
RTVSPropertyOp17
 70
     1
102
RTVSPropertyOp18
 70
     1
102
RTVSPropertyOp19
 70
     1
102
RTVSPropertyOp20
 70
     1
102
RTVSPropertyOp21
 70
     1
102
RTVSPropertyOp22
 70
     1
102
RTVSPropertyOp23
 70
     1
102
RTVSPropertyOp24
 70
     1
102
RTVSPropertyOp25
 70
     1
102
RTVSPropertyOp26
 70
     1
102
RTVSPropertyOp27
 70
     1
102
RTVSPropertyOp28
 70
     1
102
RTVSPropertyOp29
 70
     1
102
RTVSPropertyOp30
 70
     1
102
RTVSPropertyOp31
 70
     1
102
RTVSPropertyOp32
 70
     1
  0
XRECORD
  5
4B8
102
{ACAD_REACTORS
330
4B7
102
}
330
4B7
100
AcDbXrecord
280
     1
102
RTVSPropertyOp0
 70
     1
102
RTVSPropertyOp1
 70
     1
102
RTVSPropertyOp2
 70
     1
102
RTVSPropertyOp3
 70
     1
102
RTVSPropertyOp4
 70
     1
102
RTVSPropertyOp5
 70
     1
102
RTVSPropertyOp6
 70
     1
102
RTVSPropertyOp7
 70
     1
102
RTVSPropertyOp8
 70
     1
102
RTVSPropertyOp9
 70
     1
102
RTVSPropertyOp10
 70
     1
102
RTVSPropertyOp11
 70
     1
102
RTVSPropertyOp12
 70
     1
102
RTVSPropertyOp13
 70
     1
102
RTVSPropertyOp14
 70
     1
102
RTVSPropertyOp15
 70
     1
102
RTVSPropertyOp16
 70
     1
102
RTVSPropertyOp17
 70
     1
102
RTVSPropertyOp18
 70
     1
102
RTVSPropertyOp19
 70
     1
102
RTVSPropertyOp20
 70
     1
102
RTVSPropertyOp21
 70
     1
102
RTVSPropertyOp22
 70
     1
102
RTVSPropertyOp23
 70
     1
102
RTVSPropertyOp24
 70
     1
102
RTVSPropertyOp25
 70
     1
102
RTVSPropertyOp26
 70
     1
102
RTVSPropertyOp27
 70
     1
102
RTVSPropertyOp28
 70
     1
102
RTVSPropertyOp29
 70
     1
102
RTVSPropertyOp30
 70
     1
102
RTVSPropertyOp31
 70
     1
102
RTVSPropertyOp32
 70
     1
  0
XRECORD
  5
4BA
102
{ACAD_REACTORS
330
4B9
102
}
330
4B9
100
AcDbXrecord
280
     1
102
RTVSPropertyOp0
 70
     1
102
RTVSPropertyOp1
 70
     1
102
RTVSPropertyOp2
 70
     1
102
RTVSPropertyOp3
 70
     1
102
RTVSPropertyOp4
 70
     1
102
RTVSPropertyOp5
 70
     1
102
RTVSPropertyOp6
 70
     1
102
RTVSPropertyOp7
 70
     1
102
RTVSPropertyOp8
 70
     1
102
RTVSPropertyOp9
 70
     1
102
RTVSPropertyOp10
 70
     1
102
RTVSPropertyOp11
 70
     1
102
RTVSPropertyOp12
 70
     1
102
RTVSPropertyOp13
 70
     1
102
RTVSPropertyOp14
 70
     1
102
RTVSPropertyOp15
 70
     1
102
RTVSPropertyOp16
 70
     1
102
RTVSPropertyOp17
 70
     1
102
RTVSPropertyOp18
 70
     1
102
RTVSPropertyOp19
 70
     1
102
RTVSPropertyOp20
 70
     1
102
RTVSPropertyOp21
 70
     1
102
RTVSPropertyOp22
 70
     1
102
RTVSPropertyOp23
 70
     1
102
RTVSPropertyOp24
 70
     1
102
RTVSPropertyOp25
 70
     1
102
RTVSPropertyOp26
 70
     1
102
RTVSPropertyOp27
 70
     1
102
RTVSPropertyOp28
 70
     1
102
RTVSPropertyOp29
 70
     1
102
RTVSPropertyOp30
 70
     1
102
RTVSPropertyOp31
 70
     1
102
RTVSPropertyOp32
 70
     1
  0
XRECORD
  5
4BC
102
{ACAD_REACTORS
330
4BB
102
}
330
4BB
100
AcDbXrecord
280
     1
102
RTVSPropertyOp0
 70
     1
102
RTVSPropertyOp1
 70
     1
102
RTVSPropertyOp2
 70
     1
102
RTVSPropertyOp3
 70
     1
102
RTVSPropertyOp4
 70
     1
102
RTVSPropertyOp5
 70
     1
102
RTVSPropertyOp6
 70
     1
102
RTVSPropertyOp7
 70
     1
102
RTVSPropertyOp8
 70
     1
102
RTVSPropertyOp9
 70
     1
102
RTVSPropertyOp10
 70
     1
102
RTVSPropertyOp11
 70
     1
102
RTVSPropertyOp12
 70
     1
102
RTVSPropertyOp13
 70
     1
102
RTVSPropertyOp14
 70
     1
102
RTVSPropertyOp15
 70
     1
102
RTVSPropertyOp16
 70
     1
102
RTVSPropertyOp17
 70
     1
102
RTVSPropertyOp18
 70
     1
102
RTVSPropertyOp19
 70
     1
102
RTVSPropertyOp20
 70
     1
102
RTVSPropertyOp21
 70
     1
102
RTVSPropertyOp22
 70
     1
102
RTVSPropertyOp23
 70
     1
102
RTVSPropertyOp24
 70
     1
102
RTVSPropertyOp25
 70
     1
102
RTVSPropertyOp26
 70
     1
102
RTVSPropertyOp27
 70
     1
102
RTVSPropertyOp28
 70
     1
102
RTVSPropertyOp29
 70
     1
102
RTVSPropertyOp30
 70
     1
102
RTVSPropertyOp31
 70
     1
102
RTVSPropertyOp32
 70
     1
  0
XRECORD
  5
4C4
102
{ACAD_REACTORS
330
4C3
102
}
330
4C3
100
AcDbXrecord
280
     1
102
RTVSPropertyOp0
 70
     1
102
RTVSPropertyOp1
 70
     1
102
RTVSPropertyOp2
 70
     1
102
RTVSPropertyOp3
 70
     1
102
RTVSPropertyOp4
 70
     1
102
RTVSPropertyOp5
 70
     1
102
RTVSPropertyOp6
 70
     1
102
RTVSPropertyOp7
 70
     1
102
RTVSPropertyOp8
 70
     1
102
RTVSPropertyOp9
 70
     1
102
RTVSPropertyOp10
 70
     1
102
RTVSPropertyOp11
 70
     1
102
RTVSPropertyOp12
 70
     1
102
RTVSPropertyOp13
 70
     1
102
RTVSPropertyOp14
 70
     1
102
RTVSPropertyOp15
 70
     1
102
RTVSPropertyOp16
 70
     1
102
RTVSPropertyOp17
 70
     1
102
RTVSPropertyOp18
 70
     1
102
RTVSPropertyOp19
 70
     1
102
RTVSPropertyOp20
 70
     1
102
RTVSPropertyOp21
 70
     1
102
RTVSPropertyOp22
 70
     1
102
RTVSPropertyOp23
 70
     1
102
RTVSPropertyOp24
 70
     1
102
RTVSPropertyOp25
 70
     1
102
RTVSPropertyOp26
 70
     1
102
RTVSPropertyOp27
 70
     1
102
RTVSPropertyOp28
 70
     1
102
RTVSPropertyOp29
 70
     1
102
RTVSPropertyOp30
 70
     1
102
RTVSPropertyOp31
 70
     1
102
RTVSPropertyOp32
 70
     1
  0
XRECORD
  5
4E0
102
{ACAD_REACTORS
330
4DF
102
}
330
4DF
100
AcDbXrecord
280
     1
102
RTVSPropertyOp0
 70
     0
102
RTVSPropertyOp1
 70
     0
102
RTVSPropertyOp2
 70
     0
102
RTVSPropertyOp3
 70
     0
102
RTVSPropertyOp4
 70
     0
102
RTVSPropertyOp5
 70
     0
102
RTVSPropertyOp6
 70
     0
102
RTVSPropertyOp7
 70
     0
102
RTVSPropertyOp8
 70
     0
102
RTVSPropertyOp9
 70
     0
102
RTVSPropertyOp10
 70
     0
102
RTVSPropertyOp11
 70
     0
102
RTVSPropertyOp12
 70
     0
102
RTVSPropertyOp13
 70
     0
102
RTVSPropertyOp14
 70
     2
102
RTVSPropertyOp15
 70
     0
102
RTVSPropertyOp16
 70
     0
102
RTVSPropertyOp17
 70
     0
102
RTVSPropertyOp18
 70
     0
102
RTVSPropertyOp19
 70
     0
102
RTVSPropertyOp20
 70
     0
102
RTVSPropertyOp21
 70
     0
102
RTVSPropertyOp22
 70
     0
102
RTVSPropertyOp23
 70
     0
102
RTVSPropertyOp24
 70
     0
102
RTVSPropertyOp25
 70
     0
102
RTVSPropertyOp26
 70
     0
102
RTVSPropertyOp27
 70
     0
102
RTVSPropertyOp28
 70
     0
102
RTVSPropertyOp29
 70
     0
102
RTVSPropertyOp30
 70
     0
102
RTVSPropertyOp31
 70
     0
102
RTVSPropertyOp32
 70
     0
  0
XRECORD
  5
4D0
102
{ACAD_REACTORS
330
4CF
102
}
330
4CF
100
AcDbXrecord
280
     1
102
RTVSPropertyOp0
 70
     1
102
RTVSPropertyOp1
 70
     1
102
RTVSPropertyOp2
 70
     1
102
RTVSPropertyOp3
 70
     1
102
RTVSPropertyOp4
 70
     1
102
RTVSPropertyOp5
 70
     1
102
RTVSPropertyOp6
 70
     1
102
RTVSPropertyOp7
 70
     1
102
RTVSPropertyOp8
 70
     1
102
RTVSPropertyOp9
 70
     1
102
RTVSPropertyOp10
 70
     1
102
RTVSPropertyOp11
 70
     1
102
RTVSPropertyOp12
 70
     1
102
RTVSPropertyOp13
 70
     1
102
RTVSPropertyOp14
 70
     1
102
RTVSPropertyOp15
 70
     1
102
RTVSPropertyOp16
 70
     1
102
RTVSPropertyOp17
 70
     1
102
RTVSPropertyOp18
 70
     1
102
RTVSPropertyOp19
 70
     1
102
RTVSPropertyOp20
 70
     1
102
RTVSPropertyOp21
 70
     1
102
RTVSPropertyOp22
 70
     1
102
RTVSPropertyOp23
 70
     1
102
RTVSPropertyOp24
 70
     1
102
RTVSPropertyOp25
 70
     1
102
RTVSPropertyOp26
 70
     1
102
RTVSPropertyOp27
 70
     1
102
RTVSPropertyOp28
 70
     1
102
RTVSPropertyOp29
 70
     1
102
RTVSPropertyOp30
 70
     1
102
RTVSPropertyOp31
 70
     1
102
RTVSPropertyOp32
 70
     1
  0
XRECORD
  5
4E2
102
{ACAD_REACTORS
330
4E1
102
}
330
4E1
100
AcDbXrecord
280
     1
102
RTVSPropertyOp0
 70
     0
102
RTVSPropertyOp1
 70
     0
102
RTVSPropertyOp2
 70
     0
102
RTVSPropertyOp3
 70
     0
102
RTVSPropertyOp4
 70
     0
102
RTVSPropertyOp5
 70
     0
102
RTVSPropertyOp6
 70
     0
102
RTVSPropertyOp7
 70
     0
102
RTVSPropertyOp8
 70
     0
102
RTVSPropertyOp9
 70
     0
102
RTVSPropertyOp10
 70
     0
102
RTVSPropertyOp11
 70
     0
102
RTVSPropertyOp12
 70
     0
102
RTVSPropertyOp13
 70
     0
102
RTVSPropertyOp14
 70
     2
102
RTVSPropertyOp15
 70
     0
102
RTVSPropertyOp16
 70
     0
102
RTVSPropertyOp17
 70
     0
102
RTVSPropertyOp18
 70
     0
102
RTVSPropertyOp19
 70
     0
102
RTVSPropertyOp20
 70
     0
102
RTVSPropertyOp21
 70
     0
102
RTVSPropertyOp22
 70
     0
102
RTVSPropertyOp23
 70
     0
102
RTVSPropertyOp24
 70
     0
102
RTVSPropertyOp25
 70
     0
102
RTVSPropertyOp26
 70
     0
102
RTVSPropertyOp27
 70
     0
102
RTVSPropertyOp28
 70
     0
102
RTVSPropertyOp29
 70
     0
102
RTVSPropertyOp30
 70
     0
102
RTVSPropertyOp31
 70
     0
102
RTVSPropertyOp32
 70
     0
  0
XRECORD
  5
4C8
102
{ACAD_REACTORS
330
4C7
102
}
330
4C7
100
AcDbXrecord
280
     1
102
RTVSPropertyOp0
 70
     1
102
RTVSPropertyOp1
 70
     1
102
RTVSPropertyOp2
 70
     1
102
RTVSPropertyOp3
 70
     1
102
RTVSPropertyOp4
 70
     1
102
RTVSPropertyOp5
 70
     1
102
RTVSPropertyOp6
 70
     1
102
RTVSPropertyOp7
 70
     1
102
RTVSPropertyOp8
 70
     1
102
RTVSPropertyOp9
 70
     1
102
RTVSPropertyOp10
 70
     1
102
RTVSPropertyOp11
 70
     1
102
RTVSPropertyOp12
 70
     1
102
RTVSPropertyOp13
 70
     1
102
RTVSPropertyOp14
 70
     1
102
RTVSPropertyOp15
 70
     1
102
RTVSPropertyOp16
 70
     1
102
RTVSPropertyOp17
 70
     1
102
RTVSPropertyOp18
 70
     1
102
RTVSPropertyOp19
 70
     1
102
RTVSPropertyOp20
 70
     1
102
RTVSPropertyOp21
 70
     1
102
RTVSPropertyOp22
 70
     1
102
RTVSPropertyOp23
 70
     1
102
RTVSPropertyOp24
 70
     1
102
RTVSPropertyOp25
 70
     1
102
RTVSPropertyOp26
 70
     1
102
RTVSPropertyOp27
 70
     1
102
RTVSPropertyOp28
 70
     1
102
RTVSPropertyOp29
 70
     1
102
RTVSPropertyOp30
 70
     1
102
RTVSPropertyOp31
 70
     1
102
RTVSPropertyOp32
 70
     1
  0
XRECORD
  5
4DE
102
{ACAD_REACTORS
330
4DD
102
}
330
4DD
100
AcDbXrecord
280
     1
102
RTVSPropertyOp0
 70
     1
102
RTVSPropertyOp1
 70
     1
102
RTVSPropertyOp2
 70
     1
102
RTVSPropertyOp3
 70
     1
102
RTVSPropertyOp4
 70
     1
102
RTVSPropertyOp5
 70
     1
102
RTVSPropertyOp6
 70
     1
102
RTVSPropertyOp7
 70
     1
102
RTVSPropertyOp8
 70
     1
102
RTVSPropertyOp9
 70
     1
102
RTVSPropertyOp10
 70
     1
102
RTVSPropertyOp11
 70
     1
102
RTVSPropertyOp12
 70
     1
102
RTVSPropertyOp13
 70
     1
102
RTVSPropertyOp14
 70
     1
102
RTVSPropertyOp15
 70
     1
102
RTVSPropertyOp16
 70
     1
102
RTVSPropertyOp17
 70
     1
102
RTVSPropertyOp18
 70
     1
102
RTVSPropertyOp19
 70
     1
102
RTVSPropertyOp20
 70
     1
102
RTVSPropertyOp21
 70
     1
102
RTVSPropertyOp22
 70
     1
102
RTVSPropertyOp23
 70
     1
102
RTVSPropertyOp24
 70
     1
102
RTVSPropertyOp25
 70
     1
102
RTVSPropertyOp26
 70
     1
102
RTVSPropertyOp27
 70
     1
102
RTVSPropertyOp28
 70
     1
102
RTVSPropertyOp29
 70
     1
102
RTVSPropertyOp30
 70
     1
102
RTVSPropertyOp31
 70
     1
102
RTVSPropertyOp32
 70
     1
  0
XRECORD
  5
4DC
102
{ACAD_REACTORS
330
4DB
102
}
330
4DB
100
AcDbXrecord
280
     1
102
RTVSPropertyOp0
 70
     1
102
RTVSPropertyOp1
 70
     1
102
RTVSPropertyOp2
 70
     1
102
RTVSPropertyOp3
 70
     1
102
RTVSPropertyOp4
 70
     1
102
RTVSPropertyOp5
 70
     1
102
RTVSPropertyOp6
 70
     1
102
RTVSPropertyOp7
 70
     1
102
RTVSPropertyOp8
 70
     1
102
RTVSPropertyOp9
 70
     1
102
RTVSPropertyOp10
 70
     1
102
RTVSPropertyOp11
 70
     1
102
RTVSPropertyOp12
 70
     1
102
RTVSPropertyOp13
 70
     1
102
RTVSPropertyOp14
 70
     1
102
RTVSPropertyOp15
 70
     1
102
RTVSPropertyOp16
 70
     1
102
RTVSPropertyOp17
 70
     1
102
RTVSPropertyOp18
 70
     1
102
RTVSPropertyOp19
 70
     1
102
RTVSPropertyOp20
 70
     1
102
RTVSPropertyOp21
 70
     1
102
RTVSPropertyOp22
 70
     1
102
RTVSPropertyOp23
 70
     1
102
RTVSPropertyOp24
 70
     1
102
RTVSPropertyOp25
 70
     1
102
RTVSPropertyOp26
 70
     1
102
RTVSPropertyOp27
 70
     1
102
RTVSPropertyOp28
 70
     1
102
RTVSPropertyOp29
 70
     1
102
RTVSPropertyOp30
 70
     1
102
RTVSPropertyOp31
 70
     1
102
RTVSPropertyOp32
 70
     1
  0
XRECORD
  5
4D6
102
{ACAD_REACTORS
330
4D5
102
}
330
4D5
100
AcDbXrecord
280
     1
102
RTVSPropertyOp0
 70
     1
102
RTVSPropertyOp1
 70
     1
102
RTVSPropertyOp2
 70
     1
102
RTVSPropertyOp3
 70
     1
102
RTVSPropertyOp4
 70
     1
102
RTVSPropertyOp5
 70
     1
102
RTVSPropertyOp6
 70
     1
102
RTVSPropertyOp7
 70
     1
102
RTVSPropertyOp8
 70
     1
102
RTVSPropertyOp9
 70
     1
102
RTVSPropertyOp10
 70
     1
102
RTVSPropertyOp11
 70
     1
102
RTVSPropertyOp12
 70
     1
102
RTVSPropertyOp13
 70
     1
102
RTVSPropertyOp14
 70
     1
102
RTVSPropertyOp15
 70
     1
102
RTVSPropertyOp16
 70
     1
102
RTVSPropertyOp17
 70
     1
102
RTVSPropertyOp18
 70
     1
102
RTVSPropertyOp19
 70
     1
102
RTVSPropertyOp20
 70
     1
102
RTVSPropertyOp21
 70
     1
102
RTVSPropertyOp22
 70
     1
102
RTVSPropertyOp23
 70
     1
102
RTVSPropertyOp24
 70
     1
102
RTVSPropertyOp25
 70
     1
102
RTVSPropertyOp26
 70
     1
102
RTVSPropertyOp27
 70
     1
102
RTVSPropertyOp28
 70
     1
102
RTVSPropertyOp29
 70
     1
102
RTVSPropertyOp30
 70
     1
102
RTVSPropertyOp31
 70
     1
102
RTVSPropertyOp32
 70
     1
  0
XRECORD
  5
4D8
102
{ACAD_REACTORS
330
4D7
102
}
330
4D7
100
AcDbXrecord
280
     1
102
RTVSPropertyOp0
 70
     1
102
RTVSPropertyOp1
 70
     1
102
RTVSPropertyOp2
 70
     1
102
RTVSPropertyOp3
 70
     1
102
RTVSPropertyOp4
 70
     1
102
RTVSPropertyOp5
 70
     1
102
RTVSPropertyOp6
 70
     1
102
RTVSPropertyOp7
 70
     1
102
RTVSPropertyOp8
 70
     1
102
RTVSPropertyOp9
 70
     1
102
RTVSPropertyOp10
 70
     1
102
RTVSPropertyOp11
 70
     1
102
RTVSPropertyOp12
 70
     1
102
RTVSPropertyOp13
 70
     1
102
RTVSPropertyOp14
 70
     1
102
RTVSPropertyOp15
 70
     1
102
RTVSPropertyOp16
 70
     1
102
RTVSPropertyOp17
 70
     1
102
RTVSPropertyOp18
 70
     1
102
RTVSPropertyOp19
 70
     1
102
RTVSPropertyOp20
 70
     1
102
RTVSPropertyOp21
 70
     1
102
RTVSPropertyOp22
 70
     1
102
RTVSPropertyOp23
 70
     1
102
RTVSPropertyOp24
 70
     1
102
RTVSPropertyOp25
 70
     1
102
RTVSPropertyOp26
 70
     1
102
RTVSPropertyOp27
 70
     1
102
RTVSPropertyOp28
 70
     1
102
RTVSPropertyOp29
 70
     1
102
RTVSPropertyOp30
 70
     1
102
RTVSPropertyOp31
 70
     1
102
RTVSPropertyOp32
 70
     1
  0
XRECORD
  5
4CE
102
{ACAD_REACTORS
330
4CD
102
}
330
4CD
100
AcDbXrecord
280
     1
102
RTVSPropertyOp0
 70
     1
102
RTVSPropertyOp1
 70
     1
102
RTVSPropertyOp2
 70
     1
102
RTVSPropertyOp3
 70
     1
102
RTVSPropertyOp4
 70
     1
102
RTVSPropertyOp5
 70
     1
102
RTVSPropertyOp6
 70
     1
102
RTVSPropertyOp7
 70
     1
102
RTVSPropertyOp8
 70
     1
102
RTVSPropertyOp9
 70
     1
102
RTVSPropertyOp10
 70
     1
102
RTVSPropertyOp11
 70
     1
102
RTVSPropertyOp12
 70
     1
102
RTVSPropertyOp13
 70
     1
102
RTVSPropertyOp14
 70
     1
102
RTVSPropertyOp15
 70
     1
102
RTVSPropertyOp16
 70
     1
102
RTVSPropertyOp17
 70
     1
102
RTVSPropertyOp18
 70
     1
102
RTVSPropertyOp19
 70
     1
102
RTVSPropertyOp20
 70
     1
102
RTVSPropertyOp21
 70
     1
102
RTVSPropertyOp22
 70
     1
102
RTVSPropertyOp23
 70
     1
102
RTVSPropertyOp24
 70
     1
102
RTVSPropertyOp25
 70
     1
102
RTVSPropertyOp26
 70
     1
102
RTVSPropertyOp27
 70
     1
102
RTVSPropertyOp28
 70
     1
102
RTVSPropertyOp29
 70
     1
102
RTVSPropertyOp30
 70
     1
102
RTVSPropertyOp31
 70
     1
102
RTVSPropertyOp32
 70
     1
  0
XRECORD
  5
4C2
102
{ACAD_REACTORS
330
4C1
102
}
330
4C1
100
AcDbXrecord
280
     1
102
RTVSPropertyOp0
 70
     1
102
RTVSPropertyOp1
 70
     1
102
RTVSPropertyOp2
 70
     1
102
RTVSPropertyOp3
 70
     1
102
RTVSPropertyOp4
 70
     1
102
RTVSPropertyOp5
 70
     1
102
RTVSPropertyOp6
 70
     1
102
RTVSPropertyOp7
 70
     1
102
RTVSPropertyOp8
 70
     1
102
RTVSPropertyOp9
 70
     1
102
RTVSPropertyOp10
 70
     1
102
RTVSPropertyOp11
 70
     1
102
RTVSPropertyOp12
 70
     1
102
RTVSPropertyOp13
 70
     1
102
RTVSPropertyOp14
 70
     1
102
RTVSPropertyOp15
 70
     1
102
RTVSPropertyOp16
 70
     1
102
RTVSPropertyOp17
 70
     1
102
RTVSPropertyOp18
 70
     1
102
RTVSPropertyOp19
 70
     1
102
RTVSPropertyOp20
 70
     1
102
RTVSPropertyOp21
 70
     1
102
RTVSPropertyOp22
 70
     1
102
RTVSPropertyOp23
 70
     1
102
RTVSPropertyOp24
 70
     1
102
RTVSPropertyOp25
 70
     1
102
RTVSPropertyOp26
 70
     1
102
RTVSPropertyOp27
 70
     1
102
RTVSPropertyOp28
 70
     1
102
RTVSPropertyOp29
 70
     1
102
RTVSPropertyOp30
 70
     1
102
RTVSPropertyOp31
 70
     1
102
RTVSPropertyOp32
 70
     1
  0
XRECORD
  5
4DA
102
{ACAD_REACTORS
330
4D9
102
}
330
4D9
100
AcDbXrecord
280
     1
102
RTVSPropertyOp0
 70
     1
102
RTVSPropertyOp1
 70
     1
102
RTVSPropertyOp2
 70
     1
102
RTVSPropertyOp3
 70
     1
102
RTVSPropertyOp4
 70
     1
102
RTVSPropertyOp5
 70
     1
102
RTVSPropertyOp6
 70
     1
102
RTVSPropertyOp7
 70
     1
102
RTVSPropertyOp8
 70
     1
102
RTVSPropertyOp9
 70
     1
102
RTVSPropertyOp10
 70
     1
102
RTVSPropertyOp11
 70
     1
102
RTVSPropertyOp12
 70
     1
102
RTVSPropertyOp13
 70
     1
102
RTVSPropertyOp14
 70
     1
102
RTVSPropertyOp15
 70
     1
102
RTVSPropertyOp16
 70
     1
102
RTVSPropertyOp17
 70
     1
102
RTVSPropertyOp18
 70
     1
102
RTVSPropertyOp19
 70
     1
102
RTVSPropertyOp20
 70
     1
102
RTVSPropertyOp21
 70
     1
102
RTVSPropertyOp22
 70
     1
102
RTVSPropertyOp23
 70
     1
102
RTVSPropertyOp24
 70
     1
102
RTVSPropertyOp25
 70
     1
102
RTVSPropertyOp26
 70
     1
102
RTVSPropertyOp27
 70
     1
102
RTVSPropertyOp28
 70
     1
102
RTVSPropertyOp29
 70
     1
102
RTVSPropertyOp30
 70
     1
102
RTVSPropertyOp31
 70
     1
102
RTVSPropertyOp32
 70
     1
  0
ENDSEC
  0
EOF
