  0
SECTION
  2
HEADER
  9
$ACADVER
  1
AC1015
  9
$ACADMAINTVER
 70
    20
  9
$DWGCODEPAGE
  3
ANSI_932
  9
$INSBASE
 10
0.0
 20
0.0
 30
0.0
  9
$EXTMIN
 10
-89.85337779454665
 20
269.9081071048739
 30
0.0
  9
$EXTMAX
 10
290.6532968302837
 20
539.9081071048738
 30
0.0
  9
$LIMMIN
 10
0.0
 20
0.0
  9
$LIMMAX
 10
0.0
 20
0.0
  9
$ORTHOMODE
 70
     0
  9
$REGENMODE
 70
     1
  9
$FILLMODE
 70
     1
  9
$QTEXTMODE
 70
     0
  9
$MIRRTEXT
 70
     1
  9
$LTSCALE
 40
1.0
  9
$ATTMODE
 70
     1
  9
$TEXTSIZE
 40
0.0
  9
$TRACEWID
 40
0.05
  9
$TEXTSTYLE
  7
STANDARD
  9
$CLAYER
  8
0
  9
$CELTYPE
  6
CONTINUOUS
  9
$CECOLOR
 62
   256
  9
$CELTSCALE
 40
1.0
  9
$DISPSILH
 70
     0
  9
$DIMSCALE
 40
1.0
  9
$DIMASZ
 40
0.18
  9
$DIMEXO
 40
0.0625
  9
$DIMDLI
 40
0.38
  9
$DIMRND
 40
0.0
  9
$DIMDLE
 40
0.0
  9
$DIMEXE
 40
0.18
  9
$DIMTP
 40
0.0
  9
$DIMTM
 40
0.0
  9
$DIMTXT
 40
0.18
  9
$DIMCEN
 40
0.09
  9
$DIMTSZ
 40
0.0
  9
$DIMTOL
 70
     0
  9
$DIMLIM
 70
     0
  9
$DIMTIH
 70
     1
  9
$DIMTOH
 70
     1
  9
$DIMSE1
 70
     0
  9
$DIMSE2
 70
     0
  9
$DIMTAD
 70
     0
  9
$DIMZIN
 70
     0
  9
$DIMBLK
  1

  9
$DIMASO
 70
     1
  9
$DIMSHO
 70
     1
  9
$DIMPOST
  1

  9
$DIMAPOST
  1

  9
$DIMALT
 70
     0
  9
$DIMALTD
 70
     2
  9
$DIMALTF
 40
25.4
  9
$DIMLFAC
 40
1.0
  9
$DIMTOFL
 70
     0
  9
$DIMTVP
 40
0.0
  9
$DIMTIX
 70
     0
  9
$DIMSOXD
 70
     0
  9
$DIMSAH
 70
     0
  9
$DIMBLK1
  1

  9
$DIMBLK2
  1

  9
$DIMSTYLE
  2
STANDARD
  9
$DIMCLRD
 70
     0
  9
$DIMCLRE
 70
     0
  9
$DIMCLRT
 70
     0
  9
$DIMTFAC
 40
1.0
  9
$DIMGAP
 40
0.09
  9
$DIMJUST
 70
     0
  9
$DIMSD1
 70
     0
  9
$DIMSD2
 70
     0
  9
$DIMTOLJ
 70
     1
  9
$DIMTZIN
 70
     0
  9
$DIMALTZ
 70
     0
  9
$DIMALTTZ
 70
     0
  9
$DIMUPT
 70
     0
  9
$DIMDEC
 70
     4
  9
$DIMTDEC
 70
     4
  9
$DIMALTU
 70
     2
  9
$DIMALTTD
 70
     2
  9
$DIMTXSTY
  7
STANDARD
  9
$DIMAUNIT
 70
     0
  9
$DIMADEC
 70
     0
  9
$DIMALTRND
 40
0.0
  9
$DIMAZIN
 70
     0
  9
$DIMDSEP
 70
    46
  9
$DIMATFIT
 70
     3
  9
$DIMFRAC
 70
     0
  9
$DIMLDRBLK
  1

  9
$DIMLUNIT
 70
     2
  9
$DIMLWD
 70
    -2
  9
$DIMLWE
 70
    -2
  9
$DIMTMOVE
 70
     0
  9
$LUNITS
 70
     2
  9
$LUPREC
 70
     4
  9
$SKETCHINC
 40
0.1
  9
$FILLETRAD
 40
0.0
  9
$AUNITS
 70
     0
  9
$AUPREC
 70
     0
  9
$MENU
  1
acad
  9
$ELEVATION
 40
0.0
  9
$PELEVATION
 40
0.0
  9
$THICKNESS
 40
0.0
  9
$LIMCHECK
 70
     0
  9
$CHAMFERA
 40
0.0
  9
$CHAMFERB
 40
0.0
  9
$CHAMFERC
 40
0.0
  9
$CHAMFERD
 40
0.0
  9
$SKPOLY
 70
     0
  9
$TDCREATE
 40
12367012.42918624
  9
$TDUCREATE
 40
6.0000000000
  9
$TDUPDATE
 40
2457592.458602245
  9
$TDUUPDATE
 40
2457592.083602246
  9
$TDINDWG
 40
0.0016799190
  9
$TDUSRTIMER
 40
0.0016797454
  9
$USRTIMER
 70
     1
  9
$ANGBASE
 50
0.0
  9
$ANGDIR
 70
     0
  9
$PDMODE
 70
     0
  9
$PDSIZE
 40
0.0
  9
$PLINEWID
 40
0.0
  9
$SPLFRAME
 70
     0
  9
$SPLINETYPE
 70
     6
  9
$SPLINESEGS
 70
     8
  9
$HANDSEED
  5
56C
  9
$SURFTAB1
 70
     6
  9
$SURFTAB2
 70
     6
  9
$SURFTYPE
 70
     6
  9
$SURFU
 70
     6
  9
$SURFV
 70
     6
  9
$UCSBASE
  2

  9
$UCSNAME
  2

  9
$UCSORG
 10
0.0
 20
0.0
 30
0.0
  9
$UCSXDIR
 10
1.0
 20
0.0
 30
0.0
  9
$UCSYDIR
 10
0.0
 20
1.0
 30
0.0
  9
$UCSORTHOREF
  2

  9
$UCSORTHOVIEW
 70
     0
  9
$UCSORGTOP
 10
0.0
 20
0.0
 30
0.0
  9
$UCSORGBOTTOM
 10
0.0
 20
0.0
 30
0.0
  9
$UCSORGLEFT
 10
0.0
 20
0.0
 30
0.0
  9
$UCSORGRIGHT
 10
0.0
 20
0.0
 30
0.0
  9
$UCSORGFRONT
 10
0.0
 20
0.0
 30
0.0
  9
$UCSORGBACK
 10
0.0
 20
0.0
 30
0.0
  9
$PUCSBASE
  2

  9
$PUCSNAME
  2

  9
$PUCSORG
 10
0.0
 20
0.0
 30
0.0
  9
$PUCSXDIR
 10
1.0
 20
0.0
 30
0.0
  9
$PUCSYDIR
 10
0.0
 20
1.0
 30
0.0
  9
$PUCSORTHOREF
  2

  9
$PUCSORTHOVIEW
 70
     0
  9
$PUCSORGTOP
 10
0.0
 20
0.0
 30
0.0
  9
$PUCSORGBOTTOM
 10
0.0
 20
0.0
 30
0.0
  9
$PUCSORGLEFT
 10
0.0
 20
0.0
 30
0.0
  9
$PUCSORGRIGHT
 10
0.0
 20
0.0
 30
0.0
  9
$PUCSORGFRONT
 10
0.0
 20
0.0
 30
0.0
  9
$PUCSORGBACK
 10
0.0
 20
0.0
 30
0.0
  9
$USERI1
 70
     0
  9
$USERI2
 70
     0
  9
$USERI3
 70
     0
  9
$USERI4
 70
     0
  9
$USERI5
 70
     0
  9
$USERR1
 40
12.01
  9
$USERR2
 40
0.0
  9
$USERR3
 40
0.0
  9
$USERR4
 40
0.0
  9
$USERR5
 40
0.0
  9
$WORLDVIEW
 70
     1
  9
$SHADEDGE
 70
     3
  9
$SHADEDIF
 70
    70
  9
$TILEMODE
 70
     1
  9
$MAXACTVP
 70
    16
  9
$PINSBASE
 10
0.0
 20
0.0
 30
0.0
  9
$PLIMCHECK
 70
     0
  9
$PEXTMIN
 10
1.000000000000000E+20
 20
1.000000000000000E+20
 30
1.000000000000000E+20
  9
$PEXTMAX
 10
-1.000000000000000E+20
 20
-1.000000000000000E+20
 30
-1.000000000000000E+20
  9
$PLIMMIN
 10
0.0
 20
0.0
  9
$PLIMMAX
 10
12.0
 20
9.0
  9
$UNITMODE
 70
     0
  9
$VISRETAIN
 70
     0
  9
$PLINEGEN
 70
     1
  9
$PSLTSCALE
 70
     0
  9
$TREEDEPTH
 70
  3020
  9
$CMLSTYLE
  2
STANDARD
  9
$CMLJUST
 70
     0
  9
$CMLSCALE
 40
1.0
  9
$PROXYGRAPHICS
 70
     0
  9
$MEASUREMENT
 70
     1
  9
$CELWEIGHT
370
    -1
  9
$ENDCAPS
280
     0
  9
$JOINSTYLE
280
     0
  9
$LWDISPLAY
290
     0
  9
$INSUNITS
 70
     0
  9
$HYPERLINKBASE
  1

  9
$STYLESHEET
  1

  9
$XEDIT
290
     1
  9
$CEPSNTYPE
380
     0
  9
$PSTYLEMODE
290
     1
  9
$FINGERPRINTGUID
  2
{A2E7E117-4EB9-4B9E-B6D9-A7403FA64CB6}
  9
$VERSIONGUID
  2
{ED5A24EF-5C39-41E0-95C8-46F253266DD7}
  9
$EXTNAMES
290
     1
  9
$PSVPSCALE
 40
0.0
  9
$OLESTARTUP
290
     0
  0
ENDSEC
  0
SECTION
  2
CLASSES
  0
CLASS
  1
IMAGE
  2
AcDbRasterImage
  3
ISM
 90
    34943
280
     0
281
     1
  0
CLASS
  1
DICTIONARYVAR
  2
AcDbDictionaryVar
  3
ObjectDBX Classes
 90
        0
280
     0
281
     0
  0
CLASS
  1
RASTERVARIABLES
  2
AcDbRasterVariables
  3
ISM
 90
    32768
280
     0
281
     0
  0
CLASS
  1
IMAGEDEF
  2
AcDbRasterImageDef
  3
ISM
 90
    32768
280
     0
281
     0
  0
CLASS
  1
IMAGEDEF_REACTOR
  2
AcDbRasterImageDefReactor
  3
ISM
 90
    32769
280
     0
281
     0
  0
CLASS
  1
IDBUFFER
  2
AcDbIdBuffer
  3
ObjectDBX Classes
 90
    32768
280
     0
281
     0
  0
CLASS
  1
SPATIAL_FILTER
  2
AcDbSpatialFilter
  3
ObjectDBX Classes
 90
    32768
280
     0
281
     0
  0
CLASS
  1
SORTENTSTABLE
  2
AcDbSortentsTable
  3
ObjectDBX Classes
 90
        0
280
     0
281
     0
  0
CLASS
  1
LAYER_INDEX
  2
AcDbLayerIndex
  3
ObjectDBX Classes
 90
    32768
280
     0
281
     0
  0
CLASS
  1
SPATIAL_INDEX
  2
AcDbSpatialIndex
  3
ObjectDBX Classes
 90
    32768
280
     0
281
     0
  0
CLASS
  1
OBJECT_PTR
  2
CAseDLPNTableRecord
  3
ASE-LPNTableRecord
 90
    32769
280
     0
281
     0
  0
CLASS
  1
LAYOUT
  2
AcDbLayout
  3
ObjectDBX Classes
 90
        0
280
     0
281
     0
  0
CLASS
  1
PLOTSETTINGS
  2
AcDbPlotSettings
  3
ObjectDBX Classes
 90
    32768
280
     0
281
     0
  0
CLASS
  1
ACDBDICTIONARYWDFLT
  2
AcDbDictionaryWithDefault
  3
ObjectDBX Classes
 90
        0
280
     0
281
     0
  0
CLASS
  1
ACDBPLACEHOLDER
  2
AcDbPlaceHolder
  3
ObjectDBX Classes
 90
        0
280
     0
281
     0
  0
CLASS
  1
MATERIAL
  2
AcDbMaterial
  3
ObjectDBX Classes
 90
     1153
280
     0
281
     0
  0
CLASS
  1
VISUALSTYLE
  2
AcDbVisualStyle
  3
ObjectDBX Classes
 90
     4095
280
     0
281
     0
  0
CLASS
  1
TABLESTYLE
  2
AcDbTableStyle
  3
ObjectDBX Classes
 90
     4095
280
     0
281
     0
  0
CLASS
  1
SCALE
  2
AcDbScale
  3
ObjectDBX Classes
 90
     1153
280
     0
281
     0
  0
CLASS
  1
MLEADERSTYLE
  2
AcDbMLeaderStyle
  3
ACDB_MLEADERSTYLE_CLASS
 90
     4095
280
     0
281
     0
  0
CLASS
  1
CELLSTYLEMAP
  2
AcDbCellStyleMap
  3
ObjectDBX Classes
 90
     1152
280
     0
281
     0
  0
ENDSEC
  0
SECTION
  2
TABLES
  0
TABLE
  2
VPORT
  5
7
330
0
100
AcDbSymbolTable
 70
     1
  0
VPORT
  5
15
330
7
100
AcDbSymbolTableRecord
100
AcDbViewportTableRecord
  2
*ACTIVE
 70
     0
 10
0.0
 20
0.0
 11
1.0
 21
1.0
 12
89.39950869023027
 22
493.7420654319722
 13
0.0
 23
0.0
 14
1.0
 24
1.0
 15
0.0
 25
0.0
 16
0.0
 26
0.0
 36
1.0
 17
0.0
 27
0.0
 37
0.0
 40
278.8566543192101
 41
2.026347305389221
 42
50.0
 43
0.0
 44
0.0
 50
0.0
 51
0.0
 71
     0
 72
   100
 73
     1
 74
     1
 75
     0
 76
     0
 77
     0
 78
     0
281
     0
 65
     1
110
0.0
120
0.0
130
0.0
111
1.0
121
0.0
131
0.0
112
0.0
122
1.0
132
0.0
 79
     0
146
0.0
1001
ACAD_NAV_VCDISPLAY
1070
     3
  0
ENDTAB
  0
TABLE
  2
LTYPE
  5
4
330
0
100
AcDbSymbolTable
 70
     8
  0
LTYPE
  5
11
330
4
100
AcDbSymbolTableRecord
100
AcDbLinetypeTableRecord
  2
BYBLOCK
 70
     0
  3

 72
    65
 73
     0
 40
0.0
  0
LTYPE
  5
12
330
4
100
AcDbSymbolTableRecord
100
AcDbLinetypeTableRecord
  2
BYLAYER
 70
     0
  3

 72
    65
 73
     0
 40
0.0
  0
LTYPE
  5
13
330
4
100
AcDbSymbolTableRecord
100
AcDbLinetypeTableRecord
  2
CONTINUOUS
 70
     0
  3
Solid line
 72
    65
 73
     0
 40
0.0
  0
LTYPE
  5
1D
330
4
100
AcDbSymbolTableRecord
100
AcDbLinetypeTableRecord
  2
DASHED
 70
     0
  3
Dashed
 72
    65
 73
     2
 40
15.0
 49
7.0
 74
     0
 49
-8.0
 74
     0
  0
LTYPE
  5
1E
330
4
100
AcDbSymbolTableRecord
100
AcDbLinetypeTableRecord
  2
DOTTED
 70
     0
  3
Dotted
 72
    65
 73
     2
 40
1.0
 49
0.0
 74
     0
 49
-1.0
 74
     0
  0
LTYPE
  5
1F
330
4
100
AcDbSymbolTableRecord
100
AcDbLinetypeTableRecord
  2
DOT_CENTER
 70
     0
  3
Dot_Center
 72
    65
 73
     4
 40
14.0
 49
12.0
 74
     0
 49
-1.0
 74
     0
 49
0.0
 74
     0
 49
-1.0
 74
     0
  0
LTYPE
  5
20
330
4
100
AcDbSymbolTableRecord
100
AcDbLinetypeTableRecord
  2
LONG_DASHED
 70
     0
  3
Long_Dashed
 72
    65
 73
     2
 40
15.0
 49
10.0
 74
     0
 49
-5.0
 74
     0
  0
LTYPE
  5
21
330
4
100
AcDbSymbolTableRecord
100
AcDbLinetypeTableRecord
  2
DASH_CENTER
 70
     0
  3
Dash_Center
 72
    65
 73
     4
 40
14.0
 49
11.0
 74
     0
 49
-1.0
 74
     0
 49
1.0
 74
     0
 49
-1.0
 74
     0
  0
LTYPE
  5
22
330
4
100
AcDbSymbolTableRecord
100
AcDbLinetypeTableRecord
  2
PHANTOM
 70
     0
  3
Phantom
 72
    65
 73
     6
 40
13.0
 49
10.0
 74
     0
 49
-1.0
 74
     0
 49
0.0
 74
     0
 49
-1.0
 74
     0
 49
0.0
 74
     0
 49
-1.0
 74
     0
  0
LTYPE
  5
23
330
4
100
AcDbSymbolTableRecord
100
AcDbLinetypeTableRecord
  2
CENTER_DASH_DASH
 70
     0
  3
Center_Dash_Dash
 72
    65
 73
     6
 40
14.0
 49
9.0
 74
     0
 49
-1.0
 74
     0
 49
1.0
 74
     0
 49
-1.0
 74
     0
 49
1.0
 74
     0
 49
-1.0
 74
     0
  0
ENDTAB
  0
TABLE
  2
LAYER
  5
2
330
0
100
AcDbSymbolTable
 70
     2
  0
LAYER
  5
14
102
{ACAD_XDICTIONARY
360
4C2
102
}
330
2
100
AcDbSymbolTableRecord
100
AcDbLayerTableRecord
  2
0
 70
     0
 62
     7
  6
CONTINUOUS
370
    -3
390
389
  0
LAYER
  5
24
102
{ACAD_XDICTIONARY
360
4C4
102
}
330
2
100
AcDbSymbolTableRecord
100
AcDbLayerTableRecord
  2
1
 70
     0
 62
     7
  6
CONTINUOUS
370
    -3
390
389
  0
ENDTAB
  0
TABLE
  2
STYLE
  5
3
330
0
100
AcDbSymbolTable
 70
     6
  0
STYLE
  5
17
330
3
100
AcDbSymbolTableRecord
100
AcDbTextStyleTableRecord
  2
STANDARD
 70
     0
 40
0.0
 41
1.0
 50
0.0
 71
     0
 42
0.0
  3
txt
  4

  0
STYLE
  5
171
330
3
100
AcDbSymbolTableRecord
100
AcDbTextStyleTableRecord
  2
CONVERTER_1
 70
     0
 40
0.0
 41
0.63
 50
0.0
 71
     0
 42
0.0
  3
txt.shx
  4

  0
STYLE
  5
192
330
3
100
AcDbSymbolTableRecord
100
AcDbTextStyleTableRecord
  2
CONVERTER_2
 70
     0
 40
0.0
 41
0.603
 50
0.0
 71
     0
 42
0.0
  3
txt.shx
  4

  0
STYLE
  5
1A9
330
3
100
AcDbSymbolTableRecord
100
AcDbTextStyleTableRecord
  2
CONVERTER_3
 70
     0
 40
0.0
 41
0.9
 50
0.0
 71
     0
 42
0.0
  3
txt.shx
  4

  0
STYLE
  5
1BD
330
3
100
AcDbSymbolTableRecord
100
AcDbTextStyleTableRecord
  2
CONVERTER_4
 70
     0
 40
0.0
 41
0.76
 50
0.0
 71
     0
 42
0.0
  3
complex.shx
  4

  0
STYLE
  5
296
330
3
100
AcDbSymbolTableRecord
100
AcDbTextStyleTableRecord
  2
CONVERTER_5
 70
     0
 40
0.0
 41
0.6650000000000001
 50
0.0
 71
     0
 42
0.0
  3
simplex.shx
  4

  0
ENDTAB
  0
TABLE
  2
VIEW
  5
5
330
0
100
AcDbSymbolTable
 70
     0
  0
ENDTAB
  0
TABLE
  2
UCS
  5
6
330
0
100
AcDbSymbolTable
 70
     0
  0
ENDTAB
  0
TABLE
  2
APPID
  5
8
330
0
100
AcDbSymbolTable
 70
     4
  0
APPID
  5
16
330
8
100
AcDbSymbolTableRecord
100
AcDbRegAppTableRecord
  2
ACAD
 70
     0
  0
APPID
  5
4C8
330
8
100
AcDbSymbolTableRecord
100
AcDbRegAppTableRecord
  2
DCO15
 70
     0
  0
APPID
  5
4D2
330
8
100
AcDbSymbolTableRecord
100
AcDbRegAppTableRecord
  2
ACAD_NAV_VCDISPLAY
 70
     0
  0
APPID
  5
567
330
8
100
AcDbSymbolTableRecord
100
AcDbRegAppTableRecord
  2
ACAD_MLEADERVER
 70
     0
  0
ENDTAB
  0
TABLE
  2
DIMSTYLE
  5
9
330
0
100
AcDbSymbolTable
 70
    18
100
AcDbDimStyleTable
 71
     0
  0
DIMSTYLE
105
18
330
9
100
AcDbSymbolTableRecord
100
AcDbDimStyleTableRecord
  2
STANDARD
 70
     0
340
17
  0
DIMSTYLE
105
29F
330
9
100
AcDbSymbolTableRecord
100
AcDbDimStyleTableRecord
  2
ME10_DIM_0
 70
     0
  3
{\Fgdt;n}<>
 41
2.45
 42
1.0
 44
1.0
 73
     0
 74
     0
 77
     1
 78
     8
140
3.5
147
0.625
172
     1
173
     1
176
     2
177
     2
178
     3
271
     2
340
296
341
299
343
299
344
299
  0
DIMSTYLE
105
2AC
330
9
100
AcDbSymbolTableRecord
100
AcDbDimStyleTableRecord
  2
ME10_DIM_1
 70
     0
 41
2.45
 42
1.0
 44
1.0
 73
     0
 74
     0
 77
     1
 78
     8
140
3.5
147
0.625
172
     1
173
     1
176
     2
177
     2
178
     3
271
     2
340
296
341
299
343
299
344
299
  0
DIMSTYLE
105
2B9
330
9
100
AcDbSymbolTableRecord
100
AcDbDimStyleTableRecord
  2
ME10_DIM_2
 70
     0
  3
{\Fgdt;n}<>
 41
2.45
 42
1.0
 44
1.0
 73
     0
 74
     0
 77
     1
 78
     8
140
3.5
147
0.625
172
     1
173
     1
176
     2
177
     2
178
     3
271
     2
340
296
341
299
343
299
344
299
  0
DIMSTYLE
105
2C6
330
9
100
AcDbSymbolTableRecord
100
AcDbDimStyleTableRecord
  2
ME10_DIM_3
 70
     0
 41
2.45
 42
1.0
 44
1.0
 73
     0
 74
     0
 77
     1
 78
     8
140
3.5
147
0.625
172
     1
173
     1
176
     2
177
     2
178
     3
271
     2
340
296
341
299
343
299
344
299
  0
DIMSTYLE
105
2D5
330
9
100
AcDbSymbolTableRecord
100
AcDbDimStyleTableRecord
  2
ME10_DIM_4
 70
     0
 41
2.45
 42
1.0
 44
1.0
 73
     0
 74
     0
 77
     1
 78
     8
140
3.5
147
0.625
172
     1
173
     1
176
     2
177
     2
178
     3
271
     2
340
296
341
299
343
299
344
299
  0
DIMSTYLE
105
2E4
330
9
100
AcDbSymbolTableRecord
100
AcDbDimStyleTableRecord
  2
ME10_DIM_5
 70
     0
 41
2.45
 42
1.0
 44
1.0
 73
     0
 74
     0
 77
     1
 78
     8
140
3.5
147
0.625
172
     1
173
     1
176
     2
177
     2
178
     3
271
     2
340
296
341
299
343
299
344
299
  0
DIMSTYLE
105
2F1
330
9
100
AcDbSymbolTableRecord
100
AcDbDimStyleTableRecord
  2
ME10_DIM_6
 70
     0
 41
2.45
 42
1.0
 44
1.0
 73
     0
 74
     0
 77
     1
 78
     8
140
3.5
147
0.625
172
     1
173
     1
176
     2
177
     2
178
     3
271
     2
340
296
341
299
343
299
344
299
  0
DIMSTYLE
105
2FE
330
9
100
AcDbSymbolTableRecord
100
AcDbDimStyleTableRecord
  2
ME10_DIM_7
 70
     0
 41
2.45
 42
1.0
 44
1.0
 73
     0
 74
     0
 77
     1
 78
     8
140
3.5
147
0.625
172
     1
173
     1
176
     2
177
     2
178
     3
271
     2
340
296
341
299
343
299
344
299
  0
DIMSTYLE
105
30B
330
9
100
AcDbSymbolTableRecord
100
AcDbDimStyleTableRecord
  2
ME10_DIM_8
 70
     0
 41
2.45
 42
1.0
 44
1.0
 73
     0
 74
     0
 77
     1
 78
     8
140
3.5
147
0.625
172
     1
173
     1
176
     2
177
     2
178
     3
271
     2
340
296
341
299
343
299
344
299
  0
DIMSTYLE
105
318
330
9
100
AcDbSymbolTableRecord
100
AcDbDimStyleTableRecord
  2
ME10_DIM_9
 70
     0
 41
2.45
 42
1.0
 44
1.0
 73
     0
 74
     0
 77
     1
 78
     8
140
3.5
147
0.625
172
     1
173
     1
176
     2
177
     2
178
     3
271
     2
340
296
341
299
343
299
344
299
  0
DIMSTYLE
105
327
330
9
100
AcDbSymbolTableRecord
100
AcDbDimStyleTableRecord
  2
ME10_DIM_10
 70
     0
 41
2.45
 42
1.0
 44
1.0
 73
     0
 74
     0
 77
     1
 78
     8
140
3.5
147
0.625
172
     1
173
     1
176
     2
177
     2
178
     3
271
     2
340
296
341
299
343
299
344
299
  0
DIMSTYLE
105
336
330
9
100
AcDbSymbolTableRecord
100
AcDbDimStyleTableRecord
  2
ME10_DIM_11
 70
     0
 41
2.45
 42
1.0
 44
1.0
 73
     0
 74
     0
 77
     1
 78
     8
140
3.5
147
0.625
172
     1
173
     1
176
     2
177
     2
178
     3
271
     2
340
296
341
299
343
299
344
299
  0
DIMSTYLE
105
343
330
9
100
AcDbSymbolTableRecord
100
AcDbDimStyleTableRecord
  2
ME10_DIM_12
 70
     0
 41
2.45
 42
1.0
 44
1.0
 73
     0
 74
     0
 77
     1
 78
     8
140
3.5
147
0.625
172
     1
173
     1
176
     2
177
     2
178
     3
271
     2
340
296
341
299
343
299
344
299
  0
DIMSTYLE
105
350
330
9
100
AcDbSymbolTableRecord
100
AcDbDimStyleTableRecord
  2
ME10_DIM_13
 70
     0
 41
2.45
 42
1.0
 44
1.0
 73
     0
 74
     0
 77
     1
 78
     8
140
3.5
147
0.625
172
     1
173
     1
176
     2
177
     2
178
     3
271
     2
340
296
341
299
343
299
344
299
  0
DIMSTYLE
105
35D
330
9
100
AcDbSymbolTableRecord
100
AcDbDimStyleTableRecord
  2
ME10_DIM_14
 70
     0
 41
2.45
 42
1.0
 44
1.0
 73
     0
 74
     0
 77
     1
 78
     8
140
3.5
147
0.625
172
     1
173
     1
176
     2
177
     2
178
     3
271
     2
340
296
341
299
343
299
344
299
  0
DIMSTYLE
105
36A
330
9
100
AcDbSymbolTableRecord
100
AcDbDimStyleTableRecord
  2
ME10_DIM_15
 70
     0
 41
2.45
 42
1.0
 44
1.0
 73
     0
 74
     0
 77
     1
 78
     8
140
3.5
147
0.625
172
     1
173
     1
176
     2
177
     2
178
     3
271
     2
340
296
341
299
343
299
344
299
  0
DIMSTYLE
105
378
330
9
100
AcDbSymbolTableRecord
100
AcDbDimStyleTableRecord
  2
ME10_DIM_16
 70
     0
 41
2.45
 42
1.0
 44
1.0
 73
     0
 74
     0
 77
     1
 78
     8
140
3.5
147
0.625
172
     1
173
     1
176
     2
177
     2
178
     3
271
     2
340
296
341
299
343
299
344
299
  0
ENDTAB
  0
TABLE
  2
BLOCK_RECORD
  5
1
330
0
100
AcDbSymbolTable
 70
    27
  0
BLOCK_RECORD
  5
A
102
{ACAD_XDICTIONARY
360
3E5
102
}
330
1
100
AcDbSymbolTableRecord
100
AcDbBlockTableRecord
  2
*MODEL_SPACE
340
3D5
  0
BLOCK_RECORD
  5
B
330
1
100
AcDbSymbolTableRecord
100
AcDbBlockTableRecord
  2
*PAPER_SPACE
340
3D6
  0
BLOCK_RECORD
  5
25
330
1
100
AcDbSymbolTableRecord
100
AcDbBlockTableRecord
  2
_5
340
0
  0
BLOCK_RECORD
  5
27
330
1
100
AcDbSymbolTableRecord
100
AcDbBlockTableRecord
  2
_4
340
0
  0
BLOCK_RECORD
  5
29
330
1
100
AcDbSymbolTableRecord
100
AcDbBlockTableRecord
  2
______
340
0
102
{BLKREFS
331
2D
102
}
  0
BLOCK_RECORD
  5
2B
330
1
100
AcDbSymbolTableRecord
100
AcDbBlockTableRecord
  2
FORMAT_A3
340
0
102
{BLKREFS
331
30
102
}
  0
BLOCK_RECORD
  5
2E
330
1
100
AcDbSymbolTableRecord
100
AcDbBlockTableRecord
  2
_6
340
0
  0
BLOCK_RECORD
  5
31
330
1
100
AcDbSymbolTableRecord
100
AcDbBlockTableRecord
  2
_3
340
0
  0
BLOCK_RECORD
  5
33
330
1
100
AcDbSymbolTableRecord
100
AcDbBlockTableRecord
  2
_1
340
0
  0
BLOCK_RECORD
  5
35
330
1
100
AcDbSymbolTableRecord
100
AcDbBlockTableRecord
  2
_2
340
0
  0
BLOCK_RECORD
  5
28B
330
1
100
AcDbSymbolTableRecord
100
AcDbBlockTableRecord
  2
*D8
340
0
  0
BLOCK_RECORD
  5
299
330
1
100
AcDbSymbolTableRecord
100
AcDbBlockTableRecord
  2
_OPEN30
340
0
  0
BLOCK_RECORD
  5
2A1
330
1
100
AcDbSymbolTableRecord
100
AcDbBlockTableRecord
  2
*D10
340
0
  0
BLOCK_RECORD
  5
2AE
330
1
100
AcDbSymbolTableRecord
100
AcDbBlockTableRecord
  2
*D11
340
0
  0
BLOCK_RECORD
  5
2BB
330
1
100
AcDbSymbolTableRecord
100
AcDbBlockTableRecord
  2
*D12
340
0
  0
BLOCK_RECORD
  5
2C8
330
1
100
AcDbSymbolTableRecord
100
AcDbBlockTableRecord
  2
*D13
340
0
  0
BLOCK_RECORD
  5
2D7
330
1
100
AcDbSymbolTableRecord
100
AcDbBlockTableRecord
  2
*D14
340
0
  0
BLOCK_RECORD
  5
2E6
330
1
100
AcDbSymbolTableRecord
100
AcDbBlockTableRecord
  2
*D15
340
0
  0
BLOCK_RECORD
  5
2F3
330
1
100
AcDbSymbolTableRecord
100
AcDbBlockTableRecord
  2
*D16
340
0
  0
BLOCK_RECORD
  5
300
330
1
100
AcDbSymbolTableRecord
100
AcDbBlockTableRecord
  2
*D17
340
0
  0
BLOCK_RECORD
  5
30D
330
1
100
AcDbSymbolTableRecord
100
AcDbBlockTableRecord
  2
*D18
340
0
  0
BLOCK_RECORD
  5
31A
330
1
100
AcDbSymbolTableRecord
100
AcDbBlockTableRecord
  2
*D19
340
0
  0
BLOCK_RECORD
  5
329
330
1
100
AcDbSymbolTableRecord
100
AcDbBlockTableRecord
  2
*D20
340
0
  0
BLOCK_RECORD
  5
338
330
1
100
AcDbSymbolTableRecord
100
AcDbBlockTableRecord
  2
*D21
340
0
  0
BLOCK_RECORD
  5
345
330
1
100
AcDbSymbolTableRecord
100
AcDbBlockTableRecord
  2
*D22
340
0
  0
BLOCK_RECORD
  5
352
330
1
100
AcDbSymbolTableRecord
100
AcDbBlockTableRecord
  2
*D23
340
0
  0
BLOCK_RECORD
  5
35F
330
1
100
AcDbSymbolTableRecord
100
AcDbBlockTableRecord
  2
*D24
340
0
  0
BLOCK_RECORD
  5
36C
330
1
100
AcDbSymbolTableRecord
100
AcDbBlockTableRecord
  2
*D25
340
0
  0
BLOCK_RECORD
  5
37A
330
1
100
AcDbSymbolTableRecord
100
AcDbBlockTableRecord
  2
*D26
340
0
  0
ENDTAB
  0
ENDSEC
  0
SECTION
  2
BLOCKS
  0
BLOCK
  5
D
330
A
100
AcDbEntity
  8
0
100
AcDbBlockBegin
  2
*MODEL_SPACE
 70
     0
 10
0.0
 20
0.0
 30
0.0
  3
*MODEL_SPACE
  1

  0
ENDBLK
  5
E
330
A
100
AcDbEntity
  8
0
100
AcDbBlockEnd
  0
BLOCK
  5
F
330
B
100
AcDbEntity
 67
     1
  8
0
100
AcDbBlockBegin
  2
*PAPER_SPACE
 70
     0
 10
0.0
 20
0.0
 30
0.0
  3
*PAPER_SPACE
  1

  0
ENDBLK
  5
10
330
B
100
AcDbEntity
 67
     1
  8
0
100
AcDbBlockEnd
  0
BLOCK
  5
26
330
25
100
AcDbEntity
  8
0
100
AcDbBlockBegin
  2
_5
 70
     0
 10
-6.410446630332979
 20
425.681242177192
 30
0.0
  3
_5
  1

  0
LINE
  5
4A
330
25
100
AcDbEntity
  8
1
  6
Continuous
 62
     7
100
AcDbLine
 10
-6.410446630332979
 20
426.181242177192
 30
0.0
 11
-6.410446630332979
 21
425.681242177192
 31
0.0
  0
LINE
  5
49
330
25
100
AcDbEntity
  8
1
  6
Continuous
 62
     7
100
AcDbLine
 10
-0.11044663033303
 20
425.681242177192
 30
0.0
 11
-0.11044663033303
 21
426.181242177192
 31
0.0
  0
LINE
  5
48
330
25
100
AcDbEntity
  8
1
  6
Continuous
 62
     7
100
AcDbLine
 10
-6.410446630332979
 20
425.681242177192
 30
0.0
 11
-0.11044663033303
 21
425.681242177192
 31
0.0
  0
LINE
  5
47
330
25
100
AcDbEntity
  8
1
  6
Continuous
 62
     7
100
AcDbLine
 10
-0.11044663033303
 20
426.181242177192
 30
0.0
 11
-6.410446630332979
 21
426.181242177192
 31
0.0
  0
LINE
  5
46
330
25
100
AcDbEntity
  8
1
  6
Continuous
 62
     7
100
AcDbLine
 10
113.5679880464224
 20
426.181242177192
 30
0.0
 11
113.5679880464224
 21
425.681242177192
 31
0.0
  0
LINE
  5
45
330
25
100
AcDbEntity
  8
1
  6
Continuous
 62
     7
100
AcDbLine
 10
119.8679880464224
 20
425.681242177192
 30
0.0
 11
119.8679880464224
 21
426.181242177192
 31
0.0
  0
LINE
  5
44
330
25
100
AcDbEntity
  8
1
  6
Continuous
 62
     7
100
AcDbLine
 10
113.5679880464224
 20
425.681242177192
 30
0.0
 11
119.8679880464224
 21
425.681242177192
 31
0.0
  0
LINE
  5
43
330
25
100
AcDbEntity
  8
1
  6
Continuous
 62
     7
100
AcDbLine
 10
119.8679880464224
 20
426.181242177192
 30
0.0
 11
113.5679880464224
 21
426.181242177192
 31
0.0
  0
LINE
  5
42
330
25
100
AcDbEntity
  8
1
  6
Continuous
 62
     7
100
AcDbLine
 10
206.589553369667
 20
425.681242177192
 30
0.0
 11
212.889553369667
 21
425.681242177192
 31
0.0
  0
LINE
  5
41
330
25
100
AcDbEntity
  8
1
  6
Continuous
 62
     7
100
AcDbLine
 10
212.889553369667
 20
425.681242177192
 30
0.0
 11
212.889553369667
 21
426.181242177192
 31
0.0
  0
LINE
  5
40
330
25
100
AcDbEntity
  8
1
  6
Continuous
 62
     7
100
AcDbLine
 10
206.589553369667
 20
426.181242177192
 30
0.0
 11
206.589553369667
 21
425.681242177192
 31
0.0
  0
LINE
  5
3F
330
25
100
AcDbEntity
  8
1
  6
Continuous
 62
     7
100
AcDbLine
 10
212.889553369667
 20
426.181242177192
 30
0.0
 11
206.589553369667
 21
426.181242177192
 31
0.0
  0
ENDBLK
  5
4B
330
25
100
AcDbEntity
  8
0
100
AcDbBlockEnd
  0
BLOCK
  5
28
330
27
100
AcDbEntity
  8
0
100
AcDbBlockBegin
  2
_4
 70
     0
 10
-11.26044663033301
 20
418.681242177192
 30
0.0
  3
_4
  1

  0
ARC
  5
63
330
27
100
AcDbEntity
  8
1
  6
Continuous
 62
     7
100
AcDbCircle
 10
4.23955336966699
 20
419.7782076886523
 30
0.0
 40
0.5000000000000301
100
AcDbArc
 50
-60.00000000000413
 51
0.0
  0
ARC
  5
62
330
27
100
AcDbEntity
  8
1
  6
Continuous
 62
     7
100
AcDbCircle
 10
-10.76044663033301
 20
419.7782076886523
 30
0.0
 40
0.5
100
AcDbArc
 50
180.0
 51
-119.9999999999952
  0
ARC
  5
61
330
27
100
AcDbEntity
  8
1
  6
Continuous
 62
     7
100
AcDbCircle
 10
124.2179880464224
 20
419.7782076886523
 30
0.0
 40
0.50000000000004
100
AcDbArc
 50
-60.00000000000272
 51
0.0
  0
ARC
  5
60
330
27
100
AcDbEntity
  8
1
  6
Continuous
 62
     7
100
AcDbCircle
 10
109.2179880464224
 20
419.7782076886523
 30
0.0
 40
0.5
100
AcDbArc
 50
180.0
 51
-119.9999999999973
  0
ARC
  5
5F
330
27
100
AcDbEntity
  8
1
  6
Continuous
 62
     7
100
AcDbCircle
 10
217.239553369667
 20
419.7782076886523
 30
0.0
 40
0.50000000000004
100
AcDbArc
 50
-60.00000000000272
 51
0.0
  0
ARC
  5
5E
330
27
100
AcDbEntity
  8
1
  6
Continuous
 62
     7
100
AcDbCircle
 10
202.2395533696669
 20
419.7782076886523
 30
0.0
 40
0.5
100
AcDbArc
 50
180.0
 51
-119.9999999999973
  0
LINE
  5
5D
330
27
100
AcDbEntity
  8
1
  6
Continuous
 62
     7
100
AcDbLine
 10
4.73955336966699
 20
425.681242177192
 30
0.0
 11
-11.26044663033301
 21
425.681242177192
 31
0.0
  0
LINE
  5
5C
330
27
100
AcDbEntity
  8
1
  6
Continuous
 62
     7
100
AcDbLine
 10
4.73955336966699
 20
425.681242177192
 30
0.0
 11
4.73955336966699
 21
419.7782076886523
 31
0.0
  0
LINE
  5
5B
330
27
100
AcDbEntity
  8
1
  6
Continuous
 62
     7
100
AcDbLine
 10
4.48955336966698
 20
419.34519498676
 30
0.0
 11
3.339553369666989
 21
418.681242177192
 31
0.0
  0
LINE
  5
5A
330
27
100
AcDbEntity
  8
1
  6
Continuous
 62
     7
100
AcDbLine
 10
3.339553369666989
 20
418.681242177192
 30
0.0
 11
-9.860446630332999
 21
418.681242177192
 31
0.0
  0
LINE
  5
59
330
27
100
AcDbEntity
  8
1
  6
Continuous
 62
     7
100
AcDbLine
 10
-9.860446630332999
 20
418.681242177192
 30
0.0
 11
-11.01044663033299
 21
419.34519498676
 31
0.0
  0
LINE
  5
58
330
27
100
AcDbEntity
  8
1
  6
Continuous
 62
     7
100
AcDbLine
 10
-11.26044663033301
 20
419.7782076886523
 30
0.0
 11
-11.26044663033301
 21
425.681242177192
 31
0.0
  0
LINE
  5
57
330
27
100
AcDbEntity
  8
1
  6
Continuous
 62
     7
100
AcDbLine
 10
124.7179880464224
 20
425.681242177192
 30
0.0
 11
108.7179880464224
 21
425.681242177192
 31
0.0
  0
LINE
  5
56
330
27
100
AcDbEntity
  8
1
  6
Continuous
 62
     7
100
AcDbLine
 10
124.7179880464224
 20
425.681242177192
 30
0.0
 11
124.7179880464224
 21
419.7782076886523
 31
0.0
  0
LINE
  5
55
330
27
100
AcDbEntity
  8
1
  6
Continuous
 62
     7
100
AcDbLine
 10
124.4679880464224
 20
419.34519498676
 30
0.0
 11
123.3179880464224
 21
418.681242177192
 31
0.0
  0
LINE
  5
54
330
27
100
AcDbEntity
  8
1
  6
Continuous
 62
     7
100
AcDbLine
 10
123.3179880464224
 20
418.681242177192
 30
0.0
 11
110.1179880464224
 21
418.681242177192
 31
0.0
  0
LINE
  5
53
330
27
100
AcDbEntity
  8
1
  6
Continuous
 62
     7
100
AcDbLine
 10
110.1179880464224
 20
418.681242177192
 30
0.0
 11
108.9679880464224
 21
419.34519498676
 31
0.0
  0
LINE
  5
52
330
27
100
AcDbEntity
  8
1
  6
Continuous
 62
     7
100
AcDbLine
 10
108.7179880464224
 20
419.7782076886523
 30
0.0
 11
108.7179880464224
 21
425.681242177192
 31
0.0
  0
LINE
  5
51
330
27
100
AcDbEntity
  8
1
  6
Continuous
 62
     7
100
AcDbLine
 10
217.739553369667
 20
425.681242177192
 30
0.0
 11
201.739553369667
 21
425.681242177192
 31
0.0
  0
LINE
  5
50
330
27
100
AcDbEntity
  8
1
  6
Continuous
 62
     7
100
AcDbLine
 10
217.739553369667
 20
425.681242177192
 30
0.0
 11
217.739553369667
 21
419.7782076886523
 31
0.0
  0
LINE
  5
4F
330
27
100
AcDbEntity
  8
1
  6
Continuous
 62
     7
100
AcDbLine
 10
217.489553369667
 20
419.34519498676
 30
0.0
 11
216.339553369667
 21
418.681242177192
 31
0.0
  0
LINE
  5
4E
330
27
100
AcDbEntity
  8
1
  6
Continuous
 62
     7
100
AcDbLine
 10
216.339553369667
 20
418.681242177192
 30
0.0
 11
203.139553369667
 21
418.681242177192
 31
0.0
  0
LINE
  5
4D
330
27
100
AcDbEntity
  8
1
  6
Continuous
 62
     7
100
AcDbLine
 10
203.139553369667
 20
418.681242177192
 30
0.0
 11
201.9895533696669
 21
419.34519498676
 31
0.0
  0
LINE
  5
4C
330
27
100
AcDbEntity
  8
1
  6
Continuous
 62
     7
100
AcDbLine
 10
201.739553369667
 20
419.7782076886523
 30
0.0
 11
201.739553369667
 21
425.681242177192
 31
0.0
  0
ENDBLK
  5
64
330
27
100
AcDbEntity
  8
0
100
AcDbBlockEnd
  0
BLOCK
  5
2A
330
29
100
AcDbEntity
  8
0
100
AcDbBlockBegin
  2
______
 70
     0
 10
1045.878712978437
 20
105.6987887814188
 30
0.0
  3
______
  1

  0
MTEXT
  5
1BF
330
29
100
AcDbEntity
  8
1
 62
     4
100
AcDbMText
 10
865.757459066733
 20
343.4835258706572
 30
0.0
 40
2.0
 41
0.0
 71
     5
 72
     1
  1
110
  7
CONVERTER_3
 73
     1
 44
1.0
1001
ACAD
1000
MTEXTBEGIN
1070
    73
1070
     1
1070
    44
1040
1.0
1070
    74
1070
     0
1000
MTEXTEND
  0
MTEXT
  5
1BE
330
29
100
AcDbEntity
  8
1
 62
     4
100
AcDbMText
 10
864.5795609028422
 20
338.3793330898467
 30
0.0
 40
2.0
 41
0.0
 71
     5
 72
     1
  1
TEL
  7
CONVERTER_4
 73
     1
 44
1.0
1001
ACAD
1000
MTEXTBEGIN
1070
    73
1070
     1
1070
    44
1040
1.0
1070
    74
1070
     0
1000
MTEXTEND
  0
MTEXT
  5
1BC
102
{ACAD_XDICTIONARY
360
52F
102
}
330
29
100
AcDbEntity
  8
1
 62
     4
100
AcDbMText
 10
861.6085380823669
 20
343.4210687852001
 30
0.0
 40
2.5
 41
0.0
 71
     5
 72
     1
  1
\U+0081\U+00CF
  7
CONVERTER_3
 73
     1
 44
1.0
1001
ACAD
1000
MTEXTBEGIN
1070
    73
1070
     1
1070
    44
1040
1.0
1070
    74
1070
     0
1000
MTEXTEND
  0
MTEXT
  5
1BB
330
29
100
AcDbEntity
  8
1
 62
     4
100
AcDbMText
 10
880.2449539562633
 20
338.3593950789665
 30
0.0
 40
2.0
 41
0.0
 71
     5
 72
     1
  1
03 (3876) 0600
  7
CONVERTER_3
 73
     1
 44
1.0
1001
ACAD
1000
MTEXTBEGIN
1070
    73
1070
     1
1070
    44
1040
1.0
1070
    74
1070
     0
1000
MTEXTEND
  0
MTEXT
  5
1BA
330
29
100
AcDbEntity
  8
1
 62
     4
100
AcDbMText
 10
899.3706521972178
 20
343.536640195461
 30
0.0
 40
2.0
 41
0.0
 71
     5
 72
     1
  1
1-27-4
  7
CONVERTER_3
 73
     1
 44
1.0
1001
ACAD
1000
MTEXTBEGIN
1070
    73
1070
     1
1070
    44
1040
1.0
1070
    74
1070
     0
1000
MTEXTEND
  0
MTEXT
  5
1B9
102
{ACAD_XDICTIONARY
360
52D
102
}
330
29
100
AcDbEntity
  8
1
 62
     4
100
AcDbMText
 10
883.0946058790088
 20
343.5182224850259
 30
0.0
 40
2.5
 41
0.0
 71
     5
 72
     1
  1
\U+201C\U+0152\U+2039\U+20AC\U+201Cs\U+2018\U+00F0\U+201C\U+0152\U+2039\U+00CC\U+201C*\U+2019J
  7
CONVERTER_3
 73
     1
 44
1.0
1001
ACAD
1000
MTEXTBEGIN
1070
    73
1070
     1
1070
    44
1040
1.0
1070
    74
1070
     0
1000
MTEXTEND
  0
MTEXT
  5
1B8
102
{ACAD_XDICTIONARY
360
52B
102
}
330
29
100
AcDbEntity
  8
1
 62
     4
100
AcDbMText
 10
862.9484613969722
 20
348.2471289651051
 30
0.0
 40
3.0
 41
0.0
 71
     5
 72
     1
  1
\U+00B2{\U+017D\U+00C5
  7
CONVERTER_3
 73
     1
 44
1.0
1001
ACAD
1000
MTEXTBEGIN
1070
    73
1070
     1
1070
    44
1040
1.0
1070
    74
1070
     0
1000
MTEXTEND
  0
MTEXT
  5
1B7
102
{ACAD_XDICTIONARY
360
529
102
}
330
29
100
AcDbEntity
  8
1
 62
     4
100
AcDbMText
 10
835.383664098969
 20
337.976703637428
 30
0.0
 40
4.0
 41
0.0
 71
     5
 72
     1
  1
\U+008D\U+201A\U+2039\U+00C7\U+2039\U+00C1\U+2022\U+00B4\U+0160\U+201D\U+017D\U+00DB\U+2030\U+00FF\U+017D\U+00C5
  7
CONVERTER_3
 73
     1
 44
1.0
1001
ACAD
1000
MTEXTBEGIN
1070
    73
1070
     1
1070
    44
1040
1.0
1070
    74
1070
     0
1000
MTEXTEND
  0
MTEXT
  5
1B6
102
{ACAD_XDICTIONARY
360
527
102
}
330
29
100
AcDbEntity
  8
1
 62
     4
100
AcDbMText
 10
822.6458207679101
 20
376.0634773243885
 30
0.0
 40
4.0
 41
0.0
 71
     5
 72
     1
  1
\U+017D\U+00D6\U+201Cx
  7
CONVERTER_3
 73
     1
 44
1.0
1001
ACAD
1000
MTEXTBEGIN
1070
    73
1070
     1
1070
    44
1040
1.0
1070
    74
1070
     0
1000
MTEXTEND
  0
MTEXT
  5
1B5
102
{ACAD_XDICTIONARY
360
525
102
}
330
29
100
AcDbEntity
  8
1
 62
     4
100
AcDbMText
 10
901.458749269379
 20
375.0703333478948
 30
0.0
 40
4.0
 41
0.0
 71
     5
 72
     1
  1
\U+2019S  \U+201C\U+00B2
  7
CONVERTER_3
 73
     1
 44
1.0
1001
ACAD
1000
MTEXTBEGIN
1070
    73
1070
     1
1070
    44
1040
1.0
1070
    74
1070
     0
1000
MTEXTEND
  0
MTEXT
  5
1B4
102
{ACAD_XDICTIONARY
360
523
102
}
330
29
100
AcDbEntity
  8
1
 62
     4
100
AcDbMText
 10
881.4587492693789
 20
375.0703333478948
 30
0.0
 40
4.0
 41
0.0
 71
     5
 72
     1
  1
\U+0152\U+0081  \U+0090}
  7
CONVERTER_3
 73
     1
 44
1.0
1001
ACAD
1000
MTEXTBEGIN
1070
    73
1070
     1
1070
    44
1040
1.0
1070
    74
1070
     0
1000
MTEXTEND
  0
MTEXT
  5
1B3
102
{ACAD_XDICTIONARY
360
521
102
}
330
29
100
AcDbEntity
  8
1
 62
     4
100
AcDbMText
 10
861.4587492693789
 20
375.0703333478948
 30
0.0
 40
4.0
 41
0.0
 71
     5
 72
     1
  1
\U+008F\U+00B0  \U+201DF
  7
CONVERTER_3
 73
     1
 44
1.0
1001
ACAD
1000
MTEXTBEGIN
1070
    73
1070
     1
1070
    44
1040
1.0
1070
    74
1070
     0
1000
MTEXTEND
  0
MTEXT
  5
1B2
102
{ACAD_XDICTIONARY
360
51F
102
}
330
29
100
AcDbEntity
  8
1
 62
     4
100
AcDbMText
 10
983.4587492693788
 20
382.0703333478948
 30
0.0
 40
4.0
 41
0.0
 71
     5
 72
     1
  1
\U+2039L   \U+017D\U+00B2
  7
CONVERTER_3
 73
     1
 44
1.0
1001
ACAD
1000
MTEXTBEGIN
1070
    73
1070
     1
1070
    44
1040
1.0
1070
    74
1070
     0
1000
MTEXTEND
  0
MTEXT
  5
1B1
102
{ACAD_XDICTIONARY
360
51D
102
}
330
29
100
AcDbEntity
  8
1
 62
     4
100
AcDbMText
 10
948.4587492693789
 20
382.0703333478948
 30
0.0
 40
4.0
 41
0.0
 71
     5
 72
     1
  1
\U+017Dd   \U+008F\U+00D0   \U+201A\U+00AF
  7
CONVERTER_3
 73
     1
 44
1.0
1001
ACAD
1000
MTEXTBEGIN
1070
    73
1070
     1
1070
    44
1040
1.0
1070
    74
1070
     0
1000
MTEXTEND
  0
MTEXT
  5
1B0
102
{ACAD_XDICTIONARY
360
51B
102
}
330
29
100
AcDbEntity
  8
1
 62
     4
100
AcDbMText
 10
920.9587492693788
 20
382.0703333478948
 30
0.0
 40
4.0
 41
0.0
 71
     5
 72
     1
  1
\U+0090\U+201D %%d%%d
  7
CONVERTER_3
 73
     1
 44
1.0
1001
ACAD
1000
MTEXTBEGIN
1070
    73
1070
     1
1070
    44
1040
1.0
1070
    74
1070
     0
1000
MTEXTEND
  0
MTEXT
  5
1AF
102
{ACAD_XDICTIONARY
360
519
102
}
330
29
100
AcDbEntity
  8
1
 62
     4
100
AcDbMText
 10
898.4587492693789
 20
382.0703333478949
 30
0.0
 40
4.0
 41
0.0
 71
     5
 72
     1
  1
\U+008D\U+00DF   \U+017D\U+00A2
  7
CONVERTER_3
 73
     1
 44
1.0
1001
ACAD
1000
MTEXTBEGIN
1070
    73
1070
     1
1070
    44
1040
1.0
1070
    74
1070
     0
1000
MTEXTEND
  0
MTEXT
  5
1AE
102
{ACAD_XDICTIONARY
360
517
102
}
330
29
100
AcDbEntity
  8
1
 62
     4
100
AcDbMText
 10
858.4587492693788
 20
382.0703333478949
 30
0.0
 40
4.0
 41
0.0
 71
     5
 72
     1
  1
\U+2022i        \U+00B2\U+00A5
  7
CONVERTER_3
 73
     1
 44
1.0
1001
ACAD
1000
MTEXTBEGIN
1070
    73
1070
     1
1070
    44
1040
1.0
1070
    74
1070
     0
1000
MTEXTEND
  0
MTEXT
  5
1AD
102
{ACAD_XDICTIONARY
360
515
102
}
330
29
100
AcDbEntity
  8
1
 62
     4
100
AcDbMText
 10
825.9587492693787
 20
382.0703333478949
 30
0.0
 40
4.0
 41
0.0
 71
     5
 72
     1
  1
\U+2022i \U+201D\U+00E5
  7
CONVERTER_3
 73
     1
 44
1.0
1001
ACAD
1000
MTEXTBEGIN
1070
    73
1070
     1
1070
    44
1040
1.0
1070
    74
1070
     0
1000
MTEXTEND
  0
MTEXT
  5
1AC
102
{ACAD_XDICTIONARY
360
513
102
}
330
29
100
AcDbEntity
  8
1
 62
     4
100
AcDbMText
 10
911.358749269379
 20
341.0703333478948
 30
0.0
 40
4.0
 41
0.0
 71
     4
 72
     1
  1
\U+0090}\P\U+201D\U+00E5
  7
CONVERTER_3
 73
     1
 44
1.0
1001
ACAD
1000
MTEXTBEGIN
1070
    73
1070
     1
1070
    44
1040
1.0
1070
    74
1070
     0
1000
MTEXTEND
  0
MTEXT
  5
1AB
102
{ACAD_XDICTIONARY
360
511
102
}
330
29
100
AcDbEntity
  8
1
 62
     4
100
AcDbMText
 10
911.358749269379
 20
356.0703333478948
 30
0.0
 40
4.0
 41
0.0
 71
     4
 72
     1
  1
\U+0090}\P\U+00B2\U+00A5
  7
CONVERTER_3
 73
     1
 44
1.0
1001
ACAD
1000
MTEXTBEGIN
1070
    73
1070
     1
1070
    44
1040
1.0
1070
    74
1070
     0
1000
MTEXTEND
  0
MTEXT
  5
1AA
102
{ACAD_XDICTIONARY
360
50F
102
}
330
29
100
AcDbEntity
  8
1
 62
     4
100
AcDbMText
 10
911.358749269379
 20
371.0703333478948
 30
0.0
 40
4.0
 41
0.0
 71
     4
 72
     1
  1
\U+2022i\P\U+00B2\U+00A5
  7
CONVERTER_3
 73
     1
 44
1.0
1001
ACAD
1000
MTEXTBEGIN
1070
    73
1070
     1
1070
    44
1040
1.0
1070
    74
1070
     0
1000
MTEXTEND
  0
MTEXT
  5
1A8
330
29
100
AcDbEntity
  8
1
 62
     3
100
AcDbMText
 10
920.9587492693788
 20
389.0703333478949
 30
0.0
 40
3.5
 41
0.0
 71
     5
 72
     1
  1
1
  7
CONVERTER_1
 73
     1
 44
1.0
1001
ACAD
1000
MTEXTBEGIN
1070
    73
1070
     1
1070
    44
1040
1.0
1070
    74
1070
     0
1000
MTEXTEND
  0
MTEXT
  5
1A7
330
29
100
AcDbEntity
  8
1
 62
     3
100
AcDbMText
 10
825.9587492693787
 20
389.0703333478949
 30
0.0
 40
3.5
 41
0.0
 71
     5
 72
     1
  1
1
  7
CONVERTER_1
 73
     1
 44
1.0
1001
ACAD
1000
MTEXTBEGIN
1070
    73
1070
     1
1070
    44
1040
1.0
1070
    74
1070
     0
1000
MTEXTEND
  0
MTEXT
  5
1A6
330
29
100
AcDbEntity
  8
1
 62
     3
100
AcDbMText
 10
834.9587492693789
 20
373.5703333478948
 30
0.0
 40
6.0
 41
0.0
 71
     5
 72
     1
  1
1 : 1
  7
CONVERTER_1
 73
     1
 44
1.0
1001
ACAD
1000
MTEXTBEGIN
1070
    73
1070
     1
1070
    44
1040
1.0
1070
    74
1070
     0
1000
MTEXTEND
  0
MTEXT
  5
1A5
102
{ACAD_XDICTIONARY
360
50D
102
}
330
29
100
AcDbEntity
  8
1
 62
     3
100
AcDbMText
 10
861.4587492693789
 20
366.0703333478948
 30
0.0
 40
6.0
 41
0.0
 71
     5
 72
     1
  1
\U+02C6\U+00CF\U+008D\U+00E3
  7
CONVERTER_1
 73
     1
 44
1.0
1001
ACAD
1000
MTEXTBEGIN
1070
    73
1070
     1
1070
    44
1040
1.0
1070
    74
1070
     0
1000
MTEXTEND
  0
MTEXT
  5
1A4
330
29
100
AcDbEntity
  8
1
 62
     3
100
AcDbMText
 10
861.4587492693789
 20
357.0703333478948
 30
0.0
 40
3.5
 41
0.0
 71
     5
 72
     1
  1
99.1.5.
  7
CONVERTER_1
 73
     1
 44
1.0
1001
ACAD
1000
MTEXTBEGIN
1070
    73
1070
     1
1070
    44
1040
1.0
1070
    74
1070
     0
1000
MTEXTEND
  0
MTEXT
  5
1A3
330
29
100
AcDbEntity
  8
1
 62
     3
100
AcDbMText
 10
881.4587492693789
 20
357.0703333478948
 30
0.0
 40
3.5
 41
0.0
 71
     5
 72
     1
  1
99.1.5.
  7
CONVERTER_1
 73
     1
 44
1.0
1001
ACAD
1000
MTEXTBEGIN
1070
    73
1070
     1
1070
    44
1040
1.0
1070
    74
1070
     0
1000
MTEXTEND
  0
MTEXT
  5
1A2
102
{ACAD_XDICTIONARY
360
50B
102
}
330
29
100
AcDbEntity
  8
1
 62
     3
100
AcDbMText
 10
881.4587492693789
 20
366.0703333478948
 30
0.0
 40
6.0
 41
0.0
 71
     5
 72
     1
  1
\U+2019\U+2020\U+201C\U+2021
  7
CONVERTER_1
 73
     1
 44
1.0
1001
ACAD
1000
MTEXTBEGIN
1070
    73
1070
     1
1070
    44
1040
1.0
1070
    74
1070
     0
1000
MTEXTEND
  0
MTEXT
  5
1A1
102
{ACAD_XDICTIONARY
360
509
102
}
330
29
100
AcDbEntity
  8
1
 62
     3
100
AcDbMText
 10
901.458749269379
 20
366.0703333478948
 30
0.0
 40
6.0
 41
0.0
 71
     5
 72
     1
  1
\U+008F\U+008F\U+2022\U+00AB
  7
CONVERTER_1
 73
     1
 44
1.0
1001
ACAD
1000
MTEXTBEGIN
1070
    73
1070
     1
1070
    44
1040
1.0
1070
    74
1070
     0
1000
MTEXTEND
  0
MTEXT
  5
1A0
330
29
100
AcDbEntity
  8
1
 62
     3
100
AcDbMText
 10
901.458749269379
 20
357.0703333478948
 30
0.0
 40
3.5
 41
0.0
 71
     5
 72
     1
  1
99.1.5.
  7
CONVERTER_1
 73
     1
 44
1.0
1001
ACAD
1000
MTEXTBEGIN
1070
    73
1070
     1
1070
    44
1040
1.0
1070
    74
1070
     0
1000
MTEXTEND
  0
MTEXT
  5
19F
330
29
100
AcDbEntity
  8
1
 62
     3
100
AcDbMText
 10
920.4587492693789
 20
371.0703333478948
 30
0.0
 40
6.0
 41
0.0
 71
     4
 72
     1
  1
AFD-400
  7
CONVERTER_1
 73
     1
 44
1.0
1001
ACAD
1000
MTEXTBEGIN
1070
    73
1070
     1
1070
    44
1040
1.0
1070
    74
1070
     0
1000
MTEXTEND
  0
MTEXT
  5
19E
102
{ACAD_XDICTIONARY
360
507
102
}
330
29
100
AcDbEntity
  8
1
 62
     3
100
AcDbMText
 10
920.4587492693789
 20
356.0703333478948
 30
0.0
 40
6.0
 41
0.0
 71
     4
 72
     1
  1
\U+2018g%%d\U+00CF\U+0090}
  7
CONVERTER_1
 73
     1
 44
1.0
1001
ACAD
1000
MTEXTBEGIN
1070
    73
1070
     1
1070
    44
1040
1.0
1070
    74
1070
     0
1000
MTEXTEND
  0
MTEXT
  5
19D
330
29
100
AcDbEntity
  8
1
 62
     3
100
AcDbMText
 10
920.4587492693789
 20
341.0703333478948
 30
0.0
 40
6.0
 41
0.0
 71
     4
 72
     1
  1
GDFD-AD2-A13
  7
CONVERTER_1
 73
     1
 44
1.0
1001
ACAD
1000
MTEXTBEGIN
1070
    73
1070
     1
1070
    44
1040
1.0
1070
    74
1070
     0
1000
MTEXTEND
  0
MTEXT
  5
19C
102
{ACAD_XDICTIONARY
360
505
102
}
330
29
100
AcDbEntity
  8
1
 62
     3
100
AcDbMText
 10
930.4587492693789
 20
396.0703333478948
 30
0.0
 40
3.5
 41
0.0
 71
     4
 72
     1
  1
\U+0192N\U+0192\U+008D\U+0192\U+0081\U+0081[\U+0192g\U+0152\U+00D0 \U+2022\\U+00B2%%d\U+008D\U+2022\U+0090F\U+201Ch\U+2018\U+2022
  7
CONVERTER_1
 73
     1
 44
1.0
1001
ACAD
1000
MTEXTBEGIN
1070
    73
1070
     1
1070
    44
1040
1.0
1070
    74
1070
     0
1000
MTEXTEND
  0
MTEXT
  5
19B
102
{ACAD_XDICTIONARY
360
503
102
}
330
29
100
AcDbEntity
  8
1
 62
     3
100
AcDbMText
 10
885.458749269379
 20
389.0703333478949
 30
0.0
 40
3.5
 41
0.0
 71
     4
 72
     1
  1
6\U+0192i\U+0192C\U+0192\U+008D\U+0192\U+201C\U+2022\U+00C0\U+008D\U+2021\U+008D\U+00DF
  7
CONVERTER_1
 73
     1
 44
1.0
1001
ACAD
1000
MTEXTBEGIN
1070
    73
1070
     1
1070
    44
1040
1.0
1070
    74
1070
     0
1000
MTEXTEND
  0
MTEXT
  5
19A
102
{ACAD_XDICTIONARY
360
501
102
}
330
29
100
AcDbEntity
  8
1
 62
     3
100
AcDbMText
 10
835.458749269379
 20
389.0703333478949
 30
0.0
 40
3.5
 41
0.0
 71
     4
 72
     1
  1
\U+0152\U+00E9\U+2019%%c\U+0192J\U+0192b\U+0192v
  7
CONVERTER_1
 73
     1
 44
1.0
1001
ACAD
1000
MTEXTBEGIN
1070
    73
1070
     1
1070
    44
1040
1.0
1070
    74
1070
     0
1000
MTEXTEND
  0
MTEXT
  5
199
330
29
100
AcDbEntity
  8
1
 62
     3
100
AcDbMText
 10
825.9587492693787
 20
396.0703333478948
 30
0.0
 40
3.5
 41
0.0
 71
     5
 72
     1
  1
2
  7
CONVERTER_1
 73
     1
 44
1.0
1001
ACAD
1000
MTEXTBEGIN
1070
    73
1070
     1
1070
    44
1040
1.0
1070
    74
1070
     0
1000
MTEXTEND
  0
MTEXT
  5
198
330
29
100
AcDbEntity
  8
1
 62
     3
100
AcDbMText
 10
825.9587492693787
 20
403.0703333478945
 30
0.0
 40
3.5
 41
0.0
 71
     5
 72
     1
  1
3
  7
CONVERTER_1
 73
     1
 44
1.0
1001
ACAD
1000
MTEXTBEGIN
1070
    73
1070
     1
1070
    44
1040
1.0
1070
    74
1070
     0
1000
MTEXTEND
  0
MTEXT
  5
197
330
29
100
AcDbEntity
  8
1
 62
     3
100
AcDbMText
 10
825.9587492693787
 20
410.0703333478945
 30
0.0
 40
3.5
 41
0.0
 71
     5
 72
     1
  1
4
  7
CONVERTER_1
 73
     1
 44
1.0
1001
ACAD
1000
MTEXTBEGIN
1070
    73
1070
     1
1070
    44
1040
1.0
1070
    74
1070
     0
1000
MTEXTEND
  0
MTEXT
  5
196
330
29
100
AcDbEntity
  8
1
 62
     3
100
AcDbMText
 10
825.9587492693787
 20
417.0703333478943
 30
0.0
 40
3.5
 41
0.0
 71
     5
 72
     1
  1
5
  7
CONVERTER_1
 73
     1
 44
1.0
1001
ACAD
1000
MTEXTBEGIN
1070
    73
1070
     1
1070
    44
1040
1.0
1070
    74
1070
     0
1000
MTEXTEND
  0
MTEXT
  5
195
102
{ACAD_XDICTIONARY
360
4FF
102
}
330
29
100
AcDbEntity
  8
1
 62
     3
100
AcDbMText
 10
835.458749269379
 20
396.0703333478948
 30
0.0
 40
3.5
 41
0.0
 71
     4
 72
     1
  1
\U+2019\U+2026\U+2019E\U+0192z\U+0192\U+2039\U+0192_\U+0081[
  7
CONVERTER_1
 73
     1
 44
1.0
1001
ACAD
1000
MTEXTBEGIN
1070
    73
1070
     1
1070
    44
1040
1.0
1070
    74
1070
     0
1000
MTEXTEND
  0
MTEXT
  5
194
102
{ACAD_XDICTIONARY
360
4FD
102
}
330
29
100
AcDbEntity
  8
1
 62
     3
100
AcDbMText
 10
835.458749269379
 20
403.0703333478945
 30
0.0
 40
3.5
 41
0.0
 71
     4
 72
     1
  1
\U+0192V\U+0192\U+0192\U+0192t\U+0192g
  7
CONVERTER_1
 73
     1
 44
1.0
1001
ACAD
1000
MTEXTBEGIN
1070
    73
1070
     1
1070
    44
1040
1.0
1070
    74
1070
     0
1000
MTEXTEND
  0
MTEXT
  5
193
330
29
100
AcDbEntity
  8
1
 62
     3
100
AcDbMText
 10
885.458749269379
 20
396.0703333478948
 30
0.0
 40
3.5
 41
0.0
 71
     4
 72
     1
  1
ZDC 2
  7
CONVERTER_2
 73
     1
 44
1.0
1001
ACAD
1000
MTEXTBEGIN
1070
    73
1070
     1
1070
    44
1040
1.0
1070
    74
1070
     0
1000
MTEXTEND
  0
MTEXT
  5
191
330
29
100
AcDbEntity
  8
1
 62
     3
100
AcDbMText
 10
885.458749269379
 20
403.0703333478945
 30
0.0
 40
3.5
 41
0.0
 71
     4
 72
     1
  1
SWCH 10 A
  7
CONVERTER_1
 73
     1
 44
1.0
1001
ACAD
1000
MTEXTBEGIN
1070
    73
1070
     1
1070
    44
1040
1.0
1070
    74
1070
     0
1000
MTEXTEND
  0
MTEXT
  5
190
330
29
100
AcDbEntity
  8
1
 62
     3
100
AcDbMText
 10
920.9587492693788
 20
396.0703333478948
 30
0.0
 40
3.5
 41
0.0
 71
     5
 72
     1
  1
1
  7
CONVERTER_1
 73
     1
 44
1.0
1001
ACAD
1000
MTEXTBEGIN
1070
    73
1070
     1
1070
    44
1040
1.0
1070
    74
1070
     0
1000
MTEXTEND
  0
MTEXT
  5
18F
330
29
100
AcDbEntity
  8
1
 62
     3
100
AcDbMText
 10
920.9587492693788
 20
403.0703333478945
 30
0.0
 40
3.5
 41
0.0
 71
     5
 72
     1
  1
1
  7
CONVERTER_1
 73
     1
 44
1.0
1001
ACAD
1000
MTEXTBEGIN
1070
    73
1070
     1
1070
    44
1040
1.0
1070
    74
1070
     0
1000
MTEXTEND
  0
MTEXT
  5
18E
102
{ACAD_XDICTIONARY
360
4FB
102
}
330
29
100
AcDbEntity
  8
1
 62
     3
100
AcDbMText
 10
930.4587492693789
 20
389.0703333478949
 30
0.0
 40
3.5
 41
0.0
 71
     4
 72
     1
  1
\U+008D\U+2022\U+0090F
  7
CONVERTER_1
 73
     1
 44
1.0
1001
ACAD
1000
MTEXTBEGIN
1070
    73
1070
     1
1070
    44
1040
1.0
1070
    74
1070
     0
1000
MTEXTEND
  0
MTEXT
  5
18D
102
{ACAD_XDICTIONARY
360
4F9
102
}
330
29
100
AcDbEntity
  8
1
 62
     3
100
AcDbMText
 10
930.4587492693789
 20
403.0703333478945
 30
0.0
 40
3.5
 41
0.0
 71
     4
 72
     1
  1
\U+0192N\U+0192\U+008D\U+0192\U+0081\U+0081[\U+0192g
  7
CONVERTER_1
 73
     1
 44
1.0
1001
ACAD
1000
MTEXTBEGIN
1070
    73
1070
     1
1070
    44
1040
1.0
1070
    74
1070
     0
1000
MTEXTEND
  0
MTEXT
  5
18C
330
29
100
AcDbEntity
  8
1
 62
     3
100
AcDbMText
 10
825.9587492693787
 20
424.0703333478943
 30
0.0
 40
3.5
 41
0.0
 71
     5
 72
     1
  1
6
  7
CONVERTER_1
 73
     1
 44
1.0
1001
ACAD
1000
MTEXTBEGIN
1070
    73
1070
     1
1070
    44
1040
1.0
1070
    74
1070
     0
1000
MTEXTEND
  0
MTEXT
  5
18B
102
{ACAD_XDICTIONARY
360
4F7
102
}
330
29
100
AcDbEntity
  8
1
 62
     3
100
AcDbMText
 10
930.4587492693789
 20
410.0703333478951
 30
0.0
 40
3.5
 41
0.0
 71
     4
 72
     1
  1
\U+008D\U+2022\U+0090F
  7
CONVERTER_1
 73
     1
 44
1.0
1001
ACAD
1000
MTEXTBEGIN
1070
    73
1070
     1
1070
    44
1040
1.0
1070
    74
1070
     0
1000
MTEXTEND
  0
MTEXT
  5
18A
102
{ACAD_XDICTIONARY
360
4F5
102
}
330
29
100
AcDbEntity
  8
1
 62
     3
100
AcDbMText
 10
835.458749269379
 20
410.0703333478949
 30
0.0
 40
3.5
 41
0.0
 71
     4
 72
     1
  1
\U+0192\U+008D\U+0081[\U+0192\U+2030\U+0081[\U+0192K\U+0192C\U+0192h
  7
CONVERTER_1
 73
     1
 44
1.0
1001
ACAD
1000
MTEXTBEGIN
1070
    73
1070
     1
1070
    44
1040
1.0
1070
    74
1070
     0
1000
MTEXTEND
  0
MTEXT
  5
189
102
{ACAD_XDICTIONARY
360
4F3
102
}
330
29
100
AcDbEntity
  8
1
 62
     3
100
AcDbMText
 10
885.458749269379
 20
410.0703333478949
 30
0.0
 40
3.5
 41
0.0
 71
     4
 72
     1
  1
6\U+0192i\U+0192C\U+0192\U+008D\U+0192\U+201C
  7
CONVERTER_1
 73
     1
 44
1.0
1001
ACAD
1000
MTEXTBEGIN
1070
    73
1070
     1
1070
    44
1040
1.0
1070
    74
1070
     0
1000
MTEXTEND
  0
MTEXT
  5
188
330
29
100
AcDbEntity
  8
1
 62
     3
100
AcDbMText
 10
920.9587492693788
 20
410.0703333478949
 30
0.0
 40
3.5
 41
0.0
 71
     5
 72
     1
  1
1
  7
CONVERTER_1
 73
     1
 44
1.0
1001
ACAD
1000
MTEXTBEGIN
1070
    73
1070
     1
1070
    44
1040
1.0
1070
    74
1070
     0
1000
MTEXTEND
  0
MTEXT
  5
187
102
{ACAD_XDICTIONARY
360
4F1
102
}
330
29
100
AcDbEntity
  8
1
 62
     3
100
AcDbMText
 10
835.458749269379
 20
424.070333347894
 30
0.0
 40
3.5
 41
0.0
 71
     4
 72
     1
  1
\U+0152\U+00E9\U+2019%%c\U+0192J\U+0192b\U+0192v\U+0192i\U+0192b\U+0192g
  7
CONVERTER_1
 73
     1
 44
1.0
1001
ACAD
1000
MTEXTBEGIN
1070
    73
1070
     1
1070
    44
1040
1.0
1070
    74
1070
     0
1000
MTEXTEND
  0
MTEXT
  5
186
102
{ACAD_XDICTIONARY
360
4EF
102
}
330
29
100
AcDbEntity
  8
1
 62
     3
100
AcDbMText
 10
885.458749269379
 20
424.070333347894
 30
0.0
 40
3.5
 41
0.0
 71
     4
 72
     1
  1
\U+017Ds\U+201D\U+00E4\U+2022i \U+201C%%p\U+017D\U+00DA
  7
CONVERTER_1
 73
     1
 44
1.0
1001
ACAD
1000
MTEXTBEGIN
1070
    73
1070
     1
1070
    44
1040
1.0
1070
    74
1070
     0
1000
MTEXTEND
  0
MTEXT
  5
185
330
29
100
AcDbEntity
  8
1
 62
     3
100
AcDbMText
 10
920.9587492693788
 20
424.070333347894
 30
0.0
 40
3.5
 41
0.0
 71
     5
 72
     1
  1
1
  7
CONVERTER_1
 73
     1
 44
1.0
1001
ACAD
1000
MTEXTBEGIN
1070
    73
1070
     1
1070
    44
1040
1.0
1070
    74
1070
     0
1000
MTEXTEND
  0
MTEXT
  5
184
102
{ACAD_XDICTIONARY
360
4ED
102
}
330
29
100
AcDbEntity
  8
1
 62
     3
100
AcDbMText
 10
930.4587492693789
 20
424.070333347894
 30
0.0
 40
3.5
 41
0.0
 71
     4
 72
     1
  1
\U+0192N\U+0192\U+008D\U+0192\U+0081\U+0081[\U+0192g
  7
CONVERTER_1
 73
     1
 44
1.0
1001
ACAD
1000
MTEXTBEGIN
1070
    73
1070
     1
1070
    44
1040
1.0
1070
    74
1070
     0
1000
MTEXTEND
  0
MTEXT
  5
183
330
29
100
AcDbEntity
  8
1
 62
     3
100
AcDbMText
 10
970.4587492693789
 20
424.070333347894
 30
0.0
 40
3.5
 41
0.0
 71
     4
 72
     1
  1
M6
  7
CONVERTER_1
 73
     1
 44
1.0
1001
ACAD
1000
MTEXTBEGIN
1070
    73
1070
     1
1070
    44
1040
1.0
1070
    74
1070
     0
1000
MTEXTEND
  0
MTEXT
  5
182
102
{ACAD_XDICTIONARY
360
4EB
102
}
330
29
100
AcDbEntity
  8
1
 62
     3
100
AcDbMText
 10
835.458749269379
 20
417.0703333478943
 30
0.0
 40
3.5
 41
0.0
 71
     4
 72
     1
  1
\U+008D\U+00E2\U+2039\U+00C1\U+2022t\U+201A\U+00E0\U+201A\U+00E6\U+008F~\U+201A\U+00F9\U+201A\U+00D1
  7
CONVERTER_1
 73
     1
 44
1.0
1001
ACAD
1000
MTEXTBEGIN
1070
    73
1070
     1
1070
    44
1040
1.0
1070
    74
1070
     0
1000
MTEXTEND
  0
MTEXT
  5
181
330
29
100
AcDbEntity
  8
1
 62
     3
100
AcDbMText
 10
885.458749269379
 20
417.0703333478943
 30
0.0
 40
3.5
 41
0.0
 71
     4
 72
     1
  1
SWCH 10 A
  7
CONVERTER_1
 73
     1
 44
1.0
1001
ACAD
1000
MTEXTBEGIN
1070
    73
1070
     1
1070
    44
1040
1.0
1070
    74
1070
     0
1000
MTEXTEND
  0
MTEXT
  5
180
330
29
100
AcDbEntity
  8
1
 62
     3
100
AcDbMText
 10
920.9587492693788
 20
417.0703333478943
 30
0.0
 40
3.5
 41
0.0
 71
     5
 72
     1
  1
1
  7
CONVERTER_1
 73
     1
 44
1.0
1001
ACAD
1000
MTEXTBEGIN
1070
    73
1070
     1
1070
    44
1040
1.0
1070
    74
1070
     0
1000
MTEXTEND
  0
MTEXT
  5
17F
102
{ACAD_XDICTIONARY
360
4E9
102
}
330
29
100
AcDbEntity
  8
1
 62
     3
100
AcDbMText
 10
930.4587492693789
 20
417.0703333478943
 30
0.0
 40
3.5
 41
0.0
 71
     4
 72
     1
  1
\U+02C6\U+0081\U+2030\U+201D\U+0192\U+0081\U+0192b\U+0192L
  7
CONVERTER_1
 73
     1
 44
1.0
1001
ACAD
1000
MTEXTBEGIN
1070
    73
1070
     1
1070
    44
1040
1.0
1070
    74
1070
     0
1000
MTEXTEND
  0
MTEXT
  5
17E
102
{ACAD_XDICTIONARY
360
4E7
102
}
330
29
100
AcDbEntity
  8
1
 62
     3
100
AcDbMText
 10
970.4587492693789
 20
417.0703333478943
 30
0.0
 40
3.5
 41
0.0
 71
     4
 72
     1
  1
\U+2022\U+00A7\U+008D\U+00E2\U+2039\U+00C1 \U+0192o\U+0192l\U+008D\U+00E2\U+2039\U+00C1\U+2022t M6
  7
CONVERTER_1
 73
     1
 44
1.0
1001
ACAD
1000
MTEXTBEGIN
1070
    73
1070
     1
1070
    44
1040
1.0
1070
    74
1070
     0
1000
MTEXTEND
  0
MTEXT
  5
17D
102
{ACAD_XDICTIONARY
360
4E5
102
}
330
29
100
AcDbEntity
  8
1
 62
     3
100
AcDbMText
 10
970.4587492693789
 20
431.0703333478938
 30
0.0
 40
3.5
 41
0.0
 71
     4
 72
     1
  1
\U+0192\U+00C66.3\U+0081~\U+0152\U+0160\U+0192\U+00C64.4
  7
CONVERTER_1
 73
     1
 44
1.0
1001
ACAD
1000
MTEXTBEGIN
1070
    73
1070
     1
1070
    44
1040
1.0
1070
    74
1070
     0
1000
MTEXTEND
  0
MTEXT
  5
17C
330
29
100
AcDbEntity
  8
1
 62
     3
100
AcDbMText
 10
920.9587492693788
 20
431.0703333478938
 30
0.0
 40
3.5
 41
0.0
 71
     5
 72
     1
  1
1
  7
CONVERTER_1
 73
     1
 44
1.0
1001
ACAD
1000
MTEXTBEGIN
1070
    73
1070
     1
1070
    44
1040
1.0
1070
    74
1070
     0
1000
MTEXTEND
  0
MTEXT
  5
17B
102
{ACAD_XDICTIONARY
360
4E3
102
}
330
29
100
AcDbEntity
  8
1
 62
     3
100
AcDbMText
 10
885.458749269379
 20
431.0703333478938
 30
0.0
 40
3.5
 41
0.0
 71
     4
 72
     1
  1
SPCC \U+201A\U+201D\U+0081\U+00810.5
  7
CONVERTER_1
 73
     1
 44
1.0
1001
ACAD
1000
MTEXTBEGIN
1070
    73
1070
     1
1070
    44
1040
1.0
1070
    74
1070
     0
1000
MTEXTEND
  0
MTEXT
  5
17A
102
{ACAD_XDICTIONARY
360
4E1
102
}
330
29
100
AcDbEntity
  8
1
 62
     3
100
AcDbMText
 10
835.458749269379
 20
431.0703333478938
 30
0.0
 40
3.5
 41
0.0
 71
     4
 72
     1
  1
\U+0192\U+008F\U+0192b\U+0192V\U+0192\U+0192\U+0081[
  7
CONVERTER_1
 73
     1
 44
1.0
1001
ACAD
1000
MTEXTBEGIN
1070
    73
1070
     1
1070
    44
1040
1.0
1070
    74
1070
     0
1000
MTEXTEND
  0
MTEXT
  5
179
330
29
100
AcDbEntity
  8
1
 62
     3
100
AcDbMText
 10
825.9587492693787
 20
431.070333347894
 30
0.0
 40
3.5
 41
0.0
 71
     5
 72
     1
  1
7
  7
CONVERTER_1
 73
     1
 44
1.0
1001
ACAD
1000
MTEXTBEGIN
1070
    73
1070
     1
1070
    44
1040
1.0
1070
    74
1070
     0
1000
MTEXTEND
  0
MTEXT
  5
178
102
{ACAD_XDICTIONARY
360
4DF
102
}
330
29
100
AcDbEntity
  8
1
 62
     3
100
AcDbMText
 10
970.4587492693789
 20
438.0703333478936
 30
0.0
 40
3.5
 41
0.0
 71
     4
 72
     1
  1
\U+0160\U+00DC\U+017DM\U+00B2\U+00C4\U+201A\U+00F9\U+201A\U+00D13.1\U+0081~20
  7
CONVERTER_1
 73
     1
 44
1.0
1001
ACAD
1000
MTEXTBEGIN
1070
    73
1070
     1
1070
    44
1040
1.0
1070
    74
1070
     0
1000
MTEXTEND
  0
MTEXT
  5
177
102
{ACAD_XDICTIONARY
360
4DD
102
}
330
29
100
AcDbEntity
  8
1
 62
     3
100
AcDbMText
 10
930.4587492693789
 20
438.0703333478936
 30
0.0
 40
3.5
 41
0.0
 71
     4
 72
     1
  1
\U+02C6\U+0081\U+2030\U+201D\U+0192\U+0081\U+0192b\U+0192L
  7
CONVERTER_1
 73
     1
 44
1.0
1001
ACAD
1000
MTEXTBEGIN
1070
    73
1070
     1
1070
    44
1040
1.0
1070
    74
1070
     0
1000
MTEXTEND
  0
MTEXT
  5
176
330
29
100
AcDbEntity
  8
1
 62
     3
100
AcDbMText
 10
920.9587492693788
 20
438.0703333478936
 30
0.0
 40
3.5
 41
0.0
 71
     5
 72
     1
  1
2
  7
CONVERTER_1
 73
     1
 44
1.0
1001
ACAD
1000
MTEXTBEGIN
1070
    73
1070
     1
1070
    44
1040
1.0
1070
    74
1070
     0
1000
MTEXTEND
  0
MTEXT
  5
175
102
{ACAD_XDICTIONARY
360
4DB
102
}
330
29
100
AcDbEntity
  8
1
 62
     3
100
AcDbMText
 10
885.458749269379
 20
438.0703333478936
 30
0.0
 40
3.5
 41
0.0
 71
     4
 72
     1
  1
\U+017Ds\U+201D\U+00E4\U+2022i
  7
CONVERTER_1
 73
     1
 44
1.0
1001
ACAD
1000
MTEXTBEGIN
1070
    73
1070
     1
1070
    44
1040
1.0
1070
    74
1070
     0
1000
MTEXTEND
  0
MTEXT
  5
174
102
{ACAD_XDICTIONARY
360
4D9
102
}
330
29
100
AcDbEntity
  8
1
 62
     3
100
AcDbMText
 10
835.458749269379
 20
438.0703333478936
 30
0.0
 40
3.5
 41
0.0
 71
     4
 72
     1
  1
\U+017D\U+00CC\U+2022t\U+201A\U+00A3%%dp\U+201CY\U+2022t\U+201A\U+00F9\U+201A\U+00D1
  7
CONVERTER_1
 73
     1
 44
1.0
1001
ACAD
1000
MTEXTBEGIN
1070
    73
1070
     1
1070
    44
1040
1.0
1070
    74
1070
     0
1000
MTEXTEND
  0
MTEXT
  5
173
330
29
100
AcDbEntity
  8
1
 62
     3
100
AcDbMText
 10
825.9587492693787
 20
438.070333347894
 30
0.0
 40
3.5
 41
0.0
 71
     5
 72
     1
  1
8
  7
CONVERTER_1
 73
     1
 44
1.0
1001
ACAD
1000
MTEXTBEGIN
1070
    73
1070
     1
1070
    44
1040
1.0
1070
    74
1070
     0
1000
MTEXTEND
  0
MTEXT
  5
172
102
{ACAD_XDICTIONARY
360
4D7
102
}
330
29
100
AcDbEntity
  8
1
 62
     3
100
AcDbMText
 10
930.4587492693789
 20
431.0703333478938
 30
0.0
 40
3.5
 41
0.0
 71
     4
 72
     1
  1
\U+0192N\U+0192\U+008D\U+0192\U+0081\U+0081[\U+0192g
  7
CONVERTER_1
 73
     1
 44
1.0
1001
ACAD
1000
MTEXTBEGIN
1070
    73
1070
     1
1070
    44
1040
1.0
1070
    74
1070
     0
1000
MTEXTEND
  0
ARC
  5
170
330
29
100
AcDbEntity
  8
1
  6
Continuous
 62
     7
100
AcDbCircle
 10
849.5278717257598
 20
343.0029292732696
 30
0.0
 40
0.26152226372199
100
AcDbArc
 50
180.0
 51
-90.0
  0
ARC
  5
16F
330
29
100
AcDbEntity
  8
1
  6
Continuous
 62
     7
100
AcDbCircle
 10
847.226475805002
 20
343.0029292732696
 30
0.0
 40
0.2615222637225
100
AcDbArc
 50
-90.0
 51
0.0
  0
ARC
  5
16E
330
29
100
AcDbEntity
  8
1
  6
Continuous
 62
     7
100
AcDbCircle
 10
849.5278717257598
 20
348.6518101696756
 30
0.0
 40
0.2615222637225
100
AcDbArc
 50
90.0
 51
180.0
  0
ARC
  5
16D
330
29
100
AcDbEntity
  8
1
  6
Continuous
 62
     7
100
AcDbCircle
 10
847.331084710491
 20
348.7612501816256
 30
0.0
 40
0.15691335823396
100
AcDbArc
 50
0.0
 51
164.9999999999659
  0
ARC
  5
16C
330
29
100
AcDbEntity
  8
1
  6
Continuous
 62
     7
100
AcDbCircle
 10
845.8142555809011
 20
346.3337889946864
 30
0.0
 40
0.15691335823394
100
AcDbArc
 50
-165.0000000000519
 51
-15.00000000003408
  0
ARC
  5
16B
330
29
100
AcDbEntity
  8
1
  6
Continuous
 62
     7
100
AcDbCircle
 10
842.9898151326979
 20
348.7911887726
 30
0.0
 40
0.15691335823299
100
AcDbArc
 50
15.00000000008492
 51
180.0
  0
ARC
  5
16A
330
29
100
AcDbEntity
  8
1
  6
Continuous
 62
     7
100
AcDbCircle
 10
842.9898151326979
 20
342.8983203677806
 30
0.0
 40
0.15691335823408
100
AcDbArc
 50
180.0
 51
-90.0
  0
ARC
  5
169
330
29
100
AcDbEntity
  8
1
  6
Continuous
 62
     7
100
AcDbCircle
 10
842.1529438887858
 20
342.8983203677806
 30
0.0
 40
0.15691335823351
100
AcDbArc
 50
-90.0
 51
0.0
  0
ARC
  5
168
330
29
100
AcDbEntity
  8
1
  6
Continuous
 62
     7
100
AcDbCircle
 10
842.1529438887858
 20
348.7564190751646
 30
0.0
 40
0.15691335823294
100
AcDbArc
 50
0.0
 51
90.0
  0
ARC
  5
167
330
29
100
AcDbEntity
  8
1
  6
Continuous
 62
     7
100
AcDbCircle
 10
843.1467284909309
 20
342.6367981040581
 30
0.0
 40
0.10460890548904
100
AcDbArc
 50
0.0
 51
90.0
  0
ARC
  5
166
330
29
100
AcDbEntity
  8
1
  6
Continuous
 62
     7
100
AcDbCircle
 10
841.891421625063
 20
342.6367981040581
 30
0.0
 40
0.10460890548904
100
AcDbArc
 50
90.0
 51
180.0
  0
ARC
  5
165
330
29
100
AcDbEntity
  8
1
  6
Continuous
 62
     7
100
AcDbCircle
 10
847.0172579940239
 20
342.6367981040581
 30
0.0
 40
0.10460890548904
100
AcDbArc
 50
90.0
 51
180.0
  0
ARC
  5
164
330
29
100
AcDbEntity
  8
1
  6
Continuous
 62
     7
100
AcDbCircle
 10
849.7370895367378
 20
342.6367981040581
 30
0.0
 40
0.10460890548893
100
AcDbArc
 50
0.0
 51
90.0
  0
ARC
  5
163
330
29
100
AcDbEntity
  8
1
  6
Continuous
 62
     7
100
AcDbCircle
 10
849.7370895367378
 20
349.0179413388871
 30
0.0
 40
0.10460890548899
100
AcDbArc
 50
-90.0
 51
0.0
  0
ARC
  5
162
330
29
100
AcDbEntity
  8
1
  6
Continuous
 62
     7
100
AcDbCircle
 10
841.891421625063
 20
349.0179413388871
 30
0.0
 40
0.10460890548904
100
AcDbArc
 50
180.0
 51
-90.0
  0
ARC
  5
161
330
29
100
AcDbEntity
  8
1
  6
Continuous
 62
     7
100
AcDbCircle
 10
828.972221797172
 20
342.6367981040581
 30
0.0
 40
0.10460890548904
100
AcDbArc
 50
90.0
 51
180.0
  0
ARC
  5
160
330
29
100
AcDbEntity
  8
1
  6
Continuous
 62
     7
100
AcDbCircle
 10
831.9012711508639
 20
342.6367981040581
 30
0.0
 40
0.10460890548904
100
AcDbArc
 50
0.0
 51
90.0
  0
ARC
  5
15F
330
29
100
AcDbEntity
  8
1
  6
Continuous
 62
     7
100
AcDbCircle
 10
831.692053339886
 20
343.0029292732696
 30
0.0
 40
0.26152226372301
100
AcDbArc
 50
180.0
 51
-90.0
  0
ARC
  5
15E
330
29
100
AcDbEntity
  8
1
  6
Continuous
 62
     7
100
AcDbCircle
 10
829.1814396081498
 20
343.0029292732696
 30
0.0
 40
0.2615222637225
100
AcDbArc
 50
-90.0
 51
0.0
  0
ARC
  5
15D
330
29
100
AcDbEntity
  8
1
  6
Continuous
 62
     7
100
AcDbCircle
 10
828.9263263912738
 20
348.1810700949751
 30
0.0
 40
0.7322623384230301
100
AcDbArc
 50
90.0
 51
162.5271147297048
  0
ARC
  5
15C
330
29
100
AcDbEntity
  8
1
  6
Continuous
 62
     7
100
AcDbCircle
 10
831.9471665567609
 20
348.1810700949751
 30
0.0
 40
0.73226233842328
100
AcDbArc
 50
17.47288527029252
 51
90.0
  0
ARC
  5
15B
330
29
100
AcDbEntity
  8
1
  6
Continuous
 62
     7
100
AcDbCircle
 10
831.796662245375
 20
348.5472012641865
 30
0.0
 40
0.36613116921154
100
AcDbArc
 50
90.0
 51
180.0
  0
ARC
  5
15A
330
29
100
AcDbEntity
  8
1
  6
Continuous
 62
     7
100
AcDbCircle
 10
829.076830702661
 20
348.5472012641865
 30
0.0
 40
0.36613116921092
100
AcDbArc
 50
0.0
 51
90.0
  0
ARC
  5
159
330
29
100
AcDbEntity
  8
1
  6
Continuous
 62
     7
100
AcDbCircle
 10
827.8738282895371
 20
342.6367981040581
 30
0.0
 40
0.10460890548893
100
AcDbArc
 50
0.0
 51
90.0
  0
ARC
  5
158
330
29
100
AcDbEntity
  8
1
  6
Continuous
 62
     7
100
AcDbCircle
 10
824.9447789358452
 20
342.6367981040581
 30
0.0
 40
0.10460890548904
100
AcDbArc
 50
90.0
 51
180.0
  0
ARC
  5
157
330
29
100
AcDbEntity
  8
1
  6
Continuous
 62
     7
100
AcDbCircle
 10
822.538774109598
 20
342.6367981040581
 30
0.0
 40
0.10460890548893
100
AcDbArc
 50
0.0
 51
90.0
  0
ARC
  5
156
330
29
100
AcDbEntity
  8
1
  6
Continuous
 62
     7
100
AcDbCircle
 10
821.074249432752
 20
342.6367981040581
 30
0.0
 40
0.10460890548904
100
AcDbArc
 50
90.0
 51
180.0
  0
ARC
  5
155
330
29
100
AcDbEntity
  8
1
  6
Continuous
 62
     7
100
AcDbCircle
 10
827.5155598669293
 20
343.0029292732696
 30
0.0
 40
0.26152226372228
100
AcDbArc
 50
-162.9999999999796
 51
-90.0
  0
ARC
  5
154
330
29
100
AcDbEntity
  8
1
  6
Continuous
 62
     7
100
AcDbCircle
 10
821.33057179044
 20
343.0029292732696
 30
0.0
 40
0.2615222637225
100
AcDbArc
 50
-90.0
 51
-17.00000000000578
  0
ARC
  5
153
330
29
100
AcDbEntity
  8
1
  6
Continuous
 62
     7
100
AcDbCircle
 10
825.2343888702855
 20
342.9506248205251
 30
0.0
 40
0.20921781097809
100
AcDbArc
 50
-90.0
 51
16.99999999995978
  0
ARC
  5
152
330
29
100
AcDbEntity
  8
1
  6
Continuous
 62
     7
100
AcDbCircle
 10
824.7226744388965
 20
344.6243673083492
 30
0.0
 40
0.20921781097807
100
AcDbArc
 50
16.99999999998956
 51
90.0
  0
ARC
  5
151
330
29
100
AcDbEntity
  8
1
  6
Continuous
 62
     7
100
AcDbCircle
 10
822.2830876696034
 20
342.8983203677806
 30
0.0
 40
0.15691335823345
100
AcDbArc
 50
162.9999999999933
 51
-90.0
  0
ARC
  5
150
330
29
100
AcDbEntity
  8
1
  6
Continuous
 62
     7
100
AcDbCircle
 10
822.826784252954
 20
344.6766717610936
 30
0.0
 40
0.15691335823362
100
AcDbArc
 50
90.0
 51
163.0000000000176
  0
ARC
  5
14F
330
29
100
AcDbEntity
  8
1
  6
Continuous
 62
     7
100
AcDbCircle
 10
824.505520482284
 20
345.5135430050057
 30
0.0
 40
0.1569133582334
100
AcDbArc
 50
-90.0
 51
16.99999999998239
  0
ARC
  5
14E
330
29
100
AcDbEntity
  8
1
  6
Continuous
 62
     7
100
AcDbCircle
 10
823.0826414686481
 20
345.5135430050057
 30
0.0
 40
0.15691335823345
100
AcDbArc
 50
162.9999999999933
 51
-90.0
  0
ARC
  5
14D
330
29
100
AcDbEntity
  8
1
  6
Continuous
 62
     7
100
AcDbCircle
 10
823.7940809754661
 20
347.8405567787741
 30
0.0
 40
0.15691335823367
100
AcDbArc
 50
16.99999999998239
 51
162.9999999999933
  0
CIRCLE
  5
14C
330
29
100
AcDbEntity
  8
1
  6
Continuous
 62
     5
100
AcDbCircle
 10
826.5341957306956
 20
361.0703333478948
 30
0.0
 40
4.0
  0
CIRCLE
  5
14B
330
29
100
AcDbEntity
  8
1
  6
Continuous
 62
     5
100
AcDbCircle
 10
826.5341957306956
 20
361.0703333478948
 30
0.0
 40
2.0
  0
CIRCLE
  5
14A
330
29
100
AcDbEntity
  8
1
  6
Continuous
 62
     7
100
AcDbCircle
 10
837.4455431417811
 20
345.8273697214726
 30
0.0
 40
3.81822505034802
  0
ARC
  5
149
330
29
100
AcDbEntity
  8
1
  6
Continuous
 62
     7
100
AcDbCircle
 10
835.7072559803519
 20
344.089082560044
 30
0.0
 40
0.83687124391174
100
AcDbArc
 50
134.9999999999945
 51
-45.00000000001651
  0
ARC
  5
148
330
29
100
AcDbEntity
  8
1
  6
Continuous
 62
     7
100
AcDbCircle
 10
839.1838303032091
 20
347.5656568829013
 30
0.0
 40
0.8368712439118198
100
AcDbArc
 50
-45.000000000011
 51
134.999999999989
  0
ARC
  5
147
330
29
100
AcDbEntity
  8
1
  6
Continuous
 62
     7
100
AcDbCircle
 10
827.7692193840479
 20
347.8149389257636
 30
0.0
 40
0.26152226372241
100
AcDbArc
 50
178.147562714672
 51
-17.47288527028598
  0
ARC
  5
146
330
29
100
AcDbEntity
  8
1
  6
Continuous
 62
     7
100
AcDbCircle
 10
833.104273563987
 20
347.8149389257636
 30
0.0
 40
0.26152226372176
100
AcDbArc
 50
-162.5271147296468
 51
1.85243728531311
  0
LINE
  5
145
330
29
100
AcDbEntity
  8
1
  6
Continuous
 62
     5
100
AcDbLine
 10
826.5341957306956
 20
359.8750840003441
 30
0.0
 11
826.5341957306956
 21
355.0731632020039
 31
0.0
  0
LINE
  5
144
330
29
100
AcDbEntity
  8
1
  6
Continuous
 62
     5
100
AcDbLine
 10
826.5341957306956
 20
361.864451188228
 30
0.0
 11
826.5341957306956
 21
360.3552760801782
 31
0.0
  0
LINE
  5
143
330
29
100
AcDbEntity
  8
1
  6
Continuous
 62
     5
100
AcDbLine
 10
826.5341957306956
 20
366.6663719865682
 30
0.0
 11
826.5341957306956
 21
362.3103438337881
 31
0.0
  0
LINE
  5
142
330
29
100
AcDbEntity
  8
1
  6
Continuous
 62
     5
100
AcDbLine
 10
842.28438349209
 20
361.0703333478948
 30
0.0
 11
848.7326771355759
 21
361.0703333478948
 31
0.0
  0
LINE
  5
141
330
29
100
AcDbEntity
  8
1
  6
Continuous
 62
     5
100
AcDbLine
 10
840.672310081219
 20
361.0703333478948
 30
0.0
 11
841.5297959380659
 21
361.0703333478948
 31
0.0
  0
LINE
  5
140
330
29
100
AcDbEntity
  8
1
  6
Continuous
 62
     5
100
AcDbLine
 10
828.084417702713
 20
361.0703333478948
 30
0.0
 11
840.1578185671109
 21
361.0703333478948
 31
0.0
  0
LINE
  5
13F
330
29
100
AcDbEntity
  8
1
  6
Continuous
 62
     5
100
AcDbLine
 10
825.6491578692685
 20
361.0703333478948
 30
0.0
 11
827.6042256228787
 21
361.0703333478948
 31
0.0
  0
LINE
  5
13E
330
29
100
AcDbEntity
  8
1
  6
Continuous
 62
     5
100
AcDbLine
 10
821.0530336765719
 20
361.0703333478948
 30
0.0
 11
825.1003669208866
 21
361.0703333478948
 31
0.0
  0
LINE
  5
13D
330
29
100
AcDbEntity
  8
1
  6
Continuous
 62
     5
100
AcDbLine
 10
846.3404321664258
 20
357.0703333478948
 30
0.0
 11
836.509075674777
 21
359.0703333478948
 31
0.0
  0
LINE
  5
13C
330
29
100
AcDbEntity
  8
1
  6
Continuous
 62
     5
100
AcDbLine
 10
846.3404321664258
 20
365.0703333478948
 30
0.0
 11
846.3404321664258
 21
357.0703333478948
 31
0.0
  0
LINE
  5
13B
330
29
100
AcDbEntity
  8
1
  6
Continuous
 62
     5
100
AcDbLine
 10
836.509075674777
 20
363.0703333478948
 30
0.0
 11
846.3404321664258
 21
365.0703333478948
 31
0.0
  0
LINE
  5
13A
330
29
100
AcDbEntity
  8
1
  6
Continuous
 62
     5
100
AcDbLine
 10
836.509075674777
 20
359.0703333478948
 30
0.0
 11
836.509075674777
 21
363.0703333478948
 31
0.0
  0
LINE
  5
139
330
29
100
AcDbEntity
  8
1
  6
Continuous
 62
     7
100
AcDbLine
 10
847.487998068725
 20
348.7612501816256
 30
0.0
 11
847.487998068725
 21
343.0029292732696
 31
0.0
  0
LINE
  5
138
330
29
100
AcDbEntity
  8
1
  6
Continuous
 62
     7
100
AcDbLine
 10
845.415474573069
 20
342.2183624821021
 30
0.0
 11
847.179518045284
 21
348.8018623471674
 31
0.0
  0
LINE
  5
137
330
29
100
AcDbEntity
  8
1
  6
Continuous
 62
     7
100
AcDbLine
 10
843.1413817979048
 20
348.8318009381418
 30
0.0
 11
844.9134472913939
 21
342.2183624821021
 31
0.0
  0
LINE
  5
136
330
29
100
AcDbEntity
  8
1
  6
Continuous
 62
     7
100
AcDbLine
 10
842.8329017744639
 20
342.8983203677806
 30
0.0
 11
842.8329017744639
 21
348.7911887726
 31
0.0
  0
LINE
  5
135
330
29
100
AcDbEntity
  8
1
  6
Continuous
 62
     7
100
AcDbLine
 10
845.415474573069
 20
342.2183624821021
 30
0.0
 11
844.9134472913939
 21
342.2183624821021
 31
0.0
  0
LINE
  5
134
330
29
100
AcDbEntity
  8
1
  6
Continuous
 62
     7
100
AcDbLine
 10
847.0172579940239
 20
342.7414070095471
 30
0.0
 11
847.226475805002
 21
342.7414070095471
 31
0.0
  0
LINE
  5
133
330
29
100
AcDbEntity
  8
1
  6
Continuous
 62
     7
100
AcDbLine
 10
846.9126490885349
 20
342.2183624821021
 30
0.0
 11
846.9126490885349
 21
342.6367981040581
 31
0.0
  0
LINE
  5
132
330
29
100
AcDbEntity
  8
1
  6
Continuous
 62
     7
100
AcDbLine
 10
849.8416984422268
 20
342.2183624821021
 30
0.0
 11
846.9126490885349
 21
342.2183624821021
 31
0.0
  0
LINE
  5
131
330
29
100
AcDbEntity
  8
1
  6
Continuous
 62
     7
100
AcDbLine
 10
849.8416984422268
 20
342.6367981040581
 30
0.0
 11
849.8416984422268
 21
342.2183624821021
 31
0.0
  0
LINE
  5
130
330
29
100
AcDbEntity
  8
1
  6
Continuous
 62
     7
100
AcDbLine
 10
849.5278717257598
 20
342.7414070095471
 30
0.0
 11
849.7370895367378
 21
342.7414070095471
 31
0.0
  0
LINE
  5
12F
330
29
100
AcDbEntity
  8
1
  6
Continuous
 62
     7
100
AcDbLine
 10
849.2663494620378
 20
348.6518101696756
 30
0.0
 11
849.2663494620378
 21
343.0029292732696
 31
0.0
  0
LINE
  5
12E
330
29
100
AcDbEntity
  8
1
  6
Continuous
 62
     7
100
AcDbLine
 10
849.7370895367378
 20
348.9133324333981
 30
0.0
 11
849.5278717257598
 21
348.9133324333981
 31
0.0
  0
LINE
  5
12D
330
29
100
AcDbEntity
  8
1
  6
Continuous
 62
     7
100
AcDbLine
 10
849.8416984422268
 20
349.4363769608431
 30
0.0
 11
849.8416984422268
 21
349.0179413388871
 31
0.0
  0
LINE
  5
12C
330
29
100
AcDbEntity
  8
1
  6
Continuous
 62
     7
100
AcDbLine
 10
846.808040183046
 20
349.4363769608431
 30
0.0
 11
849.8416984422268
 21
349.4363769608431
 31
0.0
  0
LINE
  5
12B
330
29
100
AcDbEntity
  8
1
  6
Continuous
 62
     7
100
AcDbLine
 10
841.7868127195738
 20
349.4363769608431
 30
0.0
 11
844.820470978755
 21
349.4363769608431
 31
0.0
  0
LINE
  5
12A
330
29
100
AcDbEntity
  8
1
  6
Continuous
 62
     7
100
AcDbLine
 10
841.7868127195738
 20
349.0179413388871
 30
0.0
 11
841.7868127195738
 21
349.4363769608431
 31
0.0
  0
LINE
  5
129
330
29
100
AcDbEntity
  8
1
  6
Continuous
 62
     7
100
AcDbLine
 10
842.1529438887858
 20
348.9133324333981
 30
0.0
 11
841.891421625063
 21
348.9133324333981
 31
0.0
  0
LINE
  5
128
330
29
100
AcDbEntity
  8
1
  6
Continuous
 62
     7
100
AcDbLine
 10
842.3098572470188
 20
342.8983203677806
 30
0.0
 11
842.3098572470188
 21
348.7564190751646
 31
0.0
  0
LINE
  5
127
330
29
100
AcDbEntity
  8
1
  6
Continuous
 62
     7
100
AcDbLine
 10
841.891421625063
 20
342.7414070095471
 30
0.0
 11
842.1529438887858
 21
342.7414070095471
 31
0.0
  0
LINE
  5
126
330
29
100
AcDbEntity
  8
1
  6
Continuous
 62
     7
100
AcDbLine
 10
841.7868127195738
 20
342.2183624821021
 30
0.0
 11
841.7868127195738
 21
342.6367981040581
 31
0.0
  0
LINE
  5
125
330
29
100
AcDbEntity
  8
1
  6
Continuous
 62
     7
100
AcDbLine
 10
843.25133739642
 20
342.2183624821021
 30
0.0
 11
841.7868127195738
 21
342.2183624821021
 31
0.0
  0
LINE
  5
124
330
29
100
AcDbEntity
  8
1
  6
Continuous
 62
     7
100
AcDbLine
 10
843.25133739642
 20
342.6367981040581
 30
0.0
 11
843.25133739642
 21
342.2183624821021
 31
0.0
  0
LINE
  5
123
330
29
100
AcDbEntity
  8
1
  6
Continuous
 62
     7
100
AcDbLine
 10
842.9898151326979
 20
342.7414070095471
 30
0.0
 11
843.1467284909309
 21
342.7414070095471
 31
0.0
  0
LINE
  5
122
330
29
100
AcDbEntity
  8
1
  6
Continuous
 62
     7
100
AcDbLine
 10
845.9658222461079
 20
346.2931768291446
 30
0.0
 11
846.808040183046
 21
349.4363769608431
 31
0.0
  0
LINE
  5
121
330
29
100
AcDbEntity
  8
1
  6
Continuous
 62
     7
100
AcDbLine
 10
844.820470978755
 20
349.4363769608431
 30
0.0
 11
845.6626889156931
 21
346.2931768291446
 31
0.0
  0
LINE
  5
120
330
29
100
AcDbEntity
  8
1
  6
Continuous
 62
     7
100
AcDbLine
 10
835.1154986488019
 20
344.6808398915941
 30
0.0
 11
838.5920729716589
 21
348.1574142144515
 31
0.0
  0
LINE
  5
11F
330
29
100
AcDbEntity
  8
1
  6
Continuous
 62
     7
100
AcDbLine
 10
839.775587634759
 20
346.9738995513511
 30
0.0
 11
836.2990133119017
 21
343.4973252284937
 31
0.0
  0
LINE
  5
11E
330
29
100
AcDbEntity
  8
1
  6
Continuous
 62
     7
100
AcDbLine
 10
830.4367464740179
 20
342.2183624821021
 30
0.0
 11
828.8676128916829
 21
342.2183624821021
 31
0.0
  0
LINE
  5
11D
330
29
100
AcDbEntity
  8
1
  6
Continuous
 62
     7
100
AcDbLine
 10
828.8676128916829
 20
342.2183624821021
 30
0.0
 11
828.8676128916829
 21
342.6367981040581
 31
0.0
  0
LINE
  5
11C
330
29
100
AcDbEntity
  8
1
  6
Continuous
 62
     7
100
AcDbLine
 10
828.972221797172
 20
342.7414070095471
 30
0.0
 11
829.1814396081498
 21
342.7414070095471
 31
0.0
  0
LINE
  5
11B
330
29
100
AcDbEntity
  8
1
  6
Continuous
 62
     7
100
AcDbLine
 10
829.4429618718719
 20
343.0029292732696
 30
0.0
 11
829.4429618718719
 21
348.5472012641865
 31
0.0
  0
LINE
  5
11A
330
29
100
AcDbEntity
  8
1
  6
Continuous
 62
     7
100
AcDbLine
 10
829.076830702661
 20
348.9133324333981
 30
0.0
 11
828.9263263912738
 21
348.9133324333981
 31
0.0
  0
LINE
  5
119
330
29
100
AcDbEntity
  8
1
  6
Continuous
 62
     7
100
AcDbLine
 10
828.22785125931
 20
348.4009351042442
 30
0.0
 11
828.018674788321
 21
347.7364157081675
 31
0.0
  0
LINE
  5
118
330
29
100
AcDbEntity
  8
1
  6
Continuous
 62
     7
100
AcDbLine
 10
827.5078337932864
 20
347.82339276304
 30
0.0
 11
827.5600015730701
 21
349.4363769608431
 31
0.0
  0
LINE
  5
117
330
29
100
AcDbEntity
  8
1
  6
Continuous
 62
     7
100
AcDbLine
 10
827.5600015730701
 20
349.4363769608431
 30
0.0
 11
830.4367464740179
 21
349.4363769608431
 31
0.0
  0
LINE
  5
116
330
29
100
AcDbEntity
  8
1
  6
Continuous
 62
     7
100
AcDbLine
 10
832.0058800563529
 20
342.2183624821021
 30
0.0
 11
830.4367464740179
 21
342.2183624821021
 31
0.0
  0
LINE
  5
115
330
29
100
AcDbEntity
  8
1
  6
Continuous
 62
     7
100
AcDbLine
 10
832.0058800563529
 20
342.6367981040581
 30
0.0
 11
832.0058800563529
 21
342.2183624821021
 31
0.0
  0
LINE
  5
114
330
29
100
AcDbEntity
  8
1
  6
Continuous
 62
     7
100
AcDbLine
 10
831.692053339886
 20
342.7414070095471
 30
0.0
 11
831.9012711508639
 21
342.7414070095471
 31
0.0
  0
LINE
  5
113
330
29
100
AcDbEntity
  8
1
  6
Continuous
 62
     7
100
AcDbLine
 10
831.430531076163
 20
348.5472012641865
 30
0.0
 11
831.430531076163
 21
343.0029292732696
 31
0.0
  0
LINE
  5
112
330
29
100
AcDbEntity
  8
1
  6
Continuous
 62
     7
100
AcDbLine
 10
831.9471665567609
 20
348.9133324333981
 30
0.0
 11
831.796662245375
 21
348.9133324333981
 31
0.0
  0
LINE
  5
111
330
29
100
AcDbEntity
  8
1
  6
Continuous
 62
     7
100
AcDbLine
 10
832.8548181597149
 20
347.7364157081675
 30
0.0
 11
832.645641688725
 21
348.4009351042442
 31
0.0
  0
LINE
  5
110
330
29
100
AcDbEntity
  8
1
  6
Continuous
 62
     7
100
AcDbLine
 10
833.3134913749651
 20
349.4363769608431
 30
0.0
 11
833.3656591547491
 21
347.8233927630399
 31
0.0
  0
LINE
  5
10F
330
29
100
AcDbEntity
  8
1
  6
Continuous
 62
     7
100
AcDbLine
 10
830.4367464740179
 20
349.4363769608431
 30
0.0
 11
833.3134913749651
 21
349.4363769608431
 31
0.0
  0
LINE
  5
10E
330
29
100
AcDbEntity
  8
1
  6
Continuous
 62
     7
100
AcDbLine
 10
824.6555774730369
 20
345.5594200310462
 30
0.0
 11
823.944137966219
 21
347.8864338048146
 31
0.0
  0
LINE
  5
10D
330
29
100
AcDbEntity
  8
1
  6
Continuous
 62
     7
100
AcDbLine
 10
823.0826414686481
 20
345.3566296467721
 30
0.0
 11
824.505520482284
 21
345.3566296467721
 31
0.0
  0
LINE
  5
10C
330
29
100
AcDbEntity
  8
1
  6
Continuous
 62
     7
100
AcDbLine
 10
823.6440239847134
 20
347.8864338048146
 30
0.0
 11
822.9325844778955
 21
345.5594200310462
 31
0.0
  0
LINE
  5
10B
330
29
100
AcDbEntity
  8
1
  6
Continuous
 62
     7
100
AcDbLine
 10
822.643383015087
 20
342.6367981040581
 30
0.0
 11
822.643383015087
 21
342.2183624821021
 31
0.0
  0
LINE
  5
10A
330
29
100
AcDbEntity
  8
1
  6
Continuous
 62
     7
100
AcDbLine
 10
822.2830876696034
 20
342.7414070095471
 30
0.0
 11
822.538774109598
 21
342.7414070095471
 31
0.0
  0
LINE
  5
109
330
29
100
AcDbEntity
  8
1
  6
Continuous
 62
     7
100
AcDbLine
 10
822.6767272622009
 20
344.7225487871341
 30
0.0
 11
822.1330306788505
 21
342.9441973938212
 31
0.0
  0
LINE
  5
108
330
29
100
AcDbEntity
  8
1
  6
Continuous
 62
     7
100
AcDbLine
 10
824.7226744388965
 20
344.8335851193272
 30
0.0
 11
822.826784252954
 21
344.8335851193272
 31
0.0
  0
LINE
  5
107
330
29
100
AcDbEntity
  8
1
  6
Continuous
 62
     7
100
AcDbLine
 10
825.4344648579559
 20
343.0117941885791
 30
0.0
 11
824.9227504265673
 21
344.6855366764031
 31
0.0
  0
LINE
  5
106
330
29
100
AcDbEntity
  8
1
  6
Continuous
 62
     7
100
AcDbLine
 10
824.9447789358452
 20
342.7414070095471
 30
0.0
 11
825.2343888702855
 21
342.7414070095471
 31
0.0
  0
LINE
  5
105
330
29
100
AcDbEntity
  8
1
  6
Continuous
 62
     7
100
AcDbLine
 10
824.8401700303562
 20
342.2183624821021
 30
0.0
 11
824.8401700303562
 21
342.6367981040581
 31
0.0
  0
LINE
  5
104
330
29
100
AcDbEntity
  8
1
  6
Continuous
 62
     7
100
AcDbLine
 10
827.9784371950261
 20
342.2183624821021
 30
0.0
 11
824.8401700303562
 21
342.2183624821021
 31
0.0
  0
LINE
  5
103
330
29
100
AcDbEntity
  8
1
  6
Continuous
 62
     7
100
AcDbLine
 10
827.9784371950261
 20
342.6367981040581
 30
0.0
 11
827.9784371950261
 21
342.2183624821021
 31
0.0
  0
LINE
  5
102
330
29
100
AcDbEntity
  8
1
  6
Continuous
 62
     7
100
AcDbLine
 10
827.5155598669293
 20
342.7414070095471
 30
0.0
 11
827.8738282895371
 21
342.7414070095471
 31
0.0
  0
LINE
  5
101
330
29
100
AcDbEntity
  8
1
  6
Continuous
 62
     7
100
AcDbLine
 10
825.2751858459667
 20
349.4363769608431
 30
0.0
 11
827.2654648823415
 21
342.9264675632022
 31
0.0
  0
LINE
  5
100
330
29
100
AcDbEntity
  8
1
  6
Continuous
 62
     7
100
AcDbLine
 10
823.570945811403
 20
349.4363769608431
 30
0.0
 11
825.2751858459667
 21
349.4363769608431
 31
0.0
  0
LINE
  5
FF
330
29
100
AcDbEntity
  8
1
  6
Continuous
 62
     7
100
AcDbLine
 10
821.580666775028
 20
342.9264675632022
 30
0.0
 11
823.570945811403
 21
349.4363769608431
 31
0.0
  0
LINE
  5
FE
330
29
100
AcDbEntity
  8
1
  6
Continuous
 62
     7
100
AcDbLine
 10
821.074249432752
 20
342.7414070095471
 30
0.0
 11
821.33057179044
 21
342.7414070095471
 31
0.0
  0
LINE
  5
FD
330
29
100
AcDbEntity
  8
1
  6
Continuous
 62
     7
100
AcDbLine
 10
820.9696405272632
 20
342.2183624821021
 30
0.0
 11
820.9696405272632
 21
342.6367981040581
 31
0.0
  0
LINE
  5
FC
330
29
100
AcDbEntity
  8
1
  6
Continuous
 62
     7
100
AcDbLine
 10
822.643383015087
 20
342.2183624821021
 30
0.0
 11
820.9696405272632
 21
342.2183624821021
 31
0.0
  0
LINE
  5
FB
330
29
100
AcDbEntity
  8
1
  6
Continuous
 62
     7
100
AcDbLine
 10
911.4587492693789
 20
360.5703333478948
 30
0.0
 11
911.4587492693789
 21
353.5703333478948
 31
0.0
  0
LINE
  5
FA
330
29
100
AcDbEntity
  8
1
  6
Continuous
 62
     7
100
AcDbLine
 10
851.4587492693788
 20
360.5703333478948
 30
0.0
 11
851.4587492693788
 21
353.5703333478948
 31
0.0
  0
LINE
  5
F9
330
29
100
AcDbEntity
  8
1
  6
Continuous
 62
     5
100
AcDbLine
 10
851.4587492693788
 20
360.5703333478948
 30
0.0
 11
911.4587492693789
 21
360.5703333478948
 31
0.0
  0
LINE
  5
F8
330
29
100
AcDbEntity
  8
1
  6
Continuous
 62
     5
100
AcDbLine
 10
833.4587492693788
 20
392.5703333478948
 30
0.0
 11
883.4587492693788
 21
392.5703333478948
 31
0.0
  0
LINE
  5
F7
330
29
100
AcDbEntity
  8
1
  6
Continuous
 62
     5
100
AcDbLine
 10
833.4587492693788
 20
392.5703333478948
 30
0.0
 11
833.4587492693788
 21
385.5703333478949
 31
0.0
  0
LINE
  5
F6
330
29
100
AcDbEntity
  8
1
  6
Continuous
 62
     5
100
AcDbLine
 10
883.4587492693788
 20
392.5703333478948
 30
0.0
 11
913.4587492693789
 21
392.5703333478948
 31
0.0
  0
LINE
  5
F5
330
29
100
AcDbEntity
  8
1
  6
Continuous
 62
     5
100
AcDbLine
 10
883.4587492693788
 20
392.5703333478948
 30
0.0
 11
883.4587492693788
 21
385.5703333478949
 31
0.0
  0
LINE
  5
F4
330
29
100
AcDbEntity
  8
1
  6
Continuous
 62
     5
100
AcDbLine
 10
913.4587492693789
 20
392.5703333478948
 30
0.0
 11
928.4587492693789
 21
392.5703333478948
 31
0.0
  0
LINE
  5
F3
330
29
100
AcDbEntity
  8
1
  6
Continuous
 62
     5
100
AcDbLine
 10
913.4587492693789
 20
392.5703333478948
 30
0.0
 11
913.4587492693789
 21
385.5703333478949
 31
0.0
  0
LINE
  5
F2
330
29
100
AcDbEntity
  8
1
  6
Continuous
 62
     5
100
AcDbLine
 10
928.4587492693789
 20
392.5703333478948
 30
0.0
 11
968.458749269379
 21
392.5703333478948
 31
0.0
  0
LINE
  5
F1
330
29
100
AcDbEntity
  8
1
  6
Continuous
 62
     5
100
AcDbLine
 10
928.4587492693789
 20
392.5703333478948
 30
0.0
 11
928.4587492693789
 21
385.5703333478949
 31
0.0
  0
LINE
  5
F0
330
29
100
AcDbEntity
  8
1
  6
Continuous
 62
     5
100
AcDbLine
 10
968.458749269379
 20
392.5703333478948
 30
0.0
 11
998.4587492693789
 21
392.5703333478948
 31
0.0
  0
LINE
  5
EF
330
29
100
AcDbEntity
  8
1
  6
Continuous
 62
     5
100
AcDbLine
 10
968.458749269379
 20
392.5703333478948
 30
0.0
 11
968.458749269379
 21
385.5703333478949
 31
0.0
  0
LINE
  5
EE
330
29
100
AcDbEntity
  8
1
  6
Continuous
 62
     5
100
AcDbLine
 10
998.4587492693789
 20
392.5703333478948
 30
0.0
 11
998.4587492693789
 21
385.5703333478949
 31
0.0
  0
LINE
  5
ED
330
29
100
AcDbEntity
  8
1
  6
Continuous
 62
     5
100
AcDbLine
 10
818.4587492693788
 20
392.5703333478948
 30
0.0
 11
833.4587492693788
 21
392.5703333478948
 31
0.0
  0
LINE
  5
EC
330
29
100
AcDbEntity
  8
1
  6
Continuous
 62
     5
100
AcDbLine
 10
818.4587492693788
 20
385.5703333478949
 30
0.0
 11
818.4587492693788
 21
392.5703333478948
 31
0.0
  0
LINE
  5
EB
330
29
100
AcDbEntity
  8
1
  6
Continuous
 62
     7
100
AcDbLine
 10
833.4587492693788
 20
378.5703333478948
 30
0.0
 11
851.4587492693788
 21
378.5703333478948
 31
0.0
  0
LINE
  5
EA
330
29
100
AcDbEntity
  8
1
  6
Continuous
 62
     7
100
AcDbLine
 10
833.4587492693788
 20
385.5703333478949
 30
0.0
 11
818.4587492693788
 21
385.5703333478949
 31
0.0
  0
LINE
  5
E9
330
29
100
AcDbEntity
  8
1
  6
Continuous
 62
     7
100
AcDbLine
 10
833.4587492693788
 20
385.5703333478949
 30
0.0
 11
833.4587492693788
 21
378.5703333478948
 31
0.0
  0
LINE
  5
E8
330
29
100
AcDbEntity
  8
1
  6
Continuous
 62
     7
100
AcDbLine
 10
883.4587492693788
 20
378.5703333478948
 30
0.0
 11
891.4587492693788
 21
378.5703333478948
 31
0.0
  0
LINE
  5
E7
330
29
100
AcDbEntity
  8
1
  6
Continuous
 62
     7
100
AcDbLine
 10
883.4587492693788
 20
385.5703333478949
 30
0.0
 11
833.4587492693788
 21
385.5703333478949
 31
0.0
  0
LINE
  5
E6
330
29
100
AcDbEntity
  8
1
  6
Continuous
 62
     7
100
AcDbLine
 10
883.4587492693788
 20
385.5703333478949
 30
0.0
 11
883.4587492693788
 21
378.5703333478948
 31
0.0
  0
LINE
  5
E5
330
29
100
AcDbEntity
  8
1
  6
Continuous
 62
     7
100
AcDbLine
 10
913.4587492693789
 20
378.5703333478948
 30
0.0
 11
918.458749269379
 21
378.5703333478948
 31
0.0
  0
LINE
  5
E4
330
29
100
AcDbEntity
  8
1
  6
Continuous
 62
     7
100
AcDbLine
 10
913.4587492693789
 20
385.5703333478949
 30
0.0
 11
883.4587492693788
 21
385.5703333478949
 31
0.0
  0
LINE
  5
E3
330
29
100
AcDbEntity
  8
1
  6
Continuous
 62
     7
100
AcDbLine
 10
913.4587492693789
 20
385.5703333478949
 30
0.0
 11
913.4587492693789
 21
378.5703333478948
 31
0.0
  0
LINE
  5
E2
330
29
100
AcDbEntity
  8
1
  6
Continuous
 62
     7
100
AcDbLine
 10
928.4587492693789
 20
378.5703333478948
 30
0.0
 11
968.458749269379
 21
378.5703333478948
 31
0.0
  0
LINE
  5
E1
330
29
100
AcDbEntity
  8
1
  6
Continuous
 62
     7
100
AcDbLine
 10
928.4587492693789
 20
385.5703333478949
 30
0.0
 11
913.4587492693789
 21
385.5703333478949
 31
0.0
  0
LINE
  5
E0
330
29
100
AcDbEntity
  8
1
  6
Continuous
 62
     7
100
AcDbLine
 10
928.4587492693789
 20
385.5703333478949
 30
0.0
 11
928.4587492693789
 21
378.5703333478948
 31
0.0
  0
LINE
  5
DF
330
29
100
AcDbEntity
  8
1
  6
Continuous
 62
     7
100
AcDbLine
 10
968.458749269379
 20
378.5703333478948
 30
0.0
 11
998.4587492693789
 21
378.5703333478948
 31
0.0
  0
LINE
  5
DE
330
29
100
AcDbEntity
  8
1
  6
Continuous
 62
     7
100
AcDbLine
 10
968.458749269379
 20
385.5703333478949
 30
0.0
 11
928.4587492693789
 21
385.5703333478949
 31
0.0
  0
LINE
  5
DD
330
29
100
AcDbEntity
  8
1
  6
Continuous
 62
     7
100
AcDbLine
 10
968.458749269379
 20
385.5703333478949
 30
0.0
 11
968.458749269379
 21
378.5703333478948
 31
0.0
  0
LINE
  5
DC
330
29
100
AcDbEntity
  8
1
  6
Continuous
 62
     7
100
AcDbLine
 10
851.4587492693788
 20
368.5703333478948
 30
0.0
 11
851.4587492693788
 21
360.5703333478948
 31
0.0
  0
LINE
  5
DB
330
29
100
AcDbEntity
  8
1
  6
Continuous
 62
     7
100
AcDbLine
 10
818.4587492693788
 20
368.5703333478948
 30
0.0
 11
818.4587492693788
 21
353.5703333478948
 31
0.0
  0
LINE
  5
DA
330
29
100
AcDbEntity
  8
1
  6
Continuous
 62
     7
100
AcDbLine
 10
818.4587492693788
 20
368.5703333478948
 30
0.0
 11
851.4587492693788
 21
368.5703333478948
 31
0.0
  0
LINE
  5
D9
330
29
100
AcDbEntity
  8
1
  6
Continuous
 62
     7
100
AcDbLine
 10
891.4587492693788
 20
353.5703333478948
 30
0.0
 11
911.4587492693789
 21
353.5703333478948
 31
0.0
  0
LINE
  5
D8
330
29
100
AcDbEntity
  8
1
  6
Continuous
 62
     7
100
AcDbLine
 10
891.4587492693788
 20
378.5703333478948
 30
0.0
 11
911.4587492693789
 21
378.5703333478948
 31
0.0
  0
LINE
  5
D7
330
29
100
AcDbEntity
  8
1
  6
Continuous
 62
     7
100
AcDbLine
 10
891.4587492693788
 20
378.5703333478948
 30
0.0
 11
891.4587492693788
 21
353.5703333478948
 31
0.0
  0
LINE
  5
D6
330
29
100
AcDbEntity
  8
1
  6
Continuous
 62
     7
100
AcDbLine
 10
871.4587492693789
 20
353.5703333478948
 30
0.0
 11
891.4587492693788
 21
353.5703333478948
 31
0.0
  0
LINE
  5
D5
330
29
100
AcDbEntity
  8
1
  6
Continuous
 62
     7
100
AcDbLine
 10
871.4587492693789
 20
378.5703333478948
 30
0.0
 11
883.4587492693788
 21
378.5703333478948
 31
0.0
  0
LINE
  5
D4
330
29
100
AcDbEntity
  8
1
  6
Continuous
 62
     7
100
AcDbLine
 10
871.4587492693789
 20
378.5703333478948
 30
0.0
 11
871.4587492693789
 21
353.5703333478948
 31
0.0
  0
LINE
  5
D3
330
29
100
AcDbEntity
  8
1
  6
Continuous
 62
     7
100
AcDbLine
 10
911.4587492693789
 20
371.5703333478948
 30
0.0
 11
911.4587492693789
 21
363.5703333478948
 31
0.0
  0
LINE
  5
D2
330
29
100
AcDbEntity
  8
1
  6
Continuous
 62
     7
100
AcDbLine
 10
851.4587492693788
 20
371.5703333478948
 30
0.0
 11
851.4587492693788
 21
368.5703333478948
 31
0.0
  0
LINE
  5
D1
330
29
100
AcDbEntity
  8
1
  6
Continuous
 62
     7
100
AcDbLine
 10
851.4587492693788
 20
371.5703333478948
 30
0.0
 11
911.4587492693789
 21
371.5703333478948
 31
0.0
  0
LINE
  5
D0
330
29
100
AcDbEntity
  8
1
  6
Continuous
 62
     7
100
AcDbLine
 10
911.4587492693789
 20
353.5703333478948
 30
0.0
 11
911.4587492693789
 21
348.5703333478948
 31
0.0
  0
LINE
  5
CF
330
29
100
AcDbEntity
  8
1
  6
Continuous
 62
     7
100
AcDbLine
 10
818.4587492693788
 20
353.5703333478948
 30
0.0
 11
818.4587492693788
 21
333.5703333478948
 31
0.0
  0
LINE
  5
CE
330
29
100
AcDbEntity
  8
1
  6
Continuous
 62
     7
100
AcDbLine
 10
818.4587492693788
 20
353.5703333478948
 30
0.0
 11
871.4587492693789
 21
353.5703333478948
 31
0.0
  0
LINE
  5
CD
330
29
100
AcDbEntity
  8
1
  6
Continuous
 62
     7
100
AcDbLine
 10
851.4587492693788
 20
378.5703333478948
 30
0.0
 11
871.4587492693789
 21
378.5703333478948
 31
0.0
  0
LINE
  5
CC
330
29
100
AcDbEntity
  8
1
  6
Continuous
 62
     7
100
AcDbLine
 10
851.4587492693788
 20
378.5703333478948
 30
0.0
 11
851.4587492693788
 21
371.5703333478948
 31
0.0
  0
LINE
  5
CB
330
29
100
AcDbEntity
  8
1
  6
Continuous
 62
     7
100
AcDbLine
 10
998.4587492693789
 20
348.5703333478948
 30
0.0
 11
998.4587492693789
 21
363.5703333478948
 31
0.0
  0
LINE
  5
CA
330
29
100
AcDbEntity
  8
1
  6
Continuous
 62
     7
100
AcDbLine
 10
911.4587492693789
 20
348.5703333478948
 30
0.0
 11
911.4587492693789
 21
333.5703333478948
 31
0.0
  0
LINE
  5
C9
330
29
100
AcDbEntity
  8
1
  6
Continuous
 62
     7
100
AcDbLine
 10
911.4587492693789
 20
348.5703333478948
 30
0.0
 11
998.4587492693789
 21
348.5703333478948
 31
0.0
  0
LINE
  5
C8
330
29
100
AcDbEntity
  8
1
  6
Continuous
 62
     7
100
AcDbLine
 10
998.4587492693789
 20
363.5703333478948
 30
0.0
 11
998.4587492693789
 21
378.5703333478948
 31
0.0
  0
LINE
  5
C7
330
29
100
AcDbEntity
  8
1
  6
Continuous
 62
     7
100
AcDbLine
 10
911.4587492693789
 20
363.5703333478948
 30
0.0
 11
911.4587492693789
 21
360.5703333478948
 31
0.0
  0
LINE
  5
C6
330
29
100
AcDbEntity
  8
1
  6
Continuous
 62
     7
100
AcDbLine
 10
911.4587492693789
 20
363.5703333478948
 30
0.0
 11
998.4587492693789
 21
363.5703333478948
 31
0.0
  0
LINE
  5
C5
330
29
100
AcDbEntity
  8
1
  6
Continuous
 62
     7
100
AcDbLine
 10
918.458749269379
 20
333.5703333478948
 30
0.0
 11
998.4587492693789
 21
333.5703333478948
 31
0.0
  0
LINE
  5
C4
330
29
100
AcDbEntity
  8
1
  6
Continuous
 62
     7
100
AcDbLine
 10
918.458749269379
 20
378.5703333478948
 30
0.0
 11
928.4587492693789
 21
378.5703333478948
 31
0.0
  0
LINE
  5
C3
330
29
100
AcDbEntity
  8
1
  6
Continuous
 62
     7
100
AcDbLine
 10
918.458749269379
 20
378.5703333478948
 30
0.0
 11
918.458749269379
 21
333.5703333478948
 31
0.0
  0
LINE
  5
C2
330
29
100
AcDbEntity
  8
1
  6
Continuous
 62
     7
100
AcDbLine
 10
911.4587492693789
 20
333.5703333478948
 30
0.0
 11
918.458749269379
 21
333.5703333478948
 31
0.0
  0
LINE
  5
C1
330
29
100
AcDbEntity
  8
1
  6
Continuous
 62
     7
100
AcDbLine
 10
911.4587492693789
 20
378.5703333478948
 30
0.0
 11
913.4587492693789
 21
378.5703333478948
 31
0.0
  0
LINE
  5
C0
330
29
100
AcDbEntity
  8
1
  6
Continuous
 62
     7
100
AcDbLine
 10
911.4587492693789
 20
378.5703333478948
 30
0.0
 11
911.4587492693789
 21
371.5703333478948
 31
0.0
  0
LINE
  5
BF
330
29
100
AcDbEntity
  8
1
  6
Continuous
 62
     7
100
AcDbLine
 10
998.4587492693789
 20
378.5703333478948
 30
0.0
 11
998.4587492693789
 21
385.5703333478949
 31
0.0
  0
LINE
  5
BE
330
29
100
AcDbEntity
  8
1
  6
Continuous
 62
     7
100
AcDbLine
 10
818.4587492693788
 20
378.5703333478948
 30
0.0
 11
818.4587492693788
 21
368.5703333478948
 31
0.0
  0
LINE
  5
BD
330
29
100
AcDbEntity
  8
1
  6
Continuous
 62
     7
100
AcDbLine
 10
818.4587492693788
 20
378.5703333478948
 30
0.0
 11
833.4587492693788
 21
378.5703333478948
 31
0.0
  0
LINE
  5
BC
330
29
100
AcDbEntity
  8
1
  6
Continuous
 62
     7
100
AcDbLine
 10
818.4587492693788
 20
385.5703333478949
 30
0.0
 11
818.4587492693788
 21
378.5703333478948
 31
0.0
  0
LINE
  5
BB
330
29
100
AcDbEntity
  8
1
  6
Continuous
 62
     7
100
AcDbLine
 10
998.4587492693789
 20
385.5703333478949
 30
0.0
 11
968.458749269379
 21
385.5703333478949
 31
0.0
  0
LINE
  5
BA
330
29
100
AcDbEntity
  8
1
  6
Continuous
 62
     7
100
AcDbLine
 10
998.4587492693789
 20
333.5703333478948
 30
0.0
 11
998.4587492693789
 21
348.5703333478948
 31
0.0
  0
LINE
  5
B9
330
29
100
AcDbEntity
  8
1
  6
Continuous
 62
     7
100
AcDbLine
 10
818.4587492693788
 20
333.5703333478948
 30
0.0
 11
911.4587492693789
 21
333.5703333478948
 31
0.0
  0
LINE
  5
B8
330
29
100
AcDbEntity
  8
1
  6
Continuous
 62
     5
100
AcDbLine
 10
818.4587492693788
 20
399.5703333478946
 30
0.0
 11
833.4587492693788
 21
399.5703333478946
 31
0.0
  0
LINE
  5
B7
330
29
100
AcDbEntity
  8
1
  6
Continuous
 62
     5
100
AcDbLine
 10
818.4587492693788
 20
406.5703333478945
 30
0.0
 11
833.4587492693788
 21
406.5703333478945
 31
0.0
  0
LINE
  5
B6
330
29
100
AcDbEntity
  8
1
  6
Continuous
 62
     5
100
AcDbLine
 10
818.4587492693788
 20
413.5703333478945
 30
0.0
 11
833.4587492693788
 21
413.5703333478945
 31
0.0
  0
LINE
  5
B5
330
29
100
AcDbEntity
  8
1
  6
Continuous
 62
     5
100
AcDbLine
 10
818.4587492693788
 20
420.5703333478943
 30
0.0
 11
833.4587492693788
 21
420.5703333478943
 31
0.0
  0
LINE
  5
B4
330
29
100
AcDbEntity
  8
1
  6
Continuous
 62
     5
100
AcDbLine
 10
818.4587492693788
 20
392.5703333478948
 30
0.0
 11
818.4587492693788
 21
399.5703333478946
 31
0.0
  0
LINE
  5
B3
330
29
100
AcDbEntity
  8
1
  6
Continuous
 62
     5
100
AcDbLine
 10
818.4587492693788
 20
399.5703333478946
 30
0.0
 11
818.4587492693788
 21
406.5703333478945
 31
0.0
  0
LINE
  5
B2
330
29
100
AcDbEntity
  8
1
  6
Continuous
 62
     5
100
AcDbLine
 10
818.4587492693788
 20
406.5703333478945
 30
0.0
 11
818.4587492693788
 21
413.5703333478945
 31
0.0
  0
LINE
  5
B1
330
29
100
AcDbEntity
  8
1
  6
Continuous
 62
     5
100
AcDbLine
 10
818.4587492693788
 20
413.5703333478945
 30
0.0
 11
818.4587492693788
 21
420.5703333478943
 31
0.0
  0
LINE
  5
B0
330
29
100
AcDbEntity
  8
1
  6
Continuous
 62
     5
100
AcDbLine
 10
833.4587492693788
 20
399.5703333478946
 30
0.0
 11
833.4587492693788
 21
392.5703333478948
 31
0.0
  0
LINE
  5
AF
330
29
100
AcDbEntity
  8
1
  6
Continuous
 62
     5
100
AcDbLine
 10
833.4587492693788
 20
406.5703333478945
 30
0.0
 11
833.4587492693788
 21
399.5703333478946
 31
0.0
  0
LINE
  5
AE
330
29
100
AcDbEntity
  8
1
  6
Continuous
 62
     5
100
AcDbLine
 10
833.4587492693788
 20
413.5703333478945
 30
0.0
 11
833.4587492693788
 21
406.5703333478945
 31
0.0
  0
LINE
  5
AD
330
29
100
AcDbEntity
  8
1
  6
Continuous
 62
     5
100
AcDbLine
 10
833.4587492693788
 20
420.5703333478943
 30
0.0
 11
833.4587492693788
 21
413.5703333478945
 31
0.0
  0
LINE
  5
AC
330
29
100
AcDbEntity
  8
1
  6
Continuous
 62
     5
100
AcDbLine
 10
833.4587492693788
 20
399.5703333478946
 30
0.0
 11
883.4587492693788
 21
399.5703333478946
 31
0.0
  0
LINE
  5
AB
330
29
100
AcDbEntity
  8
1
  6
Continuous
 62
     5
100
AcDbLine
 10
833.4587492693788
 20
406.5703333478945
 30
0.0
 11
883.4587492693788
 21
406.5703333478945
 31
0.0
  0
LINE
  5
AA
330
29
100
AcDbEntity
  8
1
  6
Continuous
 62
     5
100
AcDbLine
 10
833.4587492693788
 20
413.5703333478945
 30
0.0
 11
883.4587492693788
 21
413.5703333478945
 31
0.0
  0
LINE
  5
A9
330
29
100
AcDbEntity
  8
1
  6
Continuous
 62
     5
100
AcDbLine
 10
833.4587492693788
 20
420.5703333478943
 30
0.0
 11
883.4587492693788
 21
420.5703333478943
 31
0.0
  0
LINE
  5
A8
330
29
100
AcDbEntity
  8
1
  6
Continuous
 62
     5
100
AcDbLine
 10
883.4587492693788
 20
399.5703333478946
 30
0.0
 11
883.4587492693788
 21
392.5703333478948
 31
0.0
  0
LINE
  5
A7
330
29
100
AcDbEntity
  8
1
  6
Continuous
 62
     5
100
AcDbLine
 10
883.4587492693788
 20
399.5703333478946
 30
0.0
 11
913.4587492693789
 21
399.5703333478946
 31
0.0
  0
LINE
  5
A6
330
29
100
AcDbEntity
  8
1
  6
Continuous
 62
     5
100
AcDbLine
 10
883.4587492693788
 20
406.5703333478945
 30
0.0
 11
883.4587492693788
 21
399.5703333478946
 31
0.0
  0
LINE
  5
A5
330
29
100
AcDbEntity
  8
1
  6
Continuous
 62
     5
100
AcDbLine
 10
883.4587492693788
 20
406.5703333478945
 30
0.0
 11
913.4587492693789
 21
406.5703333478945
 31
0.0
  0
LINE
  5
A4
330
29
100
AcDbEntity
  8
1
  6
Continuous
 62
     5
100
AcDbLine
 10
883.4587492693788
 20
413.5703333478945
 30
0.0
 11
883.4587492693788
 21
406.5703333478945
 31
0.0
  0
LINE
  5
A3
330
29
100
AcDbEntity
  8
1
  6
Continuous
 62
     5
100
AcDbLine
 10
883.4587492693788
 20
420.5703333478943
 30
0.0
 11
883.4587492693788
 21
413.5703333478945
 31
0.0
  0
LINE
  5
A2
330
29
100
AcDbEntity
  8
1
  6
Continuous
 62
     5
100
AcDbLine
 10
883.4587492693788
 20
413.5703333478945
 30
0.0
 11
913.4587492693789
 21
413.5703333478945
 31
0.0
  0
LINE
  5
A1
330
29
100
AcDbEntity
  8
1
  6
Continuous
 62
     5
100
AcDbLine
 10
883.4587492693788
 20
420.5703333478943
 30
0.0
 11
913.4587492693789
 21
420.5703333478943
 31
0.0
  0
LINE
  5
A0
330
29
100
AcDbEntity
  8
1
  6
Continuous
 62
     5
100
AcDbLine
 10
913.4587492693789
 20
399.5703333478946
 30
0.0
 11
913.4587492693789
 21
392.5703333478948
 31
0.0
  0
LINE
  5
9F
330
29
100
AcDbEntity
  8
1
  6
Continuous
 62
     5
100
AcDbLine
 10
913.4587492693789
 20
406.5703333478945
 30
0.0
 11
913.4587492693789
 21
399.5703333478946
 31
0.0
  0
LINE
  5
9E
330
29
100
AcDbEntity
  8
1
  6
Continuous
 62
     5
100
AcDbLine
 10
913.4587492693789
 20
413.5703333478945
 30
0.0
 11
913.4587492693789
 21
406.5703333478945
 31
0.0
  0
LINE
  5
9D
330
29
100
AcDbEntity
  8
1
  6
Continuous
 62
     5
100
AcDbLine
 10
913.4587492693789
 20
420.5703333478943
 30
0.0
 11
913.4587492693789
 21
413.5703333478945
 31
0.0
  0
LINE
  5
9C
330
29
100
AcDbEntity
  8
1
  6
Continuous
 62
     5
100
AcDbLine
 10
913.4587492693789
 20
399.5703333478946
 30
0.0
 11
928.4587492693789
 21
399.5703333478946
 31
0.0
  0
LINE
  5
9B
330
29
100
AcDbEntity
  8
1
  6
Continuous
 62
     5
100
AcDbLine
 10
913.4587492693789
 20
406.5703333478945
 30
0.0
 11
928.4587492693789
 21
406.5703333478945
 31
0.0
  0
LINE
  5
9A
330
29
100
AcDbEntity
  8
1
  6
Continuous
 62
     5
100
AcDbLine
 10
913.4587492693789
 20
413.5703333478945
 30
0.0
 11
928.4587492693789
 21
413.5703333478945
 31
0.0
  0
LINE
  5
99
330
29
100
AcDbEntity
  8
1
  6
Continuous
 62
     5
100
AcDbLine
 10
913.4587492693789
 20
420.5703333478943
 30
0.0
 11
928.4587492693789
 21
420.5703333478943
 31
0.0
  0
LINE
  5
98
330
29
100
AcDbEntity
  8
1
  6
Continuous
 62
     5
100
AcDbLine
 10
928.4587492693789
 20
399.5703333478946
 30
0.0
 11
928.4587492693789
 21
392.5703333478948
 31
0.0
  0
LINE
  5
97
330
29
100
AcDbEntity
  8
1
  6
Continuous
 62
     5
100
AcDbLine
 10
928.4587492693789
 20
406.5703333478945
 30
0.0
 11
928.4587492693789
 21
399.5703333478946
 31
0.0
  0
LINE
  5
96
330
29
100
AcDbEntity
  8
1
  6
Continuous
 62
     5
100
AcDbLine
 10
928.4587492693789
 20
413.5703333478945
 30
0.0
 11
928.4587492693789
 21
406.5703333478945
 31
0.0
  0
LINE
  5
95
330
29
100
AcDbEntity
  8
1
  6
Continuous
 62
     5
100
AcDbLine
 10
928.4587492693789
 20
420.5703333478943
 30
0.0
 11
928.4587492693789
 21
413.5703333478945
 31
0.0
  0
LINE
  5
94
330
29
100
AcDbEntity
  8
1
  6
Continuous
 62
     5
100
AcDbLine
 10
928.4587492693789
 20
399.5703333478946
 30
0.0
 11
968.458749269379
 21
399.5703333478946
 31
0.0
  0
LINE
  5
93
330
29
100
AcDbEntity
  8
1
  6
Continuous
 62
     5
100
AcDbLine
 10
928.4587492693789
 20
406.5703333478945
 30
0.0
 11
968.458749269379
 21
406.5703333478945
 31
0.0
  0
LINE
  5
92
330
29
100
AcDbEntity
  8
1
  6
Continuous
 62
     5
100
AcDbLine
 10
928.4587492693789
 20
413.5703333478945
 30
0.0
 11
968.458749269379
 21
413.5703333478945
 31
0.0
  0
LINE
  5
91
330
29
100
AcDbEntity
  8
1
  6
Continuous
 62
     5
100
AcDbLine
 10
928.4587492693789
 20
420.5703333478943
 30
0.0
 11
968.458749269379
 21
420.5703333478943
 31
0.0
  0
LINE
  5
90
330
29
100
AcDbEntity
  8
1
  6
Continuous
 62
     5
100
AcDbLine
 10
968.458749269379
 20
399.5703333478946
 30
0.0
 11
968.458749269379
 21
392.5703333478948
 31
0.0
  0
LINE
  5
8F
330
29
100
AcDbEntity
  8
1
  6
Continuous
 62
     5
100
AcDbLine
 10
968.458749269379
 20
406.5703333478945
 30
0.0
 11
968.458749269379
 21
399.5703333478946
 31
0.0
  0
LINE
  5
8E
330
29
100
AcDbEntity
  8
1
  6
Continuous
 62
     5
100
AcDbLine
 10
968.458749269379
 20
413.5703333478945
 30
0.0
 11
968.458749269379
 21
406.5703333478945
 31
0.0
  0
LINE
  5
8D
330
29
100
AcDbEntity
  8
1
  6
Continuous
 62
     5
100
AcDbLine
 10
968.458749269379
 20
420.5703333478943
 30
0.0
 11
968.458749269379
 21
413.5703333478945
 31
0.0
  0
LINE
  5
8C
330
29
100
AcDbEntity
  8
1
  6
Continuous
 62
     5
100
AcDbLine
 10
968.458749269379
 20
399.5703333478946
 30
0.0
 11
998.4587492693789
 21
399.5703333478946
 31
0.0
  0
LINE
  5
8B
330
29
100
AcDbEntity
  8
1
  6
Continuous
 62
     5
100
AcDbLine
 10
968.458749269379
 20
406.5703333478945
 30
0.0
 11
998.4587492693789
 21
406.5703333478945
 31
0.0
  0
LINE
  5
8A
330
29
100
AcDbEntity
  8
1
  6
Continuous
 62
     5
100
AcDbLine
 10
968.458749269379
 20
413.5703333478945
 30
0.0
 11
998.4587492693789
 21
413.5703333478945
 31
0.0
  0
LINE
  5
89
330
29
100
AcDbEntity
  8
1
  6
Continuous
 62
     5
100
AcDbLine
 10
968.458749269379
 20
420.5703333478943
 30
0.0
 11
998.4587492693789
 21
420.5703333478943
 31
0.0
  0
LINE
  5
88
330
29
100
AcDbEntity
  8
1
  6
Continuous
 62
     5
100
AcDbLine
 10
913.4587492693789
 20
427.5703333478942
 30
0.0
 11
928.4587492693789
 21
427.5703333478942
 31
0.0
  0
LINE
  5
87
330
29
100
AcDbEntity
  8
1
  6
Continuous
 62
     5
100
AcDbLine
 10
913.4587492693789
 20
427.5703333478942
 30
0.0
 11
913.4587492693789
 21
420.5703333478943
 31
0.0
  0
LINE
  5
86
330
29
100
AcDbEntity
  8
1
  6
Continuous
 62
     5
100
AcDbLine
 10
928.4587492693789
 20
427.5703333478942
 30
0.0
 11
928.4587492693789
 21
420.5703333478943
 31
0.0
  0
LINE
  5
85
330
29
100
AcDbEntity
  8
1
  6
Continuous
 62
     5
100
AcDbLine
 10
928.4587492693789
 20
427.5703333478942
 30
0.0
 11
968.458749269379
 21
427.5703333478942
 31
0.0
  0
LINE
  5
84
330
29
100
AcDbEntity
  8
1
  6
Continuous
 62
     5
100
AcDbLine
 10
968.458749269379
 20
427.5703333478942
 30
0.0
 11
968.458749269379
 21
420.5703333478943
 31
0.0
  0
LINE
  5
83
330
29
100
AcDbEntity
  8
1
  6
Continuous
 62
     5
100
AcDbLine
 10
968.458749269379
 20
427.5703333478942
 30
0.0
 11
998.4587492693789
 21
427.5703333478942
 31
0.0
  0
LINE
  5
82
330
29
100
AcDbEntity
  8
1
  6
Continuous
 62
     5
100
AcDbLine
 10
883.4587492693788
 20
427.5703333478942
 30
0.0
 11
883.4587492693788
 21
420.5703333478943
 31
0.0
  0
LINE
  5
81
330
29
100
AcDbEntity
  8
1
  6
Continuous
 62
     5
100
AcDbLine
 10
833.4587492693788
 20
427.5703333478942
 30
0.0
 11
883.4587492693788
 21
427.5703333478942
 31
0.0
  0
LINE
  5
80
330
29
100
AcDbEntity
  8
1
  6
Continuous
 62
     5
100
AcDbLine
 10
883.4587492693788
 20
427.5703333478942
 30
0.0
 11
913.4587492693789
 21
427.5703333478942
 31
0.0
  0
LINE
  5
7F
330
29
100
AcDbEntity
  8
1
  6
Continuous
 62
     5
100
AcDbLine
 10
833.4587492693788
 20
427.5703333478942
 30
0.0
 11
833.4587492693788
 21
420.5703333478943
 31
0.0
  0
LINE
  5
7E
330
29
100
AcDbEntity
  8
1
  6
Continuous
 62
     5
100
AcDbLine
 10
818.4587492693788
 20
427.5703333478942
 30
0.0
 11
833.4587492693788
 21
427.5703333478942
 31
0.0
  0
LINE
  5
7D
330
29
100
AcDbEntity
  8
1
  6
Continuous
 62
     5
100
AcDbLine
 10
818.4587492693788
 20
420.5703333478943
 30
0.0
 11
818.4587492693788
 21
427.5703333478942
 31
0.0
  0
LINE
  5
7C
330
29
100
AcDbEntity
  8
1
  6
Continuous
 62
     5
100
AcDbLine
 10
968.458749269379
 20
434.5703333478939
 30
0.0
 11
998.4587492693789
 21
434.5703333478939
 31
0.0
  0
LINE
  5
7B
330
29
100
AcDbEntity
  8
1
  6
Continuous
 62
     5
100
AcDbLine
 10
968.458749269379
 20
434.5703333478939
 30
0.0
 11
968.458749269379
 21
427.5703333478942
 31
0.0
  0
LINE
  5
7A
330
29
100
AcDbEntity
  8
1
  6
Continuous
 62
     5
100
AcDbLine
 10
928.4587492693789
 20
434.5703333478939
 30
0.0
 11
968.458749269379
 21
434.5703333478939
 31
0.0
  0
LINE
  5
79
330
29
100
AcDbEntity
  8
1
  6
Continuous
 62
     5
100
AcDbLine
 10
928.4587492693789
 20
434.5703333478939
 30
0.0
 11
928.4587492693789
 21
427.5703333478942
 31
0.0
  0
LINE
  5
78
330
29
100
AcDbEntity
  8
1
  6
Continuous
 62
     5
100
AcDbLine
 10
913.4587492693789
 20
434.5703333478939
 30
0.0
 11
928.4587492693789
 21
434.5703333478939
 31
0.0
  0
LINE
  5
77
330
29
100
AcDbEntity
  8
1
  6
Continuous
 62
     5
100
AcDbLine
 10
913.4587492693789
 20
434.5703333478939
 30
0.0
 11
913.4587492693789
 21
427.5703333478942
 31
0.0
  0
LINE
  5
76
330
29
100
AcDbEntity
  8
1
  6
Continuous
 62
     5
100
AcDbLine
 10
883.4587492693788
 20
434.5703333478939
 30
0.0
 11
913.4587492693789
 21
434.5703333478939
 31
0.0
  0
LINE
  5
75
330
29
100
AcDbEntity
  8
1
  6
Continuous
 62
     5
100
AcDbLine
 10
883.4587492693788
 20
434.5703333478939
 30
0.0
 11
883.4587492693788
 21
427.5703333478942
 31
0.0
  0
LINE
  5
74
330
29
100
AcDbEntity
  8
1
  6
Continuous
 62
     5
100
AcDbLine
 10
833.4587492693788
 20
434.5703333478939
 30
0.0
 11
883.4587492693788
 21
434.5703333478939
 31
0.0
  0
LINE
  5
73
330
29
100
AcDbEntity
  8
1
  6
Continuous
 62
     5
100
AcDbLine
 10
833.4587492693788
 20
434.5703333478939
 30
0.0
 11
833.4587492693788
 21
427.5703333478942
 31
0.0
  0
LINE
  5
72
330
29
100
AcDbEntity
  8
1
  6
Continuous
 62
     5
100
AcDbLine
 10
818.4587492693788
 20
434.5703333478939
 30
0.0
 11
833.4587492693788
 21
434.5703333478939
 31
0.0
  0
LINE
  5
71
330
29
100
AcDbEntity
  8
1
  6
Continuous
 62
     5
100
AcDbLine
 10
818.4587492693788
 20
427.5703333478942
 30
0.0
 11
818.4587492693788
 21
434.5703333478939
 31
0.0
  0
LINE
  5
70
330
29
100
AcDbEntity
  8
1
  6
Continuous
 62
     5
100
AcDbLine
 10
968.458749269379
 20
441.5703333478937
 30
0.0
 11
998.4587492693789
 21
441.5703333478937
 31
0.0
  0
LINE
  5
6F
330
29
100
AcDbEntity
  8
1
  6
Continuous
 62
     5
100
AcDbLine
 10
968.458749269379
 20
441.5703333478937
 30
0.0
 11
968.458749269379
 21
434.5703333478939
 31
0.0
  0
LINE
  5
6E
330
29
100
AcDbEntity
  8
1
  6
Continuous
 62
     5
100
AcDbLine
 10
928.4587492693789
 20
441.5703333478937
 30
0.0
 11
968.458749269379
 21
441.5703333478937
 31
0.0
  0
LINE
  5
6D
330
29
100
AcDbEntity
  8
1
  6
Continuous
 62
     5
100
AcDbLine
 10
928.4587492693789
 20
441.5703333478937
 30
0.0
 11
928.4587492693789
 21
434.5703333478939
 31
0.0
  0
LINE
  5
6C
330
29
100
AcDbEntity
  8
1
  6
Continuous
 62
     5
100
AcDbLine
 10
913.4587492693789
 20
441.5703333478937
 30
0.0
 11
928.4587492693789
 21
441.5703333478937
 31
0.0
  0
LINE
  5
6B
330
29
100
AcDbEntity
  8
1
  6
Continuous
 62
     5
100
AcDbLine
 10
913.4587492693789
 20
441.5703333478937
 30
0.0
 11
913.4587492693789
 21
434.5703333478939
 31
0.0
  0
LINE
  5
6A
330
29
100
AcDbEntity
  8
1
  6
Continuous
 62
     5
100
AcDbLine
 10
883.4587492693788
 20
441.5703333478937
 30
0.0
 11
913.4587492693789
 21
441.5703333478937
 31
0.0
  0
LINE
  5
69
330
29
100
AcDbEntity
  8
1
  6
Continuous
 62
     5
100
AcDbLine
 10
883.4587492693788
 20
441.5703333478937
 30
0.0
 11
883.4587492693788
 21
434.5703333478939
 31
0.0
  0
LINE
  5
68
330
29
100
AcDbEntity
  8
1
  6
Continuous
 62
     5
100
AcDbLine
 10
833.4587492693788
 20
441.5703333478937
 30
0.0
 11
883.4587492693788
 21
441.5703333478937
 31
0.0
  0
LINE
  5
67
330
29
100
AcDbEntity
  8
1
  6
Continuous
 62
     5
100
AcDbLine
 10
833.4587492693788
 20
441.5703333478937
 30
0.0
 11
833.4587492693788
 21
434.5703333478939
 31
0.0
  0
LINE
  5
66
330
29
100
AcDbEntity
  8
1
  6
Continuous
 62
     5
100
AcDbLine
 10
818.4587492693788
 20
441.5703333478937
 30
0.0
 11
833.4587492693788
 21
441.5703333478937
 31
0.0
  0
LINE
  5
65
330
29
100
AcDbEntity
  8
1
  6
Continuous
 62
     5
100
AcDbLine
 10
818.4587492693788
 20
434.5703333478939
 30
0.0
 11
818.4587492693788
 21
441.5703333478937
 31
0.0
  0
ENDBLK
  5
1C0
330
29
100
AcDbEntity
  8
0
100
AcDbBlockEnd
  0
BLOCK
  5
2C
330
2B
100
AcDbEntity
  8
0
100
AcDbBlockBegin
  2
FORMAT_A3
 70
     0
 10
1426.62425412785
 20
127.3244524860418
 30
0.0
  3
FORMAT_A3
  1

  0
LINE
  5
1C4
330
2B
100
AcDbEntity
  8
1
  6
Continuous
 62
     7
100
AcDbLine
 10
818.4587492693788
 20
333.5703333478952
 30
0.0
 11
623.4587492693783
 21
333.5703333478957
 31
0.0
  0
LINE
  5
1C3
330
2B
100
AcDbEntity
  8
1
  6
Continuous
 62
     7
100
AcDbLine
 10
998.4587492693789
 20
385.5703333478948
 30
0.0
 11
998.4587492693789
 21
603.570333347894
 31
0.0
  0
LINE
  5
1C2
330
2B
100
AcDbEntity
  8
1
  6
Continuous
 62
     7
100
AcDbLine
 10
998.4587492693789
 20
603.570333347894
 30
0.0
 11
623.4587492693784
 21
603.5703333478947
 31
0.0
  0
LINE
  5
1C1
330
2B
100
AcDbEntity
  8
1
  6
Continuous
 62
     7
100
AcDbLine
 10
623.4587492693784
 20
603.5703333478947
 30
0.0
 11
623.4587492693783
 21
333.5703333478957
 31
0.0
  0
INSERT
  5
2D
330
2B
100
AcDbEntity
  8
0
100
AcDbBlockReference
  2
______
 10
1045.878712978437
 20
105.6987887814188
 30
0.0
  0
ENDBLK
  5
1C5
330
2B
100
AcDbEntity
  8
0
100
AcDbBlockEnd
  0
BLOCK
  5
2F
330
2E
100
AcDbEntity
  8
0
100
AcDbBlockBegin
  2
_6
 70
     0
 10
397.7293746346889
 20
168.2851666739474
 30
0.0
  3
_6
  1

  0
INSERT
  5
30
330
2E
100
AcDbEntity
  8
0
100
AcDbBlockReference
  2
FORMAT_A3
 10
713.312127063925
 20
63.66222624302089
 30
0.0
  0
ENDBLK
  5
1C6
330
2E
100
AcDbEntity
  8
0
100
AcDbBlockEnd
  0
BLOCK
  5
32
330
31
100
AcDbEntity
  8
0
100
AcDbBlockBegin
  2
_3
 70
     0
 10
414.089055187546
 20
266.0
 30
0.0
  3
_3
  1

  0
LINE
  5
1CF
330
31
100
AcDbEntity
  8
1
  6
Continuous
 62
     7
100
AcDbLine
 10
-5.760446630333009
 20
426.181242177192
 30
0.0
 11
-5.760446630333009
 21
435.1329127192632
 31
0.0
  0
LINE
  5
1CE
330
31
100
AcDbEntity
  8
1
  6
Continuous
 62
     7
100
AcDbLine
 10
-0.76044663033301
 20
426.181242177192
 30
0.0
 11
-5.760446630333009
 21
426.181242177192
 31
0.0
  0
LINE
  5
1CD
330
31
100
AcDbEntity
  8
1
  6
Continuous
 62
     7
100
AcDbLine
 10
-0.76044663033301
 20
435.1329127192632
 30
0.0
 11
-0.76044663033301
 21
426.181242177192
 31
0.0
  0
LINE
  5
1CC
330
31
100
AcDbEntity
  8
1
  6
Continuous
 62
     7
100
AcDbLine
 10
119.2179880464224
 20
435.1329127192632
 30
0.0
 11
119.2179880464224
 21
426.181242177192
 31
0.0
  0
LINE
  5
1CB
330
31
100
AcDbEntity
  8
1
  6
Continuous
 62
     7
100
AcDbLine
 10
114.2179880464224
 20
426.181242177192
 30
0.0
 11
114.2179880464224
 21
435.1329127192632
 31
0.0
  0
LINE
  5
1CA
330
31
100
AcDbEntity
  8
1
  6
Continuous
 62
     7
100
AcDbLine
 10
119.2179880464224
 20
426.181242177192
 30
0.0
 11
114.2179880464224
 21
426.181242177192
 31
0.0
  0
LINE
  5
1C9
330
31
100
AcDbEntity
  8
1
  6
Continuous
 62
     7
100
AcDbLine
 10
212.239553369667
 20
426.181242177192
 30
0.0
 11
207.239553369667
 21
426.181242177192
 31
0.0
  0
LINE
  5
1C8
330
31
100
AcDbEntity
  8
1
  6
Continuous
 62
     7
100
AcDbLine
 10
207.239553369667
 20
426.181242177192
 30
0.0
 11
207.239553369667
 21
435.1329127192632
 31
0.0
  0
LINE
  5
1C7
330
31
100
AcDbEntity
  8
1
  6
Continuous
 62
     7
100
AcDbLine
 10
212.239553369667
 20
435.1329127192632
 30
0.0
 11
212.239553369667
 21
426.181242177192
 31
0.0
  0
ENDBLK
  5
1D0
330
31
100
AcDbEntity
  8
0
100
AcDbBlockEnd
  0
BLOCK
  5
34
330
33
100
AcDbEntity
  8
0
100
AcDbBlockBegin
  2
_1
 70
     0
 10
-24.26044663033302
 20
422.1915986383223
 30
0.0
  3
_1
  1

  0
ARC
  5
24C
330
33
100
AcDbEntity
  8
1
  6
Continuous
 62
   133
100
AcDbCircle
 10
194.1398296434573
 20
454.6322497018523
 30
0.0
 40
1.49999999999995
100
AcDbArc
 50
-89.23814439937904
 51
22.62230010418009
  0
ARC
  5
24B
330
33
100
AcDbEntity
  8
1
  6
Continuous
 62
   133
100
AcDbCircle
 10
192.7395533696669
 20
454.4813819476127
 30
0.0
 40
1.5
100
AcDbArc
 50
180.0
 51
-78.463040967184
  0
ARC
  5
24A
330
33
100
AcDbEntity
  8
1
  6
Continuous
 62
   133
100
AcDbCircle
 10
197.839553369667
 20
473.1329127192632
 30
0.0
 40
1.500000000000049
100
AcDbArc
 50
-45.23972989608142
 51
90.0
  0
ARC
  5
249
330
33
100
AcDbEntity
  8
1
  6
Continuous
 62
   133
100
AcDbCircle
 10
225.3392770958766
 20
454.6322497018523
 30
0.0
 40
1.5
100
AcDbArc
 50
157.3776998958187
 51
-90.76185560061658
  0
ARC
  5
248
330
33
100
AcDbEntity
  8
1
  6
Continuous
 62
   133
100
AcDbCircle
 10
226.739553369667
 20
454.4813819476127
 30
0.0
 40
1.49999999999998
100
AcDbArc
 50
-101.5369590328149
 51
0.0
  0
ARC
  5
247
330
33
100
AcDbEntity
  8
1
  6
Continuous
 62
   133
100
AcDbCircle
 10
221.639553369667
 20
473.1329127192632
 30
0.0
 40
1.5
100
AcDbArc
 50
90.0
 51
-134.7602701039186
  0
ARC
  5
246
330
33
100
AcDbEntity
  8
1
  6
Continuous
 62
   133
100
AcDbCircle
 10
191.7395533696669
 20
437.1329127192631
 30
0.0
 40
0.5
100
AcDbArc
 50
180.0
 51
-90.0
  0
ARC
  5
245
330
33
100
AcDbEntity
  8
1
  6
Continuous
 62
   133
100
AcDbCircle
 10
199.339553369667
 20
437.1329127192631
 30
0.0
 40
0.5
100
AcDbArc
 50
-90.0
 51
0.0
  0
ARC
  5
244
330
33
100
AcDbEntity
  8
1
  6
Continuous
 62
   133
100
AcDbCircle
 10
220.139553369667
 20
437.1329127192631
 30
0.0
 40
0.5
100
AcDbArc
 50
180.0
 51
-90.0
  0
ARC
  5
243
330
33
100
AcDbEntity
  8
1
  6
Continuous
 62
   133
100
AcDbCircle
 10
227.739553369667
 20
437.1329127192631
 30
0.0
 40
0.5
100
AcDbArc
 50
-90.0
 51
0.0
  0
ARC
  5
242
330
33
100
AcDbEntity
  8
1
  6
Continuous
 62
   133
100
AcDbCircle
 10
192.7395533696669
 20
439.7844434909137
 30
0.0
 40
1.499999999999819
100
AcDbArc
 50
78.46304096718268
 51
180.0
  0
ARC
  5
241
330
33
100
AcDbEntity
  8
1
  6
Continuous
 62
   133
100
AcDbCircle
 10
198.339553369667
 20
440.85278533202
 30
0.0
 40
1.5
100
AcDbArc
 50
0.0
 51
123.1386315413136
  0
ARC
  5
240
330
33
100
AcDbEntity
  8
1
  6
Continuous
 62
   133
100
AcDbCircle
 10
221.139553369667
 20
440.85278533202
 30
0.0
 40
1.50000000000008
100
AcDbArc
 50
56.86136845868642
 51
180.0
  0
ARC
  5
23F
330
33
100
AcDbEntity
  8
1
  6
Continuous
 62
   133
100
AcDbCircle
 10
226.739553369667
 20
439.7844434909137
 30
0.0
 40
1.5
100
AcDbArc
 50
0.0
 51
101.5369590328162
  0
ARC
  5
23E
330
33
100
AcDbEntity
  8
1
  6
Continuous
 62
     7
100
AcDbCircle
 10
195.7395533696669
 20
470.1329127192631
 30
0.0
 40
6.0
100
AcDbArc
 50
90.0
 51
180.0
  0
ARC
  5
23D
330
33
100
AcDbEntity
  8
1
  6
Continuous
 62
     7
100
AcDbCircle
 10
223.739553369667
 20
470.1329127192631
 30
0.0
 40
6.0
100
AcDbArc
 50
0.0
 51
90.0
  0
ARC
  5
23C
330
33
100
AcDbEntity
  8
1
  6
Continuous
 62
     7
100
AcDbCircle
 10
190.7395533696669
 20
436.1329127192631
 30
0.0
 40
1.0
100
AcDbArc
 50
180.0
 51
-90.0
  0
ARC
  5
23B
330
33
100
AcDbEntity
  8
1
  6
Continuous
 62
     7
100
AcDbCircle
 10
228.739553369667
 20
436.1329127192631
 30
0.0
 40
1.0
100
AcDbArc
 50
-90.0
 51
0.0
  0
ARC
  5
23A
330
33
100
AcDbEntity
  8
1
  6
Continuous
 62
     7
100
AcDbCircle
 10
-17.26044663033301
 20
470.1329127192631
 30
0.0
 40
5.0
100
AcDbArc
 50
90.0
 51
180.0
  0
ARC
  5
239
330
33
100
AcDbEntity
  8
1
  6
Continuous
 62
     7
100
AcDbCircle
 10
10.73955336966699
 20
470.1329127192631
 30
0.0
 40
5.0
100
AcDbArc
 50
0.0
 51
90.0
  0
ARC
  5
238
330
33
100
AcDbEntity
  8
1
  6
Continuous
 62
     7
100
AcDbCircle
 10
-17.26044663033301
 20
470.1329127192631
 30
0.0
 40
6.0
100
AcDbArc
 50
90.0
 51
180.0
  0
ARC
  5
237
330
33
100
AcDbEntity
  8
1
  6
Continuous
 62
     7
100
AcDbCircle
 10
10.73955336966699
 20
470.1329127192631
 30
0.0
 40
6.0
100
AcDbArc
 50
0.0
 51
90.0
  0
ARC
  5
236
330
33
100
AcDbEntity
  8
1
  6
Continuous
 62
     7
100
AcDbCircle
 10
-22.26044663033301
 20
436.1329127192631
 30
0.0
 40
1.0
100
AcDbArc
 50
180.0
 51
-90.0
  0
ARC
  5
235
330
33
100
AcDbEntity
  8
1
  6
Continuous
 62
     7
100
AcDbCircle
 10
15.73955336966699
 20
436.1329127192631
 30
0.0
 40
1.0
100
AcDbArc
 50
-90.0
 51
0.0
  0
LWPOLYLINE
  5
234
330
33
100
AcDbEntity
  8
1
  6
Continuous
 62
     7
100
AcDbPolyline
 90
        2
 70
     1
 43
0.0
 10
212.198053369667
 20
461.1329127192631
 42
1.0
 10
207.281053369667
 20
461.1329127192631
 42
1.0
  0
LWPOLYLINE
  5
233
330
33
100
AcDbEntity
  8
1
  6
Continuous
 62
     2
100
AcDbPolyline
 90
        2
 70
     1
 43
0.0
 10
212.739553369667
 20
461.1329127192631
 42
1.0
 10
206.739553369667
 20
461.1329127192631
 42
1.0
  0
ARC
  5
232
330
33
100
AcDbEntity
  8
1
  6
Continuous
 62
     7
100
AcDbCircle
 10
209.739553369667
 20
461.1329127192631
 30
0.0
 40
6.99999999999999
100
AcDbArc
 50
128.2132107017381
 51
-128.2132107017381
  0
ARC
  5
231
330
33
100
AcDbEntity
  8
1
  6
Continuous
 62
     7
100
AcDbCircle
 10
209.739553369667
 20
461.1329127192631
 30
0.0
 40
7.000000000000009
100
AcDbArc
 50
-51.78678929826169
 51
51.78678929826169
  0
ARC
  5
230
330
33
100
AcDbEntity
  8
1
  6
Continuous
 62
     7
100
AcDbCircle
 10
209.739553369667
 20
461.1329127192631
 30
0.0
 40
11.72500000000006
100
AcDbArc
 50
-56.91776336645702
 51
-123.082236633543
  0
ARC
  5
22F
330
33
100
AcDbEntity
  8
1
  6
Continuous
 62
     7
100
AcDbCircle
 10
209.739553369667
 20
461.1329127192631
 30
0.0
 40
12.72500000000004
100
AcDbArc
 50
-54.4416030141368
 51
-125.5583969858632
  0
ARC
  5
22E
330
33
100
AcDbEntity
  8
1
  6
Continuous
 62
   133
100
AcDbCircle
 10
194.2395533696669
 20
447.1329127192631
 30
0.0
 40
5.999999999999969
100
AcDbArc
 50
90.76185560061741
 51
101.5369590328152
  0
ARC
  5
22D
330
33
100
AcDbEntity
  8
1
  6
Continuous
 62
   133
100
AcDbCircle
 10
209.739553369667
 20
461.1329127192631
 30
0.0
 40
15.39999999999995
100
AcDbArc
 50
134.7602701039192
 51
-157.3776998958211
  0
ARC
  5
22C
330
33
100
AcDbEntity
  8
1
  6
Continuous
 62
   133
100
AcDbCircle
 10
195.7395533696669
 20
470.1329127192631
 30
0.0
 40
4.5
100
AcDbArc
 50
90.0
 51
180.0
  0
ARC
  5
22B
330
33
100
AcDbEntity
  8
1
  6
Continuous
 62
   133
100
AcDbCircle
 10
225.239553369667
 20
447.1329127192631
 30
0.0
 40
6.00000000000007
100
AcDbArc
 50
78.46304096718448
 51
89.23814439938235
  0
ARC
  5
22A
330
33
100
AcDbEntity
  8
1
  6
Continuous
 62
   133
100
AcDbCircle
 10
209.739553369667
 20
461.1329127192631
 30
0.0
 40
15.40000000000001
100
AcDbArc
 50
-22.62230010417888
 51
45.23972989608078
  0
ARC
  5
229
330
33
100
AcDbEntity
  8
1
  6
Continuous
 62
   133
100
AcDbCircle
 10
223.739553369667
 20
470.1329127192631
 30
0.0
 40
4.5
100
AcDbArc
 50
0.0
 51
90.0
  0
ARC
  5
228
330
33
100
AcDbEntity
  8
1
  6
Continuous
 62
   133
100
AcDbCircle
 10
209.739553369667
 20
461.1329127192631
 30
0.0
 40
13.90000000000001
100
AcDbArc
 50
-52.8203228784945
 51
-127.1796771215055
  0
ARC
  5
227
330
33
100
AcDbEntity
  8
1
  6
Continuous
 62
   133
100
AcDbCircle
 10
194.2395533696669
 20
447.1329127192631
 30
0.0
 40
6.000000000000059
100
AcDbArc
 50
-101.5369590328152
 51
-56.86136845868412
  0
ARC
  5
226
330
33
100
AcDbEntity
  8
1
  6
Continuous
 62
   133
100
AcDbCircle
 10
225.239553369667
 20
447.1329127192631
 30
0.0
 40
5.99999999999999
100
AcDbArc
 50
-123.1386315413159
 51
-78.46304096718448
  0
ARC
  5
225
330
33
100
AcDbEntity
  8
1
  6
Continuous
 62
     7
100
AcDbCircle
 10
209.739553369667
 20
461.1329127192631
 30
0.0
 40
12.89999999999984
100
AcDbArc
 50
-54.9953153188573
 51
-125.0046846811427
  0
LWPOLYLINE
  5
224
330
33
100
AcDbEntity
  8
1
  6
Continuous
 62
     7
100
AcDbPolyline
 90
        2
 70
     1
 43
0.0
 10
196.2395533696669
 20
447.1329127192631
 42
1.0
 10
192.2395533696669
 20
447.1329127192631
 42
1.0
  0
LWPOLYLINE
  5
223
330
33
100
AcDbEntity
  8
1
  6
Continuous
 62
     7
100
AcDbPolyline
 90
        2
 70
     1
 43
0.0
 10
227.239553369667
 20
447.1329127192631
 42
1.0
 10
223.239553369667
 20
447.1329127192631
 42
1.0
  0
ARC
  5
222
330
33
100
AcDbEntity
  8
1
  6
Continuous
 62
     7
100
AcDbCircle
 10
-3.260446630333009
 20
461.1329127192631
 30
0.0
 40
10.90000000000007
100
AcDbArc
 50
-60.30302257623578
 51
-119.6969774237642
  0
ARC
  5
221
330
33
100
AcDbEntity
  8
1
  6
Continuous
 62
     7
100
AcDbCircle
 10
-3.260446630333009
 20
461.1329127192631
 30
0.0
 40
11.89999999999993
100
AcDbArc
 50
-57.46497149237544
 51
-122.5350285076246
  0
LWPOLYLINE
  5
220
330
33
100
AcDbEntity
  8
1
  6
Continuous
 62
     7
100
AcDbPolyline
 90
        2
 70
     1
 43
0.0
 10
-15.26044663033301
 20
447.1329127192631
 42
1.0
 10
-22.26044663033301
 20
447.1329127192631
 42
1.0
  0
LWPOLYLINE
  5
21F
330
33
100
AcDbEntity
  8
1
  6
Continuous
 62
     7
100
AcDbPolyline
 90
        2
 70
     1
 43
0.0
 10
-16.76044663033301
 20
447.1329127192631
 42
1.0
 10
-20.76044663033301
 20
447.1329127192631
 42
1.0
  0
LWPOLYLINE
  5
21E
330
33
100
AcDbEntity
  8
1
  6
Continuous
 62
     7
100
AcDbPolyline
 90
        2
 70
     1
 43
0.0
 10
15.73955336966699
 20
447.1329127192631
 42
1.0
 10
8.739553369666989
 20
447.1329127192631
 42
1.0
  0
LWPOLYLINE
  5
21D
330
33
100
AcDbEntity
  8
1
  6
Continuous
 62
     7
100
AcDbPolyline
 90
        2
 70
     1
 43
0.0
 10
14.23955336966699
 20
447.1329127192631
 42
1.0
 10
10.23955336966699
 20
447.1329127192631
 42
1.0
  0
LINE
  5
21C
330
33
100
AcDbEntity
  8
1
  6
Continuous
 62
     7
100
AcDbLine
 10
205.4094263507448
 20
466.6329127192631
 30
0.0
 11
214.0696803885892
 21
466.6329127192631
 31
0.0
  0
LINE
  5
21B
330
33
100
AcDbEntity
  8
1
  6
Continuous
 62
     7
100
AcDbLine
 10
205.4094263507448
 20
455.6329127192632
 30
0.0
 11
214.0696803885892
 21
455.6329127192632
 31
0.0
  0
LINE
  5
21A
330
33
100
AcDbEntity
  8
1
  6
Continuous
 62
     7
100
AcDbLine
 10
202.339553369667
 20
450.7808295955627
 30
0.0
 11
203.339553369667
 21
451.3086761076988
 31
0.0
  0
LINE
  5
219
330
33
100
AcDbEntity
  8
1
  6
Continuous
 62
     7
100
AcDbLine
 10
217.139553369667
 20
450.7808295955627
 30
0.0
 11
216.139553369667
 21
451.3086761076988
 31
0.0
  0
LINE
  5
218
330
33
100
AcDbEntity
  8
1
  6
Continuous
 62
   133
100
AcDbLine
 10
197.839553369667
 20
474.6329127192631
 30
0.0
 11
195.7395533696669
 21
474.6329127192631
 31
0.0
  0
LINE
  5
217
330
33
100
AcDbEntity
  8
1
  6
Continuous
 62
   133
100
AcDbLine
 10
191.2395533696669
 20
470.1329127192631
 30
0.0
 11
191.2395533696669
 21
454.4813819476127
 31
0.0
  0
LINE
  5
216
330
33
100
AcDbEntity
  8
1
  6
Continuous
 62
   133
100
AcDbLine
 10
221.639553369667
 20
474.6329127192631
 30
0.0
 11
223.739553369667
 21
474.6329127192631
 31
0.0
  0
LINE
  5
215
330
33
100
AcDbEntity
  8
1
  6
Continuous
 62
   133
100
AcDbLine
 10
228.239553369667
 20
470.1329127192631
 30
0.0
 11
228.239553369667
 21
454.4813819476127
 31
0.0
  0
LINE
  5
214
330
33
100
AcDbEntity
  8
1
  6
Continuous
 62
   133
100
AcDbLine
 10
201.339553369667
 20
435.1329127192632
 30
0.0
 11
201.339553369667
 21
450.0581666725132
 31
0.0
  0
LINE
  5
213
330
33
100
AcDbEntity
  8
1
  6
Continuous
 62
   133
100
AcDbLine
 10
218.139553369667
 20
450.0581666725132
 30
0.0
 11
218.139553369667
 21
435.1329127192632
 31
0.0
  0
LINE
  5
212
330
33
100
AcDbEntity
  8
1
  6
Continuous
 62
   133
100
AcDbLine
 10
199.839553369667
 20
437.1329127192631
 30
0.0
 11
199.839553369667
 21
440.85278533202
 31
0.0
  0
LINE
  5
211
330
33
100
AcDbEntity
  8
1
  6
Continuous
 62
   133
100
AcDbLine
 10
191.2395533696669
 20
439.7844434909137
 30
0.0
 11
191.2395533696669
 21
437.1329127192631
 31
0.0
  0
LINE
  5
210
330
33
100
AcDbEntity
  8
1
  6
Continuous
 62
   133
100
AcDbLine
 10
191.7395533696669
 20
436.6329127192631
 30
0.0
 11
199.339553369667
 21
436.6329127192631
 31
0.0
  0
LINE
  5
20F
330
33
100
AcDbEntity
  8
1
  6
Continuous
 62
   133
100
AcDbLine
 10
228.239553369667
 20
437.1329127192631
 30
0.0
 11
228.239553369667
 21
439.7844434909137
 31
0.0
  0
LINE
  5
20E
330
33
100
AcDbEntity
  8
1
  6
Continuous
 62
   133
100
AcDbLine
 10
219.639553369667
 20
440.85278533202
 30
0.0
 11
219.639553369667
 21
437.1329127192631
 31
0.0
  0
LINE
  5
20D
330
33
100
AcDbEntity
  8
1
  6
Continuous
 62
   133
100
AcDbLine
 10
220.139553369667
 20
436.6329127192631
 30
0.0
 11
227.739553369667
 21
436.6329127192631
 31
0.0
  0
LINE
  5
20C
330
33
100
AcDbEntity
  8
1
  6
Continuous
 62
     7
100
AcDbLine
 10
203.339553369667
 20
435.1329127192632
 30
0.0
 11
203.339553369667
 21
451.3086761076988
 31
0.0
  0
LINE
  5
20B
330
33
100
AcDbEntity
  8
1
  6
Continuous
 62
     7
100
AcDbLine
 10
216.139553369667
 20
451.3086761076988
 30
0.0
 11
216.139553369667
 21
435.1329127192632
 31
0.0
  0
LINE
  5
20A
330
33
100
AcDbEntity
  8
1
  6
Continuous
 62
     7
100
AcDbLine
 10
204.339553369667
 20
435.1329127192632
 30
0.0
 11
204.339553369667
 21
445.6329127192631
 31
0.0
  0
LINE
  5
209
330
33
100
AcDbEntity
  8
1
  6
Continuous
 62
     7
100
AcDbLine
 10
204.339553369667
 20
445.6329127192631
 30
0.0
 11
215.139553369667
 21
445.6329127192631
 31
0.0
  0
LINE
  5
208
330
33
100
AcDbEntity
  8
1
  6
Continuous
 62
     7
100
AcDbLine
 10
215.139553369667
 20
445.6329127192631
 30
0.0
 11
215.139553369667
 21
435.1329127192632
 31
0.0
  0
LINE
  5
207
330
33
100
AcDbEntity
  8
1
  6
Continuous
 62
     7
100
AcDbLine
 10
215.139553369667
 20
435.1329127192632
 30
0.0
 11
217.139553369667
 21
435.1329127192632
 31
0.0
  0
LINE
  5
206
330
33
100
AcDbEntity
  8
1
  6
Continuous
 62
     7
100
AcDbLine
 10
202.339553369667
 20
435.1329127192632
 30
0.0
 11
202.339553369667
 21
450.7808295955627
 31
0.0
  0
LINE
  5
205
330
33
100
AcDbEntity
  8
1
  6
Continuous
 62
     7
100
AcDbLine
 10
217.139553369667
 20
450.7808295955627
 30
0.0
 11
217.139553369667
 21
435.1329127192632
 31
0.0
  0
LINE
  5
204
330
33
100
AcDbEntity
  8
1
  6
DOT_CENTER
 62
     2
100
AcDbLine
 10
195.839553369667
 20
461.1329127192631
 30
0.0
 11
223.639553369667
 21
461.1329127192631
 31
0.0
  0
LINE
  5
203
330
33
100
AcDbEntity
  8
1
  6
DOT_CENTER
 62
     2
100
AcDbLine
 10
209.739553369667
 20
478.9413140809408
 30
0.0
 11
209.739553369667
 21
416.681242177192
 31
0.0
  0
LINE
  5
202
330
33
100
AcDbEntity
  8
1
  6
Continuous
 62
     7
100
AcDbLine
 10
204.339553369667
 20
435.1329127192632
 30
0.0
 11
190.7395533696669
 21
435.1329127192632
 31
0.0
  0
LINE
  5
201
330
33
100
AcDbEntity
  8
1
  6
Continuous
 62
     7
100
AcDbLine
 10
189.739553369667
 20
436.1329127192631
 30
0.0
 11
189.739553369667
 21
470.1329127192631
 31
0.0
  0
LINE
  5
200
330
33
100
AcDbEntity
  8
1
  6
Continuous
 62
     7
100
AcDbLine
 10
195.7395533696669
 20
476.1329127192631
 30
0.0
 11
223.739553369667
 21
476.1329127192631
 31
0.0
  0
LINE
  5
1FF
330
33
100
AcDbEntity
  8
1
  6
Continuous
 62
     7
100
AcDbLine
 10
229.739553369667
 20
470.1329127192631
 30
0.0
 11
229.739553369667
 21
436.1329127192631
 31
0.0
  0
LINE
  5
1FE
330
33
100
AcDbEntity
  8
1
  6
Continuous
 62
     7
100
AcDbLine
 10
228.739553369667
 20
435.1329127192632
 30
0.0
 11
217.139553369667
 21
435.1329127192632
 31
0.0
  0
LINE
  5
1FD
330
33
100
AcDbEntity
  8
1
  6
DOT_CENTER
 62
     2
100
AcDbLine
 10
194.2395533696669
 20
452.6329127192632
 30
0.0
 11
194.2395533696669
 21
441.6329127192631
 31
0.0
  0
LINE
  5
1FC
330
33
100
AcDbEntity
  8
1
  6
DOT_CENTER
 62
     2
100
AcDbLine
 10
188.7395533696669
 20
447.1329127192631
 30
0.0
 11
199.739553369667
 21
447.1329127192631
 31
0.0
  0
LINE
  5
1FB
330
33
100
AcDbEntity
  8
1
  6
DOT_CENTER
 62
     2
100
AcDbLine
 10
225.239553369667
 20
452.6329127192632
 30
0.0
 11
225.239553369667
 21
441.6329127192631
 31
0.0
  0
LINE
  5
1FA
330
33
100
AcDbEntity
  8
1
  6
DOT_CENTER
 62
     2
100
AcDbLine
 10
219.739553369667
 20
447.1329127192631
 30
0.0
 11
230.739553369667
 21
447.1329127192631
 31
0.0
  0
LINE
  5
1F9
330
33
100
AcDbEntity
  8
1
  6
DOT_CENTER
 62
     2
100
AcDbLine
 10
116.7179880464224
 20
416.681242177192
 30
0.0
 11
116.7179880464224
 21
478.9413140809408
 31
0.0
  0
LINE
  5
1F8
330
33
100
AcDbEntity
  8
1
  6
DOT_CENTER
 62
     2
100
AcDbLine
 10
96.71798804642243
 20
461.1329127192631
 30
0.0
 11
123.7179880464224
 21
461.1329127192631
 31
0.0
  0
LINE
  5
1F7
330
33
100
AcDbEntity
  8
1
  6
DOT_CENTER
 62
     2
100
AcDbLine
 10
96.71798804642243
 20
447.1329127192631
 30
0.0
 11
103.7179880464224
 21
447.1329127192631
 31
0.0
  0
LINE
  5
1F6
330
33
100
AcDbEntity
  8
1
  6
Continuous
 62
     7
100
AcDbLine
 10
120.7179880464224
 20
450.5664563596316
 30
0.0
 11
121.7179880464224
 21
451.1004653608167
 31
0.0
  0
LINE
  5
1F5
330
33
100
AcDbEntity
  8
1
  6
Continuous
 62
     7
100
AcDbLine
 10
101.7179880464224
 20
450.5664563596316
 30
0.0
 11
120.7179880464224
 21
450.5664563596316
 31
0.0
  0
LINE
  5
1F4
330
33
100
AcDbEntity
  8
1
  6
Continuous
 62
     7
100
AcDbLine
 10
120.7180263254744
 20
473.8579123843214
 30
0.0
 11
121.7179880464224
 21
472.8491627192632
 31
0.0
  0
LINE
  5
1F3
330
33
100
AcDbEntity
  8
1
  6
Continuous
 62
     7
100
AcDbLine
 10
120.7179880464224
 20
473.8579127192631
 30
0.0
 11
120.7180263254744
 21
473.8579123843214
 31
0.0
  0
LINE
  5
1F2
330
33
100
AcDbEntity
  8
1
  6
Continuous
 62
     7
100
AcDbLine
 10
120.7179880464224
 20
435.1329127192632
 30
0.0
 11
120.7179880464224
 21
473.8579127192631
 31
0.0
  0
LINE
  5
1F1
330
33
100
AcDbEntity
  8
1
  6
Continuous
 62
     7
100
AcDbLine
 10
121.7179880464224
 20
435.1329127192632
 30
0.0
 11
121.7179880464224
 21
472.8491627192632
 31
0.0
  0
LINE
  5
1F0
330
33
100
AcDbEntity
  8
1
  6
Continuous
 62
     7
100
AcDbLine
 10
101.7179880464224
 20
474.0329127192631
 30
0.0
 11
120.7179880464224
 21
473.8579127192631
 31
0.0
  0
LINE
  5
1EF
330
33
100
AcDbEntity
  8
1
  6
Continuous
 62
     7
100
AcDbLine
 10
2.139553369666999
 20
435.1329127192632
 30
0.0
 11
3.139553369667
 21
436.1329127192631
 31
0.0
  0
LINE
  5
1EE
330
33
100
AcDbEntity
  8
1
  6
Continuous
 62
     7
100
AcDbLine
 10
3.139553369667
 20
451.1004653608167
 30
0.0
 11
2.139553369666999
 21
451.6645443276128
 31
0.0
  0
LINE
  5
1ED
330
33
100
AcDbEntity
  8
1
  6
Continuous
 62
     7
100
AcDbLine
 10
-9.660446630333009
 20
451.1004653608167
 30
0.0
 11
-8.660446630333009
 21
451.6645443276128
 31
0.0
  0
LINE
  5
1EC
330
33
100
AcDbEntity
  8
1
  6
Continuous
 62
     7
100
AcDbLine
 10
-8.660446630333009
 20
435.1329127192632
 30
0.0
 11
-9.660446630333009
 21
436.1329127192631
 31
0.0
  0
LINE
  5
1EB
330
33
100
AcDbEntity
  8
1
  6
Continuous
 62
     7
100
AcDbLine
 10
99.7179880464224
 20
435.1329127192632
 30
0.0
 11
99.7179880464224
 21
476.1329127192631
 31
0.0
  0
LINE
  5
1EA
330
33
100
AcDbEntity
  8
1
  6
Continuous
 62
     7
100
AcDbLine
 10
98.7179880464224
 20
436.1329127192631
 30
0.0
 11
99.7179880464224
 21
435.1329127192632
 31
0.0
  0
LINE
  5
1E9
330
33
100
AcDbEntity
  8
1
  6
Continuous
 62
     7
100
AcDbLine
 10
98.7179880464224
 20
475.1329127192631
 30
0.0
 11
99.7179880464224
 21
476.1329127192631
 31
0.0
  0
LINE
  5
1E8
330
33
100
AcDbEntity
  8
1
  6
Continuous
 62
     7
100
AcDbLine
 10
98.7179880464224
 20
475.1329127192631
 30
0.0
 11
98.7179880464224
 21
436.1329127192631
 31
0.0
  0
LINE
  5
1E7
330
33
100
AcDbEntity
  8
1
  6
Continuous
 62
     7
100
AcDbLine
 10
101.7179880464224
 20
476.1329127192631
 30
0.0
 11
99.7179880464224
 21
476.1329127192631
 31
0.0
  0
LINE
  5
1E6
330
33
100
AcDbEntity
  8
1
  6
Continuous
 62
     7
100
AcDbLine
 10
101.7179880464224
 20
435.1329127192632
 30
0.0
 11
101.7179880464224
 21
476.1329127192631
 31
0.0
  0
LINE
  5
1E5
330
33
100
AcDbEntity
  8
1
  6
Continuous
 62
     7
100
AcDbLine
 10
99.7179880464224
 20
435.1329127192632
 30
0.0
 11
121.7179880464224
 21
435.1329127192632
 31
0.0
  0
LINE
  5
1E4
330
33
100
AcDbEntity
  8
1
  6
DOT_CENTER
 62
     2
100
AcDbLine
 10
-17.16044663033301
 20
461.1329127192631
 30
0.0
 11
10.639553369667
 21
461.1329127192631
 31
0.0
  0
LINE
  5
1E3
330
33
100
AcDbEntity
  8
1
  6
DOT_CENTER
 62
     2
100
AcDbLine
 10
-3.260446630333009
 20
478.9413140809408
 30
0.0
 11
-3.260446630333009
 21
416.681242177192
 31
0.0
  0
LINE
  5
1E2
330
33
100
AcDbEntity
  8
1
  6
Continuous
 62
     7
100
AcDbLine
 10
-8.660446630333009
 20
451.6645443276128
 30
0.0
 11
-8.660446630333009
 21
435.1329127192632
 31
0.0
  0
LINE
  5
1E1
330
33
100
AcDbEntity
  8
1
  6
Continuous
 62
     7
100
AcDbLine
 10
-8.660446630333009
 20
435.1329127192632
 30
0.0
 11
-22.26044663033301
 21
435.1329127192632
 31
0.0
  0
LINE
  5
1E0
330
33
100
AcDbEntity
  8
1
  6
Continuous
 62
     7
100
AcDbLine
 10
-23.26044663033302
 20
436.1329127192631
 30
0.0
 11
-23.26044663033302
 21
470.1329127192631
 31
0.0
  0
LINE
  5
1DF
330
33
100
AcDbEntity
  8
1
  6
Continuous
 62
     7
100
AcDbLine
 10
-17.26044663033301
 20
476.1329127192631
 30
0.0
 11
10.73955336966699
 21
476.1329127192631
 31
0.0
  0
LINE
  5
1DE
330
33
100
AcDbEntity
  8
1
  6
Continuous
 62
     7
100
AcDbLine
 10
16.73955336966699
 20
470.1329127192631
 30
0.0
 11
16.73955336966699
 21
436.1329127192631
 31
0.0
  0
LINE
  5
1DD
330
33
100
AcDbEntity
  8
1
  6
Continuous
 62
     7
100
AcDbLine
 10
15.73955336966699
 20
435.1329127192632
 30
0.0
 11
2.139553369666999
 21
435.1329127192632
 31
0.0
  0
LINE
  5
1DC
330
33
100
AcDbEntity
  8
1
  6
Continuous
 62
     7
100
AcDbLine
 10
2.139553369666999
 20
435.1329127192632
 30
0.0
 11
2.139553369666999
 21
451.6645443276128
 31
0.0
  0
LINE
  5
1DB
330
33
100
AcDbEntity
  8
1
  6
Continuous
 62
     7
100
AcDbLine
 10
-9.660446630333009
 20
451.1004653608167
 30
0.0
 11
-9.660446630333009
 21
436.1329127192631
 31
0.0
  0
LINE
  5
1DA
330
33
100
AcDbEntity
  8
1
  6
Continuous
 62
     7
100
AcDbLine
 10
-9.660446630333009
 20
436.1329127192631
 30
0.0
 11
-22.26044663033301
 21
436.1329127192631
 31
0.0
  0
LINE
  5
1D9
330
33
100
AcDbEntity
  8
1
  6
Continuous
 62
     7
100
AcDbLine
 10
-22.26044663033301
 20
436.1329127192631
 30
0.0
 11
-22.26044663033301
 21
470.1329127192631
 31
0.0
  0
LINE
  5
1D8
330
33
100
AcDbEntity
  8
1
  6
Continuous
 62
     7
100
AcDbLine
 10
-17.26044663033301
 20
475.1329127192631
 30
0.0
 11
10.73955336966699
 21
475.1329127192631
 31
0.0
  0
LINE
  5
1D7
330
33
100
AcDbEntity
  8
1
  6
Continuous
 62
     7
100
AcDbLine
 10
15.73955336966699
 20
470.1329127192631
 30
0.0
 11
15.73955336966699
 21
436.1329127192631
 31
0.0
  0
LINE
  5
1D6
330
33
100
AcDbEntity
  8
1
  6
Continuous
 62
     7
100
AcDbLine
 10
15.73955336966699
 20
436.1329127192631
 30
0.0
 11
3.139553369667
 21
436.1329127192631
 31
0.0
  0
LINE
  5
1D5
330
33
100
AcDbEntity
  8
1
  6
Continuous
 62
     7
100
AcDbLine
 10
3.139553369667
 20
436.1329127192631
 30
0.0
 11
3.139553369667
 21
451.1004653608167
 31
0.0
  0
LINE
  5
1D4
330
33
100
AcDbEntity
  8
1
  6
DOT_CENTER
 62
     2
100
AcDbLine
 10
-18.76044663033301
 20
452.6329127192632
 30
0.0
 11
-18.76044663033301
 21
441.6329127192631
 31
0.0
  0
LINE
  5
1D3
330
33
100
AcDbEntity
  8
1
  6
DOT_CENTER
 62
     2
100
AcDbLine
 10
-24.26044663033302
 20
447.1329127192631
 30
0.0
 11
-13.26044663033301
 21
447.1329127192631
 31
0.0
  0
LINE
  5
1D2
330
33
100
AcDbEntity
  8
1
  6
DOT_CENTER
 62
     2
100
AcDbLine
 10
12.23955336966699
 20
452.6329127192632
 30
0.0
 11
12.23955336966699
 21
441.6329127192631
 31
0.0
  0
LINE
  5
1D1
330
33
100
AcDbEntity
  8
1
  6
DOT_CENTER
 62
     2
100
AcDbLine
 10
6.73955336966699
 20
447.1329127192631
 30
0.0
 11
17.73955336966699
 21
447.1329127192631
 31
0.0
  0
ENDBLK
  5
24D
330
33
100
AcDbEntity
  8
0
100
AcDbBlockEnd
  0
BLOCK
  5
36
330
35
100
AcDbEntity
  8
0
100
AcDbBlockBegin
  2
_2
 70
     0
 10
-14.06044663033297
 20
429.2000000000001
 30
0.0
  3
_2
  1

  0
LWPOLYLINE
  5
265
330
35
100
AcDbEntity
  8
1
  6
Continuous
 62
     7
100
AcDbPolyline
 90
        2
 70
     1
 43
0.0
 10
1.98955336966699
 20
461.1329127192631
 42
1.0
 10
-8.51044663033301
 20
461.1329127192631
 42
1.0
  0
LWPOLYLINE
  5
264
330
35
100
AcDbEntity
  8
1
  6
Continuous
 62
     7
100
AcDbPolyline
 90
        2
 70
     1
 43
0.0
 10
-3.260446630333009
 20
455.3829127192631
 42
1.0
 10
-3.260446630333009
 20
466.8829127192632
 42
1.0
  0
LWPOLYLINE
  5
263
330
35
100
AcDbEntity
  8
1
  6
Continuous
 62
     7
100
AcDbPolyline
 90
        2
 70
     1
 43
0.0
 10
4.48955336966699
 20
461.1329127192631
 42
1.0
 10
-11.01044663033301
 20
461.1329127192631
 42
1.0
  0
LWPOLYLINE
  5
262
330
35
100
AcDbEntity
  8
1
  6
Continuous
 62
     7
100
AcDbPolyline
 90
        2
 70
     1
 43
0.0
 10
3.48955336966699
 20
461.1329127192631
 42
1.0
 10
-10.01044663033301
 20
461.1329127192631
 42
1.0
  0
ARC
  5
261
330
35
100
AcDbEntity
  8
1
  6
Continuous
 62
     7
100
AcDbCircle
 10
-3.260446630333009
 20
461.1329127192631
 30
0.0
 40
10.80000000000001
100
AcDbArc
 50
-60.61072005211134
 51
-119.3892799478887
  0
LINE
  5
260
330
35
100
AcDbEntity
  8
1
  6
Continuous
 62
     7
100
AcDbLine
 10
204.439553369667
 20
435.1329127192632
 30
0.0
 11
204.439553369667
 21
445.6329127192631
 31
0.0
  0
LINE
  5
25F
330
35
100
AcDbEntity
  8
1
  6
Continuous
 62
     7
100
AcDbLine
 10
215.039553369667
 20
445.6329127192631
 30
0.0
 11
215.039553369667
 21
435.1329127192632
 31
0.0
  0
LINE
  5
25E
330
35
100
AcDbEntity
  8
1
  6
Continuous
 62
     7
100
AcDbLine
 10
215.039553369667
 20
435.1329127192632
 30
0.0
 11
204.439553369667
 21
435.1329127192632
 31
0.0
  0
LINE
  5
25D
330
35
100
AcDbEntity
  8
1
  6
Continuous
 62
   133
100
AcDbLine
 10
-3.880446630333009
 20
458.0329127192631
 30
0.0
 11
-4.29377996366634
 21
460.0995793859296
 31
0.0
  0
LINE
  5
25C
330
35
100
AcDbEntity
  8
1
  6
Continuous
 62
   133
100
AcDbLine
 10
-4.29377996366634
 20
460.0995793859296
 30
0.0
 11
-6.360446630333
 21
460.5129127192632
 31
0.0
  0
LINE
  5
25B
330
35
100
AcDbEntity
  8
1
  6
Continuous
 62
   133
100
AcDbLine
 10
-6.360446630333
 20
460.5129127192632
 30
0.0
 11
-6.360446630333
 21
461.7529127192631
 31
0.0
  0
LINE
  5
25A
330
35
100
AcDbEntity
  8
1
  6
Continuous
 62
   133
100
AcDbLine
 10
-6.360446630333
 20
461.7529127192631
 30
0.0
 11
-4.29377996366634
 21
462.1662460525963
 31
0.0
  0
LINE
  5
259
330
35
100
AcDbEntity
  8
1
  6
Continuous
 62
   133
100
AcDbLine
 10
-4.29377996366634
 20
462.1662460525963
 30
0.0
 11
-3.880446630333009
 21
464.2329127192631
 31
0.0
  0
LINE
  5
258
330
35
100
AcDbEntity
  8
1
  6
Continuous
 62
   133
100
AcDbLine
 10
-3.880446630333009
 20
464.2329127192631
 30
0.0
 11
-2.640446630333
 21
464.2329127192631
 31
0.0
  0
LINE
  5
257
330
35
100
AcDbEntity
  8
1
  6
Continuous
 62
   133
100
AcDbLine
 10
-2.640446630333
 20
464.2329127192631
 30
0.0
 11
-2.22711329699968
 21
462.1662460525963
 31
0.0
  0
LINE
  5
256
330
35
100
AcDbEntity
  8
1
  6
Continuous
 62
   133
100
AcDbLine
 10
-2.22711329699968
 20
462.1662460525963
 30
0.0
 11
-0.16044663033301
 21
461.7529127192631
 31
0.0
  0
LINE
  5
255
330
35
100
AcDbEntity
  8
1
  6
Continuous
 62
   133
100
AcDbLine
 10
-0.16044663033301
 20
461.7529127192631
 30
0.0
 11
-0.16044663033301
 21
460.5129127192632
 31
0.0
  0
LINE
  5
254
330
35
100
AcDbEntity
  8
1
  6
Continuous
 62
   133
100
AcDbLine
 10
-0.16044663033301
 20
460.5129127192632
 30
0.0
 11
-2.22711329699968
 21
460.0995793859296
 31
0.0
  0
LINE
  5
253
330
35
100
AcDbEntity
  8
1
  6
Continuous
 62
   133
100
AcDbLine
 10
-2.22711329699968
 20
460.0995793859296
 30
0.0
 11
-2.640446630333
 21
458.0329127192631
 31
0.0
  0
LINE
  5
252
330
35
100
AcDbEntity
  8
1
  6
Continuous
 62
   133
100
AcDbLine
 10
-2.640446630333
 20
458.0329127192631
 30
0.0
 11
-3.880446630333009
 21
458.0329127192631
 31
0.0
  0
LINE
  5
251
330
35
100
AcDbEntity
  8
1
  6
Continuous
 62
     7
100
AcDbLine
 10
-8.560446630333
 20
435.8329127192631
 30
0.0
 11
2.039553369666979
 21
435.8329127192631
 31
0.0
  0
LINE
  5
250
330
35
100
AcDbEntity
  8
1
  6
Continuous
 62
     7
100
AcDbLine
 10
-8.560446630333
 20
435.1329127192632
 30
0.0
 11
-8.560446630333
 21
451.7228117633752
 31
0.0
  0
LINE
  5
24F
330
35
100
AcDbEntity
  8
1
  6
Continuous
 62
     7
100
AcDbLine
 10
2.039553369666979
 20
451.7228117633752
 30
0.0
 11
2.039553369666979
 21
435.1329127192632
 31
0.0
  0
LINE
  5
24E
330
35
100
AcDbEntity
  8
1
  6
Continuous
 62
     7
100
AcDbLine
 10
2.039553369666979
 20
435.1329127192632
 30
0.0
 11
-8.560446630333
 21
435.1329127192632
 31
0.0
  0
ENDBLK
  5
266
330
35
100
AcDbEntity
  8
0
100
AcDbBlockEnd
  0
BLOCK
  5
28C
330
28B
100
AcDbEntity
  8
0
100
AcDbBlockBegin
  2
*D8
 70
     1
 10
0.0
 20
0.0
 30
0.0
  3
*D8
  1

  0
LINE
  5
28D
330
28B
100
AcDbEntity
  8
0
  6
Continuous
 62
     2
100
AcDbLine
 10
119.2179880464224
 20
429.0021144999199
 30
0.0
 11
135.770028040533
 21
429.0021144999199
 31
0.0
  0
LINE
  5
28E
330
28B
100
AcDbEntity
  8
0
  6
Continuous
 62
     2
100
AcDbLine
 10
114.2179880464224
 20
429.0021144999199
 30
0.0
 11
119.2179880464224
 21
429.0021144999199
 31
0.0
  0
LINE
  5
28F
330
28B
100
AcDbEntity
  8
0
  6
Continuous
 62
     2
100
AcDbLine
 10
109.3179880464224
 20
429.0021144999199
 30
0.0
 11
114.2179880464224
 21
429.0021144999199
 31
0.0
  0
LINE
  5
290
330
28B
100
AcDbEntity
  8
0
  6
Continuous
 62
     2
100
AcDbLine
 10
119.2179880464224
 20
427.181242177192
 30
0.0
 11
119.2179880464224
 21
430.0021144999199
 31
0.0
  0
LINE
  5
291
330
28B
100
AcDbEntity
  8
0
  6
Continuous
 62
     2
100
AcDbLine
 10
114.2179880464224
 20
427.181242177192
 30
0.0
 11
114.2179880464224
 21
430.0021144999199
 31
0.0
  0
LINE
  5
292
330
28B
100
AcDbEntity
  8
0
 62
     2
100
AcDbLine
 10
119.2179880464224
 20
429.0021144999199
 30
0.0
 11
121.6679880464224
 21
429.6585900213762
 31
0.0
  0
LINE
  5
293
330
28B
100
AcDbEntity
  8
0
 62
     2
100
AcDbLine
 10
119.2179880464224
 20
429.0021144999199
 30
0.0
 11
121.6679880464224
 21
428.3456389784638
 31
0.0
  0
LINE
  5
294
330
28B
100
AcDbEntity
  8
0
 62
     2
100
AcDbLine
 10
114.2179880464224
 20
429.0021144999199
 30
0.0
 11
111.7679880464224
 21
428.3456389784638
 31
0.0
  0
LINE
  5
295
330
28B
100
AcDbEntity
  8
0
 62
     2
100
AcDbLine
 10
114.2179880464224
 20
429.0021144999199
 30
0.0
 11
111.7679880464224
 21
429.6585900213762
 31
0.0
  0
MTEXT
  5
297
330
28B
100
AcDbEntity
  8
0
 62
     3
100
AcDbMText
 10
128.5600280405498
 20
430.0021005857673
 30
0.0
 40
3.5
 41
0.0
 71
     7
 72
     1
  1
\C3;{\Fgdt;n}\C3;5
  7
CONVERTER_5
 11
0.999999999997062
 21
0.00000242406841
 31
0.0
 73
     1
 44
1.0
1001
ACAD
1000
MTEXTBEGIN
1070
    73
1070
     1
1070
    44
1040
1.0
1070
    74
1070
     0
1000
MTEXTEND
  0
ENDBLK
  5
298
330
28B
100
AcDbEntity
  8
0
100
AcDbBlockEnd
  0
BLOCK
  5
29A
330
299
100
AcDbEntity
  8
0
 62
     0
100
AcDbBlockBegin
  2
_OPEN30
 70
     0
 10
0.0
 20
0.0
 30
0.0
  3
_OPEN30
  1

  0
LINE
  5
29B
330
299
100
AcDbEntity
  8
0
  6
ByBlock
 62
     0
100
AcDbLine
 10
-1.0
 20
0.267949
 30
0.0
 11
0.0
 21
0.0
 31
0.0
  0
LINE
  5
29C
330
299
100
AcDbEntity
  8
0
  6
ByBlock
 62
     0
100
AcDbLine
 10
0.0
 20
0.0
 30
0.0
 11
-1.0
 21
-0.267949
 31
0.0
  0
LINE
  5
29D
330
299
100
AcDbEntity
  8
0
  6
ByBlock
 62
     0
100
AcDbLine
 10
0.0
 20
0.0
 30
0.0
 11
-1.0
 21
0.0
 31
0.0
  0
ENDBLK
  5
29E
330
299
100
AcDbEntity
  8
0
 62
     0
100
AcDbBlockEnd
  0
BLOCK
  5
2A2
330
2A1
100
AcDbEntity
  8
0
100
AcDbBlockBegin
  2
*D10
 70
     1
 10
0.0
 20
0.0
 30
0.0
  3
*D10
  1

  0
LINE
  5
2A3
330
2A1
100
AcDbEntity
  8
0
  6
Continuous
 62
     2
100
AcDbLine
 10
145.7179880464224
 20
418.681242177192
 30
0.0
 11
145.7179880464224
 21
425.681242177192
 31
0.0
  0
LINE
  5
2A4
330
2A1
100
AcDbEntity
  8
0
  6
Continuous
 62
     2
100
AcDbLine
 10
125.7179880464223
 20
425.681242177192
 30
0.0
 11
146.7179880464224
 21
425.681242177192
 31
0.0
  0
LINE
  5
2A5
330
2A1
100
AcDbEntity
  8
0
  6
Continuous
 62
     2
100
AcDbLine
 10
124.3179880464224
 20
418.681242177192
 30
0.0
 11
146.7179880464224
 21
418.681242177192
 31
0.0
  0
LINE
  5
2A6
330
2A1
100
AcDbEntity
  8
0
 62
     2
100
AcDbLine
 10
145.7179880464224
 20
425.681242177192
 30
0.0
 11
146.3744635678786
 21
423.2312421771919
 31
0.0
  0
LINE
  5
2A7
330
2A1
100
AcDbEntity
  8
0
 62
     2
100
AcDbLine
 10
145.7179880464224
 20
425.681242177192
 30
0.0
 11
145.0615125249661
 21
423.2312421771919
 31
0.0
  0
LINE
  5
2A8
330
2A1
100
AcDbEntity
  8
0
 62
     2
100
AcDbLine
 10
145.7179880464224
 20
418.681242177192
 30
0.0
 11
145.0615125249661
 21
421.131242177192
 31
0.0
  0
LINE
  5
2A9
330
2A1
100
AcDbEntity
  8
0
 62
     2
100
AcDbLine
 10
145.7179880464224
 20
418.681242177192
 30
0.0
 11
146.3744635678786
 21
421.131242177192
 31
0.0
  0
MTEXT
  5
2AA
330
2A1
100
AcDbEntity
  8
0
 62
     3
100
AcDbMText
 10
144.7179880464224
 20
421.4462421771919
 30
0.0
 40
3.5
 41
0.0
 71
     7
 72
     1
  1
7
  7
CONVERTER_5
 11
0.0
 21
1.0
 31
0.0
 73
     1
 44
1.0
1001
ACAD
1000
MTEXTBEGIN
1070
    73
1070
     1
1070
    44
1040
1.0
1070
    74
1070
     0
1000
MTEXTEND
  0
ENDBLK
  5
2AB
330
2A1
100
AcDbEntity
  8
0
100
AcDbBlockEnd
  0
BLOCK
  5
2AF
330
2AE
100
AcDbEntity
  8
0
100
AcDbBlockBegin
  2
*D11
 70
     1
 10
0.0
 20
0.0
 30
0.0
  3
*D11
  1

  0
LINE
  5
2B0
330
2AE
100
AcDbEntity
  8
0
  6
Continuous
 62
     2
100
AcDbLine
 10
108.7179880464224
 20
397.681242177192
 30
0.0
 11
124.7179880464224
 21
397.681242177192
 31
0.0
  0
LINE
  5
2B1
330
2AE
100
AcDbEntity
  8
0
  6
Continuous
 62
     2
100
AcDbLine
 10
124.7179880464224
 20
418.7782076886523
 30
0.0
 11
124.7179880464224
 21
396.681242177192
 31
0.0
  0
LINE
  5
2B2
330
2AE
100
AcDbEntity
  8
0
  6
Continuous
 62
     2
100
AcDbLine
 10
108.7179880464224
 20
418.7782076886523
 30
0.0
 11
108.7179880464224
 21
396.681242177192
 31
0.0
  0
LINE
  5
2B3
330
2AE
100
AcDbEntity
  8
0
 62
     2
100
AcDbLine
 10
124.7179880464224
 20
397.681242177192
 30
0.0
 11
122.2679880464224
 21
397.0247666557358
 31
0.0
  0
LINE
  5
2B4
330
2AE
100
AcDbEntity
  8
0
 62
     2
100
AcDbLine
 10
124.7179880464224
 20
397.681242177192
 30
0.0
 11
122.2679880464224
 21
398.3377176986483
 31
0.0
  0
LINE
  5
2B5
330
2AE
100
AcDbEntity
  8
0
 62
     2
100
AcDbLine
 10
108.7179880464224
 20
397.681242177192
 30
0.0
 11
111.1679880464224
 21
398.3377176986483
 31
0.0
  0
LINE
  5
2B6
330
2AE
100
AcDbEntity
  8
0
 62
     2
100
AcDbLine
 10
108.7179880464224
 20
397.681242177192
 30
0.0
 11
111.1679880464224
 21
397.0247666557358
 31
0.0
  0
MTEXT
  5
2B7
330
2AE
100
AcDbEntity
  8
0
 62
     3
100
AcDbMText
 10
111.2404880464393
 20
398.6812282630394
 30
0.0
 40
3.5
 41
0.0
 71
     7
 72
     1
  1
\C3;{\Fgdt;n}\C3;16
  7
CONVERTER_5
 11
0.999999999997062
 21
0.00000242406841
 31
0.0
 73
     1
 44
1.0
1001
ACAD
1000
MTEXTBEGIN
1070
    73
1070
     1
1070
    44
1040
1.0
1070
    74
1070
     0
1000
MTEXTEND
  0
ENDBLK
  5
2B8
330
2AE
100
AcDbEntity
  8
0
100
AcDbBlockEnd
  0
BLOCK
  5
2BC
330
2BB
100
AcDbEntity
  8
0
100
AcDbBlockBegin
  2
*D12
 70
     1
 10
0.0
 20
0.0
 30
0.0
  3
*D12
  1

  0
LINE
  5
2BD
330
2BB
100
AcDbEntity
  8
0
  6
Continuous
 62
     2
100
AcDbLine
 10
-18.76044663033301
 20
497.1329127192631
 30
0.0
 11
12.23955336966699
 21
497.1329127192631
 31
0.0
  0
LINE
  5
2BE
330
2BB
100
AcDbEntity
  8
0
  6
Continuous
 62
     2
100
AcDbLine
 10
12.23955336966699
 20
453.6329127192631
 30
0.0
 11
12.23955336966699
 21
498.1329127192632
 31
0.0
  0
LINE
  5
2BF
330
2BB
100
AcDbEntity
  8
0
  6
Continuous
 62
     2
100
AcDbLine
 10
-18.76044663033301
 20
453.6329127192631
 30
0.0
 11
-18.76044663033301
 21
498.1329127192632
 31
0.0
  0
LINE
  5
2C0
330
2BB
100
AcDbEntity
  8
0
 62
     2
100
AcDbLine
 10
12.23955336966699
 20
497.1329127192631
 30
0.0
 11
9.78955336966699
 21
496.4764371978068
 31
0.0
  0
LINE
  5
2C1
330
2BB
100
AcDbEntity
  8
0
 62
     2
100
AcDbLine
 10
12.23955336966699
 20
497.1329127192631
 30
0.0
 11
9.78955336966699
 21
497.7893882407193
 31
0.0
  0
LINE
  5
2C2
330
2BB
100
AcDbEntity
  8
0
 62
     2
100
AcDbLine
 10
-18.76044663033301
 20
497.1329127192631
 30
0.0
 11
-16.31044663033301
 21
497.7893882407193
 31
0.0
  0
LINE
  5
2C3
330
2BB
100
AcDbEntity
  8
0
 62
     2
100
AcDbLine
 10
-18.76044663033301
 20
497.1329127192631
 30
0.0
 11
-16.31044663033301
 21
496.4764371978068
 31
0.0
  0
MTEXT
  5
2C4
330
2BB
100
AcDbEntity
  8
0
 62
     3
100
AcDbMText
 10
-4.73044663033301
 20
498.1329127192632
 30
0.0
 40
3.5
 41
0.0
 71
     7
 72
     1
  1
31
  7
CONVERTER_5
 11
0.999999999997062
 21
0.00000242406841
 31
0.0
 73
     1
 44
1.0
1001
ACAD
1000
MTEXTBEGIN
1070
    73
1070
     1
1070
    44
1040
1.0
1070
    74
1070
     0
1000
MTEXTEND
  0
ENDBLK
  5
2C5
330
2BB
100
AcDbEntity
  8
0
100
AcDbBlockEnd
  0
BLOCK
  5
2C9
330
2C8
100
AcDbEntity
  8
0
100
AcDbBlockBegin
  2
*D13
 70
     1
 10
0.0
 20
0.0
 30
0.0
  3
*D13
  1

  0
LINE
  5
2CA
330
2C8
100
AcDbEntity
  8
0
  6
Continuous
 62
     2
100
AcDbLine
 10
16.73955336966699
 20
497.1329127192631
 30
0.0
 11
24.03148454865799
 21
497.1329127192631
 31
0.0
  0
LINE
  5
2CB
330
2C8
100
AcDbEntity
  8
0
  6
Continuous
 62
     2
100
AcDbLine
 10
12.23955336966699
 20
497.1329127192631
 30
0.0
 11
16.73955336966699
 21
497.1329127192631
 31
0.0
  0
LINE
  5
2CC
330
2C8
100
AcDbEntity
  8
0
  6
Continuous
 62
     2
100
AcDbLine
 10
7.339553369666989
 20
497.1329127192631
 30
0.0
 11
12.23955336966699
 21
497.1329127192631
 31
0.0
  0
LINE
  5
2CD
330
2C8
100
AcDbEntity
  8
0
  6
Continuous
 62
     2
100
AcDbLine
 10
16.73955336966699
 20
471.1329127192631
 30
0.0
 11
16.73955336966699
 21
498.1329127192632
 31
0.0
  0
LINE
  5
2CE
330
2C8
100
AcDbEntity
  8
0
  6
Continuous
 62
     2
100
AcDbLine
 10
12.23955336966699
 20
453.6329127192631
 30
0.0
 11
12.23955336966699
 21
498.1329127192632
 31
0.0
  0
LINE
  5
2CF
330
2C8
100
AcDbEntity
  8
0
 62
     2
100
AcDbLine
 10
12.23955336966699
 20
497.1329127192631
 30
0.0
 11
9.78955336966699
 21
496.4764371978068
 31
0.0
  0
LINE
  5
2D0
330
2C8
100
AcDbEntity
  8
0
 62
     2
100
AcDbLine
 10
12.23955336966699
 20
497.1329127192631
 30
0.0
 11
9.78955336966699
 21
497.7893882407193
 31
0.0
  0
LINE
  5
2D1
330
2C8
100
AcDbEntity
  8
0
 62
     2
100
AcDbLine
 10
16.73955336966699
 20
497.1329127192631
 30
0.0
 11
19.18955336966699
 21
497.7893882407193
 31
0.0
  0
LINE
  5
2D2
330
2C8
100
AcDbEntity
  8
0
 62
     2
100
AcDbLine
 10
16.73955336966699
 20
497.1329127192631
 30
0.0
 11
19.18955336966699
 21
496.4764371978068
 31
0.0
  0
MTEXT
  5
2D3
330
2C8
100
AcDbEntity
  8
0
 62
     3
100
AcDbMText
 10
19.49898454865799
 20
498.1329127192632
 30
0.0
 40
3.5
 41
0.0
 71
     7
 72
     1
  1
4.5
  7
CONVERTER_5
 11
0.999999999997062
 21
0.00000242406841
 31
0.0
 73
     1
 44
1.0
1001
ACAD
1000
MTEXTBEGIN
1070
    73
1070
     1
1070
    44
1040
1.0
1070
    74
1070
     0
1000
MTEXTEND
  0
ENDBLK
  5
2D4
330
2C8
100
AcDbEntity
  8
0
100
AcDbBlockEnd
  0
BLOCK
  5
2D8
330
2D7
100
AcDbEntity
  8
0
100
AcDbBlockBegin
  2
*D14
 70
     1
 10
0.0
 20
0.0
 30
0.0
  3
*D14
  1

  0
LINE
  5
2D9
330
2D7
100
AcDbEntity
  8
0
  6
Continuous
 62
     2
100
AcDbLine
 10
-23.26044663033302
 20
497.1329127192631
 30
0.0
 11
-30.6619336226304
 21
497.1329127192631
 31
0.0
  0
LINE
  5
2DA
330
2D7
100
AcDbEntity
  8
0
  6
Continuous
 62
     2
100
AcDbLine
 10
-23.26044663033302
 20
497.1329127192631
 30
0.0
 11
-18.76044663033301
 21
497.1329127192631
 31
0.0
  0
LINE
  5
2DB
330
2D7
100
AcDbEntity
  8
0
  6
Continuous
 62
     2
100
AcDbLine
 10
-13.86044663033301
 20
497.1329127192631
 30
0.0
 11
-18.76044663033301
 21
497.1329127192631
 31
0.0
  0
LINE
  5
2DC
330
2D7
100
AcDbEntity
  8
0
  6
Continuous
 62
     2
100
AcDbLine
 10
-18.76044663033301
 20
453.6329127192631
 30
0.0
 11
-18.76044663033301
 21
498.1329127192632
 31
0.0
  0
LINE
  5
2DD
330
2D7
100
AcDbEntity
  8
0
  6
Continuous
 62
     2
100
AcDbLine
 10
-23.26044663033302
 20
471.1329127192631
 30
0.0
 11
-23.26044663033302
 21
498.1329127192632
 31
0.0
  0
LINE
  5
2DE
330
2D7
100
AcDbEntity
  8
0
 62
     2
100
AcDbLine
 10
-18.76044663033301
 20
497.1329127192631
 30
0.0
 11
-16.31044663033301
 21
497.7893882407193
 31
0.0
  0
LINE
  5
2DF
330
2D7
100
AcDbEntity
  8
0
 62
     2
100
AcDbLine
 10
-18.76044663033301
 20
497.1329127192631
 30
0.0
 11
-16.31044663033301
 21
496.4764371978068
 31
0.0
  0
LINE
  5
2E0
330
2D7
100
AcDbEntity
  8
0
 62
     2
100
AcDbLine
 10
-23.26044663033302
 20
497.1329127192631
 30
0.0
 11
-25.71044663033302
 21
496.4764371978068
 31
0.0
  0
LINE
  5
2E1
330
2D7
100
AcDbEntity
  8
0
 62
     2
100
AcDbLine
 10
-23.26044663033302
 20
497.1329127192631
 30
0.0
 11
-25.71044663033302
 21
497.7893882407193
 31
0.0
  0
MTEXT
  5
2E2
330
2D7
100
AcDbEntity
  8
0
 62
     3
100
AcDbMText
 10
-30.6619336226304
 20
498.1329127192632
 30
0.0
 40
3.5
 41
0.0
 71
     7
 72
     1
  1
4.5
  7
CONVERTER_5
 11
0.999999999997062
 21
0.00000242406841
 31
0.0
 73
     1
 44
1.0
1001
ACAD
1000
MTEXTBEGIN
1070
    73
1070
     1
1070
    44
1040
1.0
1070
    74
1070
     0
1000
MTEXTEND
  0
ENDBLK
  5
2E3
330
2D7
100
AcDbEntity
  8
0
100
AcDbBlockEnd
  0
BLOCK
  5
2E7
330
2E6
100
AcDbEntity
  8
0
100
AcDbBlockBegin
  2
*D15
 70
     1
 10
0.0
 20
0.0
 30
0.0
  3
*D15
  1

  0
LINE
  5
2E8
330
2E6
100
AcDbEntity
  8
0
  6
Continuous
 62
     2
100
AcDbLine
 10
37.73955336966699
 20
435.1329127192632
 30
0.0
 11
37.73955336966699
 21
447.1329127192631
 31
0.0
  0
LINE
  5
2E9
330
2E6
100
AcDbEntity
  8
0
  6
Continuous
 62
     2
100
AcDbLine
 10
18.73955336966699
 20
447.1329127192631
 30
0.0
 11
38.739553369667
 21
447.1329127192631
 31
0.0
  0
LINE
  5
2EA
330
2E6
100
AcDbEntity
  8
0
  6
Continuous
 62
     2
100
AcDbLine
 10
16.73955336966699
 20
435.1329127192632
 30
0.0
 11
38.739553369667
 21
435.1329127192632
 31
0.0
  0
LINE
  5
2EB
330
2E6
100
AcDbEntity
  8
0
 62
     2
100
AcDbLine
 10
37.73955336966699
 20
447.1329127192631
 30
0.0
 11
38.39602889112324
 21
444.6829127192631
 31
0.0
  0
LINE
  5
2EC
330
2E6
100
AcDbEntity
  8
0
 62
     2
100
AcDbLine
 10
37.73955336966699
 20
447.1329127192631
 30
0.0
 11
37.08307784821074
 21
444.6829127192631
 31
0.0
  0
LINE
  5
2ED
330
2E6
100
AcDbEntity
  8
0
 62
     2
100
AcDbLine
 10
37.73955336966699
 20
435.1329127192632
 30
0.0
 11
37.08307784821074
 21
437.5829127192631
 31
0.0
  0
LINE
  5
2EE
330
2E6
100
AcDbEntity
  8
0
 62
     2
100
AcDbLine
 10
37.73955336966699
 20
435.1329127192632
 30
0.0
 11
38.39602889112324
 21
437.5829127192631
 31
0.0
  0
MTEXT
  5
2EF
330
2E6
100
AcDbEntity
  8
0
 62
     3
100
AcDbMText
 10
36.73955336966699
 20
439.6629127192631
 30
0.0
 40
3.5
 41
0.0
 71
     7
 72
     1
  1
12
  7
CONVERTER_5
 11
0.0
 21
1.0
 31
0.0
 73
     1
 44
1.0
1001
ACAD
1000
MTEXTBEGIN
1070
    73
1070
     1
1070
    44
1040
1.0
1070
    74
1070
     0
1000
MTEXTEND
  0
ENDBLK
  5
2F0
330
2E6
100
AcDbEntity
  8
0
100
AcDbBlockEnd
  0
BLOCK
  5
2F4
330
2F3
100
AcDbEntity
  8
0
100
AcDbBlockBegin
  2
*D16
 70
     1
 10
0.0
 20
0.0
 30
0.0
  3
*D16
  1

  0
LINE
  5
2F5
330
2F3
100
AcDbEntity
  8
0
  6
Continuous
 62
     2
100
AcDbLine
 10
37.73955336966699
 20
447.1329127192631
 30
0.0
 11
37.73955336966699
 21
461.1329127192631
 31
0.0
  0
LINE
  5
2F6
330
2F3
100
AcDbEntity
  8
0
  6
Continuous
 62
     2
100
AcDbLine
 10
11.639553369667
 20
461.1329127192631
 30
0.0
 11
38.739553369667
 21
461.1329127192631
 31
0.0
  0
LINE
  5
2F7
330
2F3
100
AcDbEntity
  8
0
  6
Continuous
 62
     2
100
AcDbLine
 10
18.73955336966699
 20
447.1329127192631
 30
0.0
 11
38.739553369667
 21
447.1329127192631
 31
0.0
  0
LINE
  5
2F8
330
2F3
100
AcDbEntity
  8
0
 62
     2
100
AcDbLine
 10
37.73955336966699
 20
447.1329127192631
 30
0.0
 11
37.08307784821074
 21
449.5829127192632
 31
0.0
  0
LINE
  5
2F9
330
2F3
100
AcDbEntity
  8
0
 62
     2
100
AcDbLine
 10
37.73955336966699
 20
447.1329127192631
 30
0.0
 11
38.39602889112324
 21
449.5829127192632
 31
0.0
  0
LINE
  5
2FA
330
2F3
100
AcDbEntity
  8
0
 62
     2
100
AcDbLine
 10
37.73955336966699
 20
461.1329127192631
 30
0.0
 11
38.39602889112324
 21
458.6829127192631
 31
0.0
  0
LINE
  5
2FB
330
2F3
100
AcDbEntity
  8
0
 62
     2
100
AcDbLine
 10
37.73955336966699
 20
461.1329127192631
 30
0.0
 11
37.08307784821074
 21
458.6829127192631
 31
0.0
  0
MTEXT
  5
2FC
330
2F3
100
AcDbEntity
  8
0
 62
     3
100
AcDbMText
 10
36.73955336966699
 20
452.6629127192631
 30
0.0
 40
3.5
 41
0.0
 71
     7
 72
     1
  1
14
  7
CONVERTER_5
 11
0.0
 21
1.0
 31
0.0
 73
     1
 44
1.0
1001
ACAD
1000
MTEXTBEGIN
1070
    73
1070
     1
1070
    44
1040
1.0
1070
    74
1070
     0
1000
MTEXTEND
  0
ENDBLK
  5
2FD
330
2F3
100
AcDbEntity
  8
0
100
AcDbBlockEnd
  0
BLOCK
  5
301
330
300
100
AcDbEntity
  8
0
100
AcDbBlockBegin
  2
*D17
 70
     1
 10
0.0
 20
0.0
 30
0.0
  3
*D17
  1

  0
LINE
  5
302
330
300
100
AcDbEntity
  8
0
  6
Continuous
 62
     2
100
AcDbLine
 10
37.73955336966699
 20
461.1329127192631
 30
0.0
 11
37.73955336966699
 21
476.1329127192631
 31
0.0
  0
LINE
  5
303
330
300
100
AcDbEntity
  8
0
  6
Continuous
 62
     2
100
AcDbLine
 10
11.73955336966699
 20
476.1329127192631
 30
0.0
 11
38.739553369667
 21
476.1329127192631
 31
0.0
  0
LINE
  5
304
330
300
100
AcDbEntity
  8
0
  6
Continuous
 62
     2
100
AcDbLine
 10
11.639553369667
 20
461.1329127192631
 30
0.0
 11
38.739553369667
 21
461.1329127192631
 31
0.0
  0
LINE
  5
305
330
300
100
AcDbEntity
  8
0
 62
     2
100
AcDbLine
 10
37.73955336966699
 20
461.1329127192631
 30
0.0
 11
37.08307784821074
 21
463.5829127192631
 31
0.0
  0
LINE
  5
306
330
300
100
AcDbEntity
  8
0
 62
     2
100
AcDbLine
 10
37.73955336966699
 20
461.1329127192631
 30
0.0
 11
38.39602889112324
 21
463.5829127192631
 31
0.0
  0
LINE
  5
307
330
300
100
AcDbEntity
  8
0
 62
     2
100
AcDbLine
 10
37.73955336966699
 20
476.1329127192631
 30
0.0
 11
38.39602889112324
 21
473.6829127192631
 31
0.0
  0
LINE
  5
308
330
300
100
AcDbEntity
  8
0
 62
     2
100
AcDbLine
 10
37.73955336966699
 20
476.1329127192631
 30
0.0
 11
37.08307784821074
 21
473.6829127192631
 31
0.0
  0
MTEXT
  5
309
330
300
100
AcDbEntity
  8
0
 62
     3
100
AcDbMText
 10
36.73955336966699
 20
467.1629127192631
 30
0.0
 40
3.5
 41
0.0
 71
     7
 72
     1
  1
15
  7
CONVERTER_5
 11
0.0
 21
1.0
 31
0.0
 73
     1
 44
1.0
1001
ACAD
1000
MTEXTBEGIN
1070
    73
1070
     1
1070
    44
1040
1.0
1070
    74
1070
     0
1000
MTEXTEND
  0
ENDBLK
  5
30A
330
300
100
AcDbEntity
  8
0
100
AcDbBlockEnd
  0
BLOCK
  5
30E
330
30D
100
AcDbEntity
  8
0
100
AcDbBlockBegin
  2
*D18
 70
     1
 10
0.0
 20
0.0
 30
0.0
  3
*D18
  1

  0
LINE
  5
30F
330
30D
100
AcDbEntity
  8
0
  6
Continuous
 62
     2
100
AcDbLine
 10
101.7179880464224
 20
497.1329127192631
 30
0.0
 11
116.7179880464224
 21
497.1329127192631
 31
0.0
  0
LINE
  5
310
330
30D
100
AcDbEntity
  8
0
  6
Continuous
 62
     2
100
AcDbLine
 10
116.7179880464224
 20
479.9413140809408
 30
0.0
 11
116.7179880464224
 21
498.1329127192632
 31
0.0
  0
LINE
  5
311
330
30D
100
AcDbEntity
  8
0
  6
Continuous
 62
     2
100
AcDbLine
 10
101.7179880464224
 20
477.1329127192632
 30
0.0
 11
101.7179880464224
 21
498.1329127192632
 31
0.0
  0
LINE
  5
312
330
30D
100
AcDbEntity
  8
0
 62
     2
100
AcDbLine
 10
101.7179880464224
 20
497.1329127192631
 30
0.0
 11
104.1679880464224
 21
497.7893882407193
 31
0.0
  0
LINE
  5
313
330
30D
100
AcDbEntity
  8
0
 62
     2
100
AcDbLine
 10
101.7179880464224
 20
497.1329127192631
 30
0.0
 11
104.1679880464224
 21
496.4764371978068
 31
0.0
  0
LINE
  5
314
330
30D
100
AcDbEntity
  8
0
 62
     2
100
AcDbLine
 10
116.7179880464224
 20
497.1329127192631
 30
0.0
 11
114.2679880464224
 21
496.4764371978068
 31
0.0
  0
LINE
  5
315
330
30D
100
AcDbEntity
  8
0
 62
     2
100
AcDbLine
 10
116.7179880464224
 20
497.1329127192631
 30
0.0
 11
114.2679880464224
 21
497.7893882407193
 31
0.0
  0
MTEXT
  5
316
330
30D
100
AcDbEntity
  8
0
 62
     3
100
AcDbMText
 10
107.7479880464224
 20
498.1329127192632
 30
0.0
 40
3.5
 41
0.0
 71
     7
 72
     1
  1
15
  7
CONVERTER_5
 11
0.999999999997062
 21
0.00000242406841
 31
0.0
 73
     1
 44
1.0
1001
ACAD
1000
MTEXTBEGIN
1070
    73
1070
     1
1070
    44
1040
1.0
1070
    74
1070
     0
1000
MTEXTEND
  0
ENDBLK
  5
317
330
30D
100
AcDbEntity
  8
0
100
AcDbBlockEnd
  0
BLOCK
  5
31B
330
31A
100
AcDbEntity
  8
0
100
AcDbBlockBegin
  2
*D19
 70
     1
 10
0.0
 20
0.0
 30
0.0
  3
*D19
  1

  0
LINE
  5
31C
330
31A
100
AcDbEntity
  8
0
  6
Continuous
 62
     2
100
AcDbLine
 10
121.7179880464224
 20
497.1329127192631
 30
0.0
 11
126.6179880464224
 21
497.1329127192631
 31
0.0
  0
LINE
  5
31D
330
31A
100
AcDbEntity
  8
0
  6
Continuous
 62
     2
100
AcDbLine
 10
116.7179880464224
 20
497.1329127192631
 30
0.0
 11
111.8179880464224
 21
497.1329127192631
 31
0.0
  0
LINE
  5
31E
330
31A
100
AcDbEntity
  8
0
  6
Continuous
 62
     2
100
AcDbLine
 10
116.7179880464224
 20
497.1329127192631
 30
0.0
 11
121.7179880464224
 21
497.1329127192631
 31
0.0
  0
LINE
  5
31F
330
31A
100
AcDbEntity
  8
0
  6
Continuous
 62
     2
100
AcDbLine
 10
121.7179880464224
 20
473.8491627192631
 30
0.0
 11
121.7179880464224
 21
498.1329127192632
 31
0.0
  0
LINE
  5
320
330
31A
100
AcDbEntity
  8
0
  6
Continuous
 62
     2
100
AcDbLine
 10
116.7179880464224
 20
479.9413140809408
 30
0.0
 11
116.7179880464224
 21
498.1329127192632
 31
0.0
  0
LINE
  5
321
330
31A
100
AcDbEntity
  8
0
 62
     2
100
AcDbLine
 10
116.7179880464224
 20
497.1329127192631
 30
0.0
 11
114.2679880464224
 21
496.4764371978068
 31
0.0
  0
LINE
  5
322
330
31A
100
AcDbEntity
  8
0
 62
     2
100
AcDbLine
 10
116.7179880464224
 20
497.1329127192631
 30
0.0
 11
114.2679880464224
 21
497.7893882407193
 31
0.0
  0
LINE
  5
323
330
31A
100
AcDbEntity
  8
0
 62
     2
100
AcDbLine
 10
121.7179880464224
 20
497.1329127192631
 30
0.0
 11
124.1679880464224
 21
497.7893882407193
 31
0.0
  0
LINE
  5
324
330
31A
100
AcDbEntity
  8
0
 62
     2
100
AcDbLine
 10
121.7179880464224
 20
497.1329127192631
 30
0.0
 11
124.1679880464224
 21
496.4764371978068
 31
0.0
  0
MTEXT
  5
325
330
31A
100
AcDbEntity
  8
0
 62
     3
100
AcDbMText
 10
118.4829880464224
 20
498.1329127192632
 30
0.0
 40
3.5
 41
0.0
 71
     7
 72
     1
  1
5
  7
CONVERTER_5
 11
0.999999999997062
 21
0.00000242406841
 31
0.0
 73
     1
 44
1.0
1001
ACAD
1000
MTEXTBEGIN
1070
    73
1070
     1
1070
    44
1040
1.0
1070
    74
1070
     0
1000
MTEXTEND
  0
ENDBLK
  5
326
330
31A
100
AcDbEntity
  8
0
100
AcDbBlockEnd
  0
BLOCK
  5
32A
330
329
100
AcDbEntity
  8
0
100
AcDbBlockBegin
  2
*D20
 70
     1
 10
0.0
 20
0.0
 30
0.0
  3
*D20
  1

  0
LINE
  5
32B
330
329
100
AcDbEntity
  8
0
  6
Continuous
 62
     2
100
AcDbLine
 10
101.7179880464224
 20
504.1329127192631
 30
0.0
 11
106.6179880464224
 21
504.1329127192631
 31
0.0
  0
LINE
  5
32C
330
329
100
AcDbEntity
  8
0
  6
Continuous
 62
     2
100
AcDbLine
 10
98.7179880464224
 20
504.1329127192631
 30
0.0
 11
93.8179880464224
 21
504.1329127192631
 31
0.0
  0
LINE
  5
32D
330
329
100
AcDbEntity
  8
0
  6
Continuous
 62
     2
100
AcDbLine
 10
98.7179880464224
 20
504.1329127192631
 30
0.0
 11
101.7179880464224
 21
504.1329127192631
 31
0.0
  0
LINE
  5
32E
330
329
100
AcDbEntity
  8
0
  6
Continuous
 62
     2
100
AcDbLine
 10
101.7179880464224
 20
477.1329127192632
 30
0.0
 11
101.7179880464224
 21
505.1329127192631
 31
0.0
  0
LINE
  5
32F
330
329
100
AcDbEntity
  8
0
  6
Continuous
 62
     2
100
AcDbLine
 10
98.7179880464224
 20
476.1329127192631
 30
0.0
 11
98.7179880464224
 21
505.1329127192631
 31
0.0
  0
LINE
  5
330
330
329
100
AcDbEntity
  8
0
 62
     2
100
AcDbLine
 10
101.7179880464224
 20
504.1329127192631
 30
0.0
 11
104.1679880464224
 21
504.7893882407193
 31
0.0
  0
LINE
  5
331
330
329
100
AcDbEntity
  8
0
 62
     2
100
AcDbLine
 10
101.7179880464224
 20
504.1329127192631
 30
0.0
 11
104.1679880464224
 21
503.4764371978068
 31
0.0
  0
LINE
  5
332
330
329
100
AcDbEntity
  8
0
 62
     2
100
AcDbLine
 10
98.7179880464224
 20
504.1329127192631
 30
0.0
 11
96.26798804642241
 21
503.4764371978068
 31
0.0
  0
LINE
  5
333
330
329
100
AcDbEntity
  8
0
 62
     2
100
AcDbLine
 10
98.7179880464224
 20
504.1329127192631
 30
0.0
 11
96.26798804642241
 21
504.7893882407193
 31
0.0
  0
MTEXT
  5
334
330
329
100
AcDbEntity
  8
0
 62
     3
100
AcDbMText
 10
99.48298804642242
 20
505.1329127192631
 30
0.0
 40
3.5
 41
0.0
 71
     7
 72
     1
  1
3
  7
CONVERTER_5
 11
0.999999999997062
 21
0.00000242406841
 31
0.0
 73
     1
 44
1.0
1001
ACAD
1000
MTEXTBEGIN
1070
    73
1070
     1
1070
    44
1040
1.0
1070
    74
1070
     0
1000
MTEXTEND
  0
ENDBLK
  5
335
330
329
100
AcDbEntity
  8
0
100
AcDbBlockEnd
  0
BLOCK
  5
339
330
338
100
AcDbEntity
  8
0
100
AcDbBlockBegin
  2
*D21
 70
     1
 10
0.0
 20
0.0
 30
0.0
  3
*D21
  1

  0
LINE
  5
33A
330
338
100
AcDbEntity
  8
0
  6
Continuous
 62
     2
100
AcDbLine
 10
101.7179880464224
 20
504.1329127192631
 30
0.0
 11
121.7179880464224
 21
504.1329127192631
 31
0.0
  0
LINE
  5
33B
330
338
100
AcDbEntity
  8
0
  6
Continuous
 62
     2
100
AcDbLine
 10
121.7179880464224
 20
473.8491627192631
 30
0.0
 11
121.7179880464224
 21
505.1329127192631
 31
0.0
  0
LINE
  5
33C
330
338
100
AcDbEntity
  8
0
  6
Continuous
 62
     2
100
AcDbLine
 10
101.7179880464224
 20
477.1329127192632
 30
0.0
 11
101.7179880464224
 21
505.1329127192631
 31
0.0
  0
LINE
  5
33D
330
338
100
AcDbEntity
  8
0
 62
     2
100
AcDbLine
 10
101.7179880464224
 20
504.1329127192631
 30
0.0
 11
104.1679880464224
 21
504.7893882407193
 31
0.0
  0
LINE
  5
33E
330
338
100
AcDbEntity
  8
0
 62
     2
100
AcDbLine
 10
101.7179880464224
 20
504.1329127192631
 30
0.0
 11
104.1679880464224
 21
503.4764371978068
 31
0.0
  0
LINE
  5
33F
330
338
100
AcDbEntity
  8
0
 62
     2
100
AcDbLine
 10
121.7179880464224
 20
504.1329127192631
 30
0.0
 11
119.2679880464224
 21
503.4764371978068
 31
0.0
  0
LINE
  5
340
330
338
100
AcDbEntity
  8
0
 62
     2
100
AcDbLine
 10
121.7179880464224
 20
504.1329127192631
 30
0.0
 11
119.2679880464224
 21
504.7893882407193
 31
0.0
  0
MTEXT
  5
341
330
338
100
AcDbEntity
  8
0
 62
     3
100
AcDbMText
 10
109.8804880464224
 20
505.1329127192631
 30
0.0
 40
3.5
 41
0.0
 71
     7
 72
     1
  1
20
  7
CONVERTER_5
 11
0.999999999997062
 21
0.00000242406841
 31
0.0
 73
     1
 44
1.0
1001
ACAD
1000
MTEXTBEGIN
1070
    73
1070
     1
1070
    44
1040
1.0
1070
    74
1070
     0
1000
MTEXTEND
  0
ENDBLK
  5
342
330
338
100
AcDbEntity
  8
0
100
AcDbBlockEnd
  0
BLOCK
  5
346
330
345
100
AcDbEntity
  8
0
100
AcDbBlockBegin
  2
*D22
 70
     1
 10
0.0
 20
0.0
 30
0.0
  3
*D22
  1

  0
LINE
  5
347
330
345
100
AcDbEntity
  8
0
  6
Continuous
 62
     2
100
AcDbLine
 10
189.739553369667
 20
497.1329127192631
 30
0.0
 11
229.739553369667
 21
497.1329127192631
 31
0.0
  0
LINE
  5
348
330
345
100
AcDbEntity
  8
0
  6
Continuous
 62
     2
100
AcDbLine
 10
229.739553369667
 20
471.1329127192631
 30
0.0
 11
229.739553369667
 21
498.1329127192632
 31
0.0
  0
LINE
  5
349
330
345
100
AcDbEntity
  8
0
  6
Continuous
 62
     2
100
AcDbLine
 10
189.739553369667
 20
471.1329127192631
 30
0.0
 11
189.739553369667
 21
498.1329127192632
 31
0.0
  0
LINE
  5
34A
330
345
100
AcDbEntity
  8
0
 62
     2
100
AcDbLine
 10
189.739553369667
 20
497.1329127192631
 30
0.0
 11
192.189553369667
 21
497.7893882407193
 31
0.0
  0
LINE
  5
34B
330
345
100
AcDbEntity
  8
0
 62
     2
100
AcDbLine
 10
189.739553369667
 20
497.1329127192631
 30
0.0
 11
192.189553369667
 21
496.4764371978068
 31
0.0
  0
LINE
  5
34C
330
345
100
AcDbEntity
  8
0
 62
     2
100
AcDbLine
 10
229.739553369667
 20
497.1329127192631
 30
0.0
 11
227.289553369667
 21
496.4764371978068
 31
0.0
  0
LINE
  5
34D
330
345
100
AcDbEntity
  8
0
 62
     2
100
AcDbLine
 10
229.739553369667
 20
497.1329127192631
 30
0.0
 11
227.289553369667
 21
497.7893882407193
 31
0.0
  0
MTEXT
  5
34E
330
345
100
AcDbEntity
  8
0
 62
     3
100
AcDbMText
 10
207.902053369667
 20
498.1329127192632
 30
0.0
 40
3.5
 41
0.0
 71
     7
 72
     1
  1
40
  7
CONVERTER_5
 11
0.999999999997062
 21
0.00000242406841
 31
0.0
 73
     1
 44
1.0
1001
ACAD
1000
MTEXTBEGIN
1070
    73
1070
     1
1070
    44
1040
1.0
1070
    74
1070
     0
1000
MTEXTEND
  0
ENDBLK
  5
34F
330
345
100
AcDbEntity
  8
0
100
AcDbBlockEnd
  0
BLOCK
  5
353
330
352
100
AcDbEntity
  8
0
100
AcDbBlockBegin
  2
*D23
 70
     1
 10
0.0
 20
0.0
 30
0.0
  3
*D23
  1

  0
LINE
  5
354
330
352
100
AcDbEntity
  8
0
  6
Continuous
 62
     2
100
AcDbLine
 10
250.739553369667
 20
435.1329127192632
 30
0.0
 11
250.739553369667
 21
476.1329127192631
 31
0.0
  0
LINE
  5
355
330
352
100
AcDbEntity
  8
0
  6
Continuous
 62
     2
100
AcDbLine
 10
224.739553369667
 20
476.1329127192631
 30
0.0
 11
251.739553369667
 21
476.1329127192631
 31
0.0
  0
LINE
  5
356
330
352
100
AcDbEntity
  8
0
  6
Continuous
 62
     2
100
AcDbLine
 10
229.739553369667
 20
435.1329127192632
 30
0.0
 11
251.739553369667
 21
435.1329127192632
 31
0.0
  0
LINE
  5
357
330
352
100
AcDbEntity
  8
0
 62
     2
100
AcDbLine
 10
250.739553369667
 20
476.1329127192631
 30
0.0
 11
251.3960288911233
 21
473.6829127192631
 31
0.0
  0
LINE
  5
358
330
352
100
AcDbEntity
  8
0
 62
     2
100
AcDbLine
 10
250.739553369667
 20
476.1329127192631
 30
0.0
 11
250.0830778482108
 21
473.6829127192631
 31
0.0
  0
LINE
  5
359
330
352
100
AcDbEntity
  8
0
 62
     2
100
AcDbLine
 10
250.739553369667
 20
435.1329127192632
 30
0.0
 11
250.0830778482108
 21
437.5829127192631
 31
0.0
  0
LINE
  5
35A
330
352
100
AcDbEntity
  8
0
 62
     2
100
AcDbLine
 10
250.739553369667
 20
435.1329127192632
 30
0.0
 11
251.3960288911233
 21
437.5829127192631
 31
0.0
  0
MTEXT
  5
35B
330
352
100
AcDbEntity
  8
0
 62
     3
100
AcDbMText
 10
249.739553369667
 20
454.1629127192631
 30
0.0
 40
3.5
 41
0.0
 71
     7
 72
     1
  1
41
  7
CONVERTER_5
 11
0.0
 21
1.0
 31
0.0
 73
     1
 44
1.0
1001
ACAD
1000
MTEXTBEGIN
1070
    73
1070
     1
1070
    44
1040
1.0
1070
    74
1070
     0
1000
MTEXTEND
  0
ENDBLK
  5
35C
330
352
100
AcDbEntity
  8
0
100
AcDbBlockEnd
  0
BLOCK
  5
360
330
35F
100
AcDbEntity
  8
0
100
AcDbBlockBegin
  2
*D24
 70
     1
 10
0.0
 20
0.0
 30
0.0
  3
*D24
  1

  0
LINE
  5
361
330
35F
100
AcDbEntity
  8
0
  6
Continuous
 62
     2
100
AcDbLine
 10
202.339553369667
 20
397.681242177192
 30
0.0
 11
217.139553369667
 21
397.681242177192
 31
0.0
  0
LINE
  5
362
330
35F
100
AcDbEntity
  8
0
  6
Continuous
 62
     2
100
AcDbLine
 10
217.139553369667
 20
434.1329127192631
 30
0.0
 11
217.139553369667
 21
396.681242177192
 31
0.0
  0
LINE
  5
363
330
35F
100
AcDbEntity
  8
0
  6
Continuous
 62
     2
100
AcDbLine
 10
202.339553369667
 20
434.1329127192631
 30
0.0
 11
202.339553369667
 21
396.681242177192
 31
0.0
  0
LINE
  5
364
330
35F
100
AcDbEntity
  8
0
 62
     2
100
AcDbLine
 10
217.139553369667
 20
397.681242177192
 30
0.0
 11
214.689553369667
 21
397.0247666557358
 31
0.0
  0
LINE
  5
365
330
35F
100
AcDbEntity
  8
0
 62
     2
100
AcDbLine
 10
217.139553369667
 20
397.681242177192
 30
0.0
 11
214.689553369667
 21
398.3377176986483
 31
0.0
  0
LINE
  5
366
330
35F
100
AcDbEntity
  8
0
 62
     2
100
AcDbLine
 10
202.339553369667
 20
397.681242177192
 30
0.0
 11
204.789553369667
 21
398.3377176986483
 31
0.0
  0
LINE
  5
367
330
35F
100
AcDbEntity
  8
0
 62
     2
100
AcDbLine
 10
202.339553369667
 20
397.681242177192
 30
0.0
 11
204.789553369667
 21
397.0247666557358
 31
0.0
  0
MTEXT
  5
368
330
35F
100
AcDbEntity
  8
0
 62
     3
100
AcDbMText
 10
206.738303369667
 20
398.681242177192
 30
0.0
 40
3.5
 41
0.0
 71
     7
 72
     1
  1
14.8
  7
CONVERTER_5
 11
0.999999999997062
 21
0.00000242406841
 31
0.0
 73
     1
 44
1.0
1001
ACAD
1000
MTEXTBEGIN
1070
    73
1070
     1
1070
    44
1040
1.0
1070
    74
1070
     0
1000
MTEXTEND
  0
ENDBLK
  5
369
330
35F
100
AcDbEntity
  8
0
100
AcDbBlockEnd
  0
BLOCK
  5
36D
330
36C
100
AcDbEntity
  8
0
100
AcDbBlockBegin
  2
*D25
 70
     1
 10
0.0
 20
0.0
 30
0.0
  3
*D25
  1

  0
LINE
  5
36E
330
36C
100
AcDbEntity
  8
0
  6
Continuous
 62
     2
100
AcDbLine
 10
37.73955336966699
 20
426.181242177192
 30
0.0
 11
37.73955336966699
 21
435.1329127192632
 31
0.0
  0
LINE
  5
36F
330
36C
100
AcDbEntity
  8
0
  6
Continuous
 62
     2
100
AcDbLine
 10
37.73955336966699
 20
426.181242177192
 30
0.0
 11
37.73955336966699
 21
409.5629106507947
 31
0.0
  0
LINE
  5
370
330
36C
100
AcDbEntity
  8
0
  6
Continuous
 62
     2
100
AcDbLine
 10
0.88955336966697
 20
426.181242177192
 30
0.0
 11
38.739553369667
 21
426.181242177192
 31
0.0
  0
LINE
  5
371
330
36C
100
AcDbEntity
  8
0
  6
Continuous
 62
     2
100
AcDbLine
 10
16.73955336966699
 20
435.1329127192632
 30
0.0
 11
38.739553369667
 21
435.1329127192632
 31
0.0
  0
LINE
  5
372
330
36C
100
AcDbEntity
  8
0
 62
     2
100
AcDbLine
 10
37.73955336966699
 20
435.1329127192632
 30
0.0
 11
38.39602889112324
 21
432.6829127192631
 31
0.0
  0
LINE
  5
373
330
36C
100
AcDbEntity
  8
0
 62
     2
100
AcDbLine
 10
37.73955336966699
 20
435.1329127192632
 30
0.0
 11
37.08307784821074
 21
432.6829127192631
 31
0.0
  0
LINE
  5
374
330
36C
100
AcDbEntity
  8
0
 62
     2
100
AcDbLine
 10
37.73955336966699
 20
426.181242177192
 30
0.0
 11
37.08307784821074
 21
428.631242177192
 31
0.0
  0
LINE
  5
375
330
36C
100
AcDbEntity
  8
0
 62
     2
100
AcDbLine
 10
37.73955336966699
 20
426.181242177192
 30
0.0
 11
38.39602889112324
 21
428.631242177192
 31
0.0
  0
MTEXT
  5
376
102
{ACAD_XDICTIONARY
360
531
102
}
330
36C
100
AcDbEntity
  8
0
 62
     3
100
AcDbMText
 10
36.73955336966699
 20
409.5629106507947
 30
0.0
 40
3.5
 41
0.0
 71
     7
 72
     1
  1
5.5\U+0081`12.5
  7
CONVERTER_5
 11
0.0
 21
1.0
 31
0.0
 73
     1
 44
1.0
1001
ACAD
1000
MTEXTBEGIN
1070
    73
1070
     1
1070
    44
1040
1.0
1070
    74
1070
     0
1000
MTEXTEND
  0
ENDBLK
  5
377
330
36C
100
AcDbEntity
  8
0
100
AcDbBlockEnd
  0
BLOCK
  5
37B
330
37A
100
AcDbEntity
  8
0
100
AcDbBlockBegin
  2
*D26
 70
     1
 10
0.0
 20
0.0
 30
0.0
  3
*D26
  1

  0
LINE
  5
37C
330
37A
100
AcDbEntity
  8
0
  6
Continuous
 62
     2
100
AcDbLine
 10
224.8825394445598
 20
467.8723932434278
 30
0.0
 11
221.5250447944704
 21
466.3781192810565
 31
0.0
  0
LINE
  5
37D
330
37A
100
AcDbEntity
  8
0
  6
Continuous
 62
     2
100
AcDbLine
 10
171.7065047462785
 20
444.2060669040298
 30
0.0
 11
197.9540619448635
 21
455.8877061574698
 31
0.0
  0
LINE
  5
37E
330
37A
100
AcDbEntity
  8
0
 62
     2
100
AcDbLine
 10
197.9540619448635
 20
455.8877061574698
 30
0.0
 11
195.9826585124627
 21
454.2917648625
 31
0.0
  0
LINE
  5
37F
330
37A
100
AcDbEntity
  8
0
 62
     2
100
AcDbLine
 10
197.9540619448635
 20
455.8877061574698
 30
0.0
 11
195.4488058438117
 21
455.4912821692777
 31
0.0
  0
LINE
  5
380
330
37A
100
AcDbEntity
  8
0
 62
     2
100
AcDbLine
 10
221.5250447944704
 20
466.3781192810565
 30
0.0
 11
223.4964482268712
 21
467.9740605760261
 31
0.0
  0
LINE
  5
381
330
37A
100
AcDbEntity
  8
0
 62
     2
100
AcDbLine
 10
221.5250447944704
 20
466.3781192810565
 30
0.0
 11
224.0303008955222
 21
466.7745432692485
 31
0.0
  0
MTEXT
  5
382
330
37A
100
AcDbEntity
  8
0
 62
     3
100
AcDbMText
 10
169.2214505173466
 20
444.1946441518378
 30
0.0
 40
3.5
 41
0.0
 71
     7
 72
     1
  1
\C3;{\Fgdt;n}\C3;25.8
  7
CONVERTER_5
 11
0.9136039864188823
 21
0.4066051598289511
 31
0.0
 73
     1
 44
1.0
1001
ACAD
1000
MTEXTBEGIN
1070
    73
1070
     1
1070
    44
1040
1.0
1070
    74
1070
     0
1000
MTEXTEND
  0
ENDBLK
  5
383
330
37A
100
AcDbEntity
  8
0
100
AcDbBlockEnd
  0
ENDSEC
  0
SECTION
  2
ENTITIES
  0
LWPOLYLINE
  5
401
330
A
100
AcDbEntity
  8
1
  6
Continuous
 62
     7
100
AcDbPolyline
 90
        2
 70
     1
 43
0.0
 10
1.98955336966699
 20
461.1329127192631
 42
1.0
 10
-8.51044663033301
 20
461.1329127192631
 42
1.0
  0
LWPOLYLINE
  5
402
330
A
100
AcDbEntity
  8
1
  6
Continuous
 62
     7
100
AcDbPolyline
 90
        2
 70
     1
 43
0.0
 10
-3.260446630333009
 20
455.3829127192631
 42
1.0
 10
-3.260446630333009
 20
466.8829127192632
 42
1.0
  0
LWPOLYLINE
  5
403
330
A
100
AcDbEntity
  8
1
  6
Continuous
 62
     7
100
AcDbPolyline
 90
        2
 70
     1
 43
0.0
 10
4.48955336966699
 20
461.1329127192631
 42
1.0
 10
-11.01044663033301
 20
461.1329127192631
 42
1.0
  0
LWPOLYLINE
  5
404
330
A
100
AcDbEntity
  8
1
  6
Continuous
 62
     7
100
AcDbPolyline
 90
        2
 70
     1
 43
0.0
 10
3.48955336966699
 20
461.1329127192631
 42
1.0
 10
-10.01044663033301
 20
461.1329127192631
 42
1.0
  0
ARC
  5
405
330
A
100
AcDbEntity
  8
1
  6
Continuous
 62
     7
100
AcDbCircle
 10
-3.260446630333009
 20
461.1329127192631
 30
0.0
 40
10.80000000000001
100
AcDbArc
 50
299.3892799478886
 51
240.6107200521113
  0
LINE
  5
409
330
A
100
AcDbEntity
  8
1
  6
Continuous
 62
   133
100
AcDbLine
 10
-3.880446630333009
 20
458.0329127192631
 30
0.0
 11
-4.29377996366634
 21
460.0995793859296
 31
0.0
  0
LINE
  5
40A
330
A
100
AcDbEntity
  8
1
  6
Continuous
 62
   133
100
AcDbLine
 10
-4.29377996366634
 20
460.0995793859296
 30
0.0
 11
-6.360446630333
 21
460.5129127192632
 31
0.0
  0
LINE
  5
40B
330
A
100
AcDbEntity
  8
1
  6
Continuous
 62
   133
100
AcDbLine
 10
-6.360446630333
 20
460.5129127192632
 30
0.0
 11
-6.360446630333
 21
461.7529127192631
 31
0.0
  0
LINE
  5
40C
330
A
100
AcDbEntity
  8
1
  6
Continuous
 62
   133
100
AcDbLine
 10
-6.360446630333
 20
461.7529127192631
 30
0.0
 11
-4.29377996366634
 21
462.1662460525963
 31
0.0
  0
LINE
  5
40D
330
A
100
AcDbEntity
  8
1
  6
Continuous
 62
   133
100
AcDbLine
 10
-4.29377996366634
 20
462.1662460525963
 30
0.0
 11
-3.880446630333009
 21
464.2329127192631
 31
0.0
  0
LINE
  5
40E
330
A
100
AcDbEntity
  8
1
  6
Continuous
 62
   133
100
AcDbLine
 10
-3.880446630333009
 20
464.2329127192631
 30
0.0
 11
-2.640446630333
 21
464.2329127192631
 31
0.0
  0
LINE
  5
40F
330
A
100
AcDbEntity
  8
1
  6
Continuous
 62
   133
100
AcDbLine
 10
-2.640446630333
 20
464.2329127192631
 30
0.0
 11
-2.22711329699968
 21
462.1662460525963
 31
0.0
  0
LINE
  5
410
330
A
100
AcDbEntity
  8
1
  6
Continuous
 62
   133
100
AcDbLine
 10
-2.22711329699968
 20
462.1662460525963
 30
0.0
 11
-0.16044663033301
 21
461.7529127192631
 31
0.0
  0
LINE
  5
411
330
A
100
AcDbEntity
  8
1
  6
Continuous
 62
   133
100
AcDbLine
 10
-0.16044663033301
 20
461.7529127192631
 30
0.0
 11
-0.16044663033301
 21
460.5129127192632
 31
0.0
  0
LINE
  5
412
330
A
100
AcDbEntity
  8
1
  6
Continuous
 62
   133
100
AcDbLine
 10
-0.16044663033301
 20
460.5129127192632
 30
0.0
 11
-2.22711329699968
 21
460.0995793859296
 31
0.0
  0
LINE
  5
413
330
A
100
AcDbEntity
  8
1
  6
Continuous
 62
   133
100
AcDbLine
 10
-2.22711329699968
 20
460.0995793859296
 30
0.0
 11
-2.640446630333
 21
458.0329127192631
 31
0.0
  0
LINE
  5
414
330
A
100
AcDbEntity
  8
1
  6
Continuous
 62
   133
100
AcDbLine
 10
-2.640446630333
 20
458.0329127192631
 30
0.0
 11
-3.880446630333009
 21
458.0329127192631
 31
0.0
  0
LINE
  5
415
330
A
100
AcDbEntity
  8
1
  6
Continuous
 62
     7
100
AcDbLine
 10
-8.560446630333
 20
435.8329127192631
 30
0.0
 11
2.039553369666979
 21
435.8329127192631
 31
0.0
  0
LINE
  5
416
330
A
100
AcDbEntity
  8
1
  6
Continuous
 62
     7
100
AcDbLine
 10
-8.560446630333
 20
435.1329127192632
 30
0.0
 11
-8.560446630333
 21
451.7228117633752
 31
0.0
  0
LINE
  5
417
330
A
100
AcDbEntity
  8
1
  6
Continuous
 62
     7
100
AcDbLine
 10
2.039553369666979
 20
451.7228117633752
 30
0.0
 11
2.039553369666979
 21
435.1329127192632
 31
0.0
  0
LINE
  5
418
330
A
100
AcDbEntity
  8
1
  6
Continuous
 62
     7
100
AcDbLine
 10
2.039553369666979
 20
435.1329127192632
 30
0.0
 11
-8.560446630333
 21
435.1329127192632
 31
0.0
  0
ARC
  5
42B
330
A
100
AcDbEntity
  8
1
  6
Continuous
 62
     7
100
AcDbCircle
 10
-17.26044663033301
 20
470.1329127192631
 30
0.0
 40
5.0
100
AcDbArc
 50
90.0
 51
180.0
  0
ARC
  5
42C
330
A
100
AcDbEntity
  8
1
  6
Continuous
 62
     7
100
AcDbCircle
 10
10.73955336966699
 20
470.1329127192631
 30
0.0
 40
5.0
100
AcDbArc
 50
0.0
 51
90.0
  0
ARC
  5
42D
330
A
100
AcDbEntity
  8
1
  6
Continuous
 62
     7
100
AcDbCircle
 10
-17.26044663033301
 20
470.1329127192631
 30
0.0
 40
6.0
100
AcDbArc
 50
90.0
 51
180.0
  0
ARC
  5
42E
330
A
100
AcDbEntity
  8
1
  6
Continuous
 62
     7
100
AcDbCircle
 10
10.73955336966699
 20
470.1329127192631
 30
0.0
 40
6.0
100
AcDbArc
 50
0.0
 51
90.0
  0
ARC
  5
42F
330
A
100
AcDbEntity
  8
1
  6
Continuous
 62
     7
100
AcDbCircle
 10
-22.26044663033301
 20
436.1329127192631
 30
0.0
 40
1.0
100
AcDbArc
 50
180.0
 51
270.0
  0
ARC
  5
430
330
A
100
AcDbEntity
  8
1
  6
Continuous
 62
     7
100
AcDbCircle
 10
15.73955336966699
 20
436.1329127192631
 30
0.0
 40
1.0
100
AcDbArc
 50
270.0
 51
0.0
  0
ARC
  5
443
330
A
100
AcDbEntity
  8
1
  6
Continuous
 62
     7
100
AcDbCircle
 10
-3.260446630333009
 20
461.1329127192631
 30
0.0
 40
10.90000000000007
100
AcDbArc
 50
299.6969774237641
 51
240.3030225762358
  0
ARC
  5
444
330
A
100
AcDbEntity
  8
1
  6
Continuous
 62
     7
100
AcDbCircle
 10
-3.260446630333009
 20
461.1329127192631
 30
0.0
 40
11.89999999999993
100
AcDbArc
 50
302.5350285076246
 51
237.4649714923755
  0
LWPOLYLINE
  5
445
330
A
100
AcDbEntity
  8
1
  6
Continuous
 62
     7
100
AcDbPolyline
 90
        2
 70
     1
 43
0.0
 10
-15.26044663033301
 20
447.1329127192631
 42
1.0
 10
-22.26044663033301
 20
447.1329127192631
 42
1.0
  0
LWPOLYLINE
  5
446
330
A
100
AcDbEntity
  8
1
  6
Continuous
 62
     7
100
AcDbPolyline
 90
        2
 70
     1
 43
0.0
 10
-16.76044663033301
 20
447.1329127192631
 42
1.0
 10
-20.76044663033301
 20
447.1329127192631
 42
1.0
  0
LWPOLYLINE
  5
447
330
A
100
AcDbEntity
  8
1
  6
Continuous
 62
     7
100
AcDbPolyline
 90
        2
 70
     1
 43
0.0
 10
15.73955336966699
 20
447.1329127192631
 42
1.0
 10
8.739553369666989
 20
447.1329127192631
 42
1.0
  0
LWPOLYLINE
  5
448
330
A
100
AcDbEntity
  8
1
  6
Continuous
 62
     7
100
AcDbPolyline
 90
        2
 70
     1
 43
0.0
 10
14.23955336966699
 20
447.1329127192631
 42
1.0
 10
10.23955336966699
 20
447.1329127192631
 42
1.0
  0
LINE
  5
46C
330
A
100
AcDbEntity
  8
1
  6
DOT_CENTER
 62
     2
100
AcDbLine
 10
116.7179880464224
 20
416.681242177192
 30
0.0
 11
116.7179880464224
 21
478.9413140809408
 31
0.0
  0
LINE
  5
46F
330
A
100
AcDbEntity
  8
1
  6
Continuous
 62
     7
100
AcDbLine
 10
120.7179880464224
 20
450.5664563596316
 30
0.0
 11
121.7179880464224
 21
451.1004653608167
 31
0.0
  0
LINE
  5
470
330
A
100
AcDbEntity
  8
1
  6
Continuous
 62
     7
100
AcDbLine
 10
101.7179880464224
 20
450.5664563596316
 30
0.0
 11
120.7179880464224
 21
450.5664563596316
 31
0.0
  0
LINE
  5
471
330
A
100
AcDbEntity
  8
1
  6
Continuous
 62
     7
100
AcDbLine
 10
120.7180263254744
 20
473.8579123843214
 30
0.0
 11
121.7179880464224
 21
472.8491627192632
 31
0.0
  0
LINE
  5
472
330
A
100
AcDbEntity
  8
1
  6
Continuous
 62
     7
100
AcDbLine
 10
120.7179880464224
 20
473.8579127192631
 30
0.0
 11
120.7180263254744
 21
473.8579123843214
 31
0.0
  0
LINE
  5
473
330
A
100
AcDbEntity
  8
1
  6
Continuous
 62
     7
100
AcDbLine
 10
120.7179880464224
 20
435.1329127192632
 30
0.0
 11
120.7179880464224
 21
473.8579127192631
 31
0.0
  0
LINE
  5
474
330
A
100
AcDbEntity
  8
1
  6
Continuous
 62
     7
100
AcDbLine
 10
121.7179880464224
 20
435.1329127192632
 30
0.0
 11
121.7179880464224
 21
472.8491627192632
 31
0.0
  0
LINE
  5
475
330
A
100
AcDbEntity
  8
1
  6
Continuous
 62
     7
100
AcDbLine
 10
101.7179880464224
 20
474.0329127192631
 30
0.0
 11
120.7179880464224
 21
473.8579127192631
 31
0.0
  0
LINE
  5
476
330
A
100
AcDbEntity
  8
1
  6
Continuous
 62
     7
100
AcDbLine
 10
2.139553369666999
 20
435.1329127192632
 30
0.0
 11
3.139553369667
 21
436.1329127192631
 31
0.0
  0
LINE
  5
477
330
A
100
AcDbEntity
  8
1
  6
Continuous
 62
     7
100
AcDbLine
 10
3.139553369667
 20
451.1004653608167
 30
0.0
 11
2.139553369666999
 21
451.6645443276128
 31
0.0
  0
LINE
  5
478
330
A
100
AcDbEntity
  8
1
  6
Continuous
 62
     7
100
AcDbLine
 10
-9.660446630333009
 20
451.1004653608167
 30
0.0
 11
-8.660446630333009
 21
451.6645443276128
 31
0.0
  0
LINE
  5
479
330
A
100
AcDbEntity
  8
1
  6
Continuous
 62
     7
100
AcDbLine
 10
-8.660446630333009
 20
435.1329127192632
 30
0.0
 11
-9.660446630333009
 21
436.1329127192631
 31
0.0
  0
LINE
  5
47A
330
A
100
AcDbEntity
  8
1
  6
Continuous
 62
     7
100
AcDbLine
 10
99.7179880464224
 20
435.1329127192632
 30
0.0
 11
99.7179880464224
 21
476.1329127192631
 31
0.0
  0
LINE
  5
47B
330
A
100
AcDbEntity
  8
1
  6
Continuous
 62
     7
100
AcDbLine
 10
98.7179880464224
 20
436.1329127192631
 30
0.0
 11
99.7179880464224
 21
435.1329127192632
 31
0.0
  0
LINE
  5
47C
330
A
100
AcDbEntity
  8
1
  6
Continuous
 62
     7
100
AcDbLine
 10
98.7179880464224
 20
475.1329127192631
 30
0.0
 11
99.7179880464224
 21
476.1329127192631
 31
0.0
  0
LINE
  5
47D
330
A
100
AcDbEntity
  8
1
  6
Continuous
 62
     7
100
AcDbLine
 10
98.7179880464224
 20
475.1329127192631
 30
0.0
 11
98.7179880464224
 21
436.1329127192631
 31
0.0
  0
LINE
  5
47E
330
A
100
AcDbEntity
  8
1
  6
Continuous
 62
     7
100
AcDbLine
 10
101.7179880464224
 20
476.1329127192631
 30
0.0
 11
99.7179880464224
 21
476.1329127192631
 31
0.0
  0
LINE
  5
47F
330
A
100
AcDbEntity
  8
1
  6
Continuous
 62
     7
100
AcDbLine
 10
101.7179880464224
 20
435.1329127192632
 30
0.0
 11
101.7179880464224
 21
476.1329127192631
 31
0.0
  0
LINE
  5
480
330
A
100
AcDbEntity
  8
1
  6
Continuous
 62
     7
100
AcDbLine
 10
99.7179880464224
 20
435.1329127192632
 30
0.0
 11
121.7179880464224
 21
435.1329127192632
 31
0.0
  0
LINE
  5
481
330
A
100
AcDbEntity
  8
1
  6
DOT_CENTER
 62
     2
100
AcDbLine
 10
-17.16044663033301
 20
461.1329127192631
 30
0.0
 11
10.639553369667
 21
461.1329127192631
 31
0.0
  0
LINE
  5
482
330
A
100
AcDbEntity
  8
1
  6
DOT_CENTER
 62
     2
100
AcDbLine
 10
-3.260446630333009
 20
478.9413140809408
 30
0.0
 11
-3.260446630333009
 21
416.681242177192
 31
0.0
  0
LINE
  5
483
330
A
100
AcDbEntity
  8
1
  6
Continuous
 62
     7
100
AcDbLine
 10
-8.660446630333009
 20
451.6645443276128
 30
0.0
 11
-8.660446630333009
 21
435.1329127192632
 31
0.0
  0
LINE
  5
484
330
A
100
AcDbEntity
  8
1
  6
Continuous
 62
     7
100
AcDbLine
 10
-8.660446630333009
 20
435.1329127192632
 30
0.0
 11
-22.26044663033301
 21
435.1329127192632
 31
0.0
  0
LINE
  5
485
330
A
100
AcDbEntity
  8
1
  6
Continuous
 62
     7
100
AcDbLine
 10
-23.26044663033302
 20
436.1329127192631
 30
0.0
 11
-23.26044663033302
 21
470.1329127192631
 31
0.0
  0
LINE
  5
486
330
A
100
AcDbEntity
  8
1
  6
Continuous
 62
     7
100
AcDbLine
 10
-17.26044663033301
 20
476.1329127192631
 30
0.0
 11
10.73955336966699
 21
476.1329127192631
 31
0.0
  0
LINE
  5
487
330
A
100
AcDbEntity
  8
1
  6
Continuous
 62
     7
100
AcDbLine
 10
16.73955336966699
 20
470.1329127192631
 30
0.0
 11
16.73955336966699
 21
436.1329127192631
 31
0.0
  0
LINE
  5
488
330
A
100
AcDbEntity
  8
1
  6
Continuous
 62
     7
100
AcDbLine
 10
15.73955336966699
 20
435.1329127192632
 30
0.0
 11
2.139553369666999
 21
435.1329127192632
 31
0.0
  0
LINE
  5
489
330
A
100
AcDbEntity
  8
1
  6
Continuous
 62
     7
100
AcDbLine
 10
2.139553369666999
 20
435.1329127192632
 30
0.0
 11
2.139553369666999
 21
451.6645443276128
 31
0.0
  0
LINE
  5
48A
330
A
100
AcDbEntity
  8
1
  6
Continuous
 62
     7
100
AcDbLine
 10
-9.660446630333009
 20
451.1004653608167
 30
0.0
 11
-9.660446630333009
 21
436.1329127192631
 31
0.0
  0
LINE
  5
48B
330
A
100
AcDbEntity
  8
1
  6
Continuous
 62
     7
100
AcDbLine
 10
-9.660446630333009
 20
436.1329127192631
 30
0.0
 11
-22.26044663033301
 21
436.1329127192631
 31
0.0
  0
LINE
  5
48C
330
A
100
AcDbEntity
  8
1
  6
Continuous
 62
     7
100
AcDbLine
 10
-22.26044663033301
 20
436.1329127192631
 30
0.0
 11
-22.26044663033301
 21
470.1329127192631
 31
0.0
  0
LINE
  5
48D
330
A
100
AcDbEntity
  8
1
  6
Continuous
 62
     7
100
AcDbLine
 10
-17.26044663033301
 20
475.1329127192631
 30
0.0
 11
10.73955336966699
 21
475.1329127192631
 31
0.0
  0
LINE
  5
48E
330
A
100
AcDbEntity
  8
1
  6
Continuous
 62
     7
100
AcDbLine
 10
15.73955336966699
 20
470.1329127192631
 30
0.0
 11
15.73955336966699
 21
436.1329127192631
 31
0.0
  0
LINE
  5
48F
330
A
100
AcDbEntity
  8
1
  6
Continuous
 62
     7
100
AcDbLine
 10
15.73955336966699
 20
436.1329127192631
 30
0.0
 11
3.139553369667
 21
436.1329127192631
 31
0.0
  0
LINE
  5
490
330
A
100
AcDbEntity
  8
1
  6
Continuous
 62
     7
100
AcDbLine
 10
3.139553369667
 20
436.1329127192631
 30
0.0
 11
3.139553369667
 21
451.1004653608167
 31
0.0
  0
LINE
  5
491
330
A
100
AcDbEntity
  8
1
  6
DOT_CENTER
 62
     2
100
AcDbLine
 10
-18.76044663033301
 20
452.6329127192632
 30
0.0
 11
-18.76044663033301
 21
441.6329127192631
 31
0.0
  0
LINE
  5
492
330
A
100
AcDbEntity
  8
1
  6
DOT_CENTER
 62
     2
100
AcDbLine
 10
-24.26044663033302
 20
447.1329127192631
 30
0.0
 11
-13.26044663033301
 21
447.1329127192631
 31
0.0
  0
LINE
  5
493
330
A
100
AcDbEntity
  8
1
  6
DOT_CENTER
 62
     2
100
AcDbLine
 10
12.23955336966699
 20
452.6329127192632
 30
0.0
 11
12.23955336966699
 21
441.6329127192631
 31
0.0
  0
LINE
  5
494
330
A
100
AcDbEntity
  8
1
  6
DOT_CENTER
 62
     2
100
AcDbLine
 10
6.73955336966699
 20
447.1329127192631
 30
0.0
 11
17.73955336966699
 21
447.1329127192631
 31
0.0
  0
LINE
  5
495
330
A
100
AcDbEntity
  8
1
  6
Continuous
 62
     7
100
AcDbLine
 10
-5.760446630333009
 20
426.181242177192
 30
0.0
 11
-5.760446630333009
 21
435.1329127192632
 31
0.0
  0
LINE
  5
496
330
A
100
AcDbEntity
  8
1
  6
Continuous
 62
     7
100
AcDbLine
 10
-0.76044663033301
 20
426.181242177192
 30
0.0
 11
-5.760446630333009
 21
426.181242177192
 31
0.0
  0
LINE
  5
497
330
A
100
AcDbEntity
  8
1
  6
Continuous
 62
     7
100
AcDbLine
 10
-0.76044663033301
 20
435.1329127192632
 30
0.0
 11
-0.76044663033301
 21
426.181242177192
 31
0.0
  0
LINE
  5
498
330
A
100
AcDbEntity
  8
1
  6
Continuous
 62
     7
100
AcDbLine
 10
119.2179880464224
 20
435.1329127192632
 30
0.0
 11
119.2179880464224
 21
426.181242177192
 31
0.0
  0
LINE
  5
499
330
A
100
AcDbEntity
  8
1
  6
Continuous
 62
     7
100
AcDbLine
 10
114.2179880464224
 20
426.181242177192
 30
0.0
 11
114.2179880464224
 21
435.1329127192632
 31
0.0
  0
LINE
  5
49A
330
A
100
AcDbEntity
  8
1
  6
Continuous
 62
     7
100
AcDbLine
 10
119.2179880464224
 20
426.181242177192
 30
0.0
 11
114.2179880464224
 21
426.181242177192
 31
0.0
  0
ARC
  5
49E
330
A
100
AcDbEntity
  8
1
  6
Continuous
 62
     7
100
AcDbCircle
 10
4.23955336966699
 20
419.7782076886523
 30
0.0
 40
0.5000000000000301
100
AcDbArc
 50
299.9999999999959
 51
0.0
  0
ARC
  5
49F
330
A
100
AcDbEntity
  8
1
  6
Continuous
 62
     7
100
AcDbCircle
 10
-10.76044663033301
 20
419.7782076886523
 30
0.0
 40
0.5
100
AcDbArc
 50
180.0
 51
240.0000000000048
  0
ARC
  5
4A0
330
A
100
AcDbEntity
  8
1
  6
Continuous
 62
     7
100
AcDbCircle
 10
124.2179880464224
 20
419.7782076886523
 30
0.0
 40
0.50000000000004
100
AcDbArc
 50
299.9999999999973
 51
0.0
  0
ARC
  5
4A1
330
A
100
AcDbEntity
  8
1
  6
Continuous
 62
     7
100
AcDbCircle
 10
109.2179880464224
 20
419.7782076886523
 30
0.0
 40
0.5
100
AcDbArc
 50
180.0
 51
240.0000000000027
  0
LINE
  5
4A4
330
A
100
AcDbEntity
  8
1
  6
Continuous
 62
     7
100
AcDbLine
 10
4.73955336966699
 20
425.681242177192
 30
0.0
 11
-11.26044663033301
 21
425.681242177192
 31
0.0
  0
LINE
  5
4A5
330
A
100
AcDbEntity
  8
1
  6
Continuous
 62
     7
100
AcDbLine
 10
4.73955336966699
 20
425.681242177192
 30
0.0
 11
4.73955336966699
 21
419.7782076886523
 31
0.0
  0
LINE
  5
4A6
330
A
100
AcDbEntity
  8
1
  6
Continuous
 62
     7
100
AcDbLine
 10
4.48955336966698
 20
419.34519498676
 30
0.0
 11
3.339553369666989
 21
418.681242177192
 31
0.0
  0
LINE
  5
4A7
330
A
100
AcDbEntity
  8
1
  6
Continuous
 62
     7
100
AcDbLine
 10
3.339553369666989
 20
418.681242177192
 30
0.0
 11
-9.860446630332999
 21
418.681242177192
 31
0.0
  0
LINE
  5
4A8
330
A
100
AcDbEntity
  8
1
  6
Continuous
 62
     7
100
AcDbLine
 10
-9.860446630332999
 20
418.681242177192
 30
0.0
 11
-11.01044663033299
 21
419.34519498676
 31
0.0
  0
LINE
  5
4A9
330
A
100
AcDbEntity
  8
1
  6
Continuous
 62
     7
100
AcDbLine
 10
-11.26044663033301
 20
419.7782076886523
 30
0.0
 11
-11.26044663033301
 21
425.681242177192
 31
0.0
  0
LINE
  5
4AA
330
A
100
AcDbEntity
  8
1
  6
Continuous
 62
     7
100
AcDbLine
 10
124.7179880464224
 20
425.681242177192
 30
0.0
 11
108.7179880464224
 21
425.681242177192
 31
0.0
  0
LINE
  5
4AB
330
A
100
AcDbEntity
  8
1
  6
Continuous
 62
     7
100
AcDbLine
 10
124.7179880464224
 20
425.681242177192
 30
0.0
 11
124.7179880464224
 21
419.7782076886523
 31
0.0
  0
LINE
  5
4AC
330
A
100
AcDbEntity
  8
1
  6
Continuous
 62
     7
100
AcDbLine
 10
124.4679880464224
 20
419.34519498676
 30
0.0
 11
123.3179880464224
 21
418.681242177192
 31
0.0
  0
LINE
  5
4AD
330
A
100
AcDbEntity
  8
1
  6
Continuous
 62
     7
100
AcDbLine
 10
123.3179880464224
 20
418.681242177192
 30
0.0
 11
110.1179880464224
 21
418.681242177192
 31
0.0
  0
LINE
  5
4AE
330
A
100
AcDbEntity
  8
1
  6
Continuous
 62
     7
100
AcDbLine
 10
110.1179880464224
 20
418.681242177192
 30
0.0
 11
108.9679880464224
 21
419.34519498676
 31
0.0
  0
LINE
  5
4AF
330
A
100
AcDbEntity
  8
1
  6
Continuous
 62
     7
100
AcDbLine
 10
108.7179880464224
 20
419.7782076886523
 30
0.0
 11
108.7179880464224
 21
425.681242177192
 31
0.0
  0
LINE
  5
4B6
330
A
100
AcDbEntity
  8
1
  6
Continuous
 62
     7
100
AcDbLine
 10
-6.410446630332979
 20
426.181242177192
 30
0.0
 11
-6.410446630332979
 21
425.681242177192
 31
0.0
  0
LINE
  5
4B7
330
A
100
AcDbEntity
  8
1
  6
Continuous
 62
     7
100
AcDbLine
 10
-0.11044663033303
 20
425.681242177192
 30
0.0
 11
-0.11044663033303
 21
426.181242177192
 31
0.0
  0
LINE
  5
4B8
330
A
100
AcDbEntity
  8
1
  6
Continuous
 62
     7
100
AcDbLine
 10
-6.410446630332979
 20
425.681242177192
 30
0.0
 11
-0.11044663033303
 21
425.681242177192
 31
0.0
  0
LINE
  5
4B9
330
A
100
AcDbEntity
  8
1
  6
Continuous
 62
     7
100
AcDbLine
 10
-0.11044663033303
 20
426.181242177192
 30
0.0
 11
-6.410446630332979
 21
426.181242177192
 31
0.0
  0
LINE
  5
4BA
330
A
100
AcDbEntity
  8
1
  6
Continuous
 62
     7
100
AcDbLine
 10
113.5679880464224
 20
426.181242177192
 30
0.0
 11
113.5679880464224
 21
425.681242177192
 31
0.0
  0
LINE
  5
4BB
330
A
100
AcDbEntity
  8
1
  6
Continuous
 62
     7
100
AcDbLine
 10
119.8679880464224
 20
425.681242177192
 30
0.0
 11
119.8679880464224
 21
426.181242177192
 31
0.0
  0
LINE
  5
4BC
330
A
100
AcDbEntity
  8
1
  6
Continuous
 62
     7
100
AcDbLine
 10
113.5679880464224
 20
425.681242177192
 30
0.0
 11
119.8679880464224
 21
425.681242177192
 31
0.0
  0
LINE
  5
4BD
330
A
100
AcDbEntity
  8
1
  6
Continuous
 62
     7
100
AcDbLine
 10
119.8679880464224
 20
426.181242177192
 30
0.0
 11
113.5679880464224
 21
426.181242177192
 31
0.0
  0
ENDSEC
  0
SECTION
  2
OBJECTS
  0
DICTIONARY
  5
19
330
0
100
AcDbDictionary
281
     1
  3
ACAD_CIP_PREVIOUS_PRODUCT_INFO
350
3DA
  3
ACAD_COLOR
350
3BC
  3
ACAD_GROUP
350
1A
  3
ACAD_LAYOUT
350
3D3
  3
ACAD_MATERIAL
350
38A
  3
ACAD_MLEADERSTYLE
350
3D1
  3
ACAD_MLINESTYLE
350
1B
  3
ACAD_PLOTSETTINGS
350
3D4
  3
ACAD_PLOTSTYLENAME
350
388
  3
ACAD_SCALELIST
350
3BF
  3
ACAD_TABLESTYLE
350
3BD
  3
ACAD_VISUALSTYLE
350
3A3
  3
ACDB_RECOMPOSE_DATA
350
4D5
  3
AcDbVariableDictionary
350
4CA
  3
ASE_INDEX_DICTIONARY
350
4C7
  3
DWGPROPS
350
4D6
  0
DICTIONARY
  5
4C2
330
14
100
AcDbDictionary
280
     1
281
     1
  3
ADSK_XREC_LAYER_RECONCILED
360
4C3
  0
DICTIONARY
  5
4C4
330
24
100
AcDbDictionary
280
     1
281
     1
  3
ADSK_XREC_LAYER_RECONCILED
360
4C5
  0
DICTIONARY
  5
3E5
330
A
100
AcDbDictionary
280
     1
281
     1
  3
ACAD_SORTENTS
360
3E6
  0
DICTIONARY
  5
52F
330
1BC
100
AcDbDictionary
280
     1
281
     1
  3
ACAD_MTEXT_RT
360
530
  0
DICTIONARY
  5
52D
330
1B9
100
AcDbDictionary
280
     1
281
     1
  3
ACAD_MTEXT_RT
360
52E
  0
DICTIONARY
  5
52B
330
1B8
100
AcDbDictionary
280
     1
281
     1
  3
ACAD_MTEXT_RT
360
52C
  0
DICTIONARY
  5
529
330
1B7
100
AcDbDictionary
280
     1
281
     1
  3
ACAD_MTEXT_RT
360
52A
  0
DICTIONARY
  5
527
330
1B6
100
AcDbDictionary
280
     1
281
     1
  3
ACAD_MTEXT_RT
360
528
  0
DICTIONARY
  5
525
330
1B5
100
AcDbDictionary
280
     1
281
     1
  3
ACAD_MTEXT_RT
360
526
  0
DICTIONARY
  5
523
330
1B4
100
AcDbDictionary
280
     1
281
     1
  3
ACAD_MTEXT_RT
360
524
  0
DICTIONARY
  5
521
330
1B3
100
AcDbDictionary
280
     1
281
     1
  3
ACAD_MTEXT_RT
360
522
  0
DICTIONARY
  5
51F
330
1B2
100
AcDbDictionary
280
     1
281
     1
  3
ACAD_MTEXT_RT
360
520
  0
DICTIONARY
  5
51D
330
1B1
100
AcDbDictionary
280
     1
281
     1
  3
ACAD_MTEXT_RT
360
51E
  0
DICTIONARY
  5
51B
330
1B0
100
AcDbDictionary
280
     1
281
     1
  3
ACAD_MTEXT_RT
360
51C
  0
DICTIONARY
  5
519
330
1AF
100
AcDbDictionary
280
     1
281
     1
  3
ACAD_MTEXT_RT
360
51A
  0
DICTIONARY
  5
517
330
1AE
100
AcDbDictionary
280
     1
281
     1
  3
ACAD_MTEXT_RT
360
518
  0
DICTIONARY
  5
515
330
1AD
100
AcDbDictionary
280
     1
281
     1
  3
ACAD_MTEXT_RT
360
516
  0
DICTIONARY
  5
513
330
1AC
100
AcDbDictionary
280
     1
281
     1
  3
ACAD_MTEXT_RT
360
514
  0
DICTIONARY
  5
511
330
1AB
100
AcDbDictionary
280
     1
281
     1
  3
ACAD_MTEXT_RT
360
512
  0
DICTIONARY
  5
50F
330
1AA
100
AcDbDictionary
280
     1
281
     1
  3
ACAD_MTEXT_RT
360
510
  0
DICTIONARY
  5
50D
330
1A5
100
AcDbDictionary
280
     1
281
     1
  3
ACAD_MTEXT_RT
360
50E
  0
DICTIONARY
  5
50B
330
1A2
100
AcDbDictionary
280
     1
281
     1
  3
ACAD_MTEXT_RT
360
50C
  0
DICTIONARY
  5
509
330
1A1
100
AcDbDictionary
280
     1
281
     1
  3
ACAD_MTEXT_RT
360
50A
  0
DICTIONARY
  5
507
330
19E
100
AcDbDictionary
280
     1
281
     1
  3
ACAD_MTEXT_RT
360
508
  0
DICTIONARY
  5
505
330
19C
100
AcDbDictionary
280
     1
281
     1
  3
ACAD_MTEXT_RT
360
506
  0
DICTIONARY
  5
503
330
19B
100
AcDbDictionary
280
     1
281
     1
  3
ACAD_MTEXT_RT
360
504
  0
DICTIONARY
  5
501
330
19A
100
AcDbDictionary
280
     1
281
     1
  3
ACAD_MTEXT_RT
360
502
  0
DICTIONARY
  5
4FF
330
195
100
AcDbDictionary
280
     1
281
     1
  3
ACAD_MTEXT_RT
360
500
  0
DICTIONARY
  5
4FD
330
194
100
AcDbDictionary
280
     1
281
     1
  3
ACAD_MTEXT_RT
360
4FE
  0
DICTIONARY
  5
4FB
330
18E
100
AcDbDictionary
280
     1
281
     1
  3
ACAD_MTEXT_RT
360
4FC
  0
DICTIONARY
  5
4F9
330
18D
100
AcDbDictionary
280
     1
281
     1
  3
ACAD_MTEXT_RT
360
4FA
  0
DICTIONARY
  5
4F7
330
18B
100
AcDbDictionary
280
     1
281
     1
  3
ACAD_MTEXT_RT
360
4F8
  0
DICTIONARY
  5
4F5
330
18A
100
AcDbDictionary
280
     1
281
     1
  3
ACAD_MTEXT_RT
360
4F6
  0
DICTIONARY
  5
4F3
330
189
100
AcDbDictionary
280
     1
281
     1
  3
ACAD_MTEXT_RT
360
4F4
  0
DICTIONARY
  5
4F1
330
187
100
AcDbDictionary
280
     1
281
     1
  3
ACAD_MTEXT_RT
360
4F2
  0
DICTIONARY
  5
4EF
330
186
100
AcDbDictionary
280
     1
281
     1
  3
ACAD_MTEXT_RT
360
4F0
  0
DICTIONARY
  5
4ED
330
184
100
AcDbDictionary
280
     1
281
     1
  3
ACAD_MTEXT_RT
360
4EE
  0
DICTIONARY
  5
4EB
330
182
100
AcDbDictionary
280
     1
281
     1
  3
ACAD_MTEXT_RT
360
4EC
  0
DICTIONARY
  5
4E9
330
17F
100
AcDbDictionary
280
     1
281
     1
  3
ACAD_MTEXT_RT
360
4EA
  0
DICTIONARY
  5
4E7
330
17E
100
AcDbDictionary
280
     1
281
     1
  3
ACAD_MTEXT_RT
360
4E8
  0
DICTIONARY
  5
4E5
330
17D
100
AcDbDictionary
280
     1
281
     1
  3
ACAD_MTEXT_RT
360
4E6
  0
DICTIONARY
  5
4E3
330
17B
100
AcDbDictionary
280
     1
281
     1
  3
ACAD_MTEXT_RT
360
4E4
  0
DICTIONARY
  5
4E1
330
17A
100
AcDbDictionary
280
     1
281
     1
  3
ACAD_MTEXT_RT
360
4E2
  0
DICTIONARY
  5
4DF
330
178
100
AcDbDictionary
280
     1
281
     1
  3
ACAD_MTEXT_RT
360
4E0
  0
DICTIONARY
  5
4DD
330
177
100
AcDbDictionary
280
     1
281
     1
  3
ACAD_MTEXT_RT
360
4DE
  0
DICTIONARY
  5
4DB
330
175
100
AcDbDictionary
280
     1
281
     1
  3
ACAD_MTEXT_RT
360
4DC
  0
DICTIONARY
  5
4D9
330
174
100
AcDbDictionary
280
     1
281
     1
  3
ACAD_MTEXT_RT
360
4DA
  0
DICTIONARY
  5
4D7
330
172
100
AcDbDictionary
280
     1
281
     1
  3
ACAD_MTEXT_RT
360
4D8
  0
DICTIONARY
  5
531
330
376
100
AcDbDictionary
280
     1
281
     1
  3
ACAD_MTEXT_RT
360
532
  0
XRECORD
  5
3DA
102
{ACAD_REACTORS
330
19
102
}
330
19
100
AcDbXrecord
280
     1
300
ACD
300
2012
300
ACD_F_S
  0
DICTIONARY
  5
3BC
102
{ACAD_REACTORS
330
19
102
}
330
19
100
AcDbDictionary
281
     1
  0
DICTIONARY
  5
1A
102
{ACAD_REACTORS
330
19
102
}
330
19
100
AcDbDictionary
281
     1
  0
DICTIONARY
  5
3D3
102
{ACAD_REACTORS
330
19
102
}
330
19
100
AcDbDictionary
281
     1
  3
Model
350
3D5
  3
レイアウト1
350
3D6
  0
DICTIONARY
  5
38A
102
{ACAD_REACTORS
330
19
102
}
330
19
100
AcDbDictionary
281
     1
  3
ByBlock
350
393
  3
ByLayer
350
38B
  3
Global
350
39B
  0
DICTIONARY
  5
3D1
102
{ACAD_REACTORS
330
19
102
}
330
19
100
AcDbDictionary
281
     1
  3
Standard
350
3D2
  0
DICTIONARY
  5
1B
102
{ACAD_REACTORS
330
19
102
}
330
19
100
AcDbDictionary
281
     1
  3
STANDARD
350
1C
  0
DICTIONARY
  5
3D4
102
{ACAD_REACTORS
330
19
102
}
330
19
100
AcDbDictionary
281
     1
  0
ACDBDICTIONARYWDFLT
  5
388
102
{ACAD_REACTORS
330
19
102
}
330
19
100
AcDbDictionary
281
     1
  3
Normal
350
389
100
AcDbDictionaryWithDefault
340
389
  0
DICTIONARY
  5
3BF
102
{ACAD_REACTORS
330
19
102
}
330
19
100
AcDbDictionary
281
     1
  3
A0
350
3C0
  3
A1
350
3C1
  3
A2
350
3C2
  3
A3
350
3C3
  3
A4
350
3C4
  3
A5
350
3C5
  3
A6
350
3C6
  3
A7
350
3C7
  3
A8
350
3C8
  3
A9
350
3C9
  3
B0
350
3CA
  3
B1
350
3CB
  3
B2
350
3CC
  3
B3
350
3CD
  3
B4
350
3CE
  3
B5
350
3CF
  3
B6
350
3D0
  0
DICTIONARY
  5
3BD
102
{ACAD_REACTORS
330
19
102
}
330
19
100
AcDbDictionary
281
     1
  3
Standard
350
3BE
  0
DICTIONARY
  5
3A3
102
{ACAD_REACTORS
330
19
102
}
330
19
100
AcDbDictionary
281
     1
  3
2dWireframe
350
3A9
  3
Basic
350
3A8
  3
Brighten
350
3AF
  3
ColorChange
350
3B3
  3
Conceptual
350
3AC
  3
Dim
350
3AE
  3
EdgeColorOff
350
3BB
  3
Facepattern
350
3B2
  3
Flat
350
3A4
  3
FlatWithEdges
350
3A5
  3
Gouraud
350
3A6
  3
GouraudWithEdges
350
3A7
  3
Hidden
350
3AB
  3
JitterOff
350
3B9
  3
Linepattern
350
3B1
  3
OverhangOff
350
3BA
  3
Realistic
350
3AD
  3
Shaded
350
3B8
  3
Shaded with edges
350
3B7
  3
Shades of Gray
350
3B4
  3
Sketchy
350
3B5
  3
Thicken
350
3B0
  3
Wireframe
350
3AA
  3
X-Ray
350
3B6
  0
XRECORD
  5
4D5
102
{ACAD_REACTORS
330
19
102
}
330
19
100
AcDbXrecord
280
     1
 90
        1
330
3BE
  0
DICTIONARY
  5
4CA
102
{ACAD_REACTORS
330
19
102
}
330
19
100
AcDbDictionary
281
     1
  3
CANNOSCALE
350
4CD
  3
CMLEADERSTYLE
350
4CC
  3
CTABLESTYLE
350
4CB
  3
DIMASSOC
350
4D0
  3
INDEXCTL
350
4CF
  3
SORTENTS
350
4CE
  3
XCLIPFRAME
350
4D1
  0
DICTIONARY
  5
4C7
102
{ACAD_REACTORS
330
19
102
}
330
19
100
AcDbDictionary
281
     1
  3
ASEBlockHierarchyIndexRecord
350
4C9
1001
DCO15
1040
1882590919.234
  0
XRECORD
  5
4D6
102
{ACAD_REACTORS
330
19
102
}
330
19
100
AcDbXrecord
280
     1
  1
DWGPROPS COOKIE
  2

  3

  4

  6

  7

  8
0035sekine
  9

300
=
301
=
302
=
303
=
304
=
305
=
306
=
307
=
308
=
309
=
 40
0.001679375
 41
2305814.417110764
 42
2457592.458602245
  1

 90
        0
  0
XRECORD
  5
4C3
102
{ACAD_REACTORS
330
4C2
102
}
330
4C2
100
AcDbXrecord
280
     1
290
     1
  0
XRECORD
  5
4C5
102
{ACAD_REACTORS
330
4C4
102
}
330
4C4
100
AcDbXrecord
280
     1
290
     1
  0
SORTENTSTABLE
  5
3E6
102
{ACAD_REACTORS
330
3E5
102
}
330
3E5
100
AcDbSortentsTable
330
A
331
418
  5
471
331
489
  5
44E
331
4AB
  5
282
331
478
  5
43D
331
49A
  5
30C
331
416
  5
46F
331
487
  5
44C
331
405
  5
45E
331
476
  5
43B
331
498
  5
2F2
331
4A9
  5
280
331
414
  5
46D
331
485
  5
44A
331
4A7
  5
27E
331
403
  5
45C
331
4BD
  5
26E
331
474
  5
439
331
447
  5
40C
331
496
  5
2D6
331
412
  5
46B
331
483
  5
448
331
4A5
  5
27C
331
401
  5
45A
331
4BB
  5
26C
331
472
  5
437
331
494
  5
459
331
445
  5
40A
331
4B6
  5
3B
331
410
  5
469
331
481
  5
446
331
470
  5
435
331
4B9
  5
26A
331
492
  5
457
331
443
  5
408
331
430
  5
3F5
331
4A1
  5
277
331
490
  5
455
331
40E
  5
467
331
47F
  5
444
331
46C
  5
431
331
48E
  5
453
331
40C
  5
465
331
47D
  5
442
331
49F
  5
275
331
42E
  5
3F3
331
48C
  5
451
331
40A
  5
463
331
47B
  5
440
331
4AE
  5
285
331
42C
  5
3F1
331
48A
  5
44F
331
4AC
  5
283
331
479
  5
43E
331
417
  5
470
331
488
  5
44D
331
4AA
  5
281
331
477
  5
43C
331
499
  5
2FF
331
415
  5
46E
331
486
  5
44B
331
4A8
  5
27F
331
404
  5
45D
331
475
  5
43A
331
448
  5
40D
331
497
  5
2E5
331
413
  5
46C
331
4A6
  5
27D
331
402
  5
45B
331
4BC
  5
26D
331
473
  5
438
331
446
  5
40B
331
495
  5
2C7
331
4B7
  5
268
331
484
  5
449
331
411
  5
46A
331
482
  5
447
331
4A4
  5
27B
331
493
  5
458
331
471
  5
436
331
4BA
  5
26B
331
444
  5
409
331
480
  5
445
331
4B8
  5
269
331
46F
  5
434
331
491
  5
456
331
40F
  5
468
331
4A0
  5
276
331
48F
  5
454
331
40D
  5
466
331
47E
  5
443
331
42F
  5
3F4
331
48D
  5
452
331
4AF
  5
286
331
40B
  5
464
331
47C
  5
441
331
49E
  5
274
331
42D
  5
3F2
331
48B
  5
450
331
409
  5
462
331
4AD
  5
284
331
42B
  5
3F0
331
47A
  5
43F
  0
XRECORD
  5
530
102
{ACAD_REACTORS
330
52F
102
}
330
52F
100
AcDbXrecord
280
     1
 40
6388.0
  1
\U+0081\U+00CF
  0
XRECORD
  5
52E
102
{ACAD_REACTORS
330
52D
102
}
330
52D
100
AcDbXrecord
280
     1
 40
274718.0
  1
\U+201C\U+0152\U+2039\U+20AC\U+201Cs\U+2018\U+00F0\U+201C\U+0152\U+2039\U+00CC\U+201C*\U+2019J
  0
XRECORD
  5
52C
102
{ACAD_REACTORS
330
52B
102
}
330
52B
100
AcDbXrecord
280
     1
 40
15843.0
  1
\U+00B2{\U+017D\U+00C5
  0
XRECORD
  5
52A
102
{ACAD_REACTORS
330
529
102
}
330
529
100
AcDbXrecord
280
     1
 40
391180.0
  1
\U+008D\U+201A\U+2039\U+00C7\U+2039\U+00C1\U+2022\U+00B4\U+0160\U+201D\U+017D\U+00DB\U+2030\U+00FF\U+017D\U+00C5
  0
XRECORD
  5
528
102
{ACAD_REACTORS
330
527
102
}
330
527
100
AcDbXrecord
280
     1
 40
16619.0
  1
\U+017D\U+00D6\U+201Cx
  0
XRECORD
  5
526
102
{ACAD_REACTORS
330
525
102
}
330
525
100
AcDbXrecord
280
     1
 40
17643.0
  1
\U+2019S  \U+201C\U+00B2
  0
XRECORD
  5
524
102
{ACAD_REACTORS
330
523
102
}
330
523
100
AcDbXrecord
280
     1
 40
18174.0
  1
\U+0152\U+0081  \U+0090}
  0
XRECORD
  5
522
102
{ACAD_REACTORS
330
521
102
}
330
521
100
AcDbXrecord
280
     1
 40
17447.0
  1
\U+008F\U+00B0  \U+201DF
  0
XRECORD
  5
520
102
{ACAD_REACTORS
330
51F
102
}
330
51F
100
AcDbXrecord
280
     1
 40
18923.0
  1
\U+2039L   \U+017D\U+00B2
  0
XRECORD
  5
51E
102
{ACAD_REACTORS
330
51D
102
}
330
51D
100
AcDbXrecord
280
     1
 40
53004.0
  1
\U+017Dd   \U+008F\U+00D0   \U+201A\U+00AF
  0
XRECORD
  5
51C
102
{ACAD_REACTORS
330
51B
102
}
330
51B
100
AcDbXrecord
280
     1
 40
13191.0
  1
\U+0090\U+201D %%d%%d
  0
XRECORD
  5
51A
102
{ACAD_REACTORS
330
519
102
}
330
519
100
AcDbXrecord
280
     1
 40
29091.0
  1
\U+008D\U+00DF   \U+017D\U+00A2
  0
XRECORD
  5
518
102
{ACAD_REACTORS
330
517
102
}
330
517
100
AcDbXrecord
280
     1
 40
25568.0
  1
\U+2022i        \U+00B2\U+00A5
  0
XRECORD
  5
516
102
{ACAD_REACTORS
330
515
102
}
330
515
100
AcDbXrecord
280
     1
 40
16741.0
  1
\U+2022i \U+201D\U+00E5
  0
XRECORD
  5
514
102
{ACAD_REACTORS
330
513
102
}
330
513
100
AcDbXrecord
280
     1
 40
19134.0
  1
\U+0090}\P\U+201D\U+00E5
  0
XRECORD
  5
512
102
{ACAD_REACTORS
330
511
102
}
330
511
100
AcDbXrecord
280
     1
 40
18980.0
  1
\U+0090}\P\U+00B2\U+00A5
  0
XRECORD
  5
510
102
{ACAD_REACTORS
330
50F
102
}
330
50F
100
AcDbXrecord
280
     1
 40
18800.0
  1
\U+2022i\P\U+00B2\U+00A5
  0
XRECORD
  5
50E
102
{ACAD_REACTORS
330
50D
102
}
330
50D
100
AcDbXrecord
280
     1
 40
25044.0
  1
\U+02C6\U+00CF\U+008D\U+00E3
  0
XRECORD
  5
50C
102
{ACAD_REACTORS
330
50B
102
}
330
50B
100
AcDbXrecord
280
     1
 40
23804.0
  1
\U+2019\U+2020\U+201C\U+2021
  0
XRECORD
  5
50A
102
{ACAD_REACTORS
330
509
102
}
330
509
100
AcDbXrecord
280
     1
 40
24787.0
  1
\U+008F\U+008F\U+2022\U+00AB
  0
XRECORD
  5
508
102
{ACAD_REACTORS
330
507
102
}
330
507
100
AcDbXrecord
280
     1
 40
23171.0
  1
\U+2018g%%d\U+00CF\U+0090}
  0
XRECORD
  5
506
102
{ACAD_REACTORS
330
505
102
}
330
505
100
AcDbXrecord
280
     1
 40
515887.0
  1
\U+0192N\U+0192\U+008D\U+0192\U+0081\U+0081[\U+0192g\U+0152\U+00D0 \U+2022\\U+00B2%%d\U+008D\U+2022\U+0090F\U+201Ch\U+2018\U+2022
  0
XRECORD
  5
504
102
{ACAD_REACTORS
330
503
102
}
330
503
100
AcDbXrecord
280
     1
 40
235742.0
  1
6\U+0192i\U+0192C\U+0192\U+008D\U+0192\U+201C\U+2022\U+00C0\U+008D\U+2021\U+008D\U+00DF
  0
XRECORD
  5
502
102
{ACAD_REACTORS
330
501
102
}
330
501
100
AcDbXrecord
280
     1
 40
74943.0
  1
\U+0152\U+00E9\U+2019%%c\U+0192J\U+0192b\U+0192v
  0
XRECORD
  5
500
102
{ACAD_REACTORS
330
4FF
102
}
330
4FF
100
AcDbXrecord
280
     1
 40
114981.0
  1
\U+2019\U+2026\U+2019E\U+0192z\U+0192\U+2039\U+0192_\U+0081[
  0
XRECORD
  5
4FE
102
{ACAD_REACTORS
330
4FD
102
}
330
4FD
100
AcDbXrecord
280
     1
 40
47482.0
  1
\U+0192V\U+0192\U+0192\U+0192t\U+0192g
  0
XRECORD
  5
4FC
102
{ACAD_REACTORS
330
4FB
102
}
330
4FB
100
AcDbXrecord
280
     1
 40
14977.0
  1
\U+008D\U+2022\U+0090F
  0
XRECORD
  5
4FA
102
{ACAD_REACTORS
330
4F9
102
}
330
4F9
100
AcDbXrecord
280
     1
 40
86044.0
  1
\U+0192N\U+0192\U+008D\U+0192\U+0081\U+0081[\U+0192g
  0
XRECORD
  5
4F8
102
{ACAD_REACTORS
330
4F7
102
}
330
4F7
100
AcDbXrecord
280
     1
 40
14977.0
  1
\U+008D\U+2022\U+0090F
  0
XRECORD
  5
4F6
102
{ACAD_REACTORS
330
4F5
102
}
330
4F5
100
AcDbXrecord
280
     1
 40
146405.0
  1
\U+0192\U+008D\U+0081[\U+0192\U+2030\U+0081[\U+0192K\U+0192C\U+0192h
  0
XRECORD
  5
4F4
102
{ACAD_REACTORS
330
4F3
102
}
330
4F3
100
AcDbXrecord
280
     1
 40
63091.0
  1
6\U+0192i\U+0192C\U+0192\U+008D\U+0192\U+201C
  0
XRECORD
  5
4F2
102
{ACAD_REACTORS
330
4F1
102
}
330
4F1
100
AcDbXrecord
280
     1
 40
170303.0
  1
\U+0152\U+00E9\U+2019%%c\U+0192J\U+0192b\U+0192v\U+0192i\U+0192b\U+0192g
  0
XRECORD
  5
4F0
102
{ACAD_REACTORS
330
4EF
102
}
330
4EF
100
AcDbXrecord
280
     1
 40
96085.0
  1
\U+017Ds\U+201D\U+00E4\U+2022i \U+201C%%p\U+017D\U+00DA
  0
XRECORD
  5
4EE
102
{ACAD_REACTORS
330
4ED
102
}
330
4ED
100
AcDbXrecord
280
     1
 40
86044.0
  1
\U+0192N\U+0192\U+008D\U+0192\U+0081\U+0081[\U+0192g
  0
XRECORD
  5
4EC
102
{ACAD_REACTORS
330
4EB
102
}
330
4EB
100
AcDbXrecord
280
     1
 40
317817.0
  1
\U+008D\U+00E2\U+2039\U+00C1\U+2022t\U+201A\U+00E0\U+201A\U+00E6\U+008F~\U+201A\U+00F9\U+201A\U+00D1
  0
XRECORD
  5
4EA
102
{ACAD_REACTORS
330
4E9
102
}
330
4E9
100
AcDbXrecord
280
     1
 40
105094.0
  1
\U+02C6\U+0081\U+2030\U+201D\U+0192\U+0081\U+0192b\U+0192L
  0
XRECORD
  5
4E8
102
{ACAD_REACTORS
330
4E7
102
}
330
4E7
100
AcDbXrecord
280
     1
 40
302459.0
  1
\U+2022\U+00A7\U+008D\U+00E2\U+2039\U+00C1 \U+0192o\U+0192l\U+008D\U+00E2\U+2039\U+00C1\U+2022t M6
  0
XRECORD
  5
4E6
102
{ACAD_REACTORS
330
4E5
102
}
330
4E5
100
AcDbXrecord
280
     1
 40
95307.0
  1
\U+0192\U+00C66.3\U+0081~\U+0152\U+0160\U+0192\U+00C64.4
  0
XRECORD
  5
4E4
102
{ACAD_REACTORS
330
4E3
102
}
330
4E3
100
AcDbXrecord
280
     1
 40
38532.0
  1
SPCC \U+201A\U+201D\U+0081\U+00810.5
  0
XRECORD
  5
4E2
102
{ACAD_REACTORS
330
4E1
102
}
330
4E1
100
AcDbXrecord
280
     1
 40
85509.0
  1
\U+0192\U+008F\U+0192b\U+0192V\U+0192\U+0192\U+0081[
  0
XRECORD
  5
4E0
102
{ACAD_REACTORS
330
4DF
102
}
330
4DF
100
AcDbXrecord
280
     1
 40
184657.0
  1
\U+0160\U+00DC\U+017DM\U+00B2\U+00C4\U+201A\U+00F9\U+201A\U+00D13.1\U+0081~20
  0
XRECORD
  5
4DE
102
{ACAD_REACTORS
330
4DD
102
}
330
4DD
100
AcDbXrecord
280
     1
 40
105094.0
  1
\U+02C6\U+0081\U+2030\U+201D\U+0192\U+0081\U+0192b\U+0192L
  0
XRECORD
  5
4DC
102
{ACAD_REACTORS
330
4DB
102
}
330
4DB
100
AcDbXrecord
280
     1
 40
29618.0
  1
\U+017Ds\U+201D\U+00E4\U+2022i
  0
XRECORD
  5
4DA
102
{ACAD_REACTORS
330
4D9
102
}
330
4D9
100
AcDbXrecord
280
     1
 40
226025.0
  1
\U+017D\U+00CC\U+2022t\U+201A\U+00A3%%dp\U+201CY\U+2022t\U+201A\U+00F9\U+201A\U+00D1
  0
XRECORD
  5
4D8
102
{ACAD_REACTORS
330
4D7
102
}
330
4D7
100
AcDbXrecord
280
     1
 40
86044.0
  1
\U+0192N\U+0192\U+008D\U+0192\U+0081\U+0081[\U+0192g
  0
XRECORD
  5
532
102
{ACAD_REACTORS
330
531
102
}
330
531
100
AcDbXrecord
280
     1
 40
6802.0
  1
5.5\U+0081`12.5
  0
LAYOUT
  5
3D5
102
{ACAD_XDICTIONARY
360
568
102
}
102
{ACAD_REACTORS
330
3D3
102
}
330
3D3
100
AcDbPlotSettings
  1

  2
\\asrv0030\DocuCentre 230 - 本社９階　開発部
  4

  6

 40
0.0
 41
0.0
 42
0.0
 43
0.0
 44
0.0
 45
0.0
 46
0.0
 47
0.0
 48
0.0
 49
0.0
140
0.0
141
0.0
142
1.0
143
1.0
 70
  1712
 72
     0
 73
     0
 74
     0
  7

 75
     0
147
1.0
148
0.0
149
0.0
100
AcDbLayout
  1
Model
 70
     1
 71
     0
 10
0.0
 20
0.0
 11
12.0
 21
9.0
 12
0.0
 22
0.0
 32
0.0
 14
0.0
 24
0.0
 34
0.0
 15
0.0
 25
0.0
 35
0.0
146
0.0
 13
0.0
 23
0.0
 33
0.0
 16
1.0
 26
0.0
 36
0.0
 17
0.0
 27
1.0
 37
0.0
 76
     0
330
A
331
15
  0
LAYOUT
  5
3D6
102
{ACAD_XDICTIONARY
360
56A
102
}
102
{ACAD_REACTORS
330
3D3
102
}
330
3D3
100
AcDbPlotSettings
  1

  2
\\asrv0030\DocuCentre 230 - 本社９階　開発部
  4

  6

 40
0.0
 41
0.0
 42
0.0
 43
0.0
 44
0.0
 45
0.0
 46
0.0
 47
0.0
 48
0.0
 49
0.0
140
0.0
141
0.0
142
1.0
143
1.0
 70
   688
 72
     0
 73
     0
 74
     5
  7

 75
    16
147
1.0
148
0.0
149
0.0
100
AcDbLayout
  1
レイアウト1
 70
     0
 71
     1
 10
0.0
 20
0.0
 11
12.0
 21
9.0
 12
0.0
 22
0.0
 32
0.0
 14
1.000000000000000E+20
 24
1.000000000000000E+20
 34
1.000000000000000E+20
 15
-1.000000000000000E+20
 25
-1.000000000000000E+20
 35
-1.000000000000000E+20
146
0.0
 13
0.0
 23
0.0
 33
0.0
 16
1.0
 26
0.0
 36
0.0
 17
0.0
 27
1.0
 37
0.0
 76
     0
330
B
  0
MATERIAL
  5
393
102
{ACAD_XDICTIONARY
360
394
102
}
102
{ACAD_REACTORS
330
38A
102
}
330
38A
100
AcDbMaterial
  1
ByBlock
 72
     0
 43
0.0208333333333333
 43
0.0
 43
0.0
 43
0.0
 43
0.0
 43
0.0208333333333333
 43
0.0
 43
0.0
 43
0.0
 43
0.0
 43
1.0
 43
0.0
 43
0.0
 43
0.0
 43
0.0
 43
1.0
 77
     0
 47
0.0208333333333333
 47
0.0
 47
0.0
 47
0.0
 47
0.0
 47
0.0208333333333333
 47
0.0
 47
0.0
 47
0.0
 47
0.0
 47
1.0
 47
0.0
 47
0.0
 47
0.0
 47
0.0
 47
1.0
171
     0
 49
0.0208333333333333
 49
0.0
 49
0.0
 49
0.0
 49
0.0
 49
0.0208333333333333
 49
0.0
 49
0.0
 49
0.0
 49
0.0
 49
1.0
 49
0.0
 49
0.0
 49
0.0
 49
0.0
 49
1.0
175
     0
142
0.0208333333333333
142
0.0
142
0.0
142
0.0
142
0.0
142
0.0208333333333333
142
0.0
142
0.0
142
0.0
142
0.0
142
1.0
142
0.0
142
0.0
142
0.0
142
0.0
142
1.0
179
     0
144
0.0208333333333333
144
0.0
144
0.0
144
0.0
144
0.0
144
0.0208333333333333
144
0.0
144
0.0
144
0.0
144
0.0
144
1.0
144
0.0
144
0.0
144
0.0
144
0.0
144
1.0
147
0.0208333333333333
147
0.0
147
0.0
147
0.0
147
0.0
147
0.0208333333333333
147
0.0
147
0.0
147
0.0
147
0.0
147
1.0
147
0.0
147
0.0
147
0.0
147
0.0
147
1.0
  0
MATERIAL
  5
38B
102
{ACAD_XDICTIONARY
360
38C
102
}
102
{ACAD_REACTORS
330
38A
102
}
330
38A
100
AcDbMaterial
  1
ByLayer
 72
     0
 43
0.0208333333333333
 43
0.0
 43
0.0
 43
0.0
 43
0.0
 43
0.0208333333333333
 43
0.0
 43
0.0
 43
0.0
 43
0.0
 43
1.0
 43
0.0
 43
0.0
 43
0.0
 43
0.0
 43
1.0
 77
     0
 47
0.0208333333333333
 47
0.0
 47
0.0
 47
0.0
 47
0.0
 47
0.0208333333333333
 47
0.0
 47
0.0
 47
0.0
 47
0.0
 47
1.0
 47
0.0
 47
0.0
 47
0.0
 47
0.0
 47
1.0
171
     0
 49
0.0208333333333333
 49
0.0
 49
0.0
 49
0.0
 49
0.0
 49
0.0208333333333333
 49
0.0
 49
0.0
 49
0.0
 49
0.0
 49
1.0
 49
0.0
 49
0.0
 49
0.0
 49
0.0
 49
1.0
175
     0
142
0.0208333333333333
142
0.0
142
0.0
142
0.0
142
0.0
142
0.0208333333333333
142
0.0
142
0.0
142
0.0
142
0.0
142
1.0
142
0.0
142
0.0
142
0.0
142
0.0
142
1.0
179
     0
144
0.0208333333333333
144
0.0
144
0.0
144
0.0
144
0.0
144
0.0208333333333333
144
0.0
144
0.0
144
0.0
144
0.0
144
1.0
144
0.0
144
0.0
144
0.0
144
0.0
144
1.0
147
0.0208333333333333
147
0.0
147
0.0
147
0.0
147
0.0
147
0.0208333333333333
147
0.0
147
0.0
147
0.0
147
0.0
147
1.0
147
0.0
147
0.0
147
0.0
147
0.0
147
1.0
  0
MATERIAL
  5
39B
102
{ACAD_XDICTIONARY
360
39C
102
}
102
{ACAD_REACTORS
330
38A
102
}
330
38A
100
AcDbMaterial
  1
Global
 72
     0
 43
0.0208333333333333
 43
0.0
 43
0.0
 43
0.0
 43
0.0
 43
0.0208333333333333
 43
0.0
 43
0.0
 43
0.0
 43
0.0
 43
1.0
 43
0.0
 43
0.0
 43
0.0
 43
0.0
 43
1.0
 77
     0
 47
0.0208333333333333
 47
0.0
 47
0.0
 47
0.0
 47
0.0
 47
0.0208333333333333
 47
0.0
 47
0.0
 47
0.0
 47
0.0
 47
1.0
 47
0.0
 47
0.0
 47
0.0
 47
0.0
 47
1.0
171
     0
 49
0.0208333333333333
 49
0.0
 49
0.0
 49
0.0
 49
0.0
 49
0.0208333333333333
 49
0.0
 49
0.0
 49
0.0
 49
0.0
 49
1.0
 49
0.0
 49
0.0
 49
0.0
 49
0.0
 49
1.0
175
     0
142
0.0208333333333333
142
0.0
142
0.0
142
0.0
142
0.0
142
0.0208333333333333
142
0.0
142
0.0
142
0.0
142
0.0
142
1.0
142
0.0
142
0.0
142
0.0
142
0.0
142
1.0
179
     0
144
0.0208333333333333
144
0.0
144
0.0
144
0.0
144
0.0
144
0.0208333333333333
144
0.0
144
0.0
144
0.0
144
0.0
144
1.0
144
0.0
144
0.0
144
0.0
144
0.0
144
1.0
147
0.0208333333333333
147
0.0
147
0.0
147
0.0
147
0.0
147
0.0208333333333333
147
0.0
147
0.0
147
0.0
147
0.0
147
1.0
147
0.0
147
0.0
147
0.0
147
0.0
147
1.0
  0
MLEADERSTYLE
  5
3D2
102
{ACAD_REACTORS
330
3D1
102
}
330
3D1
100
AcDbMLeaderStyle
170
     2
171
     1
172
     0
 90
        2
 40
0.0
 41
0.0
173
     1
 91
-1056964608
340
11
 92
       -2
290
     1
 42
2.0
291
     1
 43
0.36
  3
Standard
 44
4.0
300

342
17
174
     1
178
     6
175
     1
176
     0
 93
-1056964608
 45
4.0
292
     0
297
     0
 46
4.0
 94
-1056964608
 47
1.0
 49
1.0
140
1.0
293
     1
141
0.0
294
     1
177
     0
142
1.0
295
     0
296
     0
143
0.125
1001
ACAD_MLEADERVER
1070
     2
  0
MLINESTYLE
  5
1C
102
{ACAD_REACTORS
330
1B
102
}
330
1B
100
AcDbMlineStyle
  2
STANDARD
 70
     0
  3

 62
     0
 51
90.0
 52
90.0
 71
     2
 49
0.5
 62
   256
  6
BYLAYER
 49
-0.5
 62
   256
  6
BYLAYER
  0
ACDBPLACEHOLDER
  5
389
102
{ACAD_REACTORS
330
388
102
}
330
388
  0
SCALE
  5
3C0
102
{ACAD_REACTORS
330
3BF
102
}
330
3BF
100
AcDbScale
 70
     0
300
1:1
140
1.0
141
1.0
290
     1
  0
SCALE
  5
3C1
102
{ACAD_REACTORS
330
3BF
102
}
330
3BF
100
AcDbScale
 70
     0
300
1:2
140
1.0
141
2.0
290
     0
  0
SCALE
  5
3C2
102
{ACAD_REACTORS
330
3BF
102
}
330
3BF
100
AcDbScale
 70
     0
300
1:4
140
1.0
141
4.0
290
     0
  0
SCALE
  5
3C3
102
{ACAD_REACTORS
330
3BF
102
}
330
3BF
100
AcDbScale
 70
     0
300
1:5
140
1.0
141
5.0
290
     0
  0
SCALE
  5
3C4
102
{ACAD_REACTORS
330
3BF
102
}
330
3BF
100
AcDbScale
 70
     0
300
1:8
140
1.0
141
8.0
290
     0
  0
SCALE
  5
3C5
102
{ACAD_REACTORS
330
3BF
102
}
330
3BF
100
AcDbScale
 70
     0
300
1:10
140
1.0
141
10.0
290
     0
  0
SCALE
  5
3C6
102
{ACAD_REACTORS
330
3BF
102
}
330
3BF
100
AcDbScale
 70
     0
300
1:16
140
1.0
141
16.0
290
     0
  0
SCALE
  5
3C7
102
{ACAD_REACTORS
330
3BF
102
}
330
3BF
100
AcDbScale
 70
     0
300
1:20
140
1.0
141
20.0
290
     0
  0
SCALE
  5
3C8
102
{ACAD_REACTORS
330
3BF
102
}
330
3BF
100
AcDbScale
 70
     0
300
1:30
140
1.0
141
30.0
290
     0
  0
SCALE
  5
3C9
102
{ACAD_REACTORS
330
3BF
102
}
330
3BF
100
AcDbScale
 70
     0
300
1:40
140
1.0
141
40.0
290
     0
  0
SCALE
  5
3CA
102
{ACAD_REACTORS
330
3BF
102
}
330
3BF
100
AcDbScale
 70
     0
300
1:50
140
1.0
141
50.0
290
     0
  0
SCALE
  5
3CB
102
{ACAD_REACTORS
330
3BF
102
}
330
3BF
100
AcDbScale
 70
     0
300
1:100
140
1.0
141
100.0
290
     0
  0
SCALE
  5
3CC
102
{ACAD_REACTORS
330
3BF
102
}
330
3BF
100
AcDbScale
 70
     0
300
2:1
140
2.0
141
1.0
290
     0
  0
SCALE
  5
3CD
102
{ACAD_REACTORS
330
3BF
102
}
330
3BF
100
AcDbScale
 70
     0
300
4:1
140
4.0
141
1.0
290
     0
  0
SCALE
  5
3CE
102
{ACAD_REACTORS
330
3BF
102
}
330
3BF
100
AcDbScale
 70
     0
300
8:1
140
8.0
141
1.0
290
     0
  0
SCALE
  5
3CF
102
{ACAD_REACTORS
330
3BF
102
}
330
3BF
100
AcDbScale
 70
     0
300
10:1
140
10.0
141
1.0
290
     0
  0
SCALE
  5
3D0
102
{ACAD_REACTORS
330
3BF
102
}
330
3BF
100
AcDbScale
 70
     0
300
100:1
140
100.0
141
1.0
290
     0
  0
TABLESTYLE
  5
3BE
102
{ACAD_XDICTIONARY
360
4D3
102
}
102
{ACAD_REACTORS
330
3BD
102
}
330
3BD
100
AcDbTableStyle
  3
Standard
 70
     0
 71
     0
 40
1.5
 41
1.5
280
     0
281
     0
  7
STANDARD
140
4.5
170
     2
 62
     0
 63
     7
283
     0
274
    -2
284
     1
 64
     0
275
    -2
285
     1
 65
     0
276
    -2
286
     1
 66
     0
277
    -2
287
     1
 67
     0
278
    -2
288
     1
 68
     0
279
    -2
289
     1
 69
     0
  7
STANDARD
140
6.0
170
     5
 62
     0
 63
     7
283
     0
274
    -2
284
     1
 64
     0
275
    -2
285
     1
 65
     0
276
    -2
286
     1
 66
     0
277
    -2
287
     1
 67
     0
278
    -2
288
     1
 68
     0
279
    -2
289
     1
 69
     0
  7
STANDARD
140
4.5
170
     5
 62
     0
 63
     7
283
     0
274
    -2
284
     1
 64
     0
275
    -2
285
     1
 65
     0
276
    -2
286
     1
 66
     0
277
    -2
287
     1
 67
     0
278
    -2
288
     1
 68
     0
279
    -2
289
     1
 69
     0
  0
VISUALSTYLE
  5
3A9
102
{ACAD_XDICTIONARY
360
540
102
}
102
{ACAD_REACTORS
330
3A3
102
}
330
3A3
100
AcDbVisualStyle
  2
2dWireframe
 70
     4
 71
     0
 72
     2
 73
     0
 90
        0
 40
-0.6
 41
-30.0
 62
     5
 63
     7
 74
     1
 91
        4
 64
     7
 65
   257
 75
     1
175
     1
 42
1.0
 92
        0
 66
   257
 43
1.0
 76
     1
 77
     6
 78
     2
 67
     7
 79
     5
170
     0
171
     0
290
     0
174
     0
 93
        1
 44
0.0
173
     0
291
     0
 45
0.0
1001
ACAD
1000
AcDbSavedByObjectVersion
1070
     0
  0
VISUALSTYLE
  5
3A8
102
{ACAD_XDICTIONARY
360
53E
102
}
102
{ACAD_REACTORS
330
3A3
102
}
330
3A3
100
AcDbVisualStyle
  2
Basic
 70
     7
 71
     1
 72
     0
 73
     1
 90
        0
 40
-0.6
 41
-30.0
 62
     5
 63
     7
 74
     0
 91
        4
 64
     7
 65
   257
 75
     1
175
     1
 42
1.0
 92
        8
 66
     7
 43
1.0
 76
     1
 77
     6
 78
     2
 67
     7
 79
     5
170
     0
171
     0
290
     0
174
     0
 93
        1
 44
0.0
173
     0
291
     1
 45
0.0
1001
ACAD
1000
AcDbSavedByObjectVersion
1070
     0
  0
VISUALSTYLE
  5
3AF
102
{ACAD_XDICTIONARY
360
54C
102
}
102
{ACAD_REACTORS
330
3A3
102
}
330
3A3
100
AcDbVisualStyle
  2
Brighten
 70
    12
 71
     2
 72
     2
 73
     0
 90
        0
 40
-0.6
 41
-30.0
 62
     5
 63
     7
 74
     1
 91
        4
 64
     7
 65
   257
 75
     1
175
     1
 42
1.0
 92
        8
 66
     7
 43
1.0
 76
     1
 77
     6
 78
     2
 67
     7
 79
     5
170
     0
171
     0
290
     0
174
     0
 93
        1
 44
50.0
173
     0
291
     1
 45
0.0
1001
ACAD
1000
AcDbSavedByObjectVersion
1070
     0
  0
VISUALSTYLE
  5
3B3
102
{ACAD_XDICTIONARY
360
554
102
}
102
{ACAD_REACTORS
330
3A3
102
}
330
3A3
100
AcDbVisualStyle
  2
ColorChange
 70
    16
 71
     2
 72
     2
 73
     3
 90
        0
 40
-0.6
 41
-30.0
 62
     5
 63
     8
 74
     1
 91
        4
 64
     7
 65
   257
 75
     1
175
     1
 42
1.0
 92
        8
 66
     8
 43
1.0
 76
     1
 77
     6
 78
     2
 67
     7
 79
     5
170
     0
171
     0
290
     0
174
     0
 93
        1
 44
0.0
173
     0
291
     1
 45
0.0
1001
ACAD
1000
AcDbSavedByObjectVersion
1070
     0
  0
VISUALSTYLE
  5
3AC
102
{ACAD_XDICTIONARY
360
546
102
}
102
{ACAD_REACTORS
330
3A3
102
}
330
3A3
100
AcDbVisualStyle
  2
Conceptual
 70
     9
 71
     3
 72
     2
 73
     0
 90
        0
 40
-0.6
 41
-30.0
 62
     5
 63
     7
 74
     2
 91
        2
 64
     7
 65
   257
 75
     1
175
     1
 42
179.0
 92
        8
 66
     7
 43
1.0
 76
     1
 77
     6
 78
     2
 67
     7
 79
     3
170
     0
171
     0
290
     0
174
     0
 93
        1
 44
0.0
173
     0
291
     0
 45
0.0
1001
ACAD
1000
AcDbSavedByObjectVersion
1070
     0
  0
VISUALSTYLE
  5
3AE
102
{ACAD_XDICTIONARY
360
54A
102
}
102
{ACAD_REACTORS
330
3A3
102
}
330
3A3
100
AcDbVisualStyle
  2
Dim
 70
    11
 71
     2
 72
     2
 73
     0
 90
        0
 40
-0.6
 41
-30.0
 62
     5
 63
     7
 74
     1
 91
        4
 64
     7
 65
   257
 75
     1
175
     1
 42
1.0
 92
        8
 66
     7
 43
1.0
 76
     1
 77
     6
 78
     2
 67
     7
 79
     5
170
     0
171
     0
290
     0
174
     0
 93
        1
 44
-50.0
173
     0
291
     1
 45
0.0
1001
ACAD
1000
AcDbSavedByObjectVersion
1070
     0
  0
VISUALSTYLE
  5
3BB
102
{ACAD_XDICTIONARY
360
564
102
}
102
{ACAD_REACTORS
330
3A3
102
}
330
3A3
100
AcDbVisualStyle
  2
EdgeColorOff
 70
    22
 71
     2
 72
     2
 73
     0
 90
        0
 40
-0.6
 41
-30.0
 62
     5
 63
     7
 74
     1
 91
        4
 64
     7
 65
   257
 75
     1
175
     1
 42
1.0
 92
        8
 66
     7
 43
1.0
 76
     1
 77
     6
 78
     2
 67
     7
 79
     5
170
     0
171
     0
290
     0
174
     0
 93
        1
 44
0.0
173
     0
291
     1
 45
0.0
1001
ACAD
1000
AcDbSavedByObjectVersion
1070
     0
  0
VISUALSTYLE
  5
3B2
102
{ACAD_XDICTIONARY
360
552
102
}
102
{ACAD_REACTORS
330
3A3
102
}
330
3A3
100
AcDbVisualStyle
  2
Facepattern
 70
    15
 71
     2
 72
     2
 73
     0
 90
        0
 40
-0.6
 41
-30.0
 62
     5
 63
     7
 74
     1
 91
        4
 64
     7
 65
   257
 75
     1
175
     1
 42
1.0
 92
        8
 66
     7
 43
1.0
 76
     1
 77
     6
 78
     2
 67
     7
 79
     5
170
     0
171
     0
290
     0
174
     0
 93
        1
 44
0.0
173
     0
291
     1
 45
0.0
1001
ACAD
1000
AcDbSavedByObjectVersion
1070
     0
  0
VISUALSTYLE
  5
3A4
102
{ACAD_XDICTIONARY
360
536
102
}
102
{ACAD_REACTORS
330
3A3
102
}
330
3A3
100
AcDbVisualStyle
  2
Flat
 70
     0
 71
     2
 72
     1
 73
     1
 90
        2
 40
-0.6
 41
30.0
 62
     5
 63
     7
 74
     0
 91
        0
 64
     7
 65
   257
 75
     1
175
     1
 42
1.0
 92
        8
 66
     7
 43
1.0
 76
     1
 77
     6
 78
     2
 67
     7
 79
     5
170
     0
171
     0
290
     0
174
     0
 93
       13
 44
0.0
173
     0
291
     1
 45
0.0
1001
ACAD
1000
AcDbSavedByObjectVersion
1070
     0
  0
VISUALSTYLE
  5
3A5
102
{ACAD_XDICTIONARY
360
538
102
}
102
{ACAD_REACTORS
330
3A3
102
}
330
3A3
100
AcDbVisualStyle
  2
FlatWithEdges
 70
     1
 71
     2
 72
     1
 73
     1
 90
        2
 40
-0.6
 41
30.0
 62
     5
 63
     7
 74
     1
 91
        0
 64
     7
 65
   257
 75
     1
175
     1
 42
1.0
 92
        0
 66
   257
 43
1.0
 76
     1
 77
     6
 78
     2
 67
     7
 79
     5
170
     0
171
     0
290
     0
174
     0
 93
       13
 44
0.0
173
     0
291
     1
 45
0.0
1001
ACAD
1000
AcDbSavedByObjectVersion
1070
     0
  0
VISUALSTYLE
  5
3A6
102
{ACAD_XDICTIONARY
360
53A
102
}
102
{ACAD_REACTORS
330
3A3
102
}
330
3A3
100
AcDbVisualStyle
  2
Gouraud
 70
     2
 71
     2
 72
     2
 73
     1
 90
        2
 40
-0.6
 41
30.0
 62
     5
 63
     7
 74
     0
 91
        0
 64
     7
 65
   257
 75
     1
175
     1
 42
1.0
 92
        0
 66
     7
 43
1.0
 76
     1
 77
     6
 78
     2
 67
     7
 79
     5
170
     0
171
     0
290
     0
174
     0
 93
       13
 44
0.0
173
     0
291
     1
 45
0.0
1001
ACAD
1000
AcDbSavedByObjectVersion
1070
     0
  0
VISUALSTYLE
  5
3A7
102
{ACAD_XDICTIONARY
360
53C
102
}
102
{ACAD_REACTORS
330
3A3
102
}
330
3A3
100
AcDbVisualStyle
  2
GouraudWithEdges
 70
     3
 71
     2
 72
     2
 73
     1
 90
        2
 40
-0.6
 41
30.0
 62
     5
 63
     7
 74
     1
 91
        0
 64
     7
 65
   257
 75
     1
175
     1
 42
1.0
 92
        0
 66
   257
 43
1.0
 76
     1
 77
     6
 78
     2
 67
     7
 79
     5
170
     0
171
     0
290
     0
174
     0
 93
       13
 44
0.0
173
     0
291
     1
 45
0.0
1001
ACAD
1000
AcDbSavedByObjectVersion
1070
     0
  0
VISUALSTYLE
  5
3AB
102
{ACAD_XDICTIONARY
360
544
102
}
102
{ACAD_REACTORS
330
3A3
102
}
330
3A3
100
AcDbVisualStyle
  2
Hidden
 70
     6
 71
     1
 72
     2
 73
     2
 90
        0
 40
-0.6
 41
-30.0
 62
     5
 63
     7
 74
     2
 91
        2
 64
     7
 65
   257
 75
     2
175
     1
 42
40.0
 92
        0
 66
   257
 43
1.0
 76
     1
 77
     6
 78
     2
 67
     7
 79
     3
170
     0
171
     0
290
     0
174
     0
 93
        1
 44
0.0
173
     0
291
     0
 45
0.0
1001
ACAD
1000
AcDbSavedByObjectVersion
1070
     0
  0
VISUALSTYLE
  5
3B9
102
{ACAD_XDICTIONARY
360
560
102
}
102
{ACAD_REACTORS
330
3A3
102
}
330
3A3
100
AcDbVisualStyle
  2
JitterOff
 70
    20
 71
     2
 72
     2
 73
     0
 90
        0
 40
-0.6
 41
-30.0
 62
     5
 63
     7
 74
     1
 91
        4
 64
     7
 65
   257
 75
     1
175
     1
 42
1.0
 92
       10
 66
     7
 43
1.0
 76
     1
 77
     6
 78
     2
 67
     7
 79
     5
170
     0
171
     0
290
     0
174
     0
 93
        1
 44
0.0
173
     0
291
     1
 45
0.0
1001
ACAD
1000
AcDbSavedByObjectVersion
1070
     0
  0
VISUALSTYLE
  5
3B1
102
{ACAD_XDICTIONARY
360
550
102
}
102
{ACAD_REACTORS
330
3A3
102
}
330
3A3
100
AcDbVisualStyle
  2
Linepattern
 70
    14
 71
     2
 72
     2
 73
     0
 90
        0
 40
-0.6
 41
-30.0
 62
     5
 63
     7
 74
     1
 91
        4
 64
     7
 65
   257
 75
     7
175
     7
 42
1.0
 92
        8
 66
     7
 43
1.0
 76
     1
 77
     6
 78
     2
 67
     7
 79
     5
170
     0
171
     0
290
     0
174
     0
 93
        1
 44
0.0
173
     0
291
     1
 45
0.0
1001
ACAD
1000
AcDbSavedByObjectVersion
1070
     0
  0
VISUALSTYLE
  5
3BA
102
{ACAD_XDICTIONARY
360
562
102
}
102
{ACAD_REACTORS
330
3A3
102
}
330
3A3
100
AcDbVisualStyle
  2
OverhangOff
 70
    21
 71
     2
 72
     2
 73
     0
 90
        0
 40
-0.6
 41
-30.0
 62
     5
 63
     7
 74
     1
 91
        4
 64
     7
 65
   257
 75
     1
175
     1
 42
1.0
 92
        9
 66
     7
 43
1.0
 76
     1
 77
     6
 78
     2
 67
     7
 79
     5
170
     0
171
     0
290
     0
174
     0
 93
        1
 44
0.0
173
     0
291
     1
 45
0.0
1001
ACAD
1000
AcDbSavedByObjectVersion
1070
     0
  0
VISUALSTYLE
  5
3AD
102
{ACAD_XDICTIONARY
360
548
102
}
102
{ACAD_REACTORS
330
3A3
102
}
330
3A3
100
AcDbVisualStyle
  2
Realistic
 70
     8
 71
     2
 72
     3
 73
     0
 90
        2
 40
-0.6
 41
30.0
 62
     5
 63
     7
 74
     0
 91
        0
 64
     7
 65
   257
 75
     1
175
     1
 42
1.0
 92
        8
 66
   257
 43
1.0
 76
     1
 77
     6
 78
     2
 67
     7
 79
     3
170
     0
171
     0
290
     0
174
     0
 93
       13
 44
0.0
173
     0
291
     0
 45
0.0
1001
ACAD
1000
AcDbSavedByObjectVersion
1070
     0
  0
VISUALSTYLE
  5
3B8
102
{ACAD_XDICTIONARY
360
55E
102
}
102
{ACAD_REACTORS
330
3A3
102
}
330
3A3
100
AcDbVisualStyle
  2
Shaded
 70
    27
 71
     2
 72
     2
 73
     1
 90
        2
 40
-0.6
 41
30.0
 62
     5
 63
     7
 74
     0
 91
        4
 64
     7
 65
   257
 75
     1
175
     1
 42
1.0
 92
        8
 66
   257
 43
1.0
 76
     1
 77
     6
 78
     2
 67
     8
 79
     3
170
     0
171
     0
290
     0
174
     0
 93
        5
 44
0.0
173
     0
291
     0
 45
0.0
1001
ACAD
1000
AcDbSavedByObjectVersion
1070
     0
  0
VISUALSTYLE
  5
3B7
102
{ACAD_XDICTIONARY
360
55C
102
}
102
{ACAD_REACTORS
330
3A3
102
}
330
3A3
100
AcDbVisualStyle
  2
Shaded with edges
 70
    26
 71
     2
 72
     2
 73
     1
 90
        2
 40
-0.6
 41
30.0
 62
     5
 63
     7
 74
     1
 91
       10
 64
     7
 65
   257
 75
     2
175
     1
 42
1.0
 92
        8
 66
   257
 43
1.0
 76
     1
 77
     6
 78
     2
 67
     7
 79
     3
170
     0
171
     0
290
     0
174
     0
 93
        5
 44
0.0
173
     0
291
     0
 45
0.0
1001
ACAD
1000
AcDbSavedByObjectVersion
1070
     0
  0
VISUALSTYLE
  5
3B4
102
{ACAD_XDICTIONARY
360
556
102
}
102
{ACAD_REACTORS
330
3A3
102
}
330
3A3
100
AcDbVisualStyle
  2
Shades of Gray
 70
    23
 71
     2
 72
     2
 73
     3
 90
        0
 40
-0.6
 41
-30.0
 62
     5
 63
     7
 74
     2
 91
        2
 64
     7
 65
     7
 75
     1
175
     1
 42
40.0
 92
        8
 66
     7
 43
1.0
 76
     1
 77
     6
 78
     2
 67
     7
 79
     3
170
     0
171
     0
290
     0
174
     0
 93
        1
 44
0.0
173
     0
291
     0
 45
0.0
1001
ACAD
1000
AcDbSavedByObjectVersion
1070
     0
  0
VISUALSTYLE
  5
3B5
102
{ACAD_XDICTIONARY
360
558
102
}
102
{ACAD_REACTORS
330
3A3
102
}
330
3A3
100
AcDbVisualStyle
  2
Sketchy
 70
    24
 71
     1
 72
     2
 73
     2
 90
        0
 40
-0.6
 41
-30.0
 62
     5
 63
     7
 74
     2
 91
        2
 64
     7
 65
     7
 75
     1
175
     1
 42
40.0
 92
       11
 66
     7
 43
1.0
 76
     1
 77
     6
 78
     2
 67
     7
 79
     6
170
     0
171
     0
290
     0
174
     0
 93
        1
 44
0.0
173
     0
291
     0
 45
0.0
1001
ACAD
1000
AcDbSavedByObjectVersion
1070
     0
  0
VISUALSTYLE
  5
3B0
102
{ACAD_XDICTIONARY
360
54E
102
}
102
{ACAD_REACTORS
330
3A3
102
}
330
3A3
100
AcDbVisualStyle
  2
Thicken
 70
    13
 71
     2
 72
     2
 73
     0
 90
        0
 40
-0.6
 41
-30.0
 62
     5
 63
     7
 74
     1
 91
        4
 64
     7
 65
   257
 75
     1
175
     1
 42
1.0
 92
       12
 66
     7
 43
1.0
 76
     1
 77
     6
 78
     2
 67
     7
 79
     5
170
     0
171
     0
290
     0
174
     0
 93
        1
 44
0.0
173
     0
291
     1
 45
0.0
1001
ACAD
1000
AcDbSavedByObjectVersion
1070
     0
  0
VISUALSTYLE
  5
3AA
102
{ACAD_XDICTIONARY
360
542
102
}
102
{ACAD_REACTORS
330
3A3
102
}
330
3A3
100
AcDbVisualStyle
  2
Wireframe
 70
     5
 71
     0
 72
     2
 73
     0
 90
        0
 40
-0.6
 41
-30.0
 62
     5
 63
     7
 74
     1
 91
        4
 64
     7
 65
   257
 75
     1
175
     1
 42
1.0
 92
        0
 66
   257
 43
1.0
 76
     1
 77
     6
 78
     2
 67
     7
 79
     3
170
     0
171
     0
290
     0
174
     0
 93
        1
 44
0.0
173
     0
291
     0
 45
0.0
1001
ACAD
1000
AcDbSavedByObjectVersion
1070
     0
  0
VISUALSTYLE
  5
3B6
102
{ACAD_XDICTIONARY
360
55A
102
}
102
{ACAD_REACTORS
330
3A3
102
}
330
3A3
100
AcDbVisualStyle
  2
X-Ray
 70
    25
 71
     2
 72
     2
 73
     1
 90
        1
 40
0.5
 41
-30.0
 62
     5
 63
     7
 74
     1
 91
        0
 64
     7
 65
   257
 75
     1
175
     1
 42
1.0
 92
        8
 66
     7
 43
1.0
 76
     1
 77
     6
 78
     2
 67
     7
 79
     3
170
     0
171
     0
290
     0
174
     0
 93
       13
 44
0.0
173
     0
291
     0
 45
0.0
1001
ACAD
1000
AcDbSavedByObjectVersion
1070
     0
  0
DICTIONARYVAR
  5
4CD
102
{ACAD_REACTORS
330
4CA
102
}
330
4CA
100
DictionaryVariables
280
     0
  1
1:1
  0
DICTIONARYVAR
  5
4CC
102
{ACAD_REACTORS
330
4CA
102
}
330
4CA
100
DictionaryVariables
280
     0
  1
STANDARD
  0
DICTIONARYVAR
  5
4CB
102
{ACAD_REACTORS
330
4CA
102
}
330
4CA
100
DictionaryVariables
280
     0
  1
STANDARD
  0
DICTIONARYVAR
  5
4D0
102
{ACAD_REACTORS
330
4CA
102
}
330
4CA
100
DictionaryVariables
280
     0
  1
1
  0
DICTIONARYVAR
  5
4CF
102
{ACAD_REACTORS
330
4CA
102
}
330
4CA
100
DictionaryVariables
280
     0
  1
0
  0
DICTIONARYVAR
  5
4CE
102
{ACAD_REACTORS
330
4CA
102
}
330
4CA
100
DictionaryVariables
280
     0
  1
127
  0
DICTIONARYVAR
  5
4D1
102
{ACAD_REACTORS
330
4CA
102
}
330
4CA
100
DictionaryVariables
280
     0
  1
2
  0
XRECORD
  5
4C9
102
{ACAD_REACTORS
330
4C7
102
}
330
4C7
100
AcDbXrecord
280
     1
330
2D
330
30
  0
DICTIONARY
  5
568
330
3D5
100
AcDbDictionary
280
     1
281
     1
  3
ACAD_XREC_ROUNDTRIP
360
569
  0
DICTIONARY
  5
56A
330
3D6
100
AcDbDictionary
280
     1
281
     1
  3
ACAD_XREC_ROUNDTRIP
360
56B
  0
DICTIONARY
  5
394
330
393
100
AcDbDictionary
280
     1
281
     1
  3
ACAD_XREC_ROUNDTRIP
360
534
  3
BUMPTILE
360
396
  3
DIFFUSETILE
360
395
  3
OPACITYTILE
360
399
  3
REFLECTIONTILE
360
398
  3
REFRACTIONTILE
360
39A
  3
SPECULARTILE
360
397
  0
DICTIONARY
  5
38C
330
38B
100
AcDbDictionary
280
     1
281
     1
  3
ACAD_XREC_ROUNDTRIP
360
533
  3
BUMPTILE
360
38E
  3
DIFFUSETILE
360
38D
  3
OPACITYTILE
360
391
  3
REFLECTIONTILE
360
390
  3
REFRACTIONTILE
360
392
  3
SPECULARTILE
360
38F
  0
DICTIONARY
  5
39C
330
39B
100
AcDbDictionary
280
     1
281
     1
  3
ACAD_XREC_ROUNDTRIP
360
535
  3
BUMPTILE
360
39E
  3
DIFFUSETILE
360
39D
  3
OPACITYTILE
360
3A1
  3
REFLECTIONTILE
360
3A0
  3
REFRACTIONTILE
360
3A2
  3
SPECULARTILE
360
39F
  0
DICTIONARY
  5
4D3
330
3BE
100
AcDbDictionary
280
     1
281
     1
  3
ACAD_ROUNDTRIP_2008_TABLESTYLE_CELLSTYLEMAP
360
4D4
  3
ACAD_XREC_ROUNDTRIP
360
566
  0
DICTIONARY
  5
540
330
3A9
100
AcDbDictionary
280
     1
281
     1
  3
ACAD_XREC_ROUNDTRIP
360
541
  0
DICTIONARY
  5
53E
330
3A8
100
AcDbDictionary
280
     1
281
     1
  3
ACAD_XREC_ROUNDTRIP
360
53F
  0
DICTIONARY
  5
54C
330
3AF
100
AcDbDictionary
280
     1
281
     1
  3
ACAD_XREC_ROUNDTRIP
360
54D
  0
DICTIONARY
  5
554
330
3B3
100
AcDbDictionary
280
     1
281
     1
  3
ACAD_XREC_ROUNDTRIP
360
555
  0
DICTIONARY
  5
546
330
3AC
100
AcDbDictionary
280
     1
281
     1
  3
ACAD_XREC_ROUNDTRIP
360
547
  0
DICTIONARY
  5
54A
330
3AE
100
AcDbDictionary
280
     1
281
     1
  3
ACAD_XREC_ROUNDTRIP
360
54B
  0
DICTIONARY
  5
564
330
3BB
100
AcDbDictionary
280
     1
281
     1
  3
ACAD_XREC_ROUNDTRIP
360
565
  0
DICTIONARY
  5
552
330
3B2
100
AcDbDictionary
280
     1
281
     1
  3
ACAD_XREC_ROUNDTRIP
360
553
  0
DICTIONARY
  5
536
330
3A4
100
AcDbDictionary
280
     1
281
     1
  3
ACAD_XREC_ROUNDTRIP
360
537
  0
DICTIONARY
  5
538
330
3A5
100
AcDbDictionary
280
     1
281
     1
  3
ACAD_XREC_ROUNDTRIP
360
539
  0
DICTIONARY
  5
53A
330
3A6
100
AcDbDictionary
280
     1
281
     1
  3
ACAD_XREC_ROUNDTRIP
360
53B
  0
DICTIONARY
  5
53C
330
3A7
100
AcDbDictionary
280
     1
281
     1
  3
ACAD_XREC_ROUNDTRIP
360
53D
  0
DICTIONARY
  5
544
330
3AB
100
AcDbDictionary
280
     1
281
     1
  3
ACAD_XREC_ROUNDTRIP
360
545
  0
DICTIONARY
  5
560
330
3B9
100
AcDbDictionary
280
     1
281
     1
  3
ACAD_XREC_ROUNDTRIP
360
561
  0
DICTIONARY
  5
550
330
3B1
100
AcDbDictionary
280
     1
281
     1
  3
ACAD_XREC_ROUNDTRIP
360
551
  0
DICTIONARY
  5
562
330
3BA
100
AcDbDictionary
280
     1
281
     1
  3
ACAD_XREC_ROUNDTRIP
360
563
  0
DICTIONARY
  5
548
330
3AD
100
AcDbDictionary
280
     1
281
     1
  3
ACAD_XREC_ROUNDTRIP
360
549
  0
DICTIONARY
  5
55E
330
3B8
100
AcDbDictionary
280
     1
281
     1
  3
ACAD_XREC_ROUNDTRIP
360
55F
  0
DICTIONARY
  5
55C
330
3B7
100
AcDbDictionary
280
     1
281
     1
  3
ACAD_XREC_ROUNDTRIP
360
55D
  0
DICTIONARY
  5
556
330
3B4
100
AcDbDictionary
280
     1
281
     1
  3
ACAD_XREC_ROUNDTRIP
360
557
  0
DICTIONARY
  5
558
330
3B5
100
AcDbDictionary
280
     1
281
     1
  3
ACAD_XREC_ROUNDTRIP
360
559
  0
DICTIONARY
  5
54E
330
3B0
100
AcDbDictionary
280
     1
281
     1
  3
ACAD_XREC_ROUNDTRIP
360
54F
  0
DICTIONARY
  5
542
330
3AA
100
AcDbDictionary
280
     1
281
     1
  3
ACAD_XREC_ROUNDTRIP
360
543
  0
DICTIONARY
  5
55A
330
3B6
100
AcDbDictionary
280
     1
281
     1
  3
ACAD_XREC_ROUNDTRIP
360
55B
  0
XRECORD
  5
569
102
{ACAD_REACTORS
330
568
102
}
330
568
100
AcDbXrecord
280
     1
102
SHADEPLOT
 70
     0
102
SHADEPLOTRESLEVEL
 70
     2
102
SHADEPLOTCUSTOMDPI
 70
   300
  0
XRECORD
  5
56B
102
{ACAD_REACTORS
330
56A
102
}
330
56A
100
AcDbXrecord
280
     1
102
SHADEPLOT
 70
     0
102
SHADEPLOTRESLEVEL
 70
     2
102
SHADEPLOTCUSTOMDPI
 70
   300
  0
XRECORD
  5
534
102
{ACAD_REACTORS
330
394
102
}
330
394
100
AcDbXrecord
280
     1
102
MATERIAL
148
0.0
149
0.0
149
0.0
 93
        0
 94
      127
282
     0
 72
     0
 77
     0
171
     0
175
     0
179
     0
273
     0
  0
XRECORD
  5
396
102
{ACAD_REACTORS
330
394
102
}
330
394
100
AcDbXrecord
280
     1
270
     1
271
     1
  0
XRECORD
  5
395
102
{ACAD_REACTORS
330
394
102
}
330
394
100
AcDbXrecord
280
     1
270
     1
271
     1
  0
XRECORD
  5
399
102
{ACAD_REACTORS
330
394
102
}
330
394
100
AcDbXrecord
280
     1
270
     1
271
     1
  0
XRECORD
  5
398
102
{ACAD_REACTORS
330
394
102
}
330
394
100
AcDbXrecord
280
     1
270
     1
271
     1
  0
XRECORD
  5
39A
102
{ACAD_REACTORS
330
394
102
}
330
394
100
AcDbXrecord
280
     1
270
     1
271
     1
  0
XRECORD
  5
397
102
{ACAD_REACTORS
330
394
102
}
330
394
100
AcDbXrecord
280
     1
270
     1
271
     1
  0
XRECORD
  5
533
102
{ACAD_REACTORS
330
38C
102
}
330
38C
100
AcDbXrecord
280
     1
102
MATERIAL
148
0.0
149
0.0
149
0.0
 93
        0
 94
      127
282
     0
 72
     0
 77
     0
171
     0
175
     0
179
     0
273
     0
  0
XRECORD
  5
38E
102
{ACAD_REACTORS
330
38C
102
}
330
38C
100
AcDbXrecord
280
     1
270
     1
271
     1
  0
XRECORD
  5
38D
102
{ACAD_REACTORS
330
38C
102
}
330
38C
100
AcDbXrecord
280
     1
270
     1
271
     1
  0
XRECORD
  5
391
102
{ACAD_REACTORS
330
38C
102
}
330
38C
100
AcDbXrecord
280
     1
270
     1
271
     1
  0
XRECORD
  5
390
102
{ACAD_REACTORS
330
38C
102
}
330
38C
100
AcDbXrecord
280
     1
270
     1
271
     1
  0
XRECORD
  5
392
102
{ACAD_REACTORS
330
38C
102
}
330
38C
100
AcDbXrecord
280
     1
270
     1
271
     1
  0
XRECORD
  5
38F
102
{ACAD_REACTORS
330
38C
102
}
330
38C
100
AcDbXrecord
280
     1
270
     1
271
     1
  0
XRECORD
  5
535
102
{ACAD_REACTORS
330
39C
102
}
330
39C
100
AcDbXrecord
280
     1
102
MATERIAL
148
0.0
149
0.0
149
0.0
 93
        0
 94
      127
282
     0
 72
     0
 77
     0
171
     0
175
     0
179
     0
273
     0
  0
XRECORD
  5
39E
102
{ACAD_REACTORS
330
39C
102
}
330
39C
100
AcDbXrecord
280
     1
270
     1
271
     1
  0
XRECORD
  5
39D
102
{ACAD_REACTORS
330
39C
102
}
330
39C
100
AcDbXrecord
280
     1
270
     1
271
     1
  0
XRECORD
  5
3A1
102
{ACAD_REACTORS
330
39C
102
}
330
39C
100
AcDbXrecord
280
     1
270
     1
271
     1
  0
XRECORD
  5
3A0
102
{ACAD_REACTORS
330
39C
102
}
330
39C
100
AcDbXrecord
280
     1
270
     1
271
     1
  0
XRECORD
  5
3A2
102
{ACAD_REACTORS
330
39C
102
}
330
39C
100
AcDbXrecord
280
     1
270
     1
271
     1
  0
XRECORD
  5
39F
102
{ACAD_REACTORS
330
39C
102
}
330
39C
100
AcDbXrecord
280
     1
270
     1
271
     1
  0
CELLSTYLEMAP
  5
4D4
102
{ACAD_REACTORS
330
4D3
102
}
330
4D3
100
AcDbCellStyleMap
 90
        3
300
CELLSTYLE
  1
TABLEFORMAT_BEGIN
 90
        5
170
     1
 91
        0
 92
    32768
 62
   257
 93
        1
300
CONTENTFORMAT
  1
CONTENTFORMAT_BEGIN
 90
        0
 91
        0
 92
      512
 93
        0
300

 40
0.0
140
1.0
 94
        5
 62
     0
340
17
144
6.0
309
CONTENTFORMAT_END
171
     1
301
MARGIN
  1
CELLMARGIN_BEGIN
 40
1.5
 40
1.5
 40
1.5
 40
1.5
 40
4.5
 40
4.5
309
CELLMARGIN_END
 94
        6
 95
        1
302
GRIDFORMAT
  1
GRIDFORMAT_BEGIN
 90
        0
 91
        1
 62
     0
 92
       -2
340
0
 93
        0
 40
1.125
309
GRIDFORMAT_END
 95
        2
302
GRIDFORMAT
  1
GRIDFORMAT_BEGIN
 90
        0
 91
        1
 62
     0
 92
       -2
340
0
 93
        0
 40
1.125
309
GRIDFORMAT_END
 95
        4
302
GRIDFORMAT
  1
GRIDFORMAT_BEGIN
 90
        0
 91
        1
 62
     0
 92
       -2
340
0
 93
        0
 40
1.125
309
GRIDFORMAT_END
 95
        8
302
GRIDFORMAT
  1
GRIDFORMAT_BEGIN
 90
        0
 91
        1
 62
     0
 92
       -2
340
0
 93
        0
 40
1.125
309
GRIDFORMAT_END
 95
       16
302
GRIDFORMAT
  1
GRIDFORMAT_BEGIN
 90
        0
 91
        1
 62
     0
 92
       -2
340
0
 93
        0
 40
1.125
309
GRIDFORMAT_END
 95
       32
302
GRIDFORMAT
  1
GRIDFORMAT_BEGIN
 90
        0
 91
        1
 62
     0
 92
       -2
340
0
 93
        0
 40
1.125
309
GRIDFORMAT_END
309
TABLEFORMAT_END
  1
CELLSTYLE_BEGIN
 90
        1
 91
        1
300
_TITLE
309
CELLSTYLE_END
300
CELLSTYLE
  1
TABLEFORMAT_BEGIN
 90
        5
170
     1
 91
        0
 92
        0
 62
   257
 93
        1
300
CONTENTFORMAT
  1
CONTENTFORMAT_BEGIN
 90
        0
 91
        0
 92
      512
 93
        0
300

 40
0.0
140
1.0
 94
        5
 62
     0
340
17
144
4.5
309
CONTENTFORMAT_END
171
     1
301
MARGIN
  1
CELLMARGIN_BEGIN
 40
1.5
 40
1.5
 40
1.5
 40
1.5
 40
4.5
 40
4.5
309
CELLMARGIN_END
 94
        6
 95
        1
302
GRIDFORMAT
  1
GRIDFORMAT_BEGIN
 90
        0
 91
        1
 62
     0
 92
       -2
340
0
 93
        0
 40
1.125
309
GRIDFORMAT_END
 95
        2
302
GRIDFORMAT
  1
GRIDFORMAT_BEGIN
 90
        0
 91
        1
 62
     0
 92
       -2
340
0
 93
        0
 40
1.125
309
GRIDFORMAT_END
 95
        4
302
GRIDFORMAT
  1
GRIDFORMAT_BEGIN
 90
        0
 91
        1
 62
     0
 92
       -2
340
0
 93
        0
 40
1.125
309
GRIDFORMAT_END
 95
        8
302
GRIDFORMAT
  1
GRIDFORMAT_BEGIN
 90
        0
 91
        1
 62
     0
 92
       -2
340
0
 93
        0
 40
1.125
309
GRIDFORMAT_END
 95
       16
302
GRIDFORMAT
  1
GRIDFORMAT_BEGIN
 90
        0
 91
        1
 62
     0
 92
       -2
340
0
 93
        0
 40
1.125
309
GRIDFORMAT_END
 95
       32
302
GRIDFORMAT
  1
GRIDFORMAT_BEGIN
 90
        0
 91
        1
 62
     0
 92
       -2
340
0
 93
        0
 40
1.125
309
GRIDFORMAT_END
309
TABLEFORMAT_END
  1
CELLSTYLE_BEGIN
 90
        2
 91
        1
300
_HEADER
309
CELLSTYLE_END
300
CELLSTYLE
  1
TABLEFORMAT_BEGIN
 90
        5
170
     1
 91
        0
 92
        0
 62
   257
 93
        1
300
CONTENTFORMAT
  1
CONTENTFORMAT_BEGIN
 90
        0
 91
        0
 92
      512
 93
        0
300

 40
0.0
140
1.0
 94
        2
 62
     0
340
17
144
4.5
309
CONTENTFORMAT_END
171
     1
301
MARGIN
  1
CELLMARGIN_BEGIN
 40
1.5
 40
1.5
 40
1.5
 40
1.5
 40
4.5
 40
4.5
309
CELLMARGIN_END
 94
        6
 95
        1
302
GRIDFORMAT
  1
GRIDFORMAT_BEGIN
 90
        0
 91
        1
 62
     0
 92
       -2
340
0
 93
        0
 40
1.125
309
GRIDFORMAT_END
 95
        2
302
GRIDFORMAT
  1
GRIDFORMAT_BEGIN
 90
        0
 91
        1
 62
     0
 92
       -2
340
0
 93
        0
 40
1.125
309
GRIDFORMAT_END
 95
        4
302
GRIDFORMAT
  1
GRIDFORMAT_BEGIN
 90
        0
 91
        1
 62
     0
 92
       -2
340
0
 93
        0
 40
1.125
309
GRIDFORMAT_END
 95
        8
302
GRIDFORMAT
  1
GRIDFORMAT_BEGIN
 90
        0
 91
        1
 62
     0
 92
       -2
340
0
 93
        0
 40
1.125
309
GRIDFORMAT_END
 95
       16
302
GRIDFORMAT
  1
GRIDFORMAT_BEGIN
 90
        0
 91
        1
 62
     0
 92
       -2
340
0
 93
        0
 40
1.125
309
GRIDFORMAT_END
 95
       32
302
GRIDFORMAT
  1
GRIDFORMAT_BEGIN
 90
        0
 91
        1
 62
     0
 92
       -2
340
0
 93
        0
 40
1.125
309
GRIDFORMAT_END
309
TABLEFORMAT_END
  1
CELLSTYLE_BEGIN
 90
        3
 91
        2
300
_DATA
309
CELLSTYLE_END
  0
XRECORD
  5
566
102
{ACAD_REACTORS
330
4D3
102
}
330
4D3
100
AcDbXrecord
280
     1
102
ACAD_ROUNDTRIP_PRE2007_TABLESTYLE
 90
      512
 91
        0
  1

 92
      512
 93
        0
  2

 94
      512
 95
        0
  3

  0
XRECORD
  5
541
102
{ACAD_REACTORS
330
540
102
}
330
540
100
AcDbXrecord
280
     1
102
RTVSPropertyOp0
 70
     1
102
RTVSPropertyOp1
 70
     1
102
RTVSPropertyOp2
 70
     1
102
RTVSPropertyOp3
 70
     1
102
RTVSPropertyOp4
 70
     1
102
RTVSPropertyOp5
 70
     1
102
RTVSPropertyOp6
 70
     1
102
RTVSPropertyOp7
 70
     1
102
RTVSPropertyOp8
 70
     1
102
RTVSPropertyOp9
 70
     1
102
RTVSPropertyOp10
 70
     1
102
RTVSPropertyOp11
 70
     1
102
RTVSPropertyOp12
 70
     1
102
RTVSPropertyOp13
 70
     1
102
RTVSPropertyOp14
 70
     1
102
RTVSPropertyOp15
 70
     1
102
RTVSPropertyOp16
 70
     1
102
RTVSPropertyOp17
 70
     1
102
RTVSPropertyOp18
 70
     1
102
RTVSPropertyOp19
 70
     1
102
RTVSPropertyOp20
 70
     1
102
RTVSPropertyOp21
 70
     1
102
RTVSPropertyOp22
 70
     1
102
RTVSPropertyOp23
 70
     1
102
RTVSPropertyOp24
 70
     1
102
RTVSPropertyOp25
 70
     1
102
RTVSPropertyOp26
 70
     1
102
RTVSPropertyOp27
 70
     1
102
RTVSPropertyOp28
 70
     1
102
RTVSPropertyOp29
 70
     1
102
RTVSPropertyOp30
 70
     1
102
RTVSPropertyOp31
 70
     1
102
RTVSPropertyOp32
 70
     1
  0
XRECORD
  5
53F
102
{ACAD_REACTORS
330
53E
102
}
330
53E
100
AcDbXrecord
280
     1
102
RTVSPropertyOp0
 70
     1
102
RTVSPropertyOp1
 70
     1
102
RTVSPropertyOp2
 70
     1
102
RTVSPropertyOp3
 70
     1
102
RTVSPropertyOp4
 70
     1
102
RTVSPropertyOp5
 70
     1
102
RTVSPropertyOp6
 70
     1
102
RTVSPropertyOp7
 70
     1
102
RTVSPropertyOp8
 70
     1
102
RTVSPropertyOp9
 70
     1
102
RTVSPropertyOp10
 70
     1
102
RTVSPropertyOp11
 70
     1
102
RTVSPropertyOp12
 70
     1
102
RTVSPropertyOp13
 70
     1
102
RTVSPropertyOp14
 70
     1
102
RTVSPropertyOp15
 70
     1
102
RTVSPropertyOp16
 70
     1
102
RTVSPropertyOp17
 70
     1
102
RTVSPropertyOp18
 70
     1
102
RTVSPropertyOp19
 70
     1
102
RTVSPropertyOp20
 70
     1
102
RTVSPropertyOp21
 70
     1
102
RTVSPropertyOp22
 70
     1
102
RTVSPropertyOp23
 70
     1
102
RTVSPropertyOp24
 70
     1
102
RTVSPropertyOp25
 70
     1
102
RTVSPropertyOp26
 70
     1
102
RTVSPropertyOp27
 70
     1
102
RTVSPropertyOp28
 70
     1
102
RTVSPropertyOp29
 70
     1
102
RTVSPropertyOp30
 70
     1
102
RTVSPropertyOp31
 70
     1
102
RTVSPropertyOp32
 70
     1
  0
XRECORD
  5
54D
102
{ACAD_REACTORS
330
54C
102
}
330
54C
100
AcDbXrecord
280
     1
102
RTVSPropertyOp0
 70
     1
102
RTVSPropertyOp1
 70
     1
102
RTVSPropertyOp2
 70
     1
102
RTVSPropertyOp3
 70
     1
102
RTVSPropertyOp4
 70
     1
102
RTVSPropertyOp5
 70
     1
102
RTVSPropertyOp6
 70
     1
102
RTVSPropertyOp7
 70
     1
102
RTVSPropertyOp8
 70
     1
102
RTVSPropertyOp9
 70
     1
102
RTVSPropertyOp10
 70
     1
102
RTVSPropertyOp11
 70
     1
102
RTVSPropertyOp12
 70
     1
102
RTVSPropertyOp13
 70
     1
102
RTVSPropertyOp14
 70
     1
102
RTVSPropertyOp15
 70
     1
102
RTVSPropertyOp16
 70
     1
102
RTVSPropertyOp17
 70
     1
102
RTVSPropertyOp18
 70
     1
102
RTVSPropertyOp19
 70
     1
102
RTVSPropertyOp20
 70
     1
102
RTVSPropertyOp21
 70
     1
102
RTVSPropertyOp22
 70
     1
102
RTVSPropertyOp23
 70
     1
102
RTVSPropertyOp24
 70
     1
102
RTVSPropertyOp25
 70
     1
102
RTVSPropertyOp26
 70
     1
102
RTVSPropertyOp27
 70
     1
102
RTVSPropertyOp28
 70
     1
102
RTVSPropertyOp29
 70
     1
102
RTVSPropertyOp30
 70
     1
102
RTVSPropertyOp31
 70
     1
102
RTVSPropertyOp32
 70
     1
  0
XRECORD
  5
555
102
{ACAD_REACTORS
330
554
102
}
330
554
100
AcDbXrecord
280
     1
102
RTVSPropertyOp0
 70
     1
102
RTVSPropertyOp1
 70
     1
102
RTVSPropertyOp2
 70
     1
102
RTVSPropertyOp3
 70
     1
102
RTVSPropertyOp4
 70
     1
102
RTVSPropertyOp5
 70
     1
102
RTVSPropertyOp6
 70
     1
102
RTVSPropertyOp7
 70
     1
102
RTVSPropertyOp8
 70
     1
102
RTVSPropertyOp9
 70
     1
102
RTVSPropertyOp10
 70
     1
102
RTVSPropertyOp11
 70
     1
102
RTVSPropertyOp12
 70
     1
102
RTVSPropertyOp13
 70
     1
102
RTVSPropertyOp14
 70
     1
102
RTVSPropertyOp15
 70
     1
102
RTVSPropertyOp16
 70
     1
102
RTVSPropertyOp17
 70
     1
102
RTVSPropertyOp18
 70
     1
102
RTVSPropertyOp19
 70
     1
102
RTVSPropertyOp20
 70
     1
102
RTVSPropertyOp21
 70
     1
102
RTVSPropertyOp22
 70
     1
102
RTVSPropertyOp23
 70
     1
102
RTVSPropertyOp24
 70
     1
102
RTVSPropertyOp25
 70
     1
102
RTVSPropertyOp26
 70
     1
102
RTVSPropertyOp27
 70
     1
102
RTVSPropertyOp28
 70
     1
102
RTVSPropertyOp29
 70
     1
102
RTVSPropertyOp30
 70
     1
102
RTVSPropertyOp31
 70
     1
102
RTVSPropertyOp32
 70
     1
  0
XRECORD
  5
547
102
{ACAD_REACTORS
330
546
102
}
330
546
100
AcDbXrecord
280
     1
102
RTVSPropertyOp0
 70
     1
102
RTVSPropertyOp1
 70
     1
102
RTVSPropertyOp2
 70
     1
102
RTVSPropertyOp3
 70
     1
102
RTVSPropertyOp4
 70
     1
102
RTVSPropertyOp5
 70
     1
102
RTVSPropertyOp6
 70
     1
102
RTVSPropertyOp7
 70
     1
102
RTVSPropertyOp8
 70
     1
102
RTVSPropertyOp9
 70
     1
102
RTVSPropertyOp10
 70
     1
102
RTVSPropertyOp11
 70
     1
102
RTVSPropertyOp12
 70
     1
102
RTVSPropertyOp13
 70
     1
102
RTVSPropertyOp14
 70
     1
102
RTVSPropertyOp15
 70
     1
102
RTVSPropertyOp16
 70
     1
102
RTVSPropertyOp17
 70
     1
102
RTVSPropertyOp18
 70
     1
102
RTVSPropertyOp19
 70
     1
102
RTVSPropertyOp20
 70
     1
102
RTVSPropertyOp21
 70
     1
102
RTVSPropertyOp22
 70
     1
102
RTVSPropertyOp23
 70
     1
102
RTVSPropertyOp24
 70
     1
102
RTVSPropertyOp25
 70
     1
102
RTVSPropertyOp26
 70
     1
102
RTVSPropertyOp27
 70
     1
102
RTVSPropertyOp28
 70
     1
102
RTVSPropertyOp29
 70
     1
102
RTVSPropertyOp30
 70
     1
102
RTVSPropertyOp31
 70
     1
102
RTVSPropertyOp32
 70
     1
  0
XRECORD
  5
54B
102
{ACAD_REACTORS
330
54A
102
}
330
54A
100
AcDbXrecord
280
     1
102
RTVSPropertyOp0
 70
     1
102
RTVSPropertyOp1
 70
     1
102
RTVSPropertyOp2
 70
     1
102
RTVSPropertyOp3
 70
     1
102
RTVSPropertyOp4
 70
     1
102
RTVSPropertyOp5
 70
     1
102
RTVSPropertyOp6
 70
     1
102
RTVSPropertyOp7
 70
     1
102
RTVSPropertyOp8
 70
     1
102
RTVSPropertyOp9
 70
     1
102
RTVSPropertyOp10
 70
     1
102
RTVSPropertyOp11
 70
     1
102
RTVSPropertyOp12
 70
     1
102
RTVSPropertyOp13
 70
     1
102
RTVSPropertyOp14
 70
     1
102
RTVSPropertyOp15
 70
     1
102
RTVSPropertyOp16
 70
     1
102
RTVSPropertyOp17
 70
     1
102
RTVSPropertyOp18
 70
     1
102
RTVSPropertyOp19
 70
     1
102
RTVSPropertyOp20
 70
     1
102
RTVSPropertyOp21
 70
     1
102
RTVSPropertyOp22
 70
     1
102
RTVSPropertyOp23
 70
     1
102
RTVSPropertyOp24
 70
     1
102
RTVSPropertyOp25
 70
     1
102
RTVSPropertyOp26
 70
     1
102
RTVSPropertyOp27
 70
     1
102
RTVSPropertyOp28
 70
     1
102
RTVSPropertyOp29
 70
     1
102
RTVSPropertyOp30
 70
     1
102
RTVSPropertyOp31
 70
     1
102
RTVSPropertyOp32
 70
     1
  0
XRECORD
  5
565
102
{ACAD_REACTORS
330
564
102
}
330
564
100
AcDbXrecord
280
     1
102
RTVSPropertyOp0
 70
     0
102
RTVSPropertyOp1
 70
     0
102
RTVSPropertyOp2
 70
     0
102
RTVSPropertyOp3
 70
     0
102
RTVSPropertyOp4
 70
     0
102
RTVSPropertyOp5
 70
     0
102
RTVSPropertyOp6
 70
     0
102
RTVSPropertyOp7
 70
     0
102
RTVSPropertyOp8
 70
     0
102
RTVSPropertyOp9
 70
     0
102
RTVSPropertyOp10
 70
     0
102
RTVSPropertyOp11
 70
     0
102
RTVSPropertyOp12
 70
     0
102
RTVSPropertyOp13
 70
     0
102
RTVSPropertyOp14
 70
     2
102
RTVSPropertyOp15
 70
     0
102
RTVSPropertyOp16
 70
     0
102
RTVSPropertyOp17
 70
     0
102
RTVSPropertyOp18
 70
     0
102
RTVSPropertyOp19
 70
     0
102
RTVSPropertyOp20
 70
     0
102
RTVSPropertyOp21
 70
     0
102
RTVSPropertyOp22
 70
     0
102
RTVSPropertyOp23
 70
     0
102
RTVSPropertyOp24
 70
     0
102
RTVSPropertyOp25
 70
     0
102
RTVSPropertyOp26
 70
     0
102
RTVSPropertyOp27
 70
     0
102
RTVSPropertyOp28
 70
     0
102
RTVSPropertyOp29
 70
     0
102
RTVSPropertyOp30
 70
     0
102
RTVSPropertyOp31
 70
     0
102
RTVSPropertyOp32
 70
     0
  0
XRECORD
  5
553
102
{ACAD_REACTORS
330
552
102
}
330
552
100
AcDbXrecord
280
     1
102
RTVSPropertyOp0
 70
     1
102
RTVSPropertyOp1
 70
     1
102
RTVSPropertyOp2
 70
     1
102
RTVSPropertyOp3
 70
     1
102
RTVSPropertyOp4
 70
     1
102
RTVSPropertyOp5
 70
     1
102
RTVSPropertyOp6
 70
     1
102
RTVSPropertyOp7
 70
     1
102
RTVSPropertyOp8
 70
     1
102
RTVSPropertyOp9
 70
     1
102
RTVSPropertyOp10
 70
     1
102
RTVSPropertyOp11
 70
     1
102
RTVSPropertyOp12
 70
     1
102
RTVSPropertyOp13
 70
     1
102
RTVSPropertyOp14
 70
     1
102
RTVSPropertyOp15
 70
     1
102
RTVSPropertyOp16
 70
     1
102
RTVSPropertyOp17
 70
     1
102
RTVSPropertyOp18
 70
     1
102
RTVSPropertyOp19
 70
     1
102
RTVSPropertyOp20
 70
     1
102
RTVSPropertyOp21
 70
     1
102
RTVSPropertyOp22
 70
     1
102
RTVSPropertyOp23
 70
     1
102
RTVSPropertyOp24
 70
     1
102
RTVSPropertyOp25
 70
     1
102
RTVSPropertyOp26
 70
     1
102
RTVSPropertyOp27
 70
     1
102
RTVSPropertyOp28
 70
     1
102
RTVSPropertyOp29
 70
     1
102
RTVSPropertyOp30
 70
     1
102
RTVSPropertyOp31
 70
     1
102
RTVSPropertyOp32
 70
     1
  0
XRECORD
  5
537
102
{ACAD_REACTORS
330
536
102
}
330
536
100
AcDbXrecord
280
     1
102
RTVSPropertyOp0
 70
     1
102
RTVSPropertyOp1
 70
     1
102
RTVSPropertyOp2
 70
     1
102
RTVSPropertyOp3
 70
     1
102
RTVSPropertyOp4
 70
     1
102
RTVSPropertyOp5
 70
     1
102
RTVSPropertyOp6
 70
     1
102
RTVSPropertyOp7
 70
     1
102
RTVSPropertyOp8
 70
     1
102
RTVSPropertyOp9
 70
     1
102
RTVSPropertyOp10
 70
     1
102
RTVSPropertyOp11
 70
     1
102
RTVSPropertyOp12
 70
     1
102
RTVSPropertyOp13
 70
     1
102
RTVSPropertyOp14
 70
     1
102
RTVSPropertyOp15
 70
     1
102
RTVSPropertyOp16
 70
     1
102
RTVSPropertyOp17
 70
     1
102
RTVSPropertyOp18
 70
     1
102
RTVSPropertyOp19
 70
     1
102
RTVSPropertyOp20
 70
     1
102
RTVSPropertyOp21
 70
     1
102
RTVSPropertyOp22
 70
     1
102
RTVSPropertyOp23
 70
     1
102
RTVSPropertyOp24
 70
     1
102
RTVSPropertyOp25
 70
     1
102
RTVSPropertyOp26
 70
     1
102
RTVSPropertyOp27
 70
     1
102
RTVSPropertyOp28
 70
     1
102
RTVSPropertyOp29
 70
     1
102
RTVSPropertyOp30
 70
     1
102
RTVSPropertyOp31
 70
     1
102
RTVSPropertyOp32
 70
     1
  0
XRECORD
  5
539
102
{ACAD_REACTORS
330
538
102
}
330
538
100
AcDbXrecord
280
     1
102
RTVSPropertyOp0
 70
     1
102
RTVSPropertyOp1
 70
     1
102
RTVSPropertyOp2
 70
     1
102
RTVSPropertyOp3
 70
     1
102
RTVSPropertyOp4
 70
     1
102
RTVSPropertyOp5
 70
     1
102
RTVSPropertyOp6
 70
     1
102
RTVSPropertyOp7
 70
     1
102
RTVSPropertyOp8
 70
     1
102
RTVSPropertyOp9
 70
     1
102
RTVSPropertyOp10
 70
     1
102
RTVSPropertyOp11
 70
     1
102
RTVSPropertyOp12
 70
     1
102
RTVSPropertyOp13
 70
     1
102
RTVSPropertyOp14
 70
     1
102
RTVSPropertyOp15
 70
     1
102
RTVSPropertyOp16
 70
     1
102
RTVSPropertyOp17
 70
     1
102
RTVSPropertyOp18
 70
     1
102
RTVSPropertyOp19
 70
     1
102
RTVSPropertyOp20
 70
     1
102
RTVSPropertyOp21
 70
     1
102
RTVSPropertyOp22
 70
     1
102
RTVSPropertyOp23
 70
     1
102
RTVSPropertyOp24
 70
     1
102
RTVSPropertyOp25
 70
     1
102
RTVSPropertyOp26
 70
     1
102
RTVSPropertyOp27
 70
     1
102
RTVSPropertyOp28
 70
     1
102
RTVSPropertyOp29
 70
     1
102
RTVSPropertyOp30
 70
     1
102
RTVSPropertyOp31
 70
     1
102
RTVSPropertyOp32
 70
     1
  0
XRECORD
  5
53B
102
{ACAD_REACTORS
330
53A
102
}
330
53A
100
AcDbXrecord
280
     1
102
RTVSPropertyOp0
 70
     1
102
RTVSPropertyOp1
 70
     1
102
RTVSPropertyOp2
 70
     1
102
RTVSPropertyOp3
 70
     1
102
RTVSPropertyOp4
 70
     1
102
RTVSPropertyOp5
 70
     1
102
RTVSPropertyOp6
 70
     1
102
RTVSPropertyOp7
 70
     1
102
RTVSPropertyOp8
 70
     1
102
RTVSPropertyOp9
 70
     1
102
RTVSPropertyOp10
 70
     1
102
RTVSPropertyOp11
 70
     1
102
RTVSPropertyOp12
 70
     1
102
RTVSPropertyOp13
 70
     1
102
RTVSPropertyOp14
 70
     1
102
RTVSPropertyOp15
 70
     1
102
RTVSPropertyOp16
 70
     1
102
RTVSPropertyOp17
 70
     1
102
RTVSPropertyOp18
 70
     1
102
RTVSPropertyOp19
 70
     1
102
RTVSPropertyOp20
 70
     1
102
RTVSPropertyOp21
 70
     1
102
RTVSPropertyOp22
 70
     1
102
RTVSPropertyOp23
 70
     1
102
RTVSPropertyOp24
 70
     1
102
RTVSPropertyOp25
 70
     1
102
RTVSPropertyOp26
 70
     1
102
RTVSPropertyOp27
 70
     1
102
RTVSPropertyOp28
 70
     1
102
RTVSPropertyOp29
 70
     1
102
RTVSPropertyOp30
 70
     1
102
RTVSPropertyOp31
 70
     1
102
RTVSPropertyOp32
 70
     1
  0
XRECORD
  5
53D
102
{ACAD_REACTORS
330
53C
102
}
330
53C
100
AcDbXrecord
280
     1
102
RTVSPropertyOp0
 70
     1
102
RTVSPropertyOp1
 70
     1
102
RTVSPropertyOp2
 70
     1
102
RTVSPropertyOp3
 70
     1
102
RTVSPropertyOp4
 70
     1
102
RTVSPropertyOp5
 70
     1
102
RTVSPropertyOp6
 70
     1
102
RTVSPropertyOp7
 70
     1
102
RTVSPropertyOp8
 70
     1
102
RTVSPropertyOp9
 70
     1
102
RTVSPropertyOp10
 70
     1
102
RTVSPropertyOp11
 70
     1
102
RTVSPropertyOp12
 70
     1
102
RTVSPropertyOp13
 70
     1
102
RTVSPropertyOp14
 70
     1
102
RTVSPropertyOp15
 70
     1
102
RTVSPropertyOp16
 70
     1
102
RTVSPropertyOp17
 70
     1
102
RTVSPropertyOp18
 70
     1
102
RTVSPropertyOp19
 70
     1
102
RTVSPropertyOp20
 70
     1
102
RTVSPropertyOp21
 70
     1
102
RTVSPropertyOp22
 70
     1
102
RTVSPropertyOp23
 70
     1
102
RTVSPropertyOp24
 70
     1
102
RTVSPropertyOp25
 70
     1
102
RTVSPropertyOp26
 70
     1
102
RTVSPropertyOp27
 70
     1
102
RTVSPropertyOp28
 70
     1
102
RTVSPropertyOp29
 70
     1
102
RTVSPropertyOp30
 70
     1
102
RTVSPropertyOp31
 70
     1
102
RTVSPropertyOp32
 70
     1
  0
XRECORD
  5
545
102
{ACAD_REACTORS
330
544
102
}
330
544
100
AcDbXrecord
280
     1
102
RTVSPropertyOp0
 70
     1
102
RTVSPropertyOp1
 70
     1
102
RTVSPropertyOp2
 70
     1
102
RTVSPropertyOp3
 70
     1
102
RTVSPropertyOp4
 70
     1
102
RTVSPropertyOp5
 70
     1
102
RTVSPropertyOp6
 70
     1
102
RTVSPropertyOp7
 70
     1
102
RTVSPropertyOp8
 70
     1
102
RTVSPropertyOp9
 70
     1
102
RTVSPropertyOp10
 70
     1
102
RTVSPropertyOp11
 70
     1
102
RTVSPropertyOp12
 70
     1
102
RTVSPropertyOp13
 70
     1
102
RTVSPropertyOp14
 70
     1
102
RTVSPropertyOp15
 70
     1
102
RTVSPropertyOp16
 70
     1
102
RTVSPropertyOp17
 70
     1
102
RTVSPropertyOp18
 70
     1
102
RTVSPropertyOp19
 70
     1
102
RTVSPropertyOp20
 70
     1
102
RTVSPropertyOp21
 70
     1
102
RTVSPropertyOp22
 70
     1
102
RTVSPropertyOp23
 70
     1
102
RTVSPropertyOp24
 70
     1
102
RTVSPropertyOp25
 70
     1
102
RTVSPropertyOp26
 70
     1
102
RTVSPropertyOp27
 70
     1
102
RTVSPropertyOp28
 70
     1
102
RTVSPropertyOp29
 70
     1
102
RTVSPropertyOp30
 70
     1
102
RTVSPropertyOp31
 70
     1
102
RTVSPropertyOp32
 70
     1
  0
XRECORD
  5
561
102
{ACAD_REACTORS
330
560
102
}
330
560
100
AcDbXrecord
280
     1
102
RTVSPropertyOp0
 70
     0
102
RTVSPropertyOp1
 70
     0
102
RTVSPropertyOp2
 70
     0
102
RTVSPropertyOp3
 70
     0
102
RTVSPropertyOp4
 70
     0
102
RTVSPropertyOp5
 70
     0
102
RTVSPropertyOp6
 70
     0
102
RTVSPropertyOp7
 70
     0
102
RTVSPropertyOp8
 70
     0
102
RTVSPropertyOp9
 70
     0
102
RTVSPropertyOp10
 70
     0
102
RTVSPropertyOp11
 70
     0
102
RTVSPropertyOp12
 70
     0
102
RTVSPropertyOp13
 70
     0
102
RTVSPropertyOp14
 70
     2
102
RTVSPropertyOp15
 70
     0
102
RTVSPropertyOp16
 70
     0
102
RTVSPropertyOp17
 70
     0
102
RTVSPropertyOp18
 70
     0
102
RTVSPropertyOp19
 70
     0
102
RTVSPropertyOp20
 70
     0
102
RTVSPropertyOp21
 70
     0
102
RTVSPropertyOp22
 70
     0
102
RTVSPropertyOp23
 70
     0
102
RTVSPropertyOp24
 70
     0
102
RTVSPropertyOp25
 70
     0
102
RTVSPropertyOp26
 70
     0
102
RTVSPropertyOp27
 70
     0
102
RTVSPropertyOp28
 70
     0
102
RTVSPropertyOp29
 70
     0
102
RTVSPropertyOp30
 70
     0
102
RTVSPropertyOp31
 70
     0
102
RTVSPropertyOp32
 70
     0
  0
XRECORD
  5
551
102
{ACAD_REACTORS
330
550
102
}
330
550
100
AcDbXrecord
280
     1
102
RTVSPropertyOp0
 70
     1
102
RTVSPropertyOp1
 70
     1
102
RTVSPropertyOp2
 70
     1
102
RTVSPropertyOp3
 70
     1
102
RTVSPropertyOp4
 70
     1
102
RTVSPropertyOp5
 70
     1
102
RTVSPropertyOp6
 70
     1
102
RTVSPropertyOp7
 70
     1
102
RTVSPropertyOp8
 70
     1
102
RTVSPropertyOp9
 70
     1
102
RTVSPropertyOp10
 70
     1
102
RTVSPropertyOp11
 70
     1
102
RTVSPropertyOp12
 70
     1
102
RTVSPropertyOp13
 70
     1
102
RTVSPropertyOp14
 70
     1
102
RTVSPropertyOp15
 70
     1
102
RTVSPropertyOp16
 70
     1
102
RTVSPropertyOp17
 70
     1
102
RTVSPropertyOp18
 70
     1
102
RTVSPropertyOp19
 70
     1
102
RTVSPropertyOp20
 70
     1
102
RTVSPropertyOp21
 70
     1
102
RTVSPropertyOp22
 70
     1
102
RTVSPropertyOp23
 70
     1
102
RTVSPropertyOp24
 70
     1
102
RTVSPropertyOp25
 70
     1
102
RTVSPropertyOp26
 70
     1
102
RTVSPropertyOp27
 70
     1
102
RTVSPropertyOp28
 70
     1
102
RTVSPropertyOp29
 70
     1
102
RTVSPropertyOp30
 70
     1
102
RTVSPropertyOp31
 70
     1
102
RTVSPropertyOp32
 70
     1
  0
XRECORD
  5
563
102
{ACAD_REACTORS
330
562
102
}
330
562
100
AcDbXrecord
280
     1
102
RTVSPropertyOp0
 70
     0
102
RTVSPropertyOp1
 70
     0
102
RTVSPropertyOp2
 70
     0
102
RTVSPropertyOp3
 70
     0
102
RTVSPropertyOp4
 70
     0
102
RTVSPropertyOp5
 70
     0
102
RTVSPropertyOp6
 70
     0
102
RTVSPropertyOp7
 70
     0
102
RTVSPropertyOp8
 70
     0
102
RTVSPropertyOp9
 70
     0
102
RTVSPropertyOp10
 70
     0
102
RTVSPropertyOp11
 70
     0
102
RTVSPropertyOp12
 70
     0
102
RTVSPropertyOp13
 70
     0
102
RTVSPropertyOp14
 70
     2
102
RTVSPropertyOp15
 70
     0
102
RTVSPropertyOp16
 70
     0
102
RTVSPropertyOp17
 70
     0
102
RTVSPropertyOp18
 70
     0
102
RTVSPropertyOp19
 70
     0
102
RTVSPropertyOp20
 70
     0
102
RTVSPropertyOp21
 70
     0
102
RTVSPropertyOp22
 70
     0
102
RTVSPropertyOp23
 70
     0
102
RTVSPropertyOp24
 70
     0
102
RTVSPropertyOp25
 70
     0
102
RTVSPropertyOp26
 70
     0
102
RTVSPropertyOp27
 70
     0
102
RTVSPropertyOp28
 70
     0
102
RTVSPropertyOp29
 70
     0
102
RTVSPropertyOp30
 70
     0
102
RTVSPropertyOp31
 70
     0
102
RTVSPropertyOp32
 70
     0
  0
XRECORD
  5
549
102
{ACAD_REACTORS
330
548
102
}
330
548
100
AcDbXrecord
280
     1
102
RTVSPropertyOp0
 70
     1
102
RTVSPropertyOp1
 70
     1
102
RTVSPropertyOp2
 70
     1
102
RTVSPropertyOp3
 70
     1
102
RTVSPropertyOp4
 70
     1
102
RTVSPropertyOp5
 70
     1
102
RTVSPropertyOp6
 70
     1
102
RTVSPropertyOp7
 70
     1
102
RTVSPropertyOp8
 70
     1
102
RTVSPropertyOp9
 70
     1
102
RTVSPropertyOp10
 70
     1
102
RTVSPropertyOp11
 70
     1
102
RTVSPropertyOp12
 70
     1
102
RTVSPropertyOp13
 70
     1
102
RTVSPropertyOp14
 70
     1
102
RTVSPropertyOp15
 70
     1
102
RTVSPropertyOp16
 70
     1
102
RTVSPropertyOp17
 70
     1
102
RTVSPropertyOp18
 70
     1
102
RTVSPropertyOp19
 70
     1
102
RTVSPropertyOp20
 70
     1
102
RTVSPropertyOp21
 70
     1
102
RTVSPropertyOp22
 70
     1
102
RTVSPropertyOp23
 70
     1
102
RTVSPropertyOp24
 70
     1
102
RTVSPropertyOp25
 70
     1
102
RTVSPropertyOp26
 70
     1
102
RTVSPropertyOp27
 70
     1
102
RTVSPropertyOp28
 70
     1
102
RTVSPropertyOp29
 70
     1
102
RTVSPropertyOp30
 70
     1
102
RTVSPropertyOp31
 70
     1
102
RTVSPropertyOp32
 70
     1
  0
XRECORD
  5
55F
102
{ACAD_REACTORS
330
55E
102
}
330
55E
100
AcDbXrecord
280
     1
102
RTVSPropertyOp0
 70
     1
102
RTVSPropertyOp1
 70
     1
102
RTVSPropertyOp2
 70
     1
102
RTVSPropertyOp3
 70
     1
102
RTVSPropertyOp4
 70
     1
102
RTVSPropertyOp5
 70
     1
102
RTVSPropertyOp6
 70
     1
102
RTVSPropertyOp7
 70
     1
102
RTVSPropertyOp8
 70
     1
102
RTVSPropertyOp9
 70
     1
102
RTVSPropertyOp10
 70
     1
102
RTVSPropertyOp11
 70
     1
102
RTVSPropertyOp12
 70
     1
102
RTVSPropertyOp13
 70
     1
102
RTVSPropertyOp14
 70
     1
102
RTVSPropertyOp15
 70
     1
102
RTVSPropertyOp16
 70
     1
102
RTVSPropertyOp17
 70
     1
102
RTVSPropertyOp18
 70
     1
102
RTVSPropertyOp19
 70
     1
102
RTVSPropertyOp20
 70
     1
102
RTVSPropertyOp21
 70
     1
102
RTVSPropertyOp22
 70
     1
102
RTVSPropertyOp23
 70
     1
102
RTVSPropertyOp24
 70
     1
102
RTVSPropertyOp25
 70
     1
102
RTVSPropertyOp26
 70
     1
102
RTVSPropertyOp27
 70
     1
102
RTVSPropertyOp28
 70
     1
102
RTVSPropertyOp29
 70
     1
102
RTVSPropertyOp30
 70
     1
102
RTVSPropertyOp31
 70
     1
102
RTVSPropertyOp32
 70
     1
  0
XRECORD
  5
55D
102
{ACAD_REACTORS
330
55C
102
}
330
55C
100
AcDbXrecord
280
     1
102
RTVSPropertyOp0
 70
     1
102
RTVSPropertyOp1
 70
     1
102
RTVSPropertyOp2
 70
     1
102
RTVSPropertyOp3
 70
     1
102
RTVSPropertyOp4
 70
     1
102
RTVSPropertyOp5
 70
     1
102
RTVSPropertyOp6
 70
     1
102
RTVSPropertyOp7
 70
     1
102
RTVSPropertyOp8
 70
     1
102
RTVSPropertyOp9
 70
     1
102
RTVSPropertyOp10
 70
     1
102
RTVSPropertyOp11
 70
     1
102
RTVSPropertyOp12
 70
     1
102
RTVSPropertyOp13
 70
     1
102
RTVSPropertyOp14
 70
     1
102
RTVSPropertyOp15
 70
     1
102
RTVSPropertyOp16
 70
     1
102
RTVSPropertyOp17
 70
     1
102
RTVSPropertyOp18
 70
     1
102
RTVSPropertyOp19
 70
     1
102
RTVSPropertyOp20
 70
     1
102
RTVSPropertyOp21
 70
     1
102
RTVSPropertyOp22
 70
     1
102
RTVSPropertyOp23
 70
     1
102
RTVSPropertyOp24
 70
     1
102
RTVSPropertyOp25
 70
     1
102
RTVSPropertyOp26
 70
     1
102
RTVSPropertyOp27
 70
     1
102
RTVSPropertyOp28
 70
     1
102
RTVSPropertyOp29
 70
     1
102
RTVSPropertyOp30
 70
     1
102
RTVSPropertyOp31
 70
     1
102
RTVSPropertyOp32
 70
     1
  0
XRECORD
  5
557
102
{ACAD_REACTORS
330
556
102
}
330
556
100
AcDbXrecord
280
     1
102
RTVSPropertyOp0
 70
     1
102
RTVSPropertyOp1
 70
     1
102
RTVSPropertyOp2
 70
     1
102
RTVSPropertyOp3
 70
     1
102
RTVSPropertyOp4
 70
     1
102
RTVSPropertyOp5
 70
     1
102
RTVSPropertyOp6
 70
     1
102
RTVSPropertyOp7
 70
     1
102
RTVSPropertyOp8
 70
     1
102
RTVSPropertyOp9
 70
     1
102
RTVSPropertyOp10
 70
     1
102
RTVSPropertyOp11
 70
     1
102
RTVSPropertyOp12
 70
     1
102
RTVSPropertyOp13
 70
     1
102
RTVSPropertyOp14
 70
     1
102
RTVSPropertyOp15
 70
     1
102
RTVSPropertyOp16
 70
     1
102
RTVSPropertyOp17
 70
     1
102
RTVSPropertyOp18
 70
     1
102
RTVSPropertyOp19
 70
     1
102
RTVSPropertyOp20
 70
     1
102
RTVSPropertyOp21
 70
     1
102
RTVSPropertyOp22
 70
     1
102
RTVSPropertyOp23
 70
     1
102
RTVSPropertyOp24
 70
     1
102
RTVSPropertyOp25
 70
     1
102
RTVSPropertyOp26
 70
     1
102
RTVSPropertyOp27
 70
     1
102
RTVSPropertyOp28
 70
     1
102
RTVSPropertyOp29
 70
     1
102
RTVSPropertyOp30
 70
     1
102
RTVSPropertyOp31
 70
     1
102
RTVSPropertyOp32
 70
     1
  0
XRECORD
  5
559
102
{ACAD_REACTORS
330
558
102
}
330
558
100
AcDbXrecord
280
     1
102
RTVSPropertyOp0
 70
     1
102
RTVSPropertyOp1
 70
     1
102
RTVSPropertyOp2
 70
     1
102
RTVSPropertyOp3
 70
     1
102
RTVSPropertyOp4
 70
     1
102
RTVSPropertyOp5
 70
     1
102
RTVSPropertyOp6
 70
     1
102
RTVSPropertyOp7
 70
     1
102
RTVSPropertyOp8
 70
     1
102
RTVSPropertyOp9
 70
     1
102
RTVSPropertyOp10
 70
     1
102
RTVSPropertyOp11
 70
     1
102
RTVSPropertyOp12
 70
     1
102
RTVSPropertyOp13
 70
     1
102
RTVSPropertyOp14
 70
     1
102
RTVSPropertyOp15
 70
     1
102
RTVSPropertyOp16
 70
     1
102
RTVSPropertyOp17
 70
     1
102
RTVSPropertyOp18
 70
     1
102
RTVSPropertyOp19
 70
     1
102
RTVSPropertyOp20
 70
     1
102
RTVSPropertyOp21
 70
     1
102
RTVSPropertyOp22
 70
     1
102
RTVSPropertyOp23
 70
     1
102
RTVSPropertyOp24
 70
     1
102
RTVSPropertyOp25
 70
     1
102
RTVSPropertyOp26
 70
     1
102
RTVSPropertyOp27
 70
     1
102
RTVSPropertyOp28
 70
     1
102
RTVSPropertyOp29
 70
     1
102
RTVSPropertyOp30
 70
     1
102
RTVSPropertyOp31
 70
     1
102
RTVSPropertyOp32
 70
     1
  0
XRECORD
  5
54F
102
{ACAD_REACTORS
330
54E
102
}
330
54E
100
AcDbXrecord
280
     1
102
RTVSPropertyOp0
 70
     1
102
RTVSPropertyOp1
 70
     1
102
RTVSPropertyOp2
 70
     1
102
RTVSPropertyOp3
 70
     1
102
RTVSPropertyOp4
 70
     1
102
RTVSPropertyOp5
 70
     1
102
RTVSPropertyOp6
 70
     1
102
RTVSPropertyOp7
 70
     1
102
RTVSPropertyOp8
 70
     1
102
RTVSPropertyOp9
 70
     1
102
RTVSPropertyOp10
 70
     1
102
RTVSPropertyOp11
 70
     1
102
RTVSPropertyOp12
 70
     1
102
RTVSPropertyOp13
 70
     1
102
RTVSPropertyOp14
 70
     1
102
RTVSPropertyOp15
 70
     1
102
RTVSPropertyOp16
 70
     1
102
RTVSPropertyOp17
 70
     1
102
RTVSPropertyOp18
 70
     1
102
RTVSPropertyOp19
 70
     1
102
RTVSPropertyOp20
 70
     1
102
RTVSPropertyOp21
 70
     1
102
RTVSPropertyOp22
 70
     1
102
RTVSPropertyOp23
 70
     1
102
RTVSPropertyOp24
 70
     1
102
RTVSPropertyOp25
 70
     1
102
RTVSPropertyOp26
 70
     1
102
RTVSPropertyOp27
 70
     1
102
RTVSPropertyOp28
 70
     1
102
RTVSPropertyOp29
 70
     1
102
RTVSPropertyOp30
 70
     1
102
RTVSPropertyOp31
 70
     1
102
RTVSPropertyOp32
 70
     1
  0
XRECORD
  5
543
102
{ACAD_REACTORS
330
542
102
}
330
542
100
AcDbXrecord
280
     1
102
RTVSPropertyOp0
 70
     1
102
RTVSPropertyOp1
 70
     1
102
RTVSPropertyOp2
 70
     1
102
RTVSPropertyOp3
 70
     1
102
RTVSPropertyOp4
 70
     1
102
RTVSPropertyOp5
 70
     1
102
RTVSPropertyOp6
 70
     1
102
RTVSPropertyOp7
 70
     1
102
RTVSPropertyOp8
 70
     1
102
RTVSPropertyOp9
 70
     1
102
RTVSPropertyOp10
 70
     1
102
RTVSPropertyOp11
 70
     1
102
RTVSPropertyOp12
 70
     1
102
RTVSPropertyOp13
 70
     1
102
RTVSPropertyOp14
 70
     1
102
RTVSPropertyOp15
 70
     1
102
RTVSPropertyOp16
 70
     1
102
RTVSPropertyOp17
 70
     1
102
RTVSPropertyOp18
 70
     1
102
RTVSPropertyOp19
 70
     1
102
RTVSPropertyOp20
 70
     1
102
RTVSPropertyOp21
 70
     1
102
RTVSPropertyOp22
 70
     1
102
RTVSPropertyOp23
 70
     1
102
RTVSPropertyOp24
 70
     1
102
RTVSPropertyOp25
 70
     1
102
RTVSPropertyOp26
 70
     1
102
RTVSPropertyOp27
 70
     1
102
RTVSPropertyOp28
 70
     1
102
RTVSPropertyOp29
 70
     1
102
RTVSPropertyOp30
 70
     1
102
RTVSPropertyOp31
 70
     1
102
RTVSPropertyOp32
 70
     1
  0
XRECORD
  5
55B
102
{ACAD_REACTORS
330
55A
102
}
330
55A
100
AcDbXrecord
280
     1
102
RTVSPropertyOp0
 70
     1
102
RTVSPropertyOp1
 70
     1
102
RTVSPropertyOp2
 70
     1
102
RTVSPropertyOp3
 70
     1
102
RTVSPropertyOp4
 70
     1
102
RTVSPropertyOp5
 70
     1
102
RTVSPropertyOp6
 70
     1
102
RTVSPropertyOp7
 70
     1
102
RTVSPropertyOp8
 70
     1
102
RTVSPropertyOp9
 70
     1
102
RTVSPropertyOp10
 70
     1
102
RTVSPropertyOp11
 70
     1
102
RTVSPropertyOp12
 70
     1
102
RTVSPropertyOp13
 70
     1
102
RTVSPropertyOp14
 70
     1
102
RTVSPropertyOp15
 70
     1
102
RTVSPropertyOp16
 70
     1
102
RTVSPropertyOp17
 70
     1
102
RTVSPropertyOp18
 70
     1
102
RTVSPropertyOp19
 70
     1
102
RTVSPropertyOp20
 70
     1
102
RTVSPropertyOp21
 70
     1
102
RTVSPropertyOp22
 70
     1
102
RTVSPropertyOp23
 70
     1
102
RTVSPropertyOp24
 70
     1
102
RTVSPropertyOp25
 70
     1
102
RTVSPropertyOp26
 70
     1
102
RTVSPropertyOp27
 70
     1
102
RTVSPropertyOp28
 70
     1
102
RTVSPropertyOp29
 70
     1
102
RTVSPropertyOp30
 70
     1
102
RTVSPropertyOp31
 70
     1
102
RTVSPropertyOp32
 70
     1
  0
ENDSEC
  0
EOF
