  0
SECTION
  2
HEADER
  9
$ACADVER
  1
AC1015
  9
$ACADMAINTVER
 70
    20
  9
$DWGCODEPAGE
  3
ANSI_932
  9
$INSBASE
 10
0.0
 20
0.0
 30
0.0
  9
$EXTMIN
 10
-32.04675226873064
 20
94.96336271155668
 30
0.0
  9
$EXTMAX
 10
381.9169536327613
 20
304.9633627115567
 30
0.0
  9
$LIMMIN
 10
84.90104479544198
 20
94.97670044291808
  9
$LIMMAX
 10
381.9328746294264
 20
304.9500280796369
  9
$ORTHOMODE
 70
     1
  9
$REGENMODE
 70
     1
  9
$FILLMODE
 70
     1
  9
$QTEXTMODE
 70
     0
  9
$MIRRTEXT
 70
     0
  9
$LTSCALE
 40
1.0
  9
$ATTMODE
 70
     1
  9
$TEXTSIZE
 40
4.0
  9
$TRACEWID
 40
1.0
  9
$TEXTSTYLE
  7
ATOM
  9
$CLAYER
  8
text
  9
$CELTYPE
  6
ByLayer
  9
$CECOLOR
 62
   256
  9
$CELTSCALE
 40
1.0
  9
$DISPSILH
 70
     0
  9
$DIMSCALE
 40
0.0
  9
$DIMASZ
 40
2.0
  9
$DIMEXO
 40
2.0
  9
$DIMDLI
 40
7.0
  9
$DIMRND
 40
0.0
  9
$DIMDLE
 40
0.0
  9
$DIMEXE
 40
1.0
  9
$DIMTP
 40
0.1
  9
$DIMTM
 40
0.1
  9
$DIMTXT
 40
3.0
  9
$DIMCEN
 40
-2.5
  9
$DIMTSZ
 40
0.0
  9
$DIMTOL
 70
     0
  9
$DIMLIM
 70
     0
  9
$DIMTIH
 70
     0
  9
$DIMTOH
 70
     0
  9
$DIMSE1
 70
     0
  9
$DIMSE2
 70
     0
  9
$DIMTAD
 70
     1
  9
$DIMZIN
 70
     8
  9
$DIMBLK
  1
Open30
  9
$DIMASO
 70
     1
  9
$DIMSHO
 70
     1
  9
$DIMPOST
  1

  9
$DIMAPOST
  1

  9
$DIMALT
 70
     0
  9
$DIMALTD
 70
     3
  9
$DIMALTF
 40
0.03937007874016
  9
$DIMLFAC
 40
1.0
  9
$DIMTOFL
 70
     1
  9
$DIMTVP
 40
0.0
  9
$DIMTIX
 70
     0
  9
$DIMSOXD
 70
     0
  9
$DIMSAH
 70
     0
  9
$DIMBLK1
  1

  9
$DIMBLK2
  1

  9
$DIMSTYLE
  2
ATOM
  9
$DIMCLRD
 70
     0
  9
$DIMCLRE
 70
     0
  9
$DIMCLRT
 70
     3
  9
$DIMTFAC
 40
0.4999999999999999
  9
$DIMGAP
 40
0.625
  9
$DIMJUST
 70
     0
  9
$DIMSD1
 70
     0
  9
$DIMSD2
 70
     0
  9
$DIMTOLJ
 70
     0
  9
$DIMTZIN
 70
     8
  9
$DIMALTZ
 70
     0
  9
$DIMALTTZ
 70
     0
  9
$DIMUPT
 70
     0
  9
$DIMDEC
 70
     2
  9
$DIMTDEC
 70
     2
  9
$DIMALTU
 70
     2
  9
$DIMALTTD
 70
     3
  9
$DIMTXSTY
  7
ATOM
  9
$DIMAUNIT
 70
     0
  9
$DIMADEC
 70
     0
  9
$DIMALTRND
 40
0.0
  9
$DIMAZIN
 70
     0
  9
$DIMDSEP
 70
    46
  9
$DIMATFIT
 70
     0
  9
$DIMFRAC
 70
     2
  9
$DIMLDRBLK
  1
Open30
  9
$DIMLUNIT
 70
     2
  9
$DIMLWD
 70
    -2
  9
$DIMLWE
 70
    -2
  9
$DIMTMOVE
 70
     1
  9
$LUNITS
 70
     2
  9
$LUPREC
 70
     4
  9
$SKETCHINC
 40
1.0
  9
$FILLETRAD
 40
0.0
  9
$AUNITS
 70
     0
  9
$AUPREC
 70
     0
  9
$MENU
  1
.
  9
$ELEVATION
 40
0.0
  9
$PELEVATION
 40
0.0
  9
$THICKNESS
 40
0.0
  9
$LIMCHECK
 70
     0
  9
$CHAMFERA
 40
0.0
  9
$CHAMFERB
 40
0.0
  9
$CHAMFERC
 40
0.0
  9
$CHAMFERD
 40
0.0
  9
$SKPOLY
 70
     0
  9
$TDCREATE
 40
2456542.471438831
  9
$TDUCREATE
 40
2456542.096438831
  9
$TDUPDATE
 40
2457574.415258091
  9
$TDUUPDATE
 40
2457574.040258091
  9
$TDINDWG
 40
0.0052296528
  9
$TDUSRTIMER
 40
0.0052296528
  9
$USRTIMER
 70
     1
  9
$ANGBASE
 50
0.0
  9
$ANGDIR
 70
     0
  9
$PDMODE
 70
     0
  9
$PDSIZE
 40
0.0
  9
$PLINEWID
 40
0.0
  9
$SPLFRAME
 70
     0
  9
$SPLINETYPE
 70
     6
  9
$SPLINESEGS
 70
     8
  9
$HANDSEED
  5
9C0
  9
$SURFTAB1
 70
     6
  9
$SURFTAB2
 70
     6
  9
$SURFTYPE
 70
     6
  9
$SURFU
 70
     6
  9
$SURFV
 70
     6
  9
$UCSBASE
  2

  9
$UCSNAME
  2

  9
$UCSORG
 10
0.0
 20
0.0
 30
0.0
  9
$UCSXDIR
 10
1.0
 20
0.0
 30
0.0
  9
$UCSYDIR
 10
0.0
 20
1.0
 30
0.0
  9
$UCSORTHOREF
  2

  9
$UCSORTHOVIEW
 70
     0
  9
$UCSORGTOP
 10
0.0
 20
0.0
 30
0.0
  9
$UCSORGBOTTOM
 10
0.0
 20
0.0
 30
0.0
  9
$UCSORGLEFT
 10
0.0
 20
0.0
 30
0.0
  9
$UCSORGRIGHT
 10
0.0
 20
0.0
 30
0.0
  9
$UCSORGFRONT
 10
0.0
 20
0.0
 30
0.0
  9
$UCSORGBACK
 10
0.0
 20
0.0
 30
0.0
  9
$PUCSBASE
  2

  9
$PUCSNAME
  2

  9
$PUCSORG
 10
0.0
 20
0.0
 30
0.0
  9
$PUCSXDIR
 10
1.0
 20
0.0
 30
0.0
  9
$PUCSYDIR
 10
0.0
 20
1.0
 30
0.0
  9
$PUCSORTHOREF
  2

  9
$PUCSORTHOVIEW
 70
     0
  9
$PUCSORGTOP
 10
0.0
 20
0.0
 30
0.0
  9
$PUCSORGBOTTOM
 10
0.0
 20
0.0
 30
0.0
  9
$PUCSORGLEFT
 10
0.0
 20
0.0
 30
0.0
  9
$PUCSORGRIGHT
 10
0.0
 20
0.0
 30
0.0
  9
$PUCSORGFRONT
 10
0.0
 20
0.0
 30
0.0
  9
$PUCSORGBACK
 10
0.0
 20
0.0
 30
0.0
  9
$USERI1
 70
     0
  9
$USERI2
 70
     0
  9
$USERI3
 70
     0
  9
$USERI4
 70
     0
  9
$USERI5
 70
     0
  9
$USERR1
 40
0.0
  9
$USERR2
 40
0.0
  9
$USERR3
 40
0.0
  9
$USERR4
 40
0.0
  9
$USERR5
 40
0.0
  9
$WORLDVIEW
 70
     1
  9
$SHADEDGE
 70
     3
  9
$SHADEDIF
 70
    70
  9
$TILEMODE
 70
     1
  9
$MAXACTVP
 70
    64
  9
$PINSBASE
 10
0.0
 20
0.0
 30
0.0
  9
$PLIMCHECK
 70
     0
  9
$PEXTMIN
 10
1.000000000000000E+20
 20
1.000000000000000E+20
 30
1.000000000000000E+20
  9
$PEXTMAX
 10
-1.000000000000000E+20
 20
-1.000000000000000E+20
 30
-1.000000000000000E+20
  9
$PLIMMIN
 10
0.0
 20
0.0
  9
$PLIMMAX
 10
12.0
 20
9.0
  9
$UNITMODE
 70
     0
  9
$VISRETAIN
 70
     1
  9
$PLINEGEN
 70
     0
  9
$PSLTSCALE
 70
     1
  9
$TREEDEPTH
 70
  3020
  9
$CMLSTYLE
  2
Standard
  9
$CMLJUST
 70
     0
  9
$CMLSCALE
 40
10.0
  9
$PROXYGRAPHICS
 70
     1
  9
$MEASUREMENT
 70
     1
  9
$CELWEIGHT
370
    -1
  9
$ENDCAPS
280
     0
  9
$JOINSTYLE
280
     0
  9
$LWDISPLAY
290
     0
  9
$INSUNITS
 70
     4
  9
$HYPERLINKBASE
  1

  9
$STYLESHEET
  1

  9
$XEDIT
290
     1
  9
$CEPSNTYPE
380
     0
  9
$PSTYLEMODE
290
     0
  9
$FINGERPRINTGUID
  2
{1F35CFD3-7829-4AA4-8412-AF834AFA0C4E}
  9
$VERSIONGUID
  2
{05C4C5C1-93CC-4265-B8BC-724B14D4622E}
  9
$EXTNAMES
290
     1
  9
$PSVPSCALE
 40
0.0
  9
$OLESTARTUP
290
     0
  0
ENDSEC
  0
SECTION
  2
CLASSES
  0
CLASS
  1
ACDBDICTIONARYWDFLT
  2
AcDbDictionaryWithDefault
  3
ObjectDBX Classes
 90
        0
280
     0
281
     0
  0
CLASS
  1
MATERIAL
  2
AcDbMaterial
  3
ObjectDBX Classes
 90
     1153
280
     0
281
     0
  0
CLASS
  1
VISUALSTYLE
  2
AcDbVisualStyle
  3
ObjectDBX Classes
 90
     4095
280
     0
281
     0
  0
CLASS
  1
SCALE
  2
AcDbScale
  3
ObjectDBX Classes
 90
     1153
280
     0
281
     0
  0
CLASS
  1
TABLESTYLE
  2
AcDbTableStyle
  3
ObjectDBX Classes
 90
     4095
280
     0
281
     0
  0
CLASS
  1
MLEADERSTYLE
  2
AcDbMLeaderStyle
  3
ACDB_MLEADERSTYLE_CLASS
 90
     4095
280
     0
281
     0
  0
CLASS
  1
MULTILEADER
  2
AcDbMLeader
  3
ACDB_MLEADER_CLASS
 90
     1025
280
     0
281
     1
  0
CLASS
  1
ACDB_MLEADEROBJECTCONTEXTDATA_CLASS
  2
AcDbMLeaderObjectContextData
  3
ObjectDBX Classes
 90
    33921
280
     0
281
     0
  0
CLASS
  1
ACDB_ALDIMOBJECTCONTEXTDATA_CLASS
  2
AcDbAlignedDimensionObjectContextData
  3
ObjectDBX Classes
 90
    33921
280
     0
281
     0
  0
CLASS
  1
DIMASSOC
  2
AcDbDimAssoc
  3
"AcDbDimAssoc|Product Desc:     AcDim ARX App For Dimension|Company:          Autodesk, Inc.|WEB Address:      www.autodesk.com"
 90
        0
280
     0
281
     0
  0
CLASS
  1
SORTENTSTABLE
  2
AcDbSortentsTable
  3
ObjectDBX Classes
 90
        0
280
     0
281
     0
  0
CLASS
  1
ACDB_MTEXTATTRIBUTEOBJECTCONTEXTDATA_CLASS
  2
AcDbMTextAttributeObjectContextData
  3
ObjectDBX Classes
 90
     1153
280
     0
281
     0
  0
CLASS
  1
DICTIONARYVAR
  2
AcDbDictionaryVar
  3
ObjectDBX Classes
 90
        0
280
     0
281
     0
  0
CLASS
  1
CELLSTYLEMAP
  2
AcDbCellStyleMap
  3
ObjectDBX Classes
 90
     1152
280
     0
281
     0
  0
CLASS
  1
ACDBPLACEHOLDER
  2
AcDbPlaceHolder
  3
ObjectDBX Classes
 90
        0
280
     0
281
     0
  0
CLASS
  1
LAYOUT
  2
AcDbLayout
  3
ObjectDBX Classes
 90
        0
280
     0
281
     0
  0
ENDSEC
  0
SECTION
  2
TABLES
  0
TABLE
  2
VPORT
  5
8
330
0
100
AcDbSymbolTable
 70
     1
  0
VPORT
  5
57
330
8
100
AcDbSymbolTableRecord
100
AcDbViewportTableRecord
  2
*Active
 70
     0
 10
0.0
 20
0.0
 11
1.0
 21
1.0
 12
102.6922676403873
 22
198.1748016847788
 13
0.0
 23
0.0
 14
10.0
 24
10.0
 15
10.0
 25
10.0
 16
0.0
 26
0.0
 36
1.0
 17
0.0
 27
0.0
 37
0.0
 40
392.4270700497165
 41
2.01418439716312
 42
50.0
 43
0.0
 44
0.0
 50
0.0
 51
0.0
 71
     0
 72
  1000
 73
     1
 74
     1
 75
     0
 76
     0
 77
     0
 78
     0
281
     0
 65
     1
110
0.0
120
0.0
130
0.0
111
1.0
121
0.0
131
0.0
112
0.0
122
1.0
132
0.0
 79
     0
146
0.0
1001
ACAD_NAV_VCDISPLAY
1070
     3
  0
ENDTAB
  0
TABLE
  2
LTYPE
  5
5
330
0
100
AcDbSymbolTable
 70
     4
  0
LTYPE
  5
5B
330
5
100
AcDbSymbolTableRecord
100
AcDbLinetypeTableRecord
  2
ByBlock
 70
     0
  3

 72
    65
 73
     0
 40
0.0
  0
LTYPE
  5
5C
330
5
100
AcDbSymbolTableRecord
100
AcDbLinetypeTableRecord
  2
ByLayer
 70
     0
  3

 72
    65
 73
     0
 40
0.0
  0
LTYPE
  5
5D
330
5
100
AcDbSymbolTableRecord
100
AcDbLinetypeTableRecord
  2
Continuous
 70
     0
  3
Solid line
 72
    65
 73
     0
 40
0.0
  0
LTYPE
  5
77
330
5
100
AcDbSymbolTableRecord
100
AcDbLinetypeTableRecord
  2
JIS_08_15
 70
     0
  3
1SASEN15 ____ _ ____ _ ____ _ ____ _ ____
 72
    65
 73
     4
 40
17.25
 49
15.0
 74
     0
 49
-0.75
 74
     0
 49
0.75
 74
     0
 49
-0.75
 74
     0
  0
LTYPE
  5
78
330
5
100
AcDbSymbolTableRecord
100
AcDbLinetypeTableRecord
  2
JIS_02_1.0
 70
     0
  3
HIDDEN01 _ _ _ _ _ _ _ _ _ _ _ _ _ _ _ _ _
 72
    65
 73
     2
 40
2.0
 49
1.0
 74
     0
 49
-1.0
 74
     0
  0
ENDTAB
  0
TABLE
  2
LAYER
  5
2
330
0
100
AcDbSymbolTable
 70
    10
  0
LAYER
  5
54
102
{ACAD_XDICTIONARY
360
8F9
102
}
330
2
100
AcDbSymbolTableRecord
100
AcDbLayerTableRecord
  2
0
 70
     0
 62
     7
  6
Continuous
370
    35
390
87
1001
AcAecLayerStandard
1000

1000

  0
LAYER
  5
75
330
2
100
AcDbSymbolTableRecord
100
AcDbLayerTableRecord
  2
Defpoints
 70
     0
 62
     7
  6
Continuous
290
     0
370
    -3
390
87
1001
AcAecLayerStandard
1000

1000

  0
LAYER
  5
9B
102
{ACAD_XDICTIONARY
360
9C
102
}
330
2
100
AcDbSymbolTableRecord
100
AcDbLayerTableRecord
  2
viewports
 70
     0
 62
     5
  6
Continuous
290
     0
370
    18
390
87
1001
AcAecLayerStandard
1000

1000

  0
LAYER
  5
A2
102
{ACAD_XDICTIONARY
360
A3
102
}
330
2
100
AcDbSymbolTableRecord
100
AcDbLayerTableRecord
  2
text
 70
     0
 62
     3
  6
Continuous
370
    18
390
87
1001
AcAecLayerStandard
1000

1000

  0
LAYER
  5
AE
102
{ACAD_XDICTIONARY
360
8FB
102
}
330
2
100
AcDbSymbolTableRecord
100
AcDbLayerTableRecord
  2
カバー
 70
     0
 62
     1
  6
Continuous
370
    18
390
87
1001
AcAecLayerStandard
1000

1000

  0
LAYER
  5
B6
102
{ACAD_XDICTIONARY
360
B7
102
}
330
2
100
AcDbSymbolTableRecord
100
AcDbLayerTableRecord
  2
dim
 70
     0
 62
     2
  6
Continuous
370
    18
390
87
1001
AcAecLayerStandard
1000

1000

  0
LAYER
  5
D3
102
{ACAD_XDICTIONARY
360
D4
102
}
330
2
100
AcDbSymbolTableRecord
100
AcDbLayerTableRecord
  2
guide
 70
     0
 62
     1
  6
Continuous
290
     0
370
    18
390
87
1001
AcAecLayerStandard
1000

1000

  0
LAYER
  5
145
102
{ACAD_XDICTIONARY
360
8FD
102
}
330
2
100
AcDbSymbolTableRecord
100
AcDbLayerTableRecord
  2
AFD-3400
 70
     0
 62
     4
  6
Continuous
370
    18
390
87
1001
AcAecLayerStandard
1000

1000

  0
LAYER
  5
185
102
{ACAD_XDICTIONARY
360
186
102
}
330
2
100
AcDbSymbolTableRecord
100
AcDbLayerTableRecord
  2
center
 70
     0
 62
     2
  6
JIS_08_15
370
    18
390
87
1001
AcAecLayerStandard
1000

1000

  0
LAYER
  5
571
102
{ACAD_XDICTIONARY
360
572
102
}
330
2
100
AcDbSymbolTableRecord
100
AcDbLayerTableRecord
  2
frame
 70
     0
 62
     4
  6
Continuous
370
    18
390
87
1001
AcAecLayerStandard
1000

1000

  0
ENDTAB
  0
TABLE
  2
STYLE
  5
3
330
0
100
AcDbSymbolTable
 70
     4
  0
STYLE
  5
55
330
3
100
AcDbSymbolTableRecord
100
AcDbTextStyleTableRecord
  2
Standard
 70
     0
 40
0.0
 41
1.0
 50
0.0
 71
     0
 42
2.5
  3
txt
  4

  0
STYLE
  5
5A
330
3
100
AcDbSymbolTableRecord
100
AcDbTextStyleTableRecord
  2
Annotative
 70
     0
 40
0.0
 41
1.0
 50
0.0
 71
     0
 42
0.2
  3
txt
  4

1001
AcadAnnotative
1000
AnnotativeData
1002
{
1070
     1
1070
     1
1002
}
  0
STYLE
  5
76
330
3
100
AcDbSymbolTableRecord
100
AcDbTextStyleTableRecord
  2
ATOM
 70
     0
 40
0.0
 41
0.9
 50
0.0
 71
     0
 42
4.0
  3
txt.shx
  4
extfont.shx
1001
AcadAnnotative
1000
AnnotativeData
1002
{
1070
     1
1070
     1
1002
}
  0
STYLE
  5
97A
330
3
100
AcDbSymbolTableRecord
100
AcDbTextStyleTableRecord
  2
ATOM_KANJI
 70
     0
 40
0.0
 41
0.9
 50
0.0
 71
     0
 42
3.0
  3
txt.shx
  4
extfont.shx
  0
ENDTAB
  0
TABLE
  2
VIEW
  5
6
330
0
100
AcDbSymbolTable
 70
     0
  0
ENDTAB
  0
TABLE
  2
UCS
  5
7
330
0
100
AcDbSymbolTable
 70
     0
  0
ENDTAB
  0
TABLE
  2
APPID
  5
9
330
0
100
AcDbSymbolTable
 70
    13
  0
APPID
  5
56
330
9
100
AcDbSymbolTableRecord
100
AcDbRegAppTableRecord
  2
ACAD
 70
     0
  0
APPID
  5
5E
330
9
100
AcDbSymbolTableRecord
100
AcDbRegAppTableRecord
  2
AcadAnnotative
 70
     0
  0
APPID
  5
74
330
9
100
AcDbSymbolTableRecord
100
AcDbRegAppTableRecord
  2
ACAD_PSEXT
 70
     0
  0
APPID
  5
82
330
9
100
AcDbSymbolTableRecord
100
AcDbRegAppTableRecord
  2
ACAD_DSTYLE_DIMBREAK
 70
     0
  0
APPID
  5
83
330
9
100
AcDbSymbolTableRecord
100
AcDbRegAppTableRecord
  2
ACAD_DSTYLE_DIMJAG
 70
     0
  0
APPID
  5
84
330
9
100
AcDbSymbolTableRecord
100
AcDbRegAppTableRecord
  2
ACAD_DSTYLE_DIMTALN
 70
     0
  0
APPID
  5
9E
330
9
100
AcDbSymbolTableRecord
100
AcDbRegAppTableRecord
  2
AcAecLayerStandard
 70
     0
  0
APPID
  5
579
330
9
100
AcDbSymbolTableRecord
100
AcDbRegAppTableRecord
  2
AcDbBlockRepETag
 70
     0
  0
APPID
  5
669
330
9
100
AcDbSymbolTableRecord
100
AcDbRegAppTableRecord
  2
AcDbDynamicBlockGUID
 70
     0
  0
APPID
  5
906
330
9
100
AcDbSymbolTableRecord
100
AcDbRegAppTableRecord
  2
ACAD_NAV_VCDISPLAY
 70
     0
  0
APPID
  5
943
330
9
100
AcDbSymbolTableRecord
100
AcDbRegAppTableRecord
  2
ACAD_MLEADERVER
 70
     0
  0
APPID
  5
94A
330
9
100
AcDbSymbolTableRecord
100
AcDbRegAppTableRecord
  2
AcDbAttr
 70
     0
  0
APPID
  5
97B
330
9
100
AcDbSymbolTableRecord
100
AcDbRegAppTableRecord
  2
ACAD_EXEMPT_FROM_CAD_STANDARDS
 70
     0
  0
ENDTAB
  0
TABLE
  2
DIMSTYLE
  5
A
330
0
100
AcDbSymbolTable
 70
     4
100
AcDbDimStyleTable
 71
     1
340
7A
  0
DIMSTYLE
105
58
330
A
100
AcDbSymbolTableRecord
100
AcDbDimStyleTableRecord
  2
Standard
 70
     0
340
55
  0
DIMSTYLE
105
59
330
A
100
AcDbSymbolTableRecord
100
AcDbDimStyleTableRecord
  2
Annotative
 70
     0
340
55
1001
AcadAnnotative
1000
AnnotativeData
1002
{
1070
     1
1070
     1
1002
}
  0
DIMSTYLE
105
7A
330
A
100
AcDbSymbolTableRecord
100
AcDbDimStyleTableRecord
  2
ATOM
 70
     0
 40
0.0
 41
2.0
 42
2.0
 43
7.0
 44
1.0
 47
0.1
 48
0.1
 73
     0
 74
     0
 77
     1
 78
     8
140
3.0
141
-2.5
143
0.03937007874016
146
0.4999999999999999
147
0.625
171
     3
172
     1
178
     3
271
     2
272
     2
274
     3
276
     2
279
     1
283
     0
284
     8
289
     0
340
76
341
7C
342
7C
1001
ACAD_DSTYLE_DIMBREAK
1070
   391
1040
3.75
1001
AcadAnnotative
1000
AnnotativeData
1002
{
1070
     1
1070
     1
1002
}
1001
ACAD_DSTYLE_DIMJAG
1070
   388
1040
1.5
1001
ACAD_DSTYLE_DIMTALN
1070
   392
1070
     0
  0
DIMSTYLE
105
85
330
A
100
AcDbSymbolTableRecord
100
AcDbDimStyleTableRecord
  2
ATOM_MODEL
 70
     0
 40
0.0
 41
2.399999999999999
 42
0.625
 43
7.5
 44
1.25
 47
0.1
 48
0.1
 73
     0
 74
     0
 77
     1
 78
     8
140
3.0
141
-2.5
143
0.03937007874016
146
0.4999999999999998
147
0.625
171
     3
172
     1
176
     2
177
     2
178
     3
179
     2
271
     2
272
     2
274
     3
276
     2
283
     0
284
     8
340
55
341
7C
342
7C
  0
ENDTAB
  0
TABLE
  2
BLOCK_RECORD
  5
1
330
0
100
AcDbSymbolTable
 70
    25
  0
BLOCK_RECORD
  5
6C
102
{ACAD_XDICTIONARY
360
56E
102
}
330
1
100
AcDbSymbolTableRecord
100
AcDbBlockTableRecord
  2
*Model_Space
340
6F
  0
BLOCK_RECORD
  5
68
330
1
100
AcDbSymbolTableRecord
100
AcDbBlockTableRecord
  2
*Paper_Space
340
6B
  0
BLOCK_RECORD
  5
70
330
1
100
AcDbSymbolTableRecord
100
AcDbBlockTableRecord
  2
*Paper_Space0
340
73
  0
BLOCK_RECORD
  5
7C
330
1
100
AcDbSymbolTableRecord
100
AcDbBlockTableRecord
  2
_Open30
340
0
310
2800000020000000200000000100080000000000000400000000000000000000000000000000000000000000000080000080000000808000800000008000800080800000C0C0C000C0DCC000F0CAA6000020400000206000002080000020A0000020C0000020E00000400000004020000040400000406000004080000040A0
310
000040C0000040E00000600000006020000060400000606000006080000060A0000060C0000060E00000800000008020000080400000806000008080000080A0000080C0000080E00000A0000000A0200000A0400000A0600000A0800000A0A00000A0C00000A0E00000C0000000C0200000C0400000C0600000C0800000C0
310
A00000C0C00000C0E00000E0000000E0200000E0400000E0600000E0800000E0A00000E0C00000E0E00040000000400020004000400040006000400080004000A0004000C0004000E00040200000402020004020400040206000402080004020A0004020C0004020E000404000004040200040404000404060004040800040
310
40A0004040C0004040E00040600000406020004060400040606000406080004060A0004060C0004060E00040800000408020004080400040806000408080004080A0004080C0004080E00040A0000040A0200040A0400040A0600040A0800040A0A00040A0C00040A0E00040C0000040C0200040C0400040C0600040C08000
310
40C0A00040C0C00040C0E00040E0000040E0200040E0400040E0600040E0800040E0A00040E0C00040E0E00080000000800020008000400080006000800080008000A0008000C0008000E00080200000802020008020400080206000802080008020A0008020C0008020E00080400000804020008040400080406000804080
310
008040A0008040C0008040E00080600000806020008060400080606000806080008060A0008060C0008060E00080800000808020008080400080806000808080008080A0008080C0008080E00080A0000080A0200080A0400080A0600080A0800080A0A00080A0C00080A0E00080C0000080C0200080C0400080C0600080C0
310
800080C0A00080C0C00080C0E00080E0000080E0200080E0400080E0600080E0800080E0A00080E0C00080E0E000C0000000C0002000C0004000C0006000C0008000C000A000C000C000C000E000C0200000C0202000C0204000C0206000C0208000C020A000C020C000C020E000C0400000C0402000C0404000C0406000C0
310
408000C040A000C040C000C040E000C0600000C0602000C0604000C0606000C0608000C060A000C060C000C060E000C0800000C0802000C0804000C0806000C0808000C080A000C080C000C080E000C0A00000C0A02000C0A04000C0A06000C0A08000C0A0A000C0A0C000C0A0E000C0C00000C0C02000C0C04000C0C06000
310
C0C08000C0C0A000F0FBFF00A4A0A000808080000000FF0000FF000000FFFF00FF000000FF00FF00FFFF0000FFFFFF0000000000000000000000000000000000000000000000000000000000000000000000000000000000000000000000000000000000000000000000000000000000000000000000000000000000000000
310
00000000000000000000000000000000000000000000000000000000000000000000000000000000000000000000000000000000000000000000000000000000000000000000000000000000000000000000000000000000000000000000000000000000000000000000000000000000000000000000000000000000000000
310
000000000000000000000000000000000000000000000000000000000000000000000000000000000000000000000000000000FFFF0000000000000000000000000000000000000000000000000000000000000000FFFFFFFF0000000000000000000000000000000000000000000000000000000000000000FFFFFFFF0000
310
000000000000000000000000000000000000000000000000000000000000FFFFFF0000000000000000000000000000000000000000000000000000000000000000FFFFFFFF0000000000000000000000000000000000000000000000000000000000000000FFFFFF0000000000000000000000000000000000000000000000
310
000000000000000000FFFFFFFF0000000000000000000000000000000000000000000000000000000000000000FFFFFFFF00000000FFFFFFFFFFFFFFFFFFFFFFFFFFFFFFFFFFFFFFFFFFFFFFFFFFFFFFFFFFFF00000000000000000000000000000000000000000000000000FFFFFFFF000000000000000000000000000000
310
000000000000000000FFFFFFFF000000000000000000000000000000000000000000000000FFFFFFFF000000000000000000000000000000000000000000000000FFFFFFFF000000000000000000000000000000000000000000000000FFFFFFFF000000000000000000000000000000000000000000000000FFFFFFFF0000
310
0000000000000000000000000000000000000000000000FFFFFF0000000000000000000000000000000000000000000000000000000000000000000000000000000000000000000000000000000000000000000000000000000000000000000000000000000000000000000000000000000000000000000000000000000000
310
00000000000000000000000000000000000000000000000000000000000000000000000000000000000000000000000000000000000000000000000000000000000000000000000000000000000000000000000000000000000000000000000000000000000000000000000000000000000000000000000000000000000000
310
0000000000000000000000000000000000000000000000000000000000000000000000000000000000000000000000000000000000000000
102
{BLKREFS
331
872
331
873
331
87B
331
87C
331
884
331
885
331
88D
331
88E
331
896
331
897
331
89F
331
8A0
331
8A8
331
8A9
331
8B1
331
8B2
331
8BA
331
8BB
331
8C3
331
8C4
331
8CC
331
8CD
331
8D8
331
8D9
331
8E5
331
8E6
331
84E
331
84F
331
857
331
858
331
860
331
861
331
869
331
86A
102
}
  0
BLOCK_RECORD
  5
A8
330
1
100
AcDbSymbolTableRecord
100
AcDbBlockTableRecord
  2
_TagCircle
340
0
1001
ACAD
1000
DesignCenter Data
1002
{
1070
     1
1070
     4
1002
}
  0
BLOCK_RECORD
  5
2B5
330
1
100
AcDbSymbolTableRecord
100
AcDbBlockTableRecord
  2
*D3
340
0
  0
BLOCK_RECORD
  5
2C3
330
1
100
AcDbSymbolTableRecord
100
AcDbBlockTableRecord
  2
*D4
340
0
  0
BLOCK_RECORD
  5
2CF
330
1
100
AcDbSymbolTableRecord
100
AcDbBlockTableRecord
  2
*D5
340
0
  0
BLOCK_RECORD
  5
2DB
330
1
100
AcDbSymbolTableRecord
100
AcDbBlockTableRecord
  2
*D6
340
0
  0
BLOCK_RECORD
  5
2E7
330
1
100
AcDbSymbolTableRecord
100
AcDbBlockTableRecord
  2
*D7
340
0
  0
BLOCK_RECORD
  5
2F3
330
1
100
AcDbSymbolTableRecord
100
AcDbBlockTableRecord
  2
*D8
340
0
  0
BLOCK_RECORD
  5
2FF
330
1
100
AcDbSymbolTableRecord
100
AcDbBlockTableRecord
  2
*D9
340
0
  0
BLOCK_RECORD
  5
30B
330
1
100
AcDbSymbolTableRecord
100
AcDbBlockTableRecord
  2
*D10
340
0
  0
BLOCK_RECORD
  5
317
330
1
100
AcDbSymbolTableRecord
100
AcDbBlockTableRecord
  2
*D11
340
0
  0
BLOCK_RECORD
  5
323
330
1
100
AcDbSymbolTableRecord
100
AcDbBlockTableRecord
  2
*D12
340
0
  0
BLOCK_RECORD
  5
32F
330
1
100
AcDbSymbolTableRecord
100
AcDbBlockTableRecord
  2
*D13
340
0
  0
BLOCK_RECORD
  5
33B
330
1
100
AcDbSymbolTableRecord
100
AcDbBlockTableRecord
  2
*D14
340
0
  0
BLOCK_RECORD
  5
347
330
1
100
AcDbSymbolTableRecord
100
AcDbBlockTableRecord
  2
*D15
340
0
  0
BLOCK_RECORD
  5
353
330
1
100
AcDbSymbolTableRecord
100
AcDbBlockTableRecord
  2
*D16
340
0
  0
BLOCK_RECORD
  5
35F
330
1
100
AcDbSymbolTableRecord
100
AcDbBlockTableRecord
  2
*D17
340
0
  0
BLOCK_RECORD
  5
36B
330
1
100
AcDbSymbolTableRecord
100
AcDbBlockTableRecord
  2
*D18
340
0
  0
BLOCK_RECORD
  5
379
330
1
100
AcDbSymbolTableRecord
100
AcDbBlockTableRecord
  2
*D19
340
0
  0
BLOCK_RECORD
  5
574
102
{ACAD_XDICTIONARY
360
575
102
}
330
1
100
AcDbSymbolTableRecord
100
AcDbBlockTableRecord
  2
ATOM_A4_zuwaku
340
0
310
2800000020000000200000000100080000000000000400000000000000000000000000000000000000000000000080000080000000808000800000008000800080800000C0C0C000C0DCC000F0CAA6000020400000206000002080000020A0000020C0000020E00000400000004020000040400000406000004080000040A0
310
000040C0000040E00000600000006020000060400000606000006080000060A0000060C0000060E00000800000008020000080400000806000008080000080A0000080C0000080E00000A0000000A0200000A0400000A0600000A0800000A0A00000A0C00000A0E00000C0000000C0200000C0400000C0600000C0800000C0
310
A00000C0C00000C0E00000E0000000E0200000E0400000E0600000E0800000E0A00000E0C00000E0E00040000000400020004000400040006000400080004000A0004000C0004000E00040200000402020004020400040206000402080004020A0004020C0004020E000404000004040200040404000404060004040800040
310
40A0004040C0004040E00040600000406020004060400040606000406080004060A0004060C0004060E00040800000408020004080400040806000408080004080A0004080C0004080E00040A0000040A0200040A0400040A0600040A0800040A0A00040A0C00040A0E00040C0000040C0200040C0400040C0600040C08000
310
40C0A00040C0C00040C0E00040E0000040E0200040E0400040E0600040E0800040E0A00040E0C00040E0E00080000000800020008000400080006000800080008000A0008000C0008000E00080200000802020008020400080206000802080008020A0008020C0008020E00080400000804020008040400080406000804080
310
008040A0008040C0008040E00080600000806020008060400080606000806080008060A0008060C0008060E00080800000808020008080400080806000808080008080A0008080C0008080E00080A0000080A0200080A0400080A0600080A0800080A0A00080A0C00080A0E00080C0000080C0200080C0400080C0600080C0
310
800080C0A00080C0C00080C0E00080E0000080E0200080E0400080E0600080E0800080E0A00080E0C00080E0E000C0000000C0002000C0004000C0006000C0008000C000A000C000C000C000E000C0200000C0202000C0204000C0206000C0208000C020A000C020C000C020E000C0400000C0402000C0404000C0406000C0
310
408000C040A000C040C000C040E000C0600000C0602000C0604000C0606000C0608000C060A000C060C000C060E000C0800000C0802000C0804000C0806000C0808000C080A000C080C000C080E000C0A00000C0A02000C0A04000C0A06000C0A08000C0A0A000C0A0C000C0A0E000C0C00000C0C02000C0C04000C0C06000
310
C0C08000C0C0A000F0FBFF00A4A0A000808080000000FF0000FF000000FFFF00FF000000FF00FF00FFFF0000FFFFFF0000000000000000000000000000000000000000000000000000000000000000000000000000000000000000000000000000000000000000000000000000000000000000000000000000000000000000
310
000000000000000000000000000000000000000000000000000000000000000000000000000000000000000000000000000000000000000000000000000000000000000000000000000000000000000000000000000000000000000000000000000000000000000000000000000000000000FEFEFEFEFEFEFEFEFEFEFEFEFE
310
FEFEFEFEFEFEFEFEFEFEFEFEFEFEFEFEFE0000FEFEFEFEFEFEFEFEFEFEFEFEFEFEFEFEFEFEFEFEFEFEFEFEFEFEFEFEFEFE0000FEFEFEFEFEFEFEFEFEFEFEFEFEFEFEFEFEFEFEFEFEFEFEFEFEFEFEFEFEFE0000FEFE0000000000000000FEFEFEFEFEFEFEFEFEFEFEFEFEFEFEFEFEFEFEFE0000FEFE0000000000000000FEFE
310
FEFEFEFEFEFEFEFEFEFEFEFEFEFEFEFEFEFE0000FEFE0000000000000000000000000000000000000000000000000000FEFE0000FEFE0000000000000000000000000000000000000000000000000000FEFE0000FEFE0000000000000000000000000000000000000000000000000000FEFE0000FEFE000000000000000000
310
0000000000000000000000000000000000FEFE0000FEFE0000000000000000000000000000000000000000000000000000FEFE0000FEFE0000000000000000000000000000000000000000000000000000FEFE0000FEFE0000000000000000000000000000000000000000000000000000FEFE0000FEFE0000000000000000
310
000000000000000000000000000000000000FEFE0000FEFE0000000000000000000000000000000000000000000000000000FEFE0000FEFE0000000000000000000000000000000000000000000000000000FEFE0000FEFE0000000000000000000000000000000000000000000000000000FEFE0000FEFE00000000000000
310
00000000000000000000000000000000000000FEFE0000FEFE0000000000000000FEFEFEFEFEFEFEFEFEFEFEFEFEFEFEFEFEFEFEFE0000FEFEFEFEFEFEFEFEFEFEFEFEFEFEFEFEFEFEFEFEFEFEFEFEFEFEFEFEFEFE0000FEFEFEFEFEFEFEFEFEFEFEFEFEFEFEFEFEFEFEFEFEFEFEFEFEFEFEFEFEFE00000000000000000000
310
00000000000000000000000000000000000000000000000000000000000000000000000000000000000000000000000000000000000000000000000000000000000000000000000000000000000000000000000000000000000000000000000000000000000000000000000000000000000000000000000000000000000000
310
0000000000000000000000000000000000000000000000000000000000000000000000000000000000000000000000000000000000000000
1001
AcDbDynamicBlockGUID
1000
{75FDCE75-448E-446C-AABF-F76BAC2CEAD5}
1001
AcDbBlockRepETag
1070
     1
1071
      228
1001
ACAD
1000
DesignCenter Data
1002
{
1070
     1
1070
     4
1002
}
  0
BLOCK_RECORD
  5
69E
102
{ACAD_XDICTIONARY
360
69F
102
}
330
1
100
AcDbSymbolTableRecord
100
AcDbBlockTableRecord
  2
部品表
340
0
310
2800000020000000200000000100080000000000000400000000000000000000000000000000000000000000000080000080000000808000800000008000800080800000C0C0C000C0DCC000F0CAA6000020400000206000002080000020A0000020C0000020E00000400000004020000040400000406000004080000040A0
310
000040C0000040E00000600000006020000060400000606000006080000060A0000060C0000060E00000800000008020000080400000806000008080000080A0000080C0000080E00000A0000000A0200000A0400000A0600000A0800000A0A00000A0C00000A0E00000C0000000C0200000C0400000C0600000C0800000C0
310
A00000C0C00000C0E00000E0000000E0200000E0400000E0600000E0800000E0A00000E0C00000E0E00040000000400020004000400040006000400080004000A0004000C0004000E00040200000402020004020400040206000402080004020A0004020C0004020E000404000004040200040404000404060004040800040
310
40A0004040C0004040E00040600000406020004060400040606000406080004060A0004060C0004060E00040800000408020004080400040806000408080004080A0004080C0004080E00040A0000040A0200040A0400040A0600040A0800040A0A00040A0C00040A0E00040C0000040C0200040C0400040C0600040C08000
310
40C0A00040C0C00040C0E00040E0000040E0200040E0400040E0600040E0800040E0A00040E0C00040E0E00080000000800020008000400080006000800080008000A0008000C0008000E00080200000802020008020400080206000802080008020A0008020C0008020E00080400000804020008040400080406000804080
310
008040A0008040C0008040E00080600000806020008060400080606000806080008060A0008060C0008060E00080800000808020008080400080806000808080008080A0008080C0008080E00080A0000080A0200080A0400080A0600080A0800080A0A00080A0C00080A0E00080C0000080C0200080C0400080C0600080C0
310
800080C0A00080C0C00080C0E00080E0000080E0200080E0400080E0600080E0800080E0A00080E0C00080E0E000C0000000C0002000C0004000C0006000C0008000C000A000C000C000C000E000C0200000C0202000C0204000C0206000C0208000C020A000C020C000C020E000C0400000C0402000C0404000C0406000C0
310
408000C040A000C040C000C040E000C0600000C0602000C0604000C0606000C0608000C060A000C060C000C060E000C0800000C0802000C0804000C0806000C0808000C080A000C080C000C080E000C0A00000C0A02000C0A04000C0A06000C0A08000C0A0A000C0A0C000C0A0E000C0C00000C0C02000C0C04000C0C06000
310
C0C08000C0C0A000F0FBFF00A4A0A000808080000000FF0000FF000000FFFF00FF000000FF00FF00FFFF0000FFFFFF00FFFFFFFFFFFFFFFFFFFFFFFFFFFFFFFFFFFFFFFFFFFFFFFFFFFFFFFFFFFFFFFFFFFFFFFFFFFFFFFFFFFFFFFFFFFFFFFFFFFFFFFFFFFFFFFFFFFFFFFFFFFFFFFFFFFFFFFFFFFFFFFFFFFFFFFFFFFFFF
310
FFFFFFFFFFFFFFFFFFFFFFFFFFFFFFFFFFFFFFFFFFFFFFFFFFFFFFFFFFFFFFFFFFFFFFFFFFFFFFFFFFFFFFFFFFFFFFFFFFFFFFFFFFFFFFFFFFFFFFFFFFFFFFFFFFFFFFFFFFFFFFFFFFFFFFFFFFFFFFFFFFFFFFFFFFFFFFFFFFFFFFFFFFFFFFFFFFFFFFFFFFFFFFFFFFFFFFFFFFFFFFFFFFFFFFFFFFFFFFFFFFFFFFFFFFFFFF
310
FFFFFFFFFFFFFFFFFFFFFFFFFFFFFFFFFFFFFFFFFFFFFFFFFFFFFFFFFFFFFFFFFFFFFFFFFFFFFFFFFFFFFFFFFFFFFFFFFFFFFFFFFFFFFFFFFFFFFFFFFFFFFFFFFFFFFFFFFFFFFFFFFFFFFFFFFFFFFFFFFFFFFFFFFFFFFFFFFFFFFFFFFFFFFFFFFFFFFFFFFFFFFFFFFFFFFFFFFFFFFFFFFFFFFFFFFFFFFFFFFFFFFFFFFFFFFF
310
FFFFFFFFFFFFFFFFFFFFFFFFFFFFFFFFFFFFFFFFFFFFFFFFFFFFFFFFFFFFFFFFFFFFFFFFFFFFFFFFFFFFFFFFFFFFFFFFFFFFFFFFFFFFFFFFFFFFFFFFFFFFFFFFFFFFFFFFFFFFFFFFFFFFFFFFFFFFFFFFFFFFFFFFFFFFFFFFFFFFFFFFFFFFFFFFFFFFFFFFFFFFFFFFFFFFFFFFFFFFFFFFFFFFFFFFFFFFFFFFFFFFFFFFFFFFFF
310
FFFFFFFFFFFFFFFFFFFFFFFFFFFFFFFFFFFFFFFFFFFEFEFFFEFFFEFEFFFEFEFEFEFEFEFEFEFEFEFEFEFEFEFEFFFEFEFEFEFFFFFFFFFEFEFEFEFEFEFEFEFEFEFEFEFEFEFEFEFEFEFEFEFEFEFEFEFEFEFEFEFEFEFFFFFFFFFFFFFFFFFFFFFFFFFFFFFFFFFFFFFFFFFFFFFFFFFFFFFFFFFFFFFFFFFFFFFFFFFFFFFFFFFFFFFFFF
310
FFFFFFFFFFFFFFFFFFFFFFFFFFFFFFFFFFFFFFFFFFFFFFFFFFFFFFFFFFFFFFFFFFFFFFFFFFFFFFFFFFFFFFFFFFFFFFFFFFFFFFFFFFFFFFFFFFFFFFFFFFFFFFFFFFFFFFFFFFFFFFFFFFFFFFFFFFFFFFFFFFFFFFFFFFFFFFFFFFFFFFFFFFFFFFFFFFFFFFFFFFFFFFFFFFFFFFFFFFFFFFFFFFFFFFFFFFFFFFFFFFFFFFFFFFFFFF
310
FFFFFFFFFFFFFFFFFFFFFFFFFFFFFFFFFFFFFFFFFFFFFFFFFFFFFFFFFFFFFFFFFFFFFFFFFFFFFFFFFFFFFFFFFFFFFFFFFFFFFFFFFFFFFFFFFFFFFFFFFFFFFFFFFFFFFFFFFFFFFFFFFFFFFFFFFFFFFFFFFFFFFFFFFFFFFFFFFFFFFFFFFFFFFFFFFFFFFFFFFFFFFFFFFFFFFFFFFFFFFFFFFFFFFFFFFFFFFFFFFFFFFFFFFFFFFF
310
FFFFFFFFFFFFFFFFFFFFFFFFFFFFFFFFFFFFFFFFFFFFFFFFFFFFFFFFFFFFFFFFFFFFFFFFFFFFFFFFFFFFFFFFFFFFFFFFFFFFFFFFFFFFFFFFFFFFFFFFFFFFFFFFFFFFFFFFFFFFFFFFFFFFFFFFFFFFFFFFFFFFFFFFFFFFFFFFFFFFFFFFFFFFFFFFFFFFFFFFFFFFFFFFFFFFFFFFFFFFFFFFFFFFFFFFFFFFFFFFFFFFFFFFFFFFFF
310
FFFFFFFFFFFFFFFFFFFFFFFFFFFFFFFFFFFFFFFFFFFFFFFFFFFFFFFFFFFFFFFFFFFFFFFFFFFFFFFFFFFFFFFFFFFFFFFFFFFFFFFFFFFFFFFF
1001
AcDbDynamicBlockGUID
1000
{C98E84B9-7DC5-4FE5-8658-A136B1396970}
1001
AcDbBlockRepETag
1070
     1
1071
       18
1001
ACAD
1000
DesignCenter Data
1002
{
1070
     1
1070
     4
1002
}
  0
BLOCK_RECORD
  5
707
330
1
100
AcDbSymbolTableRecord
100
AcDbBlockTableRecord
  2
*E3922
340
0
  0
BLOCK_RECORD
  5
7F9
330
1
100
AcDbSymbolTableRecord
100
AcDbBlockTableRecord
  2
*E4023
340
0
  0
BLOCK_RECORD
  5
821
330
1
100
AcDbSymbolTableRecord
100
AcDbBlockTableRecord
  2
*E4124
340
0
  0
ENDTAB
  0
ENDSEC
  0
SECTION
  2
BLOCKS
  0
BLOCK
  5
6D
330
6C
100
AcDbEntity
  8
0
100
AcDbBlockBegin
  2
*Model_Space
 70
     0
 10
0.0
 20
0.0
 30
0.0
  3
*Model_Space
  1

  0
ENDBLK
  5
6E
330
6C
100
AcDbEntity
  8
0
100
AcDbBlockEnd
  0
BLOCK
  5
69
330
68
100
AcDbEntity
 67
     1
  8
0
100
AcDbBlockBegin
  2
*Paper_Space
 70
     0
 10
0.0
 20
0.0
 30
0.0
  3
*Paper_Space
  1

  0
ENDBLK
  5
6A
330
68
100
AcDbEntity
 67
     1
  8
0
100
AcDbBlockEnd
  0
BLOCK
  5
71
330
70
100
AcDbEntity
 67
     1
  8
0
100
AcDbBlockBegin
  2
*Paper_Space0
 70
     0
 10
0.0
 20
0.0
 30
0.0
  3
*Paper_Space0
  1

  0
ENDBLK
  5
72
330
70
100
AcDbEntity
 67
     1
  8
0
100
AcDbBlockEnd
  0
BLOCK
  5
7D
330
7C
100
AcDbEntity
  8
0
100
AcDbBlockBegin
  2
_Open30
 70
     0
 10
0.0
 20
0.0
 30
0.0
  3
_Open30
  1

  0
LINE
  5
7E
330
7C
100
AcDbEntity
  8
0
  6
ByBlock
 62
     0
370
    -2
100
AcDbLine
 10
-1.0
 20
0.26794919
 30
0.0
 11
0.0
 21
0.0
 31
0.0
  0
LINE
  5
7F
330
7C
100
AcDbEntity
  8
0
  6
ByBlock
 62
     0
370
    -2
100
AcDbLine
 10
0.0
 20
0.0
 30
0.0
 11
-1.0
 21
-0.26794919
 31
0.0
  0
LINE
  5
80
330
7C
100
AcDbEntity
  8
0
  6
ByBlock
 62
     0
370
    -2
100
AcDbLine
 10
0.0
 20
0.0
 30
0.0
 11
-1.0
 21
0.0
 31
0.0
  0
ENDBLK
  5
81
330
7C
100
AcDbEntity
  8
0
100
AcDbBlockEnd
  0
BLOCK
  5
A9
330
A8
100
AcDbEntity
  8
0
100
AcDbBlockBegin
  2
_TagCircle
 70
     2
 10
0.0
 20
0.0
 30
0.0
  3
_TagCircle
  1

  0
CIRCLE
  5
AA
330
A8
100
AcDbEntity
  8
0
  6
ByBlock
 62
     0
370
    -2
100
AcDbCircle
 10
0.0
 20
0.0
 30
0.0
 40
4.0
  0
ATTDEF
  5
AB
330
A8
100
AcDbEntity
  8
0
 62
     0
100
AcDbText
 10
-4.5
 20
-1.5
 30
0.0
 40
3.0
  1
タグ番号
 72
     1
 11
0.0
 21
-1.5
 31
0.0
100
AcDbAttributeDefinition
  3
タグ番号を入力
  2
タグ番号
 70
     0
  0
ENDBLK
  5
AC
330
A8
100
AcDbEntity
  8
0
100
AcDbBlockEnd
  0
BLOCK
  5
2B6
330
2B5
100
AcDbEntity
  8
0
100
AcDbBlockBegin
  2
*D3
 70
     1
 10
0.0
 20
0.0
 30
0.0
  3
*D3
  1

  0
LINE
  5
849
330
2B5
100
AcDbEntity
  8
dim
 62
     0
370
    -2
100
AcDbLine
 10
160.3477555850829
 20
254.0959665160906
 30
0.0
 11
144.523484436144
 21
254.0959665160906
 31
0.0
  0
LINE
  5
84A
330
2B5
100
AcDbEntity
  8
dim
 62
     0
370
    -2
100
AcDbLine
 10
160.3477555850829
 20
251.0959665160906
 30
0.0
 11
144.523484436144
 21
251.0959665160906
 31
0.0
  0
LINE
  5
84B
330
2B5
100
AcDbEntity
  8
dim
 62
     0
370
    -2
100
AcDbLine
 10
145.523484436144
 20
249.0959665160906
 30
0.0
 11
145.523484436144
 21
247.0959665160906
 31
0.0
  0
LINE
  5
84C
330
2B5
100
AcDbEntity
  8
dim
 62
     0
370
    -2
100
AcDbLine
 10
145.523484436144
 20
256.0959665160905
 30
0.0
 11
145.523484436144
 21
261.1459665160908
 31
0.0
  0
LINE
  5
84D
330
2B5
100
AcDbEntity
  8
dim
 62
     0
370
    -2
100
AcDbLine
 10
145.523484436144
 20
251.0959665160906
 30
0.0
 11
145.523484436144
 21
254.0959665160906
 31
0.0
  0
INSERT
  5
84E
330
2B5
100
AcDbEntity
  8
dim
 62
     0
370
    -2
100
AcDbBlockReference
  2
_Open30
 10
145.523484436144
 20
251.0959665160906
 30
0.0
 41
2.0
 42
2.0
 43
2.0
 50
90.0
  0
INSERT
  5
84F
330
2B5
100
AcDbEntity
  8
dim
 62
     0
370
    -2
100
AcDbBlockReference
  2
_Open30
 10
145.523484436144
 20
254.0959665160906
 30
0.0
 41
2.0
 42
2.0
 43
2.0
 50
270.0
  0
MTEXT
  5
850
330
2B5
100
AcDbEntity
  8
dim
 62
     3
100
AcDbMText
 10
143.398484436144
 20
259.6209665160908
 30
0.0
 40
3.0
 41
0.0
 71
     5
 72
     1
  1
3
  7
ATOM
 11
0.0000000000000001
 21
1.0
 31
0.0
 73
     1
 44
1.0
1001
ACAD
1000
MTEXTBEGIN
1070
    73
1070
     1
1070
    44
1040
1.0
1070
    74
1070
     0
1000
MTEXTEND
  0
POINT
  5
851
330
2B5
100
AcDbEntity
  8
Defpoints
 62
     0
100
AcDbPoint
 10
162.3477555850829
 20
254.0959665160906
 30
0.0
  0
POINT
  5
852
330
2B5
100
AcDbEntity
  8
Defpoints
 62
     0
100
AcDbPoint
 10
162.3477555850829
 20
251.0959665160906
 30
0.0
  0
POINT
  5
853
330
2B5
100
AcDbEntity
  8
Defpoints
 62
     0
100
AcDbPoint
 10
145.523484436144
 20
251.0959665160906
 30
0.0
  0
ENDBLK
  5
2B7
330
2B5
100
AcDbEntity
  8
0
100
AcDbBlockEnd
  0
BLOCK
  5
2C4
330
2C3
100
AcDbEntity
  8
0
100
AcDbBlockBegin
  2
*D4
 70
     1
 10
0.0
 20
0.0
 30
0.0
  3
*D4
  1

  0
LINE
  5
854
330
2C3
100
AcDbEntity
  8
dim
 62
     0
370
    -2
100
AcDbLine
 10
162.3477555850829
 20
200.3393868407759
 30
0.0
 11
162.3477555850829
 21
217.8629354417956
 31
0.0
  0
LINE
  5
855
330
2C3
100
AcDbEntity
  8
dim
 62
     0
370
    -2
100
AcDbLine
 10
212.8477555850832
 20
187.6393868407758
 30
0.0
 11
212.8477555850832
 21
217.8629354417956
 31
0.0
  0
LINE
  5
856
330
2C3
100
AcDbEntity
  8
dim
 62
     0
370
    -2
100
AcDbLine
 10
164.3477555850829
 20
216.8629354417956
 30
0.0
 11
210.8477555850832
 21
216.8629354417956
 31
0.0
  0
INSERT
  5
857
330
2C3
100
AcDbEntity
  8
dim
 62
     0
370
    -2
100
AcDbBlockReference
  2
_Open30
 10
162.3477555850829
 20
216.8629354417956
 30
0.0
 41
2.0
 42
2.0
 43
2.0
 50
180.0
  0
INSERT
  5
858
330
2C3
100
AcDbEntity
  8
dim
 62
     0
370
    -2
100
AcDbBlockReference
  2
_Open30
 10
212.8477555850832
 20
216.8629354417956
 30
0.0
 41
2.0
 42
2.0
 43
2.0
  0
MTEXT
  5
859
330
2C3
100
AcDbEntity
  8
dim
 62
     3
100
AcDbMText
 10
187.5977555850829
 20
218.9879354417956
 30
0.0
 40
3.0
 41
0.0
 71
     5
 72
     1
  1
50.5
  7
ATOM
 73
     1
 44
1.0
1001
ACAD
1000
MTEXTBEGIN
1070
    73
1070
     1
1070
    44
1040
1.0
1070
    74
1070
     0
1000
MTEXTEND
  0
POINT
  5
85A
330
2C3
100
AcDbEntity
  8
Defpoints
 62
     0
100
AcDbPoint
 10
162.3477555850829
 20
198.3393868407759
 30
0.0
  0
POINT
  5
85B
330
2C3
100
AcDbEntity
  8
Defpoints
 62
     0
100
AcDbPoint
 10
212.8477555850832
 20
185.6393868407758
 30
0.0
  0
POINT
  5
85C
330
2C3
100
AcDbEntity
  8
Defpoints
 62
     0
100
AcDbPoint
 10
212.8477555850832
 20
216.8629354417956
 30
0.0
  0
ENDBLK
  5
2C5
330
2C3
100
AcDbEntity
  8
0
100
AcDbBlockEnd
  0
BLOCK
  5
2D0
330
2CF
100
AcDbEntity
  8
0
100
AcDbBlockBegin
  2
*D5
 70
     1
 10
0.0
 20
0.0
 30
0.0
  3
*D5
  1

  0
LINE
  5
85D
330
2CF
100
AcDbEntity
  8
dim
 62
     0
370
    -2
100
AcDbLine
 10
212.8477555850832
 20
187.6393868407759
 30
0.0
 11
212.8477555850832
 21
211.8629354417956
 31
0.0
  0
LINE
  5
85E
330
2CF
100
AcDbEntity
  8
dim
 62
     0
370
    -2
100
AcDbLine
 10
198.1477555850831
 20
174.1393868407758
 30
0.0
 11
198.1477555850831
 21
211.8629354417956
 31
0.0
  0
LINE
  5
85F
330
2CF
100
AcDbEntity
  8
dim
 62
     0
370
    -2
100
AcDbLine
 10
210.8477555850832
 20
210.8629354417956
 30
0.0
 11
200.1477555850831
 21
210.8629354417956
 31
0.0
  0
INSERT
  5
860
330
2CF
100
AcDbEntity
  8
dim
 62
     0
370
    -2
100
AcDbBlockReference
  2
_Open30
 10
212.8477555850832
 20
210.8629354417956
 30
0.0
 41
2.0
 42
2.0
 43
2.0
  0
INSERT
  5
861
330
2CF
100
AcDbEntity
  8
dim
 62
     0
370
    -2
100
AcDbBlockReference
  2
_Open30
 10
198.1477555850831
 20
210.8629354417956
 30
0.0
 41
2.0
 42
2.0
 43
2.0
 50
180.0
  0
MTEXT
  5
862
330
2CF
100
AcDbEntity
  8
dim
 62
     3
100
AcDbMText
 10
205.2780856496377
 20
212.9879354417956
 30
0.0
 40
3.0
 41
0.0
 71
     5
 72
     1
  1
14.7
  7
ATOM
 73
     1
 44
1.0
1001
ACAD
1000
MTEXTBEGIN
1070
    73
1070
     1
1070
    44
1040
1.0
1070
    74
1070
     0
1000
MTEXTEND
  0
POINT
  5
863
330
2CF
100
AcDbEntity
  8
Defpoints
 62
     0
100
AcDbPoint
 10
212.8477555850832
 20
185.6393868407759
 30
0.0
  0
POINT
  5
864
330
2CF
100
AcDbEntity
  8
Defpoints
 62
     0
100
AcDbPoint
 10
198.1477555850831
 20
172.1393868407758
 30
0.0
  0
POINT
  5
865
330
2CF
100
AcDbEntity
  8
Defpoints
 62
     0
100
AcDbPoint
 10
198.1477555850831
 20
210.8629354417956
 30
0.0
  0
ENDBLK
  5
2D1
330
2CF
100
AcDbEntity
  8
0
100
AcDbBlockEnd
  0
BLOCK
  5
2DC
330
2DB
100
AcDbEntity
  8
0
100
AcDbBlockBegin
  2
*D6
 70
     1
 10
0.0
 20
0.0
 30
0.0
  3
*D6
  1

  0
LINE
  5
866
330
2DB
100
AcDbEntity
  8
dim
 62
     0
370
    -2
100
AcDbLine
 10
165.8477555850829
 20
198.6393868407758
 30
0.0
 11
227.563127308641
 21
198.6393868407758
 31
0.0
  0
LINE
  5
867
330
2DB
100
AcDbEntity
  8
dim
 62
     0
370
    -2
100
AcDbLine
 10
214.8477555850832
 20
185.6393868407756
 30
0.0
 11
227.5631273086409
 21
185.6393868407756
 31
0.0
  0
LINE
  5
868
330
2DB
100
AcDbEntity
  8
dim
 62
     0
370
    -2
100
AcDbLine
 10
226.5631273086409
 20
196.6393868407758
 30
0.0
 11
226.5631273086409
 21
187.6393868407756
 31
0.0
  0
INSERT
  5
869
330
2DB
100
AcDbEntity
  8
dim
 62
     0
370
    -2
100
AcDbBlockReference
  2
_Open30
 10
226.5631273086409
 20
198.6393868407758
 30
0.0
 41
2.0
 42
2.0
 43
2.0
 50
90.0
  0
INSERT
  5
86A
330
2DB
100
AcDbEntity
  8
dim
 62
     0
370
    -2
100
AcDbBlockReference
  2
_Open30
 10
226.5631273086409
 20
185.6393868407756
 30
0.0
 41
2.0
 42
2.0
 43
2.0
 50
270.0
  0
MTEXT
  5
86B
330
2DB
100
AcDbEntity
  8
dim
 62
     3
100
AcDbMText
 10
224.4381273086409
 20
192.1393868407756
 30
0.0
 40
3.0
 41
0.0
 71
     5
 72
     1
  1
13
  7
ATOM
 11
0.0000000000000001
 21
1.0
 31
0.0
 73
     1
 44
1.0
1001
ACAD
1000
MTEXTBEGIN
1070
    73
1070
     1
1070
    44
1040
1.0
1070
    74
1070
     0
1000
MTEXTEND
  0
POINT
  5
86C
330
2DB
100
AcDbEntity
  8
Defpoints
 62
     0
100
AcDbPoint
 10
163.8477555850829
 20
198.6393868407758
 30
0.0
  0
POINT
  5
86D
330
2DB
100
AcDbEntity
  8
Defpoints
 62
     0
100
AcDbPoint
 10
212.8477555850832
 20
185.6393868407756
 30
0.0
  0
POINT
  5
86E
330
2DB
100
AcDbEntity
  8
Defpoints
 62
     0
100
AcDbPoint
 10
226.5631273086409
 20
185.6393868407756
 30
0.0
  0
ENDBLK
  5
2DD
330
2DB
100
AcDbEntity
  8
0
100
AcDbBlockEnd
  0
BLOCK
  5
2E8
330
2E7
100
AcDbEntity
  8
0
100
AcDbBlockBegin
  2
*D7
 70
     1
 10
0.0
 20
0.0
 30
0.0
  3
*D7
  1

  0
LINE
  5
86F
330
2E7
100
AcDbEntity
  8
dim
 62
     0
370
    -2
100
AcDbLine
 10
213.3477555850827
 20
155.6393868407758
 30
0.0
 11
227.5631273086409
 21
155.6393868407758
 31
0.0
  0
LINE
  5
870
330
2E7
100
AcDbEntity
  8
dim
 62
     0
370
    -2
100
AcDbLine
 10
214.847755585083
 20
185.6393868407758
 30
0.0
 11
227.5631273086409
 21
185.6393868407758
 31
0.0
  0
LINE
  5
871
330
2E7
100
AcDbEntity
  8
dim
 62
     0
370
    -2
100
AcDbLine
 10
226.5631273086409
 20
157.6393868407758
 30
0.0
 11
226.5631273086409
 21
183.6393868407758
 31
0.0
  0
INSERT
  5
872
330
2E7
100
AcDbEntity
  8
dim
 62
     0
370
    -2
100
AcDbBlockReference
  2
_Open30
 10
226.5631273086409
 20
155.6393868407758
 30
0.0
 41
2.0
 42
2.0
 43
2.0
 50
270.0
  0
INSERT
  5
873
330
2E7
100
AcDbEntity
  8
dim
 62
     0
370
    -2
100
AcDbBlockReference
  2
_Open30
 10
226.5631273086409
 20
185.6393868407758
 30
0.0
 41
2.0
 42
2.0
 43
2.0
 50
90.0
  0
MTEXT
  5
874
330
2E7
100
AcDbEntity
  8
dim
 62
     3
100
AcDbMText
 10
224.4381273086409
 20
170.6393868407758
 30
0.0
 40
3.0
 41
0.0
 71
     5
 72
     1
  1
30
  7
ATOM
 11
0.0000000000000001
 21
1.0
 31
0.0
 73
     1
 44
1.0
1001
ACAD
1000
MTEXTBEGIN
1070
    73
1070
     1
1070
    44
1040
1.0
1070
    74
1070
     0
1000
MTEXTEND
  0
POINT
  5
875
330
2E7
100
AcDbEntity
  8
Defpoints
 62
     0
100
AcDbPoint
 10
211.3477555850827
 20
155.6393868407758
 30
0.0
  0
POINT
  5
876
330
2E7
100
AcDbEntity
  8
Defpoints
 62
     0
100
AcDbPoint
 10
212.8477555850829
 20
185.6393868407758
 30
0.0
  0
POINT
  5
877
330
2E7
100
AcDbEntity
  8
Defpoints
 62
     0
100
AcDbPoint
 10
226.5631273086409
 20
185.6393868407758
 30
0.0
  0
ENDBLK
  5
2E9
330
2E7
100
AcDbEntity
  8
0
100
AcDbBlockEnd
  0
BLOCK
  5
2F4
330
2F3
100
AcDbEntity
  8
0
100
AcDbBlockBegin
  2
*D8
 70
     1
 10
0.0
 20
0.0
 30
0.0
  3
*D8
  1

  0
LINE
  5
878
330
2F3
100
AcDbEntity
  8
dim
 62
     0
370
    -2
100
AcDbLine
 10
160.6477555850829
 20
198.6393868407758
 30
0.0
 11
143.8023375829726
 21
198.6393868407758
 31
0.0
  0
LINE
  5
879
330
2F3
100
AcDbEntity
  8
dim
 62
     0
370
    -2
100
AcDbLine
 10
161.3477555850832
 20
155.6393868407758
 30
0.0
 11
143.8023375829725
 21
155.6393868407758
 31
0.0
  0
LINE
  5
87A
330
2F3
100
AcDbEntity
  8
dim
 62
     0
370
    -2
100
AcDbLine
 10
144.8023375829726
 20
196.6393868407758
 30
0.0
 11
144.8023375829725
 21
157.6393868407758
 31
0.0
  0
INSERT
  5
87B
330
2F3
100
AcDbEntity
  8
dim
 62
     0
370
    -2
100
AcDbBlockReference
  2
_Open30
 10
144.8023375829726
 20
198.6393868407758
 30
0.0
 41
2.0
 42
2.0
 43
2.0
 50
90.0
  0
INSERT
  5
87C
330
2F3
100
AcDbEntity
  8
dim
 62
     0
370
    -2
100
AcDbBlockReference
  2
_Open30
 10
144.8023375829725
 20
155.6393868407758
 30
0.0
 41
2.0
 42
2.0
 43
2.0
 50
270.0
  0
MTEXT
  5
87D
330
2F3
100
AcDbEntity
  8
dim
 62
     3
100
AcDbMText
 10
142.6773375829725
 20
177.1393868407759
 30
0.0
 40
3.0
 41
0.0
 71
     5
 72
     1
  1
43
  7
ATOM
 11
0.0000000000000001
 21
1.0
 31
0.0
 73
     1
 44
1.0
1001
ACAD
1000
MTEXTBEGIN
1070
    73
1070
     1
1070
    44
1040
1.0
1070
    74
1070
     0
1000
MTEXTEND
  0
POINT
  5
87E
330
2F3
100
AcDbEntity
  8
Defpoints
 62
     0
100
AcDbPoint
 10
162.6477555850829
 20
198.6393868407758
 30
0.0
  0
POINT
  5
87F
330
2F3
100
AcDbEntity
  8
Defpoints
 62
     0
100
AcDbPoint
 10
163.3477555850832
 20
155.6393868407758
 30
0.0
  0
POINT
  5
880
330
2F3
100
AcDbEntity
  8
Defpoints
 62
     0
100
AcDbPoint
 10
144.8023375829725
 20
155.6393868407758
 30
0.0
  0
ENDBLK
  5
2F5
330
2F3
100
AcDbEntity
  8
0
100
AcDbBlockEnd
  0
BLOCK
  5
300
330
2FF
100
AcDbEntity
  8
0
100
AcDbBlockBegin
  2
*D9
 70
     1
 10
0.0
 20
0.0
 30
0.0
  3
*D9
  1

  0
LINE
  5
881
330
2FF
100
AcDbEntity
  8
dim
 62
     0
370
    -2
100
AcDbLine
 10
160.3477555850829
 20
254.0959665160906
 30
0.0
 11
138.523484436144
 21
254.0959665160906
 31
0.0
  0
LINE
  5
882
330
2FF
100
AcDbEntity
  8
dim
 62
     0
370
    -2
100
AcDbLine
 10
180.047755585083
 20
234.5959665160907
 30
0.0
 11
138.523484436144
 21
234.5959665160907
 31
0.0
  0
LINE
  5
883
330
2FF
100
AcDbEntity
  8
dim
 62
     0
370
    -2
100
AcDbLine
 10
139.523484436144
 20
252.0959665160906
 30
0.0
 11
139.523484436144
 21
236.5959665160907
 31
0.0
  0
INSERT
  5
884
330
2FF
100
AcDbEntity
  8
dim
 62
     0
370
    -2
100
AcDbBlockReference
  2
_Open30
 10
139.523484436144
 20
254.0959665160906
 30
0.0
 41
2.0
 42
2.0
 43
2.0
 50
90.0
  0
INSERT
  5
885
330
2FF
100
AcDbEntity
  8
dim
 62
     0
370
    -2
100
AcDbBlockReference
  2
_Open30
 10
139.523484436144
 20
234.5959665160907
 30
0.0
 41
2.0
 42
2.0
 43
2.0
 50
270.0
  0
MTEXT
  5
886
330
2FF
100
AcDbEntity
  8
dim
 62
     3
100
AcDbMText
 10
137.398484436144
 20
244.3459665160908
 30
0.0
 40
3.0
 41
0.0
 71
     5
 72
     1
  1
19.5
  7
ATOM
 11
0.0000000000000001
 21
1.0
 31
0.0
 73
     1
 44
1.0
1001
ACAD
1000
MTEXTBEGIN
1070
    73
1070
     1
1070
    44
1040
1.0
1070
    74
1070
     0
1000
MTEXTEND
  0
POINT
  5
887
330
2FF
100
AcDbEntity
  8
Defpoints
 62
     0
100
AcDbPoint
 10
162.3477555850829
 20
254.0959665160906
 30
0.0
  0
POINT
  5
888
330
2FF
100
AcDbEntity
  8
Defpoints
 62
     0
100
AcDbPoint
 10
182.047755585083
 20
234.5959665160907
 30
0.0
  0
POINT
  5
889
330
2FF
100
AcDbEntity
  8
Defpoints
 62
     0
100
AcDbPoint
 10
139.523484436144
 20
234.5959665160907
 30
0.0
  0
ENDBLK
  5
301
330
2FF
100
AcDbEntity
  8
0
100
AcDbBlockEnd
  0
BLOCK
  5
30C
330
30B
100
AcDbEntity
  8
0
100
AcDbBlockBegin
  2
*D10
 70
     1
 10
0.0
 20
0.0
 30
0.0
  3
*D10
  1

  0
LINE
  5
88A
330
30B
100
AcDbEntity
  8
dim
 62
     0
370
    -2
100
AcDbLine
 10
160.3477555850829
 20
251.0959665160905
 30
0.0
 11
144.523484436144
 21
251.0959665160905
 31
0.0
  0
LINE
  5
88B
330
30B
100
AcDbEntity
  8
dim
 62
     0
370
    -2
100
AcDbLine
 10
180.047755585083
 20
234.5959665160907
 30
0.0
 11
144.523484436144
 21
234.5959665160907
 31
0.0
  0
LINE
  5
88C
330
30B
100
AcDbEntity
  8
dim
 62
     0
370
    -2
100
AcDbLine
 10
145.523484436144
 20
249.0959665160905
 30
0.0
 11
145.523484436144
 21
236.5959665160907
 31
0.0
  0
INSERT
  5
88D
330
30B
100
AcDbEntity
  8
dim
 62
     0
370
    -2
100
AcDbBlockReference
  2
_Open30
 10
145.523484436144
 20
251.0959665160905
 30
0.0
 41
2.0
 42
2.0
 43
2.0
 50
90.0
  0
INSERT
  5
88E
330
30B
100
AcDbEntity
  8
dim
 62
     0
370
    -2
100
AcDbBlockReference
  2
_Open30
 10
145.523484436144
 20
234.5959665160907
 30
0.0
 41
2.0
 42
2.0
 43
2.0
 50
270.0
  0
MTEXT
  5
88F
330
30B
100
AcDbEntity
  8
dim
 62
     3
100
AcDbMText
 10
143.398484436144
 20
242.8459665160906
 30
0.0
 40
3.0
 41
0.0
 71
     5
 72
     1
  1
16.5
  7
ATOM
 11
0.0000000000000001
 21
1.0
 31
0.0
 73
     1
 44
1.0
1001
ACAD
1000
MTEXTBEGIN
1070
    73
1070
     1
1070
    44
1040
1.0
1070
    74
1070
     0
1000
MTEXTEND
  0
POINT
  5
890
330
30B
100
AcDbEntity
  8
Defpoints
 62
     0
100
AcDbPoint
 10
162.3477555850829
 20
251.0959665160905
 30
0.0
  0
POINT
  5
891
330
30B
100
AcDbEntity
  8
Defpoints
 62
     0
100
AcDbPoint
 10
182.047755585083
 20
234.5959665160907
 30
0.0
  0
POINT
  5
892
330
30B
100
AcDbEntity
  8
Defpoints
 62
     0
100
AcDbPoint
 10
145.523484436144
 20
234.5959665160907
 30
0.0
  0
ENDBLK
  5
30D
330
30B
100
AcDbEntity
  8
0
100
AcDbBlockEnd
  0
BLOCK
  5
318
330
317
100
AcDbEntity
  8
0
100
AcDbBlockBegin
  2
*D11
 70
     1
 10
0.0
 20
0.0
 30
0.0
  3
*D11
  1

  0
LINE
  5
893
330
317
100
AcDbEntity
  8
dim
 62
     0
370
    -2
100
AcDbLine
 10
162.3477555850829
 20
256.0959665160906
 30
0.0
 11
162.3477555850829
 21
267.0286518109801
 31
0.0
  0
LINE
  5
894
330
317
100
AcDbEntity
  8
dim
 62
     0
370
    -2
100
AcDbLine
 10
189.8477555850829
 20
257.045966516091
 30
0.0
 11
189.8477555850829
 21
267.0286518109801
 31
0.0
  0
LINE
  5
895
330
317
100
AcDbEntity
  8
dim
 62
     0
370
    -2
100
AcDbLine
 10
164.3477555850829
 20
266.0286518109801
 30
0.0
 11
187.8477555850829
 21
266.0286518109801
 31
0.0
  0
INSERT
  5
896
330
317
100
AcDbEntity
  8
dim
 62
     0
370
    -2
100
AcDbBlockReference
  2
_Open30
 10
162.3477555850829
 20
266.0286518109801
 30
0.0
 41
2.0
 42
2.0
 43
2.0
 50
180.0
  0
INSERT
  5
897
330
317
100
AcDbEntity
  8
dim
 62
     0
370
    -2
100
AcDbBlockReference
  2
_Open30
 10
189.8477555850829
 20
266.0286518109801
 30
0.0
 41
2.0
 42
2.0
 43
2.0
  0
MTEXT
  5
898
330
317
100
AcDbEntity
  8
dim
 62
     3
100
AcDbMText
 10
176.0977555850829
 20
268.1536518109801
 30
0.0
 40
3.0
 41
0.0
 71
     5
 72
     1
  1
27.5
  7
ATOM
 73
     1
 44
1.0
1001
ACAD
1000
MTEXTBEGIN
1070
    73
1070
     1
1070
    44
1040
1.0
1070
    74
1070
     0
1000
MTEXTEND
  0
POINT
  5
899
330
317
100
AcDbEntity
  8
Defpoints
 62
     0
100
AcDbPoint
 10
162.3477555850829
 20
254.0959665160906
 30
0.0
  0
POINT
  5
89A
330
317
100
AcDbEntity
  8
Defpoints
 62
     0
100
AcDbPoint
 10
189.8477555850829
 20
255.045966516091
 30
0.0
  0
POINT
  5
89B
330
317
100
AcDbEntity
  8
Defpoints
 62
     0
100
AcDbPoint
 10
189.8477555850829
 20
266.0286518109801
 30
0.0
  0
ENDBLK
  5
319
330
317
100
AcDbEntity
  8
0
100
AcDbBlockEnd
  0
BLOCK
  5
324
330
323
100
AcDbEntity
  8
0
100
AcDbBlockBegin
  2
*D12
 70
     1
 10
0.0
 20
0.0
 30
0.0
  3
*D12
  1

  0
LINE
  5
89C
330
323
100
AcDbEntity
  8
dim
 62
     0
370
    -2
100
AcDbLine
 10
189.8477555850829
 20
257.045966516091
 30
0.0
 11
189.8477555850829
 21
267.0286518109801
 31
0.0
  0
LINE
  5
89D
330
323
100
AcDbEntity
  8
dim
 62
     0
370
    -2
100
AcDbLine
 10
212.8477555850829
 20
256.0959665160906
 30
0.0
 11
212.8477555850829
 21
267.0286518109801
 31
0.0
  0
LINE
  5
89E
330
323
100
AcDbEntity
  8
dim
 62
     0
370
    -2
100
AcDbLine
 10
191.8477555850829
 20
266.0286518109801
 30
0.0
 11
210.8477555850829
 21
266.0286518109801
 31
0.0
  0
INSERT
  5
89F
330
323
100
AcDbEntity
  8
dim
 62
     0
370
    -2
100
AcDbBlockReference
  2
_Open30
 10
189.8477555850829
 20
266.0286518109801
 30
0.0
 41
2.0
 42
2.0
 43
2.0
 50
180.0
  0
INSERT
  5
8A0
330
323
100
AcDbEntity
  8
dim
 62
     0
370
    -2
100
AcDbBlockReference
  2
_Open30
 10
212.8477555850829
 20
266.0286518109801
 30
0.0
 41
2.0
 42
2.0
 43
2.0
  0
MTEXT
  5
8A1
330
323
100
AcDbEntity
  8
dim
 62
     3
100
AcDbMText
 10
201.3477555850829
 20
268.1536518109801
 30
0.0
 40
3.0
 41
0.0
 71
     5
 72
     1
  1
23
  7
ATOM
 73
     1
 44
1.0
1001
ACAD
1000
MTEXTBEGIN
1070
    73
1070
     1
1070
    44
1040
1.0
1070
    74
1070
     0
1000
MTEXTEND
  0
POINT
  5
8A2
330
323
100
AcDbEntity
  8
Defpoints
 62
     0
100
AcDbPoint
 10
189.8477555850829
 20
255.045966516091
 30
0.0
  0
POINT
  5
8A3
330
323
100
AcDbEntity
  8
Defpoints
 62
     0
100
AcDbPoint
 10
212.8477555850829
 20
254.0959665160906
 30
0.0
  0
POINT
  5
8A4
330
323
100
AcDbEntity
  8
Defpoints
 62
     0
100
AcDbPoint
 10
212.8477555850829
 20
266.0286518109801
 30
0.0
  0
ENDBLK
  5
325
330
323
100
AcDbEntity
  8
0
100
AcDbBlockEnd
  0
BLOCK
  5
330
330
32F
100
AcDbEntity
  8
0
100
AcDbBlockBegin
  2
*D13
 70
     1
 10
0.0
 20
0.0
 30
0.0
  3
*D13
  1

  0
LINE
  5
8A5
330
32F
100
AcDbEntity
  8
dim
 62
     0
370
    -2
100
AcDbLine
 10
212.8477555850829
 20
256.0959665160906
 30
0.0
 11
212.8477555850829
 21
273.0286518109801
 31
0.0
  0
LINE
  5
8A6
330
32F
100
AcDbEntity
  8
dim
 62
     0
370
    -2
100
AcDbLine
 10
162.3477555850829
 20
256.0959665160906
 30
0.0
 11
162.3477555850829
 21
273.0286518109801
 31
0.0
  0
LINE
  5
8A7
330
32F
100
AcDbEntity
  8
dim
 62
     0
370
    -2
100
AcDbLine
 10
210.8477555850829
 20
272.0286518109801
 30
0.0
 11
164.3477555850829
 21
272.0286518109801
 31
0.0
  0
INSERT
  5
8A8
330
32F
100
AcDbEntity
  8
dim
 62
     0
370
    -2
100
AcDbBlockReference
  2
_Open30
 10
212.8477555850829
 20
272.0286518109801
 30
0.0
 41
2.0
 42
2.0
 43
2.0
  0
INSERT
  5
8A9
330
32F
100
AcDbEntity
  8
dim
 62
     0
370
    -2
100
AcDbBlockReference
  2
_Open30
 10
162.3477555850829
 20
272.0286518109801
 30
0.0
 41
2.0
 42
2.0
 43
2.0
 50
180.0
  0
MTEXT
  5
8AA
330
32F
100
AcDbEntity
  8
dim
 62
     3
100
AcDbMText
 10
187.5977555850829
 20
274.1536518109801
 30
0.0
 40
3.0
 41
0.0
 71
     5
 72
     1
  1
50.5
  7
ATOM
 73
     1
 44
1.0
1001
ACAD
1000
MTEXTBEGIN
1070
    73
1070
     1
1070
    44
1040
1.0
1070
    74
1070
     0
1000
MTEXTEND
  0
POINT
  5
8AB
330
32F
100
AcDbEntity
  8
Defpoints
 62
     0
100
AcDbPoint
 10
212.8477555850829
 20
254.0959665160906
 30
0.0
  0
POINT
  5
8AC
330
32F
100
AcDbEntity
  8
Defpoints
 62
     0
100
AcDbPoint
 10
162.3477555850829
 20
254.0959665160906
 30
0.0
  0
POINT
  5
8AD
330
32F
100
AcDbEntity
  8
Defpoints
 62
     0
100
AcDbPoint
 10
162.3477555850829
 20
272.0286518109801
 30
0.0
  0
ENDBLK
  5
331
330
32F
100
AcDbEntity
  8
0
100
AcDbBlockEnd
  0
BLOCK
  5
33C
330
33B
100
AcDbEntity
  8
0
100
AcDbBlockBegin
  2
*D14
 70
     1
 10
0.0
 20
0.0
 30
0.0
  3
*D14
  1

  0
LINE
  5
8AE
330
33B
100
AcDbEntity
  8
dim
 62
     0
370
    -2
100
AcDbLine
 10
198.1477555850831
 20
174.1393868407758
 30
0.0
 11
198.1477555850831
 21
211.8629354417956
 31
0.0
  0
LINE
  5
8AF
330
33B
100
AcDbEntity
  8
dim
 62
     0
370
    -2
100
AcDbLine
 10
181.5477555850832
 20
174.1393868407758
 30
0.0
 11
181.5477555850832
 21
211.8629354417956
 31
0.0
  0
LINE
  5
8B0
330
33B
100
AcDbEntity
  8
dim
 62
     0
370
    -2
100
AcDbLine
 10
196.147755585083
 20
210.8629354417956
 30
0.0
 11
183.5477555850832
 21
210.8629354417956
 31
0.0
  0
INSERT
  5
8B1
330
33B
100
AcDbEntity
  8
dim
 62
     0
370
    -2
100
AcDbBlockReference
  2
_Open30
 10
198.1477555850831
 20
210.8629354417956
 30
0.0
 41
2.0
 42
2.0
 43
2.0
  0
INSERT
  5
8B2
330
33B
100
AcDbEntity
  8
dim
 62
     0
370
    -2
100
AcDbBlockReference
  2
_Open30
 10
181.5477555850832
 20
210.8629354417956
 30
0.0
 41
2.0
 42
2.0
 43
2.0
 50
180.0
  0
MTEXT
  5
8B3
330
33B
100
AcDbEntity
  8
dim
 62
     3
100
AcDbMText
 10
189.8477555850831
 20
212.9879354417956
 30
0.0
 40
3.0
 41
0.0
 71
     5
 72
     1
  1
16.6
  7
ATOM
 73
     1
 44
1.0
1001
ACAD
1000
MTEXTBEGIN
1070
    73
1070
     1
1070
    44
1040
1.0
1070
    74
1070
     0
1000
MTEXTEND
  0
POINT
  5
8B4
330
33B
100
AcDbEntity
  8
Defpoints
 62
     0
100
AcDbPoint
 10
198.1477555850831
 20
172.1393868407758
 30
0.0
  0
POINT
  5
8B5
330
33B
100
AcDbEntity
  8
Defpoints
 62
     0
100
AcDbPoint
 10
181.5477555850832
 20
172.1393868407758
 30
0.0
  0
POINT
  5
8B6
330
33B
100
AcDbEntity
  8
Defpoints
 62
     0
100
AcDbPoint
 10
181.5477555850832
 20
210.8629354417956
 30
0.0
  0
ENDBLK
  5
33D
330
33B
100
AcDbEntity
  8
0
100
AcDbBlockEnd
  0
BLOCK
  5
348
330
347
100
AcDbEntity
  8
0
100
AcDbBlockBegin
  2
*D15
 70
     1
 10
0.0
 20
0.0
 30
0.0
  3
*D15
  1

  0
LINE
  5
8B7
330
347
100
AcDbEntity
  8
dim
 62
     0
370
    -2
100
AcDbLine
 10
181.5477555850832
 20
174.1393867851583
 30
0.0
 11
181.5477555850832
 21
211.8629354417956
 31
0.0
  0
LINE
  5
8B8
330
347
100
AcDbEntity
  8
dim
 62
     0
370
    -2
100
AcDbLine
 10
162.3477555850829
 20
200.3393868407759
 30
0.0
 11
162.3477555850829
 21
211.8629354417956
 31
0.0
  0
LINE
  5
8B9
330
347
100
AcDbEntity
  8
dim
 62
     0
370
    -2
100
AcDbLine
 10
179.5477555850832
 20
210.8629354417956
 30
0.0
 11
164.3477555850829
 21
210.8629354417956
 31
0.0
  0
INSERT
  5
8BA
330
347
100
AcDbEntity
  8
dim
 62
     0
370
    -2
100
AcDbBlockReference
  2
_Open30
 10
181.5477555850832
 20
210.8629354417956
 30
0.0
 41
2.0
 42
2.0
 43
2.0
  0
INSERT
  5
8BB
330
347
100
AcDbEntity
  8
dim
 62
     0
370
    -2
100
AcDbBlockReference
  2
_Open30
 10
162.3477555850829
 20
210.8629354417956
 30
0.0
 41
2.0
 42
2.0
 43
2.0
 50
180.0
  0
MTEXT
  5
8BC
330
347
100
AcDbEntity
  8
dim
 62
     3
100
AcDbMText
 10
171.9477555850831
 20
212.9879354417956
 30
0.0
 40
3.0
 41
0.0
 71
     5
 72
     1
  1
19.2
  7
ATOM
 73
     1
 44
1.0
1001
ACAD
1000
MTEXTBEGIN
1070
    73
1070
     1
1070
    44
1040
1.0
1070
    74
1070
     0
1000
MTEXTEND
  0
POINT
  5
8BD
330
347
100
AcDbEntity
  8
Defpoints
 62
     0
100
AcDbPoint
 10
181.5477555850832
 20
172.1393867851583
 30
0.0
  0
POINT
  5
8BE
330
347
100
AcDbEntity
  8
Defpoints
 62
     0
100
AcDbPoint
 10
162.3477555850829
 20
198.3393868407759
 30
0.0
  0
POINT
  5
8BF
330
347
100
AcDbEntity
  8
Defpoints
 62
     0
100
AcDbPoint
 10
162.3477555850829
 20
210.8629354417956
 30
0.0
  0
ENDBLK
  5
349
330
347
100
AcDbEntity
  8
0
100
AcDbBlockEnd
  0
BLOCK
  5
354
330
353
100
AcDbEntity
  8
0
100
AcDbBlockBegin
  2
*D16
 70
     1
 10
0.0
 20
0.0
 30
0.0
  3
*D16
  1

  0
LINE
  5
8C0
330
353
100
AcDbEntity
  8
dim
 62
     0
370
    -2
100
AcDbLine
 10
160.6477555850829
 20
198.6393868407758
 30
0.0
 11
149.8023375829725
 21
198.6393868407758
 31
0.0
  0
LINE
  5
8C1
330
353
100
AcDbEntity
  8
dim
 62
     0
370
    -2
100
AcDbLine
 10
184.1477555850831
 20
175.6393868407758
 30
0.0
 11
149.8023375829725
 21
175.6393868407758
 31
0.0
  0
LINE
  5
8C2
330
353
100
AcDbEntity
  8
dim
 62
     0
370
    -2
100
AcDbLine
 10
150.8023375829725
 20
196.6393868407758
 30
0.0
 11
150.8023375829725
 21
177.6393868407757
 31
0.0
  0
INSERT
  5
8C3
330
353
100
AcDbEntity
  8
dim
 62
     0
370
    -2
100
AcDbBlockReference
  2
_Open30
 10
150.8023375829725
 20
198.6393868407758
 30
0.0
 41
2.0
 42
2.0
 43
2.0
 50
90.0
  0
INSERT
  5
8C4
330
353
100
AcDbEntity
  8
dim
 62
     0
370
    -2
100
AcDbBlockReference
  2
_Open30
 10
150.8023375829725
 20
175.6393868407758
 30
0.0
 41
2.0
 42
2.0
 43
2.0
 50
270.0
  0
MTEXT
  5
8C5
330
353
100
AcDbEntity
  8
dim
 62
     3
100
AcDbMText
 10
148.6773375829725
 20
187.1393868407757
 30
0.0
 40
3.0
 41
0.0
 71
     5
 72
     1
  1
23
  7
ATOM
 11
0.0000000000000001
 21
1.0
 31
0.0
 73
     1
 44
1.0
1001
ACAD
1000
MTEXTBEGIN
1070
    73
1070
     1
1070
    44
1040
1.0
1070
    74
1070
     0
1000
MTEXTEND
  0
POINT
  5
8C6
330
353
100
AcDbEntity
  8
Defpoints
 62
     0
100
AcDbPoint
 10
162.6477555850829
 20
198.6393868407758
 30
0.0
  0
POINT
  5
8C7
330
353
100
AcDbEntity
  8
Defpoints
 62
     0
100
AcDbPoint
 10
186.147755585083
 20
175.6393868407758
 30
0.0
  0
POINT
  5
8C8
330
353
100
AcDbEntity
  8
Defpoints
 62
     0
100
AcDbPoint
 10
150.8023375829725
 20
175.6393868407758
 30
0.0
  0
ENDBLK
  5
355
330
353
100
AcDbEntity
  8
0
100
AcDbBlockEnd
  0
BLOCK
  5
360
330
35F
100
AcDbEntity
  8
0
100
AcDbBlockBegin
  2
*D17
 70
     1
 10
0.0
 20
0.0
 30
0.0
  3
*D17
  1

  0
LINE
  5
8C9
330
35F
100
AcDbEntity
  8
dim
 62
     0
370
    -2
100
AcDbLine
 10
184.1477555850831
 20
175.6393868407758
 30
0.0
 11
149.8023375829725
 21
175.6393868407758
 31
0.0
  0
LINE
  5
8CA
330
35F
100
AcDbEntity
  8
dim
 62
     0
370
    -2
100
AcDbLine
 10
181.0477555850832
 20
157.2393868407758
 30
0.0
 11
149.8023375829725
 21
157.2393868407758
 31
0.0
  0
LINE
  5
8CB
330
35F
100
AcDbEntity
  8
dim
 62
     0
370
    -2
100
AcDbLine
 10
150.8023375829725
 20
173.6393868407757
 30
0.0
 11
150.8023375829725
 21
159.2393868407758
 31
0.0
  0
INSERT
  5
8CC
330
35F
100
AcDbEntity
  8
dim
 62
     0
370
    -2
100
AcDbBlockReference
  2
_Open30
 10
150.8023375829725
 20
175.6393868407758
 30
0.0
 41
2.0
 42
2.0
 43
2.0
 50
90.0
  0
INSERT
  5
8CD
330
35F
100
AcDbEntity
  8
dim
 62
     0
370
    -2
100
AcDbBlockReference
  2
_Open30
 10
150.8023375829725
 20
157.2393868407758
 30
0.0
 41
2.0
 42
2.0
 43
2.0
 50
270.0
  0
MTEXT
  5
8CE
330
35F
100
AcDbEntity
  8
dim
 62
     3
100
AcDbMText
 10
148.6773375829725
 20
166.4393868407759
 30
0.0
 40
3.0
 41
0.0
 71
     5
 72
     1
  1
18.4
  7
ATOM
 11
0.0000000000000001
 21
1.0
 31
0.0
 73
     1
 44
1.0
1001
ACAD
1000
MTEXTBEGIN
1070
    73
1070
     1
1070
    44
1040
1.0
1070
    74
1070
     0
1000
MTEXTEND
  0
POINT
  5
8CF
330
35F
100
AcDbEntity
  8
Defpoints
 62
     0
100
AcDbPoint
 10
186.147755585083
 20
175.6393868407758
 30
0.0
  0
POINT
  5
8D0
330
35F
100
AcDbEntity
  8
Defpoints
 62
     0
100
AcDbPoint
 10
183.0477555850832
 20
157.2393868407758
 30
0.0
  0
POINT
  5
8D1
330
35F
100
AcDbEntity
  8
Defpoints
 62
     0
100
AcDbPoint
 10
150.8023375829725
 20
157.2393868407758
 30
0.0
  0
ENDBLK
  5
361
330
35F
100
AcDbEntity
  8
0
100
AcDbBlockEnd
  0
BLOCK
  5
36C
330
36B
100
AcDbEntity
  8
0
100
AcDbBlockBegin
  2
*D18
 70
     1
 10
0.0
 20
0.0
 30
0.0
  3
*D18
  1

  0
LINE
  5
8D2
330
36B
100
AcDbEntity
  8
dim
 62
     0
370
    -2
100
AcDbLine
 10
181.0477555850832
 20
157.2393868407758
 30
0.0
 11
149.8023375829725
 21
157.2393868407758
 31
0.0
  0
LINE
  5
8D3
330
36B
100
AcDbEntity
  8
dim
 62
     0
370
    -2
100
AcDbLine
 10
161.3477555850832
 20
155.6393868407758
 30
0.0
 11
149.8023375829725
 21
155.6393868407758
 31
0.0
  0
LINE
  5
8D4
330
36B
100
AcDbEntity
  8
dim
 62
     0
370
    -2
100
AcDbLine
 10
150.8023375829725
 20
159.2393868407758
 30
0.0
 11
150.8023375829725
 21
161.2393868407759
 31
0.0
  0
LINE
  5
8D5
330
36B
100
AcDbEntity
  8
dim
 62
     0
370
    -2
100
AcDbLine
 10
150.8023375829725
 20
153.6393868407758
 30
0.0
 11
150.8023375829725
 21
151.6393868407758
 31
0.0
  0
MTEXT
  5
8D6
330
36B
100
AcDbEntity
  8
dim
 62
     3
100
AcDbMText
 10
148.6773375829725
 20
151.6393868407758
 30
0.0
 40
3.0
 41
0.0
 71
     5
 72
     1
  1
1.6
  7
ATOM
 11
0.0000000000000001
 21
1.0
 31
0.0
 73
     1
 44
1.0
1001
ACAD
1000
MTEXTBEGIN
1070
    73
1070
     1
1070
    44
1040
1.0
1070
    74
1070
     0
1000
MTEXTEND
  0
LINE
  5
8D7
330
36B
100
AcDbEntity
  8
dim
 62
     0
370
    -2
100
AcDbLine
 10
150.8023375829725
 20
157.2393868407758
 30
0.0
 11
150.8023375829725
 21
155.6393868407758
 31
0.0
  0
INSERT
  5
8D8
330
36B
100
AcDbEntity
  8
dim
 62
     0
370
    -2
100
AcDbBlockReference
  2
_Open30
 10
150.8023375829725
 20
157.2393868407758
 30
0.0
 41
2.0
 42
2.0
 43
2.0
 50
270.0
  0
INSERT
  5
8D9
330
36B
100
AcDbEntity
  8
dim
 62
     0
370
    -2
100
AcDbBlockReference
  2
_Open30
 10
150.8023375829725
 20
155.6393868407758
 30
0.0
 41
2.0
 42
2.0
 43
2.0
 50
90.0
  0
POINT
  5
8DA
330
36B
100
AcDbEntity
  8
Defpoints
 62
     0
100
AcDbPoint
 10
183.0477555850832
 20
157.2393868407758
 30
0.0
  0
POINT
  5
8DB
330
36B
100
AcDbEntity
  8
Defpoints
 62
     0
100
AcDbPoint
 10
163.3477555850832
 20
155.6393868407758
 30
0.0
  0
POINT
  5
8DC
330
36B
100
AcDbEntity
  8
Defpoints
 62
     0
100
AcDbPoint
 10
150.8023375829725
 20
155.6393868407758
 30
0.0
  0
ENDBLK
  5
36D
330
36B
100
AcDbEntity
  8
0
100
AcDbBlockEnd
  0
BLOCK
  5
37A
330
379
100
AcDbEntity
  8
0
100
AcDbBlockBegin
  2
*D19
 70
     1
 10
0.0
 20
0.0
 30
0.0
  3
*D19
  1

  0
LINE
  5
8DD
330
379
100
AcDbEntity
  8
dim
 62
     0
370
    -2
100
AcDbLine
 10
160.3477555850829
 20
251.0959665160906
 30
0.0
 11
152.2363352738489
 21
251.0959665160906
 31
0.0
  0
LINE
  5
8DE
330
379
100
AcDbEntity
  8
dim
 62
     0
370
    -2
100
AcDbLine
 10
175.3477555850829
 20
242.3459665160911
 30
0.0
 11
152.2363352738489
 21
242.3459665160911
 31
0.0
  0
LINE
  5
8DF
330
379
100
AcDbEntity
  8
dim
 62
     0
370
    -2
100
AcDbLine
 10
153.2363352738489
 20
253.0959665160906
 30
0.0
 11
153.2363352738489
 21
255.0959665160906
 31
0.0
  0
LINE
  5
8E0
330
379
100
AcDbEntity
  8
dim
 62
     0
370
    -2
100
AcDbLine
 10
153.2363352738489
 20
240.3459665160911
 30
0.0
 11
153.2363352738489
 21
238.3459665160911
 31
0.0
  0
LINE
  5
8E1
330
379
100
AcDbEntity
  8
dim
 62
     0
370
    -2
100
AcDbLine
 10
153.2363352738489
 20
223.8235323461648
 30
0.0
 11
153.2363352738489
 21
242.3459665160911
 31
0.0
  0
MTEXT
  5
8E2
330
379
100
AcDbEntity
  8
dim
 62
     3
100
AcDbMText
 10
151.1113352738488
 20
228.4985323461649
 30
0.0
 40
3.0
 41
0.0
 71
     5
 72
     1
  1
8.75
  7
ATOM
 11
0.0000000000000001
 21
1.0
 31
0.0
 73
     1
 44
1.0
1001
ACAD
1000
MTEXTBEGIN
1070
    73
1070
     1
1070
    44
1040
1.0
1070
    74
1070
     0
1000
MTEXTEND
  0
LINE
  5
8E3
330
379
100
AcDbEntity
  8
dim
 62
     0
370
    -2
100
AcDbLine
 10
153.2363352738489
 20
251.0959665160906
 30
0.0
 11
153.2363352738489
 21
242.3459665160911
 31
0.0
  0
LINE
  5
8E4
330
379
100
AcDbEntity
  8
dim
 62
     0
370
    -2
100
AcDbLine
 10
153.2363352738489
 20
251.0959665160906
 30
0.0
 11
153.2363352738489
 21
242.3459665160911
 31
0.0
  0
INSERT
  5
8E5
330
379
100
AcDbEntity
  8
dim
 62
     0
370
    -2
100
AcDbBlockReference
  2
_Open30
 10
153.2363352738489
 20
251.0959665160906
 30
0.0
 41
2.0
 42
2.0
 43
2.0
 50
270.0
  0
INSERT
  5
8E6
330
379
100
AcDbEntity
  8
dim
 62
     0
370
    -2
100
AcDbBlockReference
  2
_Open30
 10
153.2363352738489
 20
242.3459665160911
 30
0.0
 41
2.0
 42
2.0
 43
2.0
 50
90.0
  0
POINT
  5
8E7
330
379
100
AcDbEntity
  8
Defpoints
 62
     0
100
AcDbPoint
 10
162.3477555850829
 20
251.0959665160906
 30
0.0
  0
POINT
  5
8E8
330
379
100
AcDbEntity
  8
Defpoints
 62
     0
100
AcDbPoint
 10
177.3477555850829
 20
242.3459665160911
 30
0.0
  0
POINT
  5
8E9
330
379
100
AcDbEntity
  8
Defpoints
 62
     0
100
AcDbPoint
 10
153.2363352738489
 20
242.3459665160911
 30
0.0
  0
ENDBLK
  5
37B
330
379
100
AcDbEntity
  8
0
100
AcDbBlockEnd
  0
BLOCK
  5
577
330
574
100
AcDbEntity
  8
0
100
AcDbBlockBegin
  2
ATOM_A4_zuwaku
 70
     2
 10
0.0
 20
0.0
 30
0.0
  3
ATOM_A4_zuwaku
  1

  0
TEXT
  5
578
330
574
100
AcDbEntity
  8
frame
  6
ByBlock
100
AcDbText
 10
273.1800000000018
 20
195.0000000000019
 30
0.0
 40
3.0
  1
改正日
 41
0.9
  7
ATOM
 72
     1
 11
277.5000000000018
 21
196.5000000000019
 31
0.0
100
AcDbText
 73
     2
1001
AcDbBlockRepETag
1070
     1
1071
        0
1005
578
  0
TEXT
  5
57A
330
574
100
AcDbEntity
  8
frame
  6
ByBlock
100
AcDbText
 10
251.4700000000018
 20
195.0000000000019
 30
0.0
 40
3.0
  1
改正担当
 41
0.9
  7
ATOM
 72
     1
 11
257.5000000000018
 21
196.5000000000019
 31
0.0
100
AcDbText
 73
     2
1001
AcDbBlockRepETag
1070
     1
1071
        1
1005
57A
  0
TEXT
  5
57B
330
574
100
AcDbEntity
  8
frame
  6
ByBlock
100
AcDbText
 10
229.9400000000018
 20
195.0000000000037
 30
0.0
 40
3.0
  1
改正承認日
 41
0.9
  7
ATOM
 72
     1
 11
237.5000000000018
 21
196.5000000000037
 31
0.0
100
AcDbText
 73
     2
1001
AcDbBlockRepETag
1070
     1
1071
        2
1005
57B
  0
TEXT
  5
57C
330
574
100
AcDbEntity
  8
frame
  6
ByBlock
100
AcDbText
 10
211.3800000000018
 20
195.0000000000019
 30
0.0
 40
3.0
  1
改正承認
 41
0.9
  7
ATOM
 72
     1
 11
217.5000000000018
 21
196.5000000000019
 31
0.0
100
AcDbText
 73
     2
1001
AcDbBlockRepETag
1070
     1
1071
        3
1005
57C
  0
TEXT
  5
57D
330
574
100
AcDbEntity
  8
frame
  6
ByBlock
100
AcDbText
 10
136.0300000000018
 20
195.0000000000019
 30
0.0
 40
3.0
  1
改　　　　正　　　　理　　　　由
 41
0.9
  7
ATOM
 72
     1
 11
161.5000000000018
 21
196.5000000000019
 31
0.0
100
AcDbText
 73
     2
1001
AcDbBlockRepETag
1070
     1
1071
        4
1005
57D
  0
TEXT
  5
57E
330
574
100
AcDbEntity
  8
frame
  6
ByBlock
100
AcDbText
 10
106.6200000000018
 20
195.0000000000019
 30
0.0
 40
3.0
  1
改番
 41
0.9
  7
ATOM
 72
     1
 11
109.5000000000018
 21
196.5000000000019
 31
0.0
100
AcDbText
 73
     2
1001
AcDbBlockRepETag
1070
     1
1071
        5
1005
57E
  0
LINE
  5
57F
330
574
100
AcDbEntity
  8
frame
  6
ByBlock
100
AcDbLine
 10
113.0000000000018
 20
200.0000000000037
 30
0.0
 11
113.0000000000018
 21
193.0000000000037
 31
0.0
1001
AcDbBlockRepETag
1070
     1
1071
        6
1005
57F
  0
LINE
  5
580
330
574
100
AcDbEntity
  8
frame
  6
ByBlock
100
AcDbLine
 10
113.0850000000018
 20
200.0000000000037
 30
0.0
 11
113.0850000000018
 21
193.0000000000037
 31
0.0
1001
AcDbBlockRepETag
1070
     1
1071
        7
1005
580
  0
LINE
  5
581
330
574
100
AcDbEntity
  8
frame
  6
ByBlock
100
AcDbLine
 10
112.9150000000018
 20
200.0000000000037
 30
0.0
 11
112.9150000000018
 21
193.0000000000037
 31
0.0
1001
AcDbBlockRepETag
1070
     1
1071
        8
1005
581
  0
LINE
  5
582
330
574
100
AcDbEntity
  8
frame
  6
ByBlock
100
AcDbLine
 10
210.0000000000018
 20
200.0000000000037
 30
0.0
 11
210.0000000000018
 21
193.0000000000037
 31
0.0
1001
AcDbBlockRepETag
1070
     1
1071
        9
1005
582
  0
LINE
  5
583
330
574
100
AcDbEntity
  8
frame
  6
ByBlock
100
AcDbLine
 10
210.0850000000018
 20
200.0000000000037
 30
0.0
 11
210.0850000000018
 21
193.0000000000037
 31
0.0
1001
AcDbBlockRepETag
1070
     1
1071
       10
1005
583
  0
LINE
  5
584
330
574
100
AcDbEntity
  8
frame
  6
ByBlock
100
AcDbLine
 10
209.9150000000018
 20
200.0000000000037
 30
0.0
 11
209.9150000000018
 21
193.0000000000037
 31
0.0
1001
AcDbBlockRepETag
1070
     1
1071
       11
1005
584
  0
LINE
  5
585
330
574
100
AcDbEntity
  8
frame
  6
ByBlock
100
AcDbLine
 10
225.0000000000018
 20
200.0000000000037
 30
0.0
 11
225.0000000000018
 21
193.0000000000037
 31
0.0
1001
AcDbBlockRepETag
1070
     1
1071
       12
1005
585
  0
LINE
  5
586
330
574
100
AcDbEntity
  8
frame
  6
ByBlock
100
AcDbLine
 10
225.0850000000018
 20
200.0000000000037
 30
0.0
 11
225.0850000000018
 21
193.0000000000037
 31
0.0
1001
AcDbBlockRepETag
1070
     1
1071
       13
1005
586
  0
LINE
  5
587
330
574
100
AcDbEntity
  8
frame
  6
ByBlock
100
AcDbLine
 10
224.9150000000018
 20
200.0000000000037
 30
0.0
 11
224.9150000000018
 21
193.0000000000037
 31
0.0
1001
AcDbBlockRepETag
1070
     1
1071
       14
1005
587
  0
LINE
  5
588
330
574
100
AcDbEntity
  8
frame
  6
ByBlock
100
AcDbLine
 10
250.0000000000018
 20
200.0000000000037
 30
0.0
 11
250.0000000000018
 21
193.0000000000037
 31
0.0
1001
AcDbBlockRepETag
1070
     1
1071
       15
1005
588
  0
LINE
  5
589
330
574
100
AcDbEntity
  8
frame
  6
ByBlock
100
AcDbLine
 10
250.0850000000018
 20
200.0000000000037
 30
0.0
 11
250.0850000000018
 21
193.0000000000037
 31
0.0
1001
AcDbBlockRepETag
1070
     1
1071
       16
1005
589
  0
LINE
  5
58A
330
574
100
AcDbEntity
  8
frame
  6
ByBlock
100
AcDbLine
 10
249.9150000000018
 20
200.0000000000037
 30
0.0
 11
249.9150000000018
 21
193.0000000000037
 31
0.0
1001
AcDbBlockRepETag
1070
     1
1071
       17
1005
58A
  0
LINE
  5
58B
330
574
100
AcDbEntity
  8
frame
  6
ByBlock
100
AcDbLine
 10
265.0000000000018
 20
200.0000000000037
 30
0.0
 11
265.0000000000018
 21
193.0000000000037
 31
0.0
1001
AcDbBlockRepETag
1070
     1
1071
       18
1005
58B
  0
LINE
  5
58C
330
574
100
AcDbEntity
  8
frame
  6
ByBlock
100
AcDbLine
 10
265.0850000000019
 20
200.0000000000037
 30
0.0
 11
265.0850000000019
 21
193.0000000000037
 31
0.0
1001
AcDbBlockRepETag
1070
     1
1071
       19
1005
58C
  0
LINE
  5
58D
330
574
100
AcDbEntity
  8
frame
  6
ByBlock
100
AcDbLine
 10
264.9150000000018
 20
200.0000000000037
 30
0.0
 11
264.9150000000018
 21
193.0000000000037
 31
0.0
1001
AcDbBlockRepETag
1070
     1
1071
       20
1005
58D
  0
LWPOLYLINE
  5
58E
330
574
100
AcDbEntity
  8
frame
  6
ByBlock
100
AcDbPolyline
 90
        3
 70
     0
 43
0.0
 10
290.0000000000018
 20
193.0000000000037
 10
106.0000000000018
 20
193.0000000000037
 10
106.0000000000018
 20
200.0
1001
AcDbBlockRepETag
1070
     1
1071
       21
1005
58E
  0
LWPOLYLINE
  5
58F
330
574
100
AcDbEntity
  8
frame
  6
ByBlock
100
AcDbPolyline
 90
        3
 70
     0
 43
0.0
 10
290.0000000000018
 20
193.0850000000028
 10
106.0850000000018
 20
193.0850000000028
 10
106.0850000000018
 20
200.0
1001
AcDbBlockRepETag
1070
     1
1071
       22
1005
58F
  0
LWPOLYLINE
  5
590
330
574
100
AcDbEntity
  8
frame
  6
ByBlock
100
AcDbPolyline
 90
        3
 70
     0
 43
0.0
 10
290.0000000000018
 20
192.9150000000026
 10
105.9150000000018
 20
192.9150000000026
 10
105.9150000000018
 20
200.0
1001
AcDbBlockRepETag
1070
     1
1071
       23
1005
590
  0
LWPOLYLINE
  5
591
330
574
100
AcDbEntity
  8
frame
  6
ByBlock
100
AcDbPolyline
 90
        4
 70
     1
 43
0.0
 10
137.5999999999976
 20
11.02453525127566
 10
133.5942130249641
 20
12.21128572090492
 10
133.5942130249641
 20
14.45924095267401
 10
137.5999999999976
 20
15.64599142230327
1001
AcDbBlockRepETag
1070
     1
1071
       24
1005
591
  0
LWPOLYLINE
  5
592
330
574
100
AcDbEntity
  8
frame
  6
ByBlock
100
AcDbPolyline
 90
        4
 70
     1
 43
0.0
 10
137.6849999999977
 20
10.91070147934988
 10
133.5092130249641
 20
12.14781598009176
 10
133.5092130249641
 20
14.52271069348899
 10
137.6849999999977
 20
15.75982519422905
1001
AcDbBlockRepETag
1070
     1
1071
       25
1005
592
  0
LWPOLYLINE
  5
593
330
574
100
AcDbEntity
  8
frame
  6
ByBlock
100
AcDbPolyline
 90
        4
 70
     1
 43
0.0
 10
137.5149999999976
 20
11.13836902320145
 10
133.6792130249641
 20
12.2747554617199
 10
133.6792130249641
 20
14.39577121186085
 10
137.5149999999976
 20
15.53215765037748
1001
AcDbBlockRepETag
1070
     1
1071
       26
1005
593
  0
TEXT
  5
594
330
574
100
AcDbEntity
  8
frame
  6
ByBlock
100
AcDbText
 10
27.81938469602648
 20
12.28100545243615
 30
0.0
 40
5.0
  1
アトムリビンテック株式会社
 41
0.6
  7
ATOM
 72
     1
 11
51.01938469602647
 21
14.78100545243615
 31
0.0
100
AcDbText
 73
     2
1001
AcDbBlockRepETag
1070
     1
1071
       27
1005
594
  0
TEXT
  5
595
330
574
100
AcDbEntity
  8
frame
  6
ByBlock
100
AcDbText
 10
79.76014210243829
 20
22.03100545243615
 30
0.0
 40
4.0
  1
開　　発　　部
 41
0.9
  7
ATOM
 11
79.76014210243829
 21
24.03100545243615
 31
0.0
100
AcDbText
 73
     2
1001
AcDbBlockRepETag
1070
     1
1071
       28
1005
595
  0
TEXT
  5
596
330
574
100
AcDbEntity
  8
frame
  6
ByBlock
100
AcDbText
 10
79.76014210243829
 20
17.53100545243615
 30
0.0
 40
3.0
  1
〒110-8680
 41
0.7
  7
ATOM
 11
79.76014210243829
 21
19.03100545243615
 31
0.0
100
AcDbText
 73
     2
1001
AcDbBlockRepETag
1070
     1
1071
       29
1005
596
  0
TEXT
  5
597
330
574
100
AcDbEntity
  8
frame
  6
ByBlock
100
AcDbText
 10
79.76014210243829
 20
13.03100545243614
 30
0.0
 40
3.0
  1
東京都 台東区 入谷 1-27-4
 41
0.65
  7
ATOM
 11
79.76014210243829
 21
14.53100545243614
 31
0.0
100
AcDbText
 73
     2
1001
AcDbBlockRepETag
1070
     1
1071
       30
1005
597
  0
TEXT
  5
598
330
574
100
AcDbEntity
  8
frame
  6
ByBlock
100
AcDbText
 10
126.5250000000009
 20
28.0
 30
0.0
 40
2.5
  1
名
 41
0.9
  7
ATOM
 72
     1
 11
127.5000000000009
 21
29.25
 31
0.0
100
AcDbText
 73
     2
1001
AcDbBlockRepETag
1070
     1
1071
       31
1005
598
  0
TEXT
  5
599
330
574
100
AcDbEntity
  8
frame
  6
ByBlock
100
AcDbText
 10
126.4500000000009
 20
24.5
 30
0.0
 40
2.5
  1
称
 41
0.9
  7
ATOM
 72
     1
 11
127.5000000000009
 21
25.75
 31
0.0
100
AcDbText
 73
     2
1001
AcDbBlockRepETag
1070
     1
1071
       32
1005
599
  0
TEXT
  5
59A
330
574
100
AcDbEntity
  8
frame
  6
ByBlock
100
AcDbText
 10
126.4500000000009
 20
21.0
 30
0.0
 40
2.5
  1
尺
 41
0.9
  7
ATOM
 72
     1
 11
127.5000000000009
 21
22.25
 31
0.0
100
AcDbText
 73
     2
1001
AcDbBlockRepETag
1070
     1
1071
       33
1005
59A
  0
TEXT
  5
59B
330
574
100
AcDbEntity
  8
frame
  6
ByBlock
100
AcDbText
 10
126.4500000000009
 20
17.5
 30
0.0
 40
2.5
  1
度
 41
0.9
  7
ATOM
 72
     1
 11
127.5000000000009
 21
18.75
 31
0.0
100
AcDbText
 73
     2
1001
AcDbBlockRepETag
1070
     1
1071
       34
1005
59B
  0
TEXT
  5
59C
330
574
100
AcDbEntity
  8
frame
  6
ByBlock
100
AcDbText
 10
142.9211411888642
 20
11.75
 30
0.0
 40
3.5
  1
A4
 41
0.8
  7
ATOM
 72
     1
 11
145.2544745221976
 21
13.5
 31
0.0
100
AcDbText
 73
     2
1001
AcDbBlockRepETag
1070
     1
1071
       35
1005
59C
  0
LINE
  5
59D
330
574
100
AcDbEntity
  8
frame
  6
ByBlock
100
AcDbLine
 10
126.0000000000009
 20
24.0
 30
0.0
 11
290.0000000000009
 21
24.0
 31
0.0
1001
AcDbBlockRepETag
1070
     1
1071
       36
1005
59D
  0
LINE
  5
59E
330
574
100
AcDbEntity
  8
frame
  6
ByBlock
100
AcDbLine
 10
126.0000000000009
 20
23.91500000000087
 30
0.0
 11
290.0000000000009
 21
23.91500000000087
 31
0.0
1001
AcDbBlockRepETag
1070
     1
1071
       37
1005
59E
  0
LINE
  5
59F
330
574
100
AcDbEntity
  8
frame
  6
ByBlock
100
AcDbLine
 10
126.0000000000009
 20
24.08500000000095
 30
0.0
 11
290.0000000000009
 21
24.08500000000095
 31
0.0
1001
AcDbBlockRepETag
1070
     1
1071
       38
1005
59F
  0
LINE
  5
5A0
330
574
100
AcDbEntity
  8
frame
  6
ByBlock
100
AcDbLine
 10
126.0000000000009
 20
17.0
 30
0.0
 11
290.0000000000009
 21
17.0
 31
0.0
1001
AcDbBlockRepETag
1070
     1
1071
       39
1005
5A0
  0
LINE
  5
5A1
330
574
100
AcDbEntity
  8
frame
  6
ByBlock
100
AcDbLine
 10
126.0000000000009
 20
16.91500000000087
 30
0.0
 11
290.0000000000009
 21
16.91500000000087
 31
0.0
1001
AcDbBlockRepETag
1070
     1
1071
       40
1005
5A1
  0
LINE
  5
5A2
330
574
100
AcDbEntity
  8
frame
  6
ByBlock
100
AcDbLine
 10
126.0000000000009
 20
17.08500000000094
 30
0.0
 11
290.0000000000009
 21
17.08500000000094
 31
0.0
1001
AcDbBlockRepETag
1070
     1
1071
       41
1005
5A2
  0
LINE
  5
5A3
330
574
100
AcDbEntity
  8
frame
  6
ByBlock
100
AcDbLine
 10
126.0000000000009
 20
31.0
 30
0.0
 11
126.0000000000009
 21
10.0
 31
0.0
1001
AcDbBlockRepETag
1070
     1
1071
       42
1005
5A3
  0
LINE
  5
5A4
330
574
100
AcDbEntity
  8
frame
  6
ByBlock
100
AcDbLine
 10
126.0850000000009
 20
31.0
 30
0.0
 11
126.0850000000009
 21
10.0
 31
0.0
1001
AcDbBlockRepETag
1070
     1
1071
       43
1005
5A4
  0
LINE
  5
5A5
330
574
100
AcDbEntity
  8
frame
  6
ByBlock
100
AcDbLine
 10
125.9150000000008
 20
31.0
 30
0.0
 11
125.9150000000008
 21
10.0
 31
0.0
1001
AcDbBlockRepETag
1070
     1
1071
       44
1005
5A5
  0
LINE
  5
5A6
330
574
100
AcDbEntity
  8
frame
  6
ByBlock
100
AcDbLine
 10
129.0000000000009
 20
17.0
 30
0.0
 11
129.0000000000009
 21
31.0
 31
0.0
1001
AcDbBlockRepETag
1070
     1
1071
       45
1005
5A6
  0
LINE
  5
5A7
330
574
100
AcDbEntity
  8
frame
  6
ByBlock
100
AcDbLine
 10
129.0850000000009
 20
17.0
 30
0.0
 11
129.0850000000009
 21
31.0
 31
0.0
1001
AcDbBlockRepETag
1070
     1
1071
       46
1005
5A7
  0
LINE
  5
5A8
330
574
100
AcDbEntity
  8
frame
  6
ByBlock
100
AcDbLine
 10
128.9150000000008
 20
17.0
 30
0.0
 11
128.9150000000008
 21
31.0
 31
0.0
1001
AcDbBlockRepETag
1070
     1
1071
       47
1005
5A8
  0
LINE
  5
5A9
330
574
100
AcDbEntity
  8
frame
  6
ByBlock
100
AcDbLine
 10
139.0000000000009
 20
17.0
 30
0.0
 11
139.0000000000009
 21
10.0
 31
0.0
1001
AcDbBlockRepETag
1070
     1
1071
       48
1005
5A9
  0
LINE
  5
5AA
330
574
100
AcDbEntity
  8
frame
  6
ByBlock
100
AcDbLine
 10
139.0850000000009
 20
17.0
 30
0.0
 11
139.0850000000009
 21
10.0
 31
0.0
1001
AcDbBlockRepETag
1070
     1
1071
       49
1005
5AA
  0
LINE
  5
5AB
330
574
100
AcDbEntity
  8
frame
  6
ByBlock
100
AcDbLine
 10
138.9150000000008
 20
17.0
 30
0.0
 11
138.9150000000008
 21
10.0
 31
0.0
1001
AcDbBlockRepETag
1070
     1
1071
       50
1005
5AB
  0
LWPOLYLINE
  5
5AC
330
574
100
AcDbEntity
  8
frame
  6
ByBlock
100
AcDbPolyline
 90
        4
 70
     1
 43
0.0
 10
52.25704337596926
 20
20.8343018923988
 10
57.07356782752867
 20
25.65082634396095
 42
0.9999999999997582
 10
55.43389992912671
 20
27.29049424236291
 10
50.61737547756546
 20
22.4739697908044
 42
1.000000000000484
1001
AcDbBlockRepETag
1070
     1
1071
       51
1005
5AC
  0
LWPOLYLINE
  5
5AD
330
574
100
AcDbEntity
  8
frame
  6
ByBlock
100
AcDbPolyline
 90
        4
 70
     1
 43
0.0
 10
52.19693929956886
 20
20.89440596880013
 10
57.01346375112826
 20
25.71093042036228
 42
1.0
 10
55.49400400552713
 20
27.23039016596158
 10
50.6774795539659
 20
22.41386571440307
 42
1.0
1001
AcDbBlockRepETag
1070
     1
1071
       52
1005
5AD
  0
LWPOLYLINE
  5
5AE
330
574
100
AcDbEntity
  8
frame
  6
ByBlock
100
AcDbPolyline
 90
        4
 70
     1
 43
0.0
 10
52.31714745236968
 20
20.77419781599747
 10
57.13367190393
 20
25.59072226755962
 42
1.0
 10
55.37379585272538
 20
27.35059831876424
 10
50.55727140116414
 20
22.53407386720573
 42
1.0
1001
AcDbBlockRepETag
1070
     1
1071
       53
1005
5AE
  0
LWPOLYLINE
  5
5AF
330
574
100
AcDbEntity
  8
frame
  6
ByBlock
100
AcDbPolyline
 90
        6
 70
     1
 43
0.0
 10
35.91807250752117
 20
23.41022415433872
 42
0.5040414943243567
 10
36.12596484577443
 20
23.69117452493083
 10
35.14032051253889
 20
26.9150718731853
 42
0.7399610750323026
 10
34.72453583603329
 20
26.9150718731853
 10
33.73889150279865
 20
23.69117452493083
 42
0.5040414943247417
 10
33.946783841051
 20
23.41022415433872
1001
AcDbBlockRepETag
1070
     1
1071
       54
1005
5AF
  0
LWPOLYLINE
  5
5B0
330
574
100
AcDbEntity
  8
frame
  6
ByBlock
100
AcDbPolyline
 90
        6
 70
     1
 43
0.0
 10
35.91807250752117
 20
23.32522415433778
 42
0.504041494324358
 10
36.20725075003065
 20
23.71602611983144
 10
35.22160641679602
 20
26.93992346808773
 42
0.7399610750322863
 10
34.64324993177616
 20
26.93992346808773
 10
33.65760559854243
 20
23.71602611983144
 42
0.5040414943247422
 10
33.946783841051
 20
23.32522415433778
1001
AcDbBlockRepETag
1070
     1
1071
       55
1005
5B0
  0
LWPOLYLINE
  5
5B1
330
574
100
AcDbEntity
  8
frame
  6
ByBlock
100
AcDbPolyline
 90
        6
 70
     1
 43
0.0
 10
35.91807250752117
 20
23.49522415433785
 42
0.5040414943243489
 10
36.0446789415173
 20
23.6663229300284
 10
35.05903460828267
 20
26.8902202782847
 42
0.7399610750322957
 10
34.80582174029041
 20
26.8902202782847
 10
33.82017740705578
 20
23.6663229300284
 42
0.5040414943247367
 10
33.946783841051
 20
23.49522415433785
1001
AcDbBlockRepETag
1070
     1
1071
       56
1005
5B1
  0
LWPOLYLINE
  5
5B2
330
574
100
AcDbEntity
  8
frame
  6
ByBlock
100
AcDbPolyline
 90
       26
 70
     1
 43
0.0
 10
36.4961122794175
 20
22.48047682237484
 10
37.20505299004525
 20
20.16163624266301
 42
-0.5040414943260745
 10
36.9278632057094
 20
19.7870357485408
 10
36.52663107283661
 20
19.7870357485408
 42
0.4142135623730951
 10
36.38170353660462
 20
19.64210821230881
 10
36.38170353660462
 20
19.06239806738085
 10
40.72952962356247
 20
19.06239806738085
 10
40.72952962356247
 20
19.64210821230881
 42
0.4142135623730951
 10
40.58460208733049
 20
19.7870357485408
 10
40.08824893694145
 20
19.7870357485408
 42
-0.3297505471416469
 10
39.74176170651936
 20
20.04342281204845
 10
36.98438425564746
 20
29.06239806738085
 10
34.62329168707129
 20
29.06239806738085
 10
31.86591423619848
 20
20.04342281204845
 42
-0.3297505471416475
 10
31.51942700577729
 20
19.7870357485408
 10
31.16431223225664
 20
19.7870357485408
 42
0.4142135623730951
 10
31.01938469602647
 20
19.64210821230881
 10
31.01938469602647
 20
19.06239806738085
 10
33.33822527573466
 20
19.06239806738085
 10
33.33822527573466
 20
19.64210821230881
 42
0.4142135623730951
 10
33.19329773950449
 20
19.7870357485408
 10
32.83906398069394
 20
19.7870357485408
 42
-0.5040414943243619
 10
32.63117164244068
 20
20.06798611913291
 10
33.38442114748433
 20
22.53175423507491
 42
-0.329750547139216
 10
33.59231348573667
 20
22.68558647317878
 10
36.21892249507983
 20
22.68558647317878
 42
-0.3297505471401503
1001
AcDbBlockRepETag
1070
     1
1071
       57
1005
5B2
  0
LWPOLYLINE
  5
5B3
330
574
100
AcDbEntity
  8
frame
  6
ByBlock
100
AcDbPolyline
 90
       26
 70
     1
 43
0.0
 10
36.41482637516038
 20
22.45562522747241
 10
37.12376708578813
 20
20.1367846477624
 42
-0.5040414943260704
 10
36.9278632057094
 20
19.87203574854175
 10
36.52663107283661
 20
19.87203574854175
 42
0.4142135623730974
 10
36.29670353660549
 20
19.64210821230881
 10
36.29670353660549
 20
18.97739806738172
 10
40.81452962356252
 20
18.97739806738172
 10
40.81452962356252
 20
19.64210821230881
 42
0.4142135623730974
 10
40.58460208733049
 20
19.87203574854175
 10
40.08824893694145
 20
19.87203574853993
 42
-0.3297505471416459
 10
39.82304761077648
 20
20.06827440694906
 10
37.04728094702478
 20
29.1473980673818
 10
34.56039499569397
 20
29.1473980673818
 10
31.78462833194136
 20
20.06827440694906
 42
-0.3297505471416504
 10
31.51942700577729
 20
19.87203574854175
 10
31.16431223225664
 20
19.87203574854175
 42
0.4142135623730974
 10
30.93438469602643
 20
19.64210821230881
 10
30.93438469602643
 20
18.97739806738172
 10
33.4232252757347
 20
18.97739806738172
 10
33.4232252757347
 20
19.64210821230881
 42
0.4142135623730974
 10
33.19329773950449
 20
19.87203574854175
 10
32.83906398069394
 20
19.87203574854175
 42
-0.5040414943243603
 10
32.71245754669781
 20
20.0431345242323
 10
33.46570705174145
 20
22.5069026401743
 42
-0.3297505471392114
 10
33.59231348573667
 20
22.60058647317783
 10
36.21892249508074
 20
22.60058647317965
 42
-0.3297505471401487
1001
AcDbBlockRepETag
1070
     1
1071
       58
1005
5B3
  0
LWPOLYLINE
  5
5B4
330
574
100
AcDbEntity
  8
frame
  6
ByBlock
100
AcDbPolyline
 90
       26
 70
     1
 43
0.0
 10
36.57739818367372
 20
22.50532841727545
 10
37.28633889430148
 20
20.18648783756544
 42
-0.5040414943260731
 10
36.9278632057094
 20
19.70203574854167
 10
36.52663107283661
 20
19.70203574854167
 42
0.4142135623730869
 10
36.46670353660466
 20
19.64210821230881
 10
36.46670353660466
 20
19.1473980673818
 10
40.64452962356243
 20
19.1473980673818
 10
40.64452962356243
 20
19.64210821230881
 42
0.4142135623730869
 10
40.58460208733049
 20
19.70203574854167
 10
40.08824893694145
 20
19.70203574853985
 42
-0.3297505471416466
 10
39.66047580226223
 20
20.01857121714784
 10
36.92148756427014
 20
28.97739806738173
 10
34.68618837844861
 20
28.97739806738173
 10
31.9472001404547
 20
20.01857121714784
 42
-0.3297505471416456
 10
31.51942700577729
 20
19.70203574854167
 10
31.16431223225664
 20
19.70203574854167
 42
0.4142135623730869
 10
31.1043846960265
 20
19.64210821230881
 10
31.1043846960265
 20
19.1473980673818
 10
33.25322527573553
 20
19.1473980673818
 10
33.25322527573553
 20
19.64210821230881
 42
0.4142135623730869
 10
33.19329773950358
 20
19.70203574854167
 10
32.83906398069394
 20
19.70203574854167
 42
-0.5040414943243603
 10
32.54988573818446
 20
20.09283771403352
 10
33.30313524322719
 20
22.55660582997554
 42
-0.3297505471392168
 10
33.59231348573667
 20
22.7705864731779
 10
36.21892249507983
 20
22.77058647317971
 42
-0.3297505471401506
1001
AcDbBlockRepETag
1070
     1
1071
       59
1005
5B4
  0
LWPOLYLINE
  5
5B5
330
574
100
AcDbEntity
  8
frame
  6
ByBlock
100
AcDbPolyline
 90
       26
 70
     1
 43
0.0
 10
48.1931083897025
 20
26.82773339255437
 10
48.12083397138849
 20
29.06239806738085
 10
44.1353267250115
 20
29.06239806738085
 10
40.14981947863453
 20
29.06239806738085
 10
40.0775450603196
 20
26.82773339255437
 42
0.8721984941219423
 10
40.78527569253036
 20
26.7072334197037
 10
41.07507349164189
 20
27.62787357363232
 42
-0.3274643887701543
 10
42.0427566876524
 20
28.33776038622273
 10
42.25126875399655
 20
28.33776038622273
 42
-0.4142135623730951
 10
42.7585151308085
 20
27.83051400941076
 10
42.75851513080669
 20
20.14935458912078
 42
-0.4142135623730951
 10
42.39619629022853
 20
19.7870357485408
 10
42.10634121776545
 20
19.7870357485408
 42
0.4142135623730951
 10
41.96141368153347
 20
19.64210821230881
 10
41.96141368153347
 20
19.06239806738085
 10
44.1353267250115
 20
19.06239806738085
 10
46.30923976848861
 20
19.06239806738085
 10
46.30923976848861
 20
19.64210821230881
 42
0.4142135623730951
 10
46.16431223225845
 20
19.7870357485408
 10
45.87445715979447
 20
19.7870357485408
 42
-0.4142135623730951
 10
45.51213831921449
 20
20.14935458912078
 10
45.51213831921449
 20
27.83051400941076
 42
-0.4142135623730951
 10
46.01938469602646
 20
28.33776038622273
 10
46.22789676236971
 20
28.33776038622273
 42
-0.3274643887701542
 10
47.19557995838113
 20
27.62787357363232
 10
47.48537775749172
 20
26.7072334197037
 42
0.872198494121949
1001
AcDbBlockRepETag
1070
     1
1071
       60
1005
5B5
  0
LWPOLYLINE
  5
5B6
330
574
100
AcDbEntity
  8
frame
  6
ByBlock
100
AcDbPolyline
 90
       26
 70
     1
 43
0.0
 10
48.2780639682387
 20
26.83048105984017
 10
48.20312931209628
 20
29.1473980673818
 10
44.1353267250115
 20
29.1473980673818
 10
40.06752413792582
 20
29.1473980673818
 10
39.9925894817825
 20
26.83048105984017
 42
0.8721984941219334
 10
40.86635372031014
 20
26.68171179335877
 10
41.15615151942164
 20
27.6023519472874
 42
-0.3274643887701552
 10
42.0427566876524
 20
28.25276038622178
 10
42.25126875399655
 20
28.25276038622178
 42
-0.414213562373094
 10
42.67351513080846
 20
27.83051400941076
 10
42.67351513080664
 20
20.14935458912078
 42
-0.4142135623730935
 10
42.39619629022853
 20
19.87203574854175
 10
42.10634121776545
 20
19.87203574854175
 42
0.4142135623730974
 10
41.87641368153345
 20
19.64210821230881
 10
41.87641368153345
 20
18.97739806738172
 10
44.1353267250115
 20
18.97739806738172
 10
46.39423976848864
 20
18.97739806738172
 10
46.39423976848864
 20
19.64210821230881
 42
0.4142135623730974
 10
46.16431223225845
 20
19.87203574854175
 10
45.87445715979355
 20
19.87203574853993
 42
-0.4142135623730935
 10
45.59713831921453
 20
20.14935458912078
 10
45.59713831921453
 20
27.83051400941076
 42
-0.414213562373094
 10
46.01938469602646
 20
28.25276038622178
 10
46.22789676237061
 20
28.25276038622178
 42
-0.3274643887701549
 10
47.11450193060136
 20
27.6023519472874
 10
47.40429972971194
 20
26.68171179335877
 42
0.8721984941219462
1001
AcDbBlockRepETag
1070
     1
1071
       61
1005
5B6
  0
LWPOLYLINE
  5
5B7
330
574
100
AcDbEntity
  8
frame
  6
ByBlock
100
AcDbPolyline
 90
       26
 70
     1
 43
0.0
 10
48.10815281116538
 20
26.82498572526856
 10
48.03853863067979
 20
28.97739806738173
 10
44.1353267250115
 20
28.97739806738173
 10
40.23211481934231
 20
28.97739806738173
 10
40.16250063885581
 20
26.82498572527038
 42
0.8721984941219337
 10
40.70419766474969
 20
26.73275504604863
 10
40.99399546386121
 20
27.65339519997724
 42
-0.327464388770155
 10
42.0427566876524
 20
28.42276038622186
 10
42.25126875399655
 20
28.42276038622186
 42
-0.4142135623730959
 10
42.84351513080764
 20
27.83051400941076
 10
42.84351513080673
 20
20.14935458912078
 42
-0.4142135623730962
 10
42.39619629022853
 20
19.70203574854167
 10
42.10634121776545
 20
19.70203574854167
 42
0.4142135623730869
 10
42.04641368153352
 20
19.64210821230881
 10
42.04641368153352
 20
19.1473980673818
 10
44.1353267250115
 20
19.1473980673818
 10
46.22423976848949
 20
19.1473980673818
 10
46.22423976848949
 20
19.64210821230881
 42
0.4142135623730869
 10
46.16431223225752
 20
19.70203574854167
 10
45.87445715979447
 20
19.70203574853985
 42
-0.414213562373096
 10
45.42713831921445
 20
20.14935458912078
 10
45.42713831921445
 20
27.83051400941076
 42
-0.4142135623730959
 10
46.01938469602646
 20
28.42276038622186
 10
46.22789676236971
 20
28.42276038622186
 42
-0.3274643887701536
 10
47.27665798616089
 20
27.65339519997724
 10
47.56645578527241
 20
26.73275504604863
 42
0.8721984941219799
1001
AcDbBlockRepETag
1070
     1
1071
       62
1005
5B7
  0
LWPOLYLINE
  5
5B8
330
574
100
AcDbEntity
  8
frame
  6
ByBlock
100
AcDbPolyline
 90
       40
 70
     1
 43
0.0
 10
70.87445715979446
 20
19.7870357485408
 42
-0.4142135623730951
 10
71.01938469602647
 20
19.64210821230881
 10
71.01938469602647
 20
19.06239806738085
 10
66.96141368153348
 20
19.06239806738085
 10
66.96141368153348
 20
19.64210821230881
 42
-0.4142135623730951
 10
67.10634121776546
 20
19.7870357485408
 10
67.39619629022945
 20
19.7870357485408
 42
0.4142135623730951
 10
67.75851513080849
 20
20.14935458912078
 10
67.75851513080849
 20
28.12706220569089
 42
0.8769764629942649
 10
67.33113995118038
 20
28.1833272154945
 10
64.88719435172242
 20
19.06239806738085
 10
64.19167443671813
 20
19.06239806738085
 10
61.73661494811677
 20
28.22480481444291
 42
0.8769764629925763
 10
61.30923976849043
 20
28.16853980463747
 10
61.30923976849043
 20
20.00442705288879
 42
0.4142135623730951
 10
61.52663107283661
 20
19.7870357485408
 10
61.74402237718549
 20
19.7870357485408
 42
-0.4142135623730951
 10
61.88894991341749
 20
19.64210821230881
 10
61.88894991341749
 20
19.06239806738085
 10
59.85996440617054
 20
19.06239806738085
 10
59.85996440617054
 20
19.64210821230881
 42
-0.4142135623730951
 10
60.00489194240254
 20
19.7870357485408
 10
60.36721078298251
 20
19.7870357485408
 42
0.4142135623730951
 10
60.58460208733049
 20
20.00442705288879
 10
60.58460208733049
 20
28.12036908187474
 42
0.4142135623730951
 10
60.36721078298251
 20
28.33776038622273
 10
60.00489194240254
 20
28.33776038622273
 42
-0.4142135623730951
 10
59.85996440617054
 20
28.48268792245472
 10
59.85996440617054
 20
29.06239806738085
 10
64.06286295689461
 20
29.06239806738085
 10
65.22969067581835
 20
24.70773773668225
 42
0.7673269879785563
 10
65.64965842637866
 20
24.70773773668225
 10
66.81648614530151
 20
29.06239806738085
 10
71.01938469602647
 20
29.06239806738085
 10
71.01938469602647
 20
28.48268792245472
 42
-0.4142135623730951
 10
70.87445715979446
 20
28.33776038622273
 10
70.58460208733048
 20
28.33776038622273
 42
0.4142135623730951
 10
70.22228324675052
 20
27.97544154564275
 10
70.22228324675052
 20
20.14935458912078
 42
0.4142135623730951
 10
70.58460208733048
 20
19.7870357485408
1001
AcDbBlockRepETag
1070
     1
1071
       63
1005
5B8
  0
LWPOLYLINE
  5
5B9
330
574
100
AcDbEntity
  8
frame
  6
ByBlock
100
AcDbPolyline
 90
       40
 70
     1
 43
0.0
 10
70.87445715979446
 20
19.87203574854175
 42
-0.4142135623730974
 10
71.1043846960265
 20
19.64210821230881
 10
71.1043846960265
 20
18.97739806738172
 10
66.87641368153345
 20
18.97739806738172
 10
66.87641368153345
 20
19.64210821230881
 42
-0.4142135623730974
 10
67.10634121776546
 20
19.87203574854175
 10
67.39619629022945
 20
19.87203574854175
 42
0.4142135623730935
 10
67.67351513080848
 20
20.14935458912078
 10
67.67351513080848
 20
28.12706220569089
 42
0.8769764629942653
 10
67.41324364641513
 20
28.16132759666107
 10
64.95241714570056
 20
18.97739806738172
 10
64.12645164274
 20
18.97739806738172
 10
61.65451125288291
 20
28.20280519560947
 42
0.8769764629924258
 10
61.39423976849048
 20
28.16853980463747
 10
61.39423976849048
 20
20.00442705288879
 42
0.4142135623730835
 10
61.52663107283752
 20
19.87203574854175
 10
61.74402237718549
 20
19.87203574854175
 42
-0.4142135623730974
 10
61.97394991341752
 20
19.64210821230881
 10
61.97394991341752
 20
18.97739806738172
 10
59.77496440617051
 20
18.97739806738172
 10
59.77496440617051
 20
19.64210821230881
 42
-0.4142135623730974
 10
60.00489194240254
 20
19.87203574854175
 10
60.36721078298251
 20
19.87203574854175
 42
0.4142135623730913
 10
60.49960208733047
 20
20.00442705288879
 10
60.49960208733047
 20
28.12036908187474
 42
0.4142135623730913
 10
60.36721078298251
 20
28.25276038622178
 10
60.00489194240254
 20
28.25276038622178
 42
-0.4142135623730974
 10
59.77496440617051
 20
28.48268792245472
 10
59.77496440617051
 20
29.1473980673818
 10
64.12808575087365
 20
29.1473980673818
 10
65.31179437105311
 20
24.72973735551568
 42
0.767326987978615
 10
65.5675547311439
 20
24.72973735551568
 10
66.75126335132336
 20
29.1473980673818
 10
71.1043846960265
 20
29.1473980673818
 10
71.1043846960265
 20
28.48268792245472
 42
-0.4142135623730974
 10
70.87445715979446
 20
28.25276038622178
 10
70.58460208733048
 20
28.25276038622178
 42
0.4142135623730896
 10
70.30728324674965
 20
27.97544154564275
 10
70.30728324674965
 20
20.14935458912078
 42
0.4142135623730895
 10
70.58460208733048
 20
19.87203574854175
1001
AcDbBlockRepETag
1070
     1
1071
       64
1005
5B9
  0
LWPOLYLINE
  5
5BA
330
574
100
AcDbEntity
  8
frame
  6
ByBlock
100
AcDbPolyline
 90
       40
 70
     1
 43
0.0
 10
70.87445715979446
 20
19.70203574854167
 42
-0.4142135623730869
 10
70.93438469602642
 20
19.64210821230881
 10
70.93438469602642
 20
19.1473980673818
 10
67.04641368153352
 20
19.1473980673818
 10
67.04641368153352
 20
19.64210821230881
 42
-0.4142135623730869
 10
67.10634121776546
 20
19.70203574854167
 10
67.39619629022945
 20
19.70203574854167
 42
0.4142135623730962
 10
67.84351513080763
 20
20.14935458912078
 10
67.84351513080763
 20
28.12706220569089
 42
0.8769764629943033
 10
67.24903625594561
 20
28.20532683432793
 10
64.82197155774429
 20
19.1473980673818
 10
64.25689723069628
 20
19.1473980673818
 10
61.81871864335153
 20
28.24680443327634
 42
0.8769764629925827
 10
61.22423976849042
 20
28.16853980463747
 10
61.22423976849042
 20
20.00442705288879
 42
0.4142135623731002
 10
61.52663107283661
 20
19.70203574854167
 10
61.74402237718549
 20
19.70203574854167
 42
-0.4142135623730869
 10
61.80394991341746
 20
19.64210821230881
 10
61.80394991341746
 20
19.1473980673818
 10
59.94496440616967
 20
19.1473980673818
 10
59.94496440616967
 20
19.64210821230881
 42
-0.4142135623730869
 10
60.00489194240254
 20
19.70203574854167
 10
60.36721078298251
 20
19.70203574854167
 42
0.4142135623730966
 10
60.66960208733053
 20
20.00442705288879
 10
60.66960208733053
 20
28.12036908187474
 42
0.4142135623730966
 10
60.36721078298251
 20
28.42276038622186
 10
60.00489194240254
 20
28.42276038622186
 42
-0.4142135623730869
 10
59.94496440616967
 20
28.48268792245472
 10
59.94496440616967
 20
28.97739806738173
 10
63.99764016291647
 20
28.97739806738173
 10
65.14758698058358
 20
24.68573811784882
 42
0.7673269879785485
 10
65.73176212161252
 20
24.68573811784882
 10
66.88170893927964
 20
28.97739806738173
 10
70.93438469602642
 20
28.97739806738173
 10
70.93438469602642
 20
28.48268792245472
 42
-0.4142135623730869
 10
70.87445715979446
 20
28.42276038622186
 10
70.58460208733048
 20
28.42276038622186
 42
0.4142135623730962
 10
70.13728324675049
 20
27.97544154564275
 10
70.13728324675049
 20
20.14935458912078
 42
0.4142135623730985
 10
70.58460208733048
 20
19.70203574854167
1001
AcDbBlockRepETag
1070
     1
1071
       65
1005
5BA
  0
ATTDEF
  5
5BB
330
574
100
AcDbEntity
  8
frame
  6
ByBlock
100
AcDbText
 10
109.5000000000018
 20
188.0000000000037
 30
0.0
 40
3.0
  1

 41
0.9
  7
ATOM
 72
     1
 11
109.5000000000018
 21
189.5000000000037
 31
0.0
100
AcDbAttributeDefinition
  3
改番?
  2
改番
 70
     0
 74
     2
1001
AcDbBlockRepETag
1070
     1
1071
      213
1005
0
1001
AcDbAttr
1070
     0
1070
     1
  0
ATTDEF
  5
5BC
330
574
100
AcDbEntity
  8
frame
  6
ByBlock
100
AcDbText
 10
161.5000000000018
 20
188.0000000000037
 30
0.0
 40
3.0
  1

 41
0.9
  7
ATOM
 72
     1
 11
161.5000000000018
 21
189.5000000000037
 31
0.0
100
AcDbAttributeDefinition
  3
改正理由?
  2
改　　　　正　　　　理　　　　由
 70
     0
 74
     2
1001
AcDbBlockRepETag
1070
     1
1071
      214
1005
0
1001
AcDbAttr
1070
     0
1070
     1
  0
ATTDEF
  5
5BD
330
574
100
AcDbEntity
  8
frame
  6
ByBlock
100
AcDbText
 10
217.5000000000018
 20
188.0000000000037
 30
0.0
 40
3.0
  1

 41
0.9
  7
ATOM
 72
     1
 11
217.5000000000018
 21
189.5000000000037
 31
0.0
100
AcDbAttributeDefinition
  3
改正承認?
  2
改正承認
 70
     0
 74
     2
1001
AcDbBlockRepETag
1070
     1
1071
      212
1005
0
1001
AcDbAttr
1070
     0
1070
     1
  0
ATTDEF
  5
5BE
330
574
100
AcDbEntity
  8
frame
  6
ByBlock
100
AcDbText
 10
237.5000000000018
 20
188.0000000000037
 30
0.0
 40
3.0
  1

 41
0.9
  7
ATOM
 72
     1
 11
237.5000000000018
 21
189.5000000000037
 31
0.0
100
AcDbAttributeDefinition
  3
改正承認日?
  2
改正承認日
 70
     0
 74
     2
1001
AcDbBlockRepETag
1070
     1
1071
      211
1005
0
1001
AcDbAttr
1070
     0
1070
     1
  0
ATTDEF
  5
5BF
330
574
100
AcDbEntity
  8
frame
  6
ByBlock
100
AcDbText
 10
257.5000000000018
 20
188.0000000000037
 30
0.0
 40
3.0
  1

 41
0.9
  7
ATOM
 72
     1
 11
257.5000000000018
 21
189.5000000000037
 31
0.0
100
AcDbAttributeDefinition
  3
改正担当?
  2
改正担当
 70
     0
 74
     2
1001
AcDbBlockRepETag
1070
     1
1071
      210
1005
0
1001
AcDbAttr
1070
     0
1070
     1
  0
ATTDEF
  5
5C0
330
574
100
AcDbEntity
  8
frame
  6
ByBlock
100
AcDbText
 10
277.5000000000018
 20
188.0000000000037
 30
0.0
 40
3.0
  1

 41
0.9
  7
ATOM
 72
     1
 11
277.5000000000018
 21
189.5000000000037
 31
0.0
100
AcDbAttributeDefinition
  3
改正日?
  2
改正日
 70
     0
 74
     2
1001
AcDbBlockRepETag
1070
     1
1071
      209
1005
0
1001
AcDbAttr
1070
     0
1070
     1
  0
CIRCLE
  5
5C1
330
574
100
AcDbEntity
  8
frame
100
AcDbCircle
 10
129.6985756137883
 20
13.33526333679037
 30
0.0
 40
1.123977615884085
1001
AcDbBlockRepETag
1070
     1
1071
       74
1005
5C1
  0
CIRCLE
  5
5C2
330
574
100
AcDbEntity
  8
frame
100
AcDbCircle
 10
129.6985756137883
 20
13.33526333679037
 30
0.0
 40
1.208977615884085
1001
AcDbBlockRepETag
1070
     1
1071
       75
1005
5C2
  0
CIRCLE
  5
5C3
330
574
100
AcDbEntity
  8
frame
100
AcDbCircle
 10
129.6985756137883
 20
13.33526333679037
 30
0.0
 40
1.038977615884085
1001
AcDbBlockRepETag
1070
     1
1071
       76
1005
5C3
  0
CIRCLE
  5
5C4
330
574
100
AcDbEntity
  8
frame
100
AcDbCircle
 10
129.6985756137883
 20
13.33526333679037
 30
0.0
 40
2.310728085513118
1001
AcDbBlockRepETag
1070
     1
1071
       77
1005
5C4
  0
CIRCLE
  5
5C5
330
574
100
AcDbEntity
  8
frame
100
AcDbCircle
 10
129.6985756137883
 20
13.33526333679037
 30
0.0
 40
2.395728085513117
1001
AcDbBlockRepETag
1070
     1
1071
       78
1005
5C5
  0
CIRCLE
  5
5C6
330
574
100
AcDbEntity
  8
frame
100
AcDbCircle
 10
129.6985756137883
 20
13.33526333679037
 30
0.0
 40
2.225728085513118
1001
AcDbBlockRepETag
1070
     1
1071
       79
1005
5C6
  0
CIRCLE
  5
5C7
330
574
100
AcDbEntity
  8
frame
100
AcDbCircle
 10
53.86576029150639
 20
24.16239806738122
 30
0.0
 40
5.269566433505018
1001
AcDbBlockRepETag
1070
     1
1071
       80
1005
5C7
  0
CIRCLE
  5
5C8
330
574
100
AcDbEntity
  8
frame
100
AcDbCircle
 10
53.86576029150639
 20
24.16239806738122
 30
0.0
 40
5.354566433505018
1001
AcDbBlockRepETag
1070
     1
1071
       81
1005
5C8
  0
CIRCLE
  5
5C9
330
574
100
AcDbEntity
  8
frame
100
AcDbCircle
 10
53.86576029150639
 20
24.16239806738122
 30
0.0
 40
5.184566433505018
1001
AcDbBlockRepETag
1070
     1
1071
       82
1005
5C9
  0
LINE
  5
5CA
330
574
100
AcDbEntity
  8
frame
100
AcDbLine
 10
132.9942130249637
 20
13.33526333679037
 30
0.0
 11
134.9942130249637
 21
13.33526333679037
 31
0.0
1001
AcDbBlockRepETag
1070
     1
1071
       83
1005
5CA
  0
LINE
  5
5CB
330
574
100
AcDbEntity
  8
frame
100
AcDbLine
 10
135.4942130249637
 20
13.33526333679037
 30
0.0
 11
135.9942130249637
 21
13.33526333679037
 31
0.0
1001
AcDbBlockRepETag
1070
     1
1071
       84
1005
5CB
  0
LINE
  5
5CC
330
574
100
AcDbEntity
  8
frame
100
AcDbLine
 10
136.4942130249637
 20
13.33526333679037
 30
0.0
 11
138.1999999999989
 21
13.33526333679037
 31
0.0
1001
AcDbBlockRepETag
1070
     1
1071
       85
1005
5CC
  0
LINE
  5
5CD
330
574
100
AcDbEntity
  8
frame
100
AcDbLine
 10
126.7999999999992
 20
13.33526333679037
 30
0.0
 11
127.9985756137885
 21
13.33526333679037
 31
0.0
1001
AcDbBlockRepETag
1070
     1
1071
       86
1005
5CD
  0
LINE
  5
5CE
330
574
100
AcDbEntity
  8
frame
100
AcDbLine
 10
128.4985756137885
 20
13.33526333679037
 30
0.0
 11
128.9985756137885
 21
13.33526333679037
 31
0.0
1001
AcDbBlockRepETag
1070
     1
1071
       87
1005
5CE
  0
LINE
  5
5CF
330
574
100
AcDbEntity
  8
frame
100
AcDbLine
 10
129.4985756137885
 20
13.33526333679037
 30
0.0
 11
132.5971512275773
 21
13.33526333679037
 31
0.0
1001
AcDbBlockRepETag
1070
     1
1071
       88
1005
5CF
  0
LINE
  5
5D0
330
574
100
AcDbEntity
  8
frame
100
AcDbLine
 10
129.6985756137883
 20
16.2338389505785
 30
0.0
 11
129.6985756137883
 21
15.03526333678928
 31
0.0
1001
AcDbBlockRepETag
1070
     1
1071
       89
1005
5D0
  0
LINE
  5
5D1
330
574
100
AcDbEntity
  8
frame
100
AcDbLine
 10
129.6985756137883
 20
14.53526333678928
 30
0.0
 11
129.6985756137883
 21
14.03526333678928
 31
0.0
1001
AcDbBlockRepETag
1070
     1
1071
       90
1005
5D1
  0
LINE
  5
5D2
330
574
100
AcDbEntity
  8
frame
100
AcDbLine
 10
129.6985756137883
 20
13.53526333678928
 30
0.0
 11
129.6985756137883
 21
10.43668772300043
 31
0.0
1001
AcDbBlockRepETag
1070
     1
1071
       91
1005
5D2
  0
LWPOLYLINE
  5
5D3
330
574
100
AcDbEntity
  8
frame
  6
ByBlock
100
AcDbPolyline
 90
        4
 70
     1
 43
0.0
 10
290.0000000000009
 20
200.0
 10
12.99999999999909
 20
200.0
 10
12.99999999999909
 20
10.0
 10
290.0000000000009
 20
10.0
1001
AcDbBlockRepETag
1070
     1
1071
       92
1005
5D3
  0
LWPOLYLINE
  5
5D4
330
574
100
AcDbEntity
  8
frame
  6
ByBlock
100
AcDbPolyline
 90
        4
 70
     1
 43
0.0
 10
290.1600000000017
 20
200.1600000000017
 10
12.83999999999923
 20
200.1600000000017
 10
12.83999999999923
 20
9.840000000000143
 10
290.1600000000008
 20
9.840000000000143
1001
AcDbBlockRepETag
1070
     1
1071
       93
1005
5D4
  0
LWPOLYLINE
  5
5D5
330
574
100
AcDbEntity
  8
frame
  6
ByBlock
100
AcDbPolyline
 90
        4
 70
     1
 43
0.0
 10
289.8400000000011
 20
199.8400000000002
 10
13.15999999999985
 20
199.8400000000002
 10
13.15999999999985
 20
10.16000000000167
 10
289.8400000000011
 20
10.16000000000167
1001
AcDbBlockRepETag
1070
     1
1071
       94
1005
5D5
  0
LWPOLYLINE
  5
5D6
330
574
100
AcDbEntity
  8
frame
  6
ByBlock
390
86
100
AcDbPolyline
 90
        4
 70
     1
 43
0.0
 10
3.0
 20
0.0
 10
300.0000000000018
 20
0.0
 10
300.0000000000018
 20
210.0
 10
3.0
 20
210.0
1001
AcDbBlockRepETag
1070
     1
1071
       95
1005
5D6
  0
LINE
  5
5D7
330
574
100
AcDbEntity
  8
frame
  6
ByBlock
100
AcDbLine
 10
151.5000000000009
 20
0.0
 30
0.0
 11
151.5000000000009
 21
10.0
 31
0.0
1001
AcDbBlockRepETag
1070
     1
1071
       96
1005
5D7
  0
LINE
  5
5D8
330
574
100
AcDbEntity
  8
frame
  6
ByBlock
100
AcDbLine
 10
151.6600000000017
 20
0.0
 30
0.0
 11
151.6600000000007
 21
10.0
 31
0.0
1001
AcDbBlockRepETag
1070
     1
1071
       97
1005
5D8
  0
LINE
  5
5D9
330
574
100
AcDbEntity
  8
frame
  6
ByBlock
100
AcDbLine
 10
151.340000000001
 20
0.0
 30
0.0
 11
151.340000000001
 21
10.0
 31
0.0
1001
AcDbBlockRepETag
1070
     1
1071
       98
1005
5D9
  0
LINE
  5
5DA
330
574
100
AcDbEntity
  8
frame
  6
ByBlock
100
AcDbLine
 10
300.0000000000018
 20
105.0
 30
0.0
 11
290.0000000000009
 21
105.0
 31
0.0
1001
AcDbBlockRepETag
1070
     1
1071
       99
1005
5DA
  0
LINE
  5
5DB
330
574
100
AcDbEntity
  8
frame
  6
ByBlock
100
AcDbLine
 10
300.0000000000018
 20
104.8400000000002
 30
0.0
 11
290.0000000000009
 21
104.8400000000002
 31
0.0
1001
AcDbBlockRepETag
1070
     1
1071
      100
1005
5DB
  0
LINE
  5
5DC
330
574
100
AcDbEntity
  8
frame
  6
ByBlock
100
AcDbLine
 10
300.0000000000018
 20
105.1600000000017
 30
0.0
 11
290.0000000000009
 21
105.1600000000017
 31
0.0
1001
AcDbBlockRepETag
1070
     1
1071
      101
1005
5DC
  0
LINE
  5
5DD
330
574
100
AcDbEntity
  8
frame
  6
ByBlock
100
AcDbLine
 10
151.5000000000009
 20
210.0
 30
0.0
 11
151.5000000000009
 21
200.0
 31
0.0
1001
AcDbBlockRepETag
1070
     1
1071
      102
1005
5DD
  0
LINE
  5
5DE
330
574
100
AcDbEntity
  8
frame
  6
ByBlock
100
AcDbLine
 10
151.340000000001
 20
210.0
 30
0.0
 11
151.340000000001
 21
200.0
 31
0.0
1001
AcDbBlockRepETag
1070
     1
1071
      103
1005
5DE
  0
LINE
  5
5DF
330
574
100
AcDbEntity
  8
frame
  6
ByBlock
100
AcDbLine
 10
151.6600000000017
 20
210.0
 30
0.0
 11
151.6600000000017
 21
200.0
 31
0.0
1001
AcDbBlockRepETag
1070
     1
1071
      104
1005
5DF
  0
LINE
  5
5E0
330
574
100
AcDbEntity
  8
frame
  6
ByBlock
100
AcDbLine
 10
3.0
 20
105.0
 30
0.0
 11
12.99999999999909
 21
105.0
 31
0.0
1001
AcDbBlockRepETag
1070
     1
1071
      105
1005
5E0
  0
LINE
  5
5E1
330
574
100
AcDbEntity
  8
frame
  6
ByBlock
100
AcDbLine
 10
3.0
 20
104.8400000000002
 30
0.0
 11
12.99999999999909
 21
104.8400000000002
 31
0.0
1001
AcDbBlockRepETag
1070
     1
1071
      106
1005
5E1
  0
LINE
  5
5E2
330
574
100
AcDbEntity
  8
frame
  6
ByBlock
100
AcDbLine
 10
3.0
 20
105.1600000000017
 30
0.0
 11
12.99999999999909
 21
105.1600000000017
 31
0.0
1001
AcDbBlockRepETag
1070
     1
1071
      107
1005
5E2
  0
TEXT
  5
5E3
330
574
100
AcDbEntity
  8
frame
  6
ByBlock
100
AcDbText
 10
106.6200000000018
 20
33.0
 30
0.0
 40
3.0
  1
部番
 41
0.9
  7
ATOM
 72
     1
 11
109.5000000000018
 21
34.5
 31
0.0
100
AcDbText
 73
     2
1001
AcDbBlockRepETag
1070
     1
1071
      108
1005
5E3
  0
TEXT
  5
5E4
330
574
100
AcDbEntity
  8
frame
  6
ByBlock
100
AcDbText
 10
120.6300000000018
 20
33.0
 30
0.0
 40
3.0
  1
部　　　　品　　　　名
 41
0.9
  7
ATOM
 72
     1
 11
138.0000000000018
 21
34.5
 31
0.0
100
AcDbText
 73
     2
1001
AcDbBlockRepETag
1070
     1
1071
      109
1005
5E4
  0
TEXT
  5
5E5
330
574
100
AcDbEntity
  8
frame
  6
ByBlock
100
AcDbText
 10
170.8800000000018
 20
33.0
 30
0.0
 40
3.0
  1
材　　質
 41
0.9
  7
ATOM
 72
     1
 11
177.0000000000018
 21
34.5
 31
0.0
100
AcDbText
 73
     2
1001
AcDbBlockRepETag
1070
     1
1071
      110
1005
5E5
  0
TEXT
  5
5E6
330
574
100
AcDbEntity
  8
frame
  6
ByBlock
100
AcDbText
 10
191.6200000000018
 20
33.0
 30
0.0
 40
3.0
  1
数量
 41
0.9
  7
ATOM
 72
     1
 11
194.5000000000018
 21
34.5
 31
0.0
100
AcDbText
 73
     2
1001
AcDbBlockRepETag
1070
     1
1071
      111
1005
5E6
  0
TEXT
  5
5E7
330
574
100
AcDbEntity
  8
frame
  6
ByBlock
100
AcDbText
 10
207.1600000000018
 20
33.0
 30
0.0
 40
3.0
  1
表　　面　　処　　理
 41
0.9
  7
ATOM
 72
     1
 11
223.0000000000018
 21
34.5
 31
0.0
100
AcDbText
 73
     2
1001
AcDbBlockRepETag
1070
     1
1071
      112
1005
5E7
  0
TEXT
  5
5E8
330
574
100
AcDbEntity
  8
frame
  6
ByBlock
100
AcDbText
 10
261.2600000000009
 20
33.0
 30
0.0
 40
3.0
  1
備　　　考
 41
0.9
  7
ATOM
 72
     1
 11
269.0000000000009
 21
34.5
 31
0.0
100
AcDbText
 73
     2
1001
AcDbBlockRepETag
1070
     1
1071
      113
1005
5E8
  0
LWPOLYLINE
  5
5E9
330
574
100
AcDbEntity
  8
frame
  6
ByBlock
100
AcDbPolyline
 90
        2
 70
     0
 43
0.0
 10
290.0000000000009
 20
31.0
 10
290.0000000000009
 20
45.0
1001
AcDbBlockRepETag
1070
     1
1071
      114
1005
5E9
  0
LINE
  5
5EA
330
574
100
AcDbEntity
  8
frame
  6
ByBlock
100
AcDbLine
 10
113.0000000000018
 20
38.0
 30
0.0
 11
113.0000000000018
 21
31.0
 31
0.0
1001
AcDbBlockRepETag
1070
     1
1071
      115
1005
5EA
  0
LINE
  5
5EB
330
574
100
AcDbEntity
  8
frame
  6
ByBlock
100
AcDbLine
 10
112.9150000000018
 20
38.0
 30
0.0
 11
112.9150000000018
 21
31.0
 31
0.0
1001
AcDbBlockRepETag
1070
     1
1071
      116
1005
5EB
  0
LINE
  5
5EC
330
574
100
AcDbEntity
  8
frame
  6
ByBlock
100
AcDbLine
 10
113.0850000000018
 20
38.0
 30
0.0
 11
113.0850000000018
 21
31.0
 31
0.0
1001
AcDbBlockRepETag
1070
     1
1071
      117
1005
5EC
  0
LINE
  5
5ED
330
574
100
AcDbEntity
  8
frame
  6
ByBlock
100
AcDbLine
 10
163.0000000000018
 20
31.0
 30
0.0
 11
163.0000000000018
 21
38.0
 31
0.0
1001
AcDbBlockRepETag
1070
     1
1071
      118
1005
5ED
  0
LINE
  5
5EE
330
574
100
AcDbEntity
  8
frame
  6
ByBlock
100
AcDbLine
 10
163.0850000000018
 20
31.0
 30
0.0
 11
163.0850000000018
 21
38.0
 31
0.0
1001
AcDbBlockRepETag
1070
     1
1071
      119
1005
5EE
  0
LINE
  5
5EF
330
574
100
AcDbEntity
  8
frame
  6
ByBlock
100
AcDbLine
 10
162.9150000000018
 20
31.0
 30
0.0
 11
162.9150000000018
 21
38.0
 31
0.0
1001
AcDbBlockRepETag
1070
     1
1071
      120
1005
5EF
  0
LINE
  5
5F0
330
574
100
AcDbEntity
  8
frame
  6
ByBlock
100
AcDbLine
 10
191.0000000000018
 20
38.0
 30
0.0
 11
191.0000000000018
 21
31.0
 31
0.0
1001
AcDbBlockRepETag
1070
     1
1071
      121
1005
5F0
  0
LINE
  5
5F1
330
574
100
AcDbEntity
  8
frame
  6
ByBlock
100
AcDbLine
 10
191.0850000000018
 20
38.0
 30
0.0
 11
191.0850000000018
 21
31.0
 31
0.0
1001
AcDbBlockRepETag
1070
     1
1071
      122
1005
5F1
  0
LINE
  5
5F2
330
574
100
AcDbEntity
  8
frame
  6
ByBlock
100
AcDbLine
 10
190.9150000000018
 20
38.0
 30
0.0
 11
190.9150000000018
 21
31.0
 31
0.0
1001
AcDbBlockRepETag
1070
     1
1071
      123
1005
5F2
  0
LINE
  5
5F3
330
574
100
AcDbEntity
  8
frame
  6
ByBlock
100
AcDbLine
 10
197.9150000000018
 20
38.0
 30
0.0
 11
197.9150000000018
 21
31.0
 31
0.0
1001
AcDbBlockRepETag
1070
     1
1071
      124
1005
5F3
  0
LINE
  5
5F4
330
574
100
AcDbEntity
  8
frame
  6
ByBlock
100
AcDbLine
 10
198.0000000000018
 20
38.0
 30
0.0
 11
198.0000000000018
 21
31.0
 31
0.0
1001
AcDbBlockRepETag
1070
     1
1071
      125
1005
5F4
  0
LINE
  5
5F5
330
574
100
AcDbEntity
  8
frame
  6
ByBlock
100
AcDbLine
 10
198.0850000000018
 20
38.0
 30
0.0
 11
198.0850000000018
 21
31.0
 31
0.0
1001
AcDbBlockRepETag
1070
     1
1071
      126
1005
5F5
  0
LINE
  5
5F6
330
574
100
AcDbEntity
  8
frame
  6
ByBlock
100
AcDbLine
 10
248.0000000000018
 20
38.0
 30
0.0
 11
248.0000000000018
 21
31.0
 31
0.0
1001
AcDbBlockRepETag
1070
     1
1071
      127
1005
5F6
  0
LINE
  5
5F7
330
574
100
AcDbEntity
  8
frame
  6
ByBlock
100
AcDbLine
 10
248.0850000000018
 20
38.0
 30
0.0
 11
248.0850000000018
 21
31.0
 31
0.0
1001
AcDbBlockRepETag
1070
     1
1071
      128
1005
5F7
  0
LINE
  5
5F8
330
574
100
AcDbEntity
  8
frame
  6
ByBlock
100
AcDbLine
 10
247.9150000000018
 20
38.0
 30
0.0
 11
247.9150000000018
 21
31.0
 31
0.0
1001
AcDbBlockRepETag
1070
     1
1071
      129
1005
5F8
  0
LINE
  5
5F9
330
574
100
AcDbEntity
  8
frame
  6
ByBlock
100
AcDbLine
 10
106.0000000000009
 20
38.0
 30
0.0
 11
290.0000000000018
 21
38.0
 31
0.0
1001
AcDbBlockRepETag
1070
     1
1071
      130
1005
5F9
  0
LINE
  5
5FA
330
574
100
AcDbEntity
  8
frame
  6
ByBlock
100
AcDbLine
 10
106.0850000000009
 20
37.91499999999905
 30
0.0
 11
290.0000000000018
 21
37.91500000000088
 31
0.0
1001
AcDbBlockRepETag
1070
     1
1071
      131
1005
5FA
  0
LINE
  5
5FB
330
574
100
AcDbEntity
  8
frame
  6
ByBlock
100
AcDbLine
 10
105.9150000000008
 20
38.08500000000094
 30
0.0
 11
290.0000000000018
 21
38.08500000000094
 31
0.0
1001
AcDbBlockRepETag
1070
     1
1071
      132
1005
5FB
  0
LINE
  5
5FC
330
574
100
AcDbEntity
  8
frame
  6
ByBlock
100
AcDbLine
 10
13.15999999999985
 20
31.0
 30
0.0
 11
290.0000000000018
 21
31.0
 31
0.0
1001
AcDbBlockRepETag
1070
     1
1071
      133
1005
5FC
  0
LINE
  5
5FD
330
574
100
AcDbEntity
  8
frame
  6
ByBlock
100
AcDbLine
 10
12.99999999999909
 20
31.0
 30
0.0
 11
290.0000000000009
 21
31.0
 31
0.0
1001
AcDbBlockRepETag
1070
     1
1071
      134
1005
5FD
  0
LINE
  5
5FE
330
574
100
AcDbEntity
  8
frame
  6
ByBlock
100
AcDbLine
 10
12.99999999999909
 20
30.91499999999906
 30
0.0
 11
290.0000000000009
 21
30.91500000000087
 31
0.0
1001
AcDbBlockRepETag
1070
     1
1071
      135
1005
5FE
  0
LINE
  5
5FF
330
574
100
AcDbEntity
  8
frame
  6
ByBlock
100
AcDbLine
 10
12.99999999999909
 20
31.08499999999731
 30
0.0
 11
290.0000000000009
 21
31.08500000000095
 31
0.0
1001
AcDbBlockRepETag
1070
     1
1071
      136
1005
5FF
  0
TEXT
  5
600
330
574
100
AcDbEntity
  8
frame
  6
ByBlock
100
AcDbText
 10
193.4500000000009
 20
21.00000000000182
 30
0.0
 40
2.5
  1
設
 41
0.9
  7
ATOM
 72
     1
 11
194.5000000000009
 21
22.25000000000182
 31
0.0
100
AcDbText
 73
     2
1001
AcDbBlockRepETag
1070
     1
1071
      137
1005
600
  0
TEXT
  5
601
330
574
100
AcDbEntity
  8
frame
  6
ByBlock
100
AcDbText
 10
193.4500000000009
 20
17.50000000000182
 30
0.0
 40
2.5
  1
計
 41
0.9
  7
ATOM
 72
     1
 11
194.5000000000009
 21
18.75000000000182
 31
0.0
100
AcDbText
 73
     2
1001
AcDbBlockRepETag
1070
     1
1071
      138
1005
601
  0
TEXT
  5
602
330
574
100
AcDbEntity
  8
frame
  6
ByBlock
100
AcDbText
 10
193.4500000000009
 20
14.00000000000182
 30
0.0
 40
2.5
  1
作
 41
0.9
  7
ATOM
 72
     1
 11
194.5000000000009
 21
15.25000000000182
 31
0.0
100
AcDbText
 73
     2
1001
AcDbBlockRepETag
1070
     1
1071
      139
1005
602
  0
TEXT
  5
603
330
574
100
AcDbEntity
  8
frame
  6
ByBlock
100
AcDbText
 10
193.4500000000009
 20
10.50000000000182
 30
0.0
 40
2.5
  1
図
 41
0.9
  7
ATOM
 72
     1
 11
194.5000000000009
 21
11.75000000000182
 31
0.0
100
AcDbText
 73
     2
1001
AcDbBlockRepETag
1070
     1
1071
      140
1005
603
  0
TEXT
  5
604
330
574
100
AcDbEntity
  8
frame
  6
ByBlock
100
AcDbText
 10
151.9500000000009
 20
21.00000000000182
 30
0.0
 40
2.5
  1
承
 41
0.9
  7
ATOM
 72
     1
 11
153.0000000000009
 21
22.25000000000182
 31
0.0
100
AcDbText
 73
     2
1001
AcDbBlockRepETag
1070
     1
1071
      141
1005
604
  0
TEXT
  5
605
330
574
100
AcDbEntity
  8
frame
  6
ByBlock
100
AcDbText
 10
151.9500000000009
 20
17.50000000000182
 30
0.0
 40
2.5
  1
認
 41
0.9
  7
ATOM
 72
     1
 11
153.0000000000009
 21
18.75000000000182
 31
0.0
100
AcDbText
 73
     2
1001
AcDbBlockRepETag
1070
     1
1071
      142
1005
605
  0
TEXT
  5
606
330
574
100
AcDbEntity
  8
frame
  6
ByBlock
100
AcDbText
 10
151.9500000000009
 20
14.00000000000182
 30
0.0
 40
2.5
  1
検
 41
0.9
  7
ATOM
 72
     1
 11
153.0000000000009
 21
15.25000000000182
 31
0.0
100
AcDbText
 73
     2
1001
AcDbBlockRepETag
1070
     1
1071
      143
1005
606
  0
TEXT
  5
607
330
574
100
AcDbEntity
  8
frame
  6
ByBlock
100
AcDbText
 10
151.9500000000009
 20
10.50000000000182
 30
0.0
 40
2.5
  1
図
 41
0.9
  7
ATOM
 72
     1
 11
153.0000000000009
 21
11.75000000000182
 31
0.0
100
AcDbText
 73
     2
1001
AcDbBlockRepETag
1070
     1
1071
      144
1005
607
  0
TEXT
  5
608
330
574
100
AcDbEntity
  8
frame
  6
ByBlock
100
AcDbText
 10
234.9500000000009
 20
21.00000000000182
 30
0.0
 40
2.5
  1
図
 41
0.9
  7
ATOM
 72
     1
 11
236.0000000000009
 21
22.25000000000182
 31
0.0
100
AcDbText
 73
     2
1001
AcDbBlockRepETag
1070
     1
1071
      145
1005
608
  0
TEXT
  5
609
330
574
100
AcDbEntity
  8
frame
  6
ByBlock
100
AcDbText
 10
235.0250000000009
 20
17.50000000000182
 30
0.0
 40
2.5
  1
名
 41
0.9
  7
ATOM
 72
     1
 11
236.0000000000009
 21
18.75000000000182
 31
0.0
100
AcDbText
 73
     2
1001
AcDbBlockRepETag
1070
     1
1071
      146
1005
609
  0
TEXT
  5
60A
330
574
100
AcDbEntity
  8
frame
  6
ByBlock
100
AcDbText
 10
234.9500000000009
 20
14.00000000000182
 30
0.0
 40
2.5
  1
図
 41
0.9
  7
ATOM
 72
     1
 11
236.0000000000009
 21
15.25000000000182
 31
0.0
100
AcDbText
 73
     2
1001
AcDbBlockRepETag
1070
     1
1071
      147
1005
60A
  0
TEXT
  5
60B
330
574
100
AcDbEntity
  8
frame
  6
ByBlock
100
AcDbText
 10
234.9500000000009
 20
10.50000000000182
 30
0.0
 40
2.5
  1
番
 41
0.9
  7
ATOM
 72
     1
 11
236.0000000000009
 21
11.75000000000182
 31
0.0
100
AcDbText
 73
     2
1001
AcDbBlockRepETag
1070
     1
1071
      148
1005
60B
  0
LINE
  5
60C
330
574
100
AcDbEntity
  8
frame
  6
ByBlock
100
AcDbLine
 10
234.5000000000009
 20
31.00000000000183
 30
0.0
 11
234.5000000000009
 21
10.0
 31
0.0
1001
AcDbBlockRepETag
1070
     1
1071
      149
1005
60C
  0
LINE
  5
60D
330
574
100
AcDbEntity
  8
frame
  6
ByBlock
100
AcDbLine
 10
234.4150000000009
 20
31.00000000000183
 30
0.0
 11
234.4150000000009
 21
10.0
 31
0.0
1001
AcDbBlockRepETag
1070
     1
1071
      150
1005
60D
  0
LINE
  5
60E
330
574
100
AcDbEntity
  8
frame
  6
ByBlock
100
AcDbLine
 10
234.585
 20
31.00000000000183
 30
0.0
 11
234.5850000000009
 21
10.0
 31
0.0
1001
AcDbBlockRepETag
1070
     1
1071
      151
1005
60E
  0
LINE
  5
60F
330
574
100
AcDbEntity
  8
frame
  6
ByBlock
100
AcDbLine
 10
237.5000000000009
 20
31.00000000000183
 30
0.0
 11
237.5000000000009
 21
10.0
 31
0.0
1001
AcDbBlockRepETag
1070
     1
1071
      152
1005
60F
  0
LINE
  5
610
330
574
100
AcDbEntity
  8
frame
  6
ByBlock
100
AcDbLine
 10
237.4150000000009
 20
31.00000000000183
 30
0.0
 11
237.4150000000009
 21
10.0
 31
0.0
1001
AcDbBlockRepETag
1070
     1
1071
      153
1005
610
  0
LINE
  5
611
330
574
100
AcDbEntity
  8
frame
  6
ByBlock
100
AcDbLine
 10
237.585
 20
31.00000000000183
 30
0.0
 11
237.585000000001
 21
10.0
 31
0.0
1001
AcDbBlockRepETag
1070
     1
1071
      154
1005
611
  0
LINE
  5
612
330
574
100
AcDbEntity
  8
frame
  6
ByBlock
100
AcDbLine
 10
196.0000000000009
 20
24.0
 30
0.0
 11
196.0000000000009
 21
10.0
 31
0.0
1001
AcDbBlockRepETag
1070
     1
1071
      155
1005
612
  0
LINE
  5
613
330
574
100
AcDbEntity
  8
frame
  6
ByBlock
100
AcDbLine
 10
195.9150000000009
 20
24.0
 30
0.0
 11
195.9150000000009
 21
10.0
 31
0.0
1001
AcDbBlockRepETag
1070
     1
1071
      156
1005
613
  0
LINE
  5
614
330
574
100
AcDbEntity
  8
frame
  6
ByBlock
100
AcDbLine
 10
196.0850000000009
 20
24.0
 30
0.0
 11
196.0850000000009
 21
10.0
 31
0.0
1001
AcDbBlockRepETag
1070
     1
1071
      157
1005
614
  0
LINE
  5
615
330
574
100
AcDbEntity
  8
frame
  6
ByBlock
100
AcDbLine
 10
193.0000000000009
 20
24.0
 30
0.0
 11
193.0000000000009
 21
10.0
 31
0.0
1001
AcDbBlockRepETag
1070
     1
1071
      158
1005
615
  0
LINE
  5
616
330
574
100
AcDbEntity
  8
frame
  6
ByBlock
100
AcDbLine
 10
192.9150000000008
 20
24.0
 30
0.0
 11
192.9150000000008
 21
10.0
 31
0.0
1001
AcDbBlockRepETag
1070
     1
1071
      159
1005
616
  0
LINE
  5
617
330
574
100
AcDbEntity
  8
frame
  6
ByBlock
100
AcDbLine
 10
193.085
 20
24.0
 30
0.0
 11
193.0850000000009
 21
10.0
 31
0.0
1001
AcDbBlockRepETag
1070
     1
1071
      160
1005
617
  0
LINE
  5
618
330
574
100
AcDbEntity
  8
frame
  6
ByBlock
100
AcDbLine
 10
154.5000000000009
 20
24.0
 30
0.0
 11
154.5000000000009
 21
10.0
 31
0.0
1001
AcDbBlockRepETag
1070
     1
1071
      161
1005
618
  0
LINE
  5
619
330
574
100
AcDbEntity
  8
frame
  6
ByBlock
100
AcDbLine
 10
154.4150000000009
 20
24.0
 30
0.0
 11
154.4150000000009
 21
10.0
 31
0.0
1001
AcDbBlockRepETag
1070
     1
1071
      162
1005
619
  0
LINE
  5
61A
330
574
100
AcDbEntity
  8
frame
  6
ByBlock
100
AcDbLine
 10
154.585
 20
24.0
 30
0.0
 11
154.5850000000009
 21
10.0
 31
0.0
1001
AcDbBlockRepETag
1070
     1
1071
      163
1005
61A
  0
LINE
  5
61B
330
574
100
AcDbEntity
  8
frame
  6
ByBlock
100
AcDbLine
 10
151.5000000000009
 20
24.0
 30
0.0
 11
151.5000000000009
 21
10.0
 31
0.0
1001
AcDbBlockRepETag
1070
     1
1071
      164
1005
61B
  0
LINE
  5
61C
330
574
100
AcDbEntity
  8
frame
  6
ByBlock
100
AcDbLine
 10
151.4150000000008
 20
24.0
 30
0.0
 11
151.4150000000008
 21
10.0
 31
0.0
1001
AcDbBlockRepETag
1070
     1
1071
      165
1005
61C
  0
LINE
  5
61D
330
574
100
AcDbEntity
  8
frame
  6
ByBlock
100
AcDbLine
 10
151.585
 20
24.0
 30
0.0
 11
151.5850000000009
 21
10.0
 31
0.0
1001
AcDbBlockRepETag
1070
     1
1071
      166
1005
61D
  0
LINE
  5
61E
330
574
100
AcDbEntity
  8
frame
  6
ByBlock
100
AcDbLine
 10
180.0000000000009
 20
31.00000000000183
 30
0.0
 11
180.0000000000009
 21
24.0
 31
0.0
1001
AcDbBlockRepETag
1070
     1
1071
      167
1005
61E
  0
LINE
  5
61F
330
574
100
AcDbEntity
  8
frame
  6
ByBlock
100
AcDbLine
 10
179.9150000000008
 20
31.00000000000183
 30
0.0
 11
179.9150000000008
 21
24.0
 31
0.0
1001
AcDbBlockRepETag
1070
     1
1071
      168
1005
61F
  0
LINE
  5
620
330
574
100
AcDbEntity
  8
frame
  6
ByBlock
100
AcDbLine
 10
180.085
 20
31.00000000000183
 30
0.0
 11
180.0850000000009
 21
24.0
 31
0.0
1001
AcDbBlockRepETag
1070
     1
1071
      169
1005
620
  0
LINE
  5
621
330
574
100
AcDbEntity
  8
frame
  6
ByBlock
100
AcDbLine
 10
183.0000000000009
 20
31.00000000000183
 30
0.0
 11
183.0000000000009
 21
24.0
 31
0.0
1001
AcDbBlockRepETag
1070
     1
1071
      170
1005
621
  0
LINE
  5
622
330
574
100
AcDbEntity
  8
frame
  6
ByBlock
100
AcDbLine
 10
182.9150000000008
 20
31.00000000000183
 30
0.0
 11
182.9150000000008
 21
24.0
 31
0.0
1001
AcDbBlockRepETag
1070
     1
1071
      171
1005
622
  0
LINE
  5
623
330
574
100
AcDbEntity
  8
frame
  6
ByBlock
100
AcDbLine
 10
183.085
 20
31.00000000000183
 30
0.0
 11
183.0850000000009
 21
24.0
 31
0.0
1001
AcDbBlockRepETag
1070
     1
1071
      172
1005
623
  0
ATTDEF
  5
624
330
574
100
AcDbEntity
  8
frame
  6
ByBlock
100
AcDbText
 10
154.7500000000009
 20
25.75
 30
0.0
 40
3.5
  1

 41
0.9
  7
ATOM
 72
     1
 11
154.7500000000009
 21
27.5
 31
0.0
100
AcDbAttributeDefinition
  3
名称?
  2
名称
 70
     0
 74
     2
1001
AcDbBlockRepETag
1070
     1
1071
       72
1005
0
1001
AcDbAttr
1070
     0
1070
     1
  0
TEXT
  5
625
330
574
100
AcDbEntity
  8
frame
  6
ByBlock
100
AcDbText
 10
180.4500000000009
 20
28.00000000000364
 30
0.0
 40
2.5
  1
品
 41
0.9
  7
ATOM
 72
     1
 11
181.5000000000009
 21
29.25000000000364
 31
0.0
100
AcDbText
 73
     2
1001
AcDbBlockRepETag
1070
     1
1071
      178
1005
625
  0
TEXT
  5
626
330
574
100
AcDbEntity
  8
frame
  6
ByBlock
100
AcDbText
 10
180.5250000000009
 20
24.50000000000364
 30
0.0
 40
2.5
  1
名
 41
0.9
  7
ATOM
 72
     1
 11
181.5000000000009
 21
25.75000000000364
 31
0.0
100
AcDbText
 73
     2
1001
AcDbBlockRepETag
1070
     1
1071
      179
1005
626
  0
TEXT
  5
627
330
574
100
AcDbEntity
  8
frame
  6
ByBlock
100
AcDbText
 10
234.9500000000009
 20
28.00000000000546
 30
0.0
 40
2.5
  1
品
 41
0.9
  7
ATOM
 72
     1
 11
236.0000000000009
 21
29.25000000000546
 31
0.0
100
AcDbText
 73
     2
1001
AcDbBlockRepETag
1070
     1
1071
      180
1005
627
  0
TEXT
  5
628
330
574
100
AcDbEntity
  8
frame
  6
ByBlock
100
AcDbText
 10
234.9500000000009
 20
24.50000000000546
 30
0.0
 40
2.5
  1
番
 41
0.9
  7
ATOM
 72
     1
 11
236.0000000000009
 21
25.75000000000546
 31
0.0
100
AcDbText
 73
     2
1001
AcDbBlockRepETag
1070
     1
1071
      181
1005
628
  0
ATTDEF
  5
629
330
574
100
AcDbEntity
  8
frame
  6
ByBlock
100
AcDbText
 10
140.2486757486822
 20
18.78589838486187
 30
0.0
 40
3.5
  1

 41
0.9
  7
ATOM
 72
     1
 11
140.2486757486822
 21
20.53589838486187
 31
0.0
100
AcDbAttributeDefinition
  3
尺度?
  2
尺度
 70
     0
 74
     2
1001
AcDbBlockRepETag
1070
     1
1071
       73
1005
0
1001
AcDbAttr
1070
     0
1070
     1
  0
LINE
  5
62A
330
574
100
AcDbEntity
  8
frame
100
AcDbLine
 10
171.6600000000026
 20
10.0
 30
0.0
 11
171.6600000000026
 21
24.00000000000182
 31
0.0
1001
AcDbBlockRepETag
1070
     1
1071
      183
1005
62A
  0
LINE
  5
62B
330
574
100
AcDbEntity
  8
frame
100
AcDbLine
 10
213.1600000000017
 20
10.0
 30
0.0
 11
213.1600000000017
 21
24.0
 31
0.0
1001
AcDbBlockRepETag
1070
     1
1071
      184
1005
62B
  0
LINE
  5
62C
330
574
100
AcDbEntity
  8
frame
100
AcDbLine
 10
279.6600000000017
 20
10.0
 30
0.0
 11
279.6600000000017
 21
17.0
 31
0.0
1001
AcDbBlockRepETag
1070
     1
1071
      185
1005
62C
  0
LINE
  5
62D
330
574
100
AcDbEntity
  8
frame
  6
ByBlock
100
AcDbLine
 10
106.0000000000009
 20
38.0
 30
0.0
 11
106.0000000000009
 21
31.0
 31
0.0
1001
AcDbBlockRepETag
1070
     1
1071
      186
1005
62D
  0
LINE
  5
62E
330
574
100
AcDbEntity
  8
frame
  6
ByBlock
100
AcDbLine
 10
105.9150000000008
 20
38.08500000000094
 30
0.0
 11
105.9150000000008
 21
31.0
 31
0.0
1001
AcDbBlockRepETag
1070
     1
1071
      187
1005
62E
  0
LINE
  5
62F
330
574
100
AcDbEntity
  8
frame
  6
ByBlock
100
AcDbLine
 10
106.0850000000009
 20
37.91499999999905
 30
0.0
 11
106.0850000000009
 21
31.0
 31
0.0
1001
AcDbBlockRepETag
1070
     1
1071
      188
1005
62F
  0
ATTDEF
  5
630
330
574
100
AcDbEntity
  8
frame
  6
ByBlock
100
AcDbText
 10
162.8536281158303
 20
18.75
 30
0.0
 40
3.5
  1

 41
0.9
  7
ATOM
 72
     1
 11
162.8536281158303
 21
20.5
 31
0.0
100
AcDbAttributeDefinition
  3
承認?
  2
承認
 70
     0
 74
     2
1001
AcDbBlockRepETag
1070
     1
1071
      176
1005
0
1001
AcDbAttr
1070
     0
1070
     1
  0
ATTDEF
  5
631
330
574
100
AcDbEntity
  8
frame
  6
ByBlock
100
AcDbText
 10
162.8536281158303
 20
11.75
 30
0.0
 40
3.5
  1

 41
0.9
  7
ATOM
 72
     1
 11
162.8536281158303
 21
13.5
 31
0.0
100
AcDbAttributeDefinition
  3
検図?
  2
検図
 70
     0
 74
     2
1001
AcDbBlockRepETag
1070
     1
1071
      175
1005
0
1001
AcDbAttr
1070
     0
1070
     1
  0
ATTDEF
  5
632
330
574
100
AcDbEntity
  8
frame
  6
ByBlock
100
AcDbText
 10
204.3536281158304
 20
18.75
 30
0.0
 40
3.5
  1

 41
0.9
  7
ATOM
 72
     1
 11
204.3536281158304
 21
20.5
 31
0.0
100
AcDbAttributeDefinition
  3
設計?
  2
設計
 70
     0
 74
     2
1001
AcDbBlockRepETag
1070
     1
1071
       71
1005
0
1001
AcDbAttr
1070
     0
1070
     1
  0
ATTDEF
  5
633
330
574
100
AcDbEntity
  8
frame
  6
ByBlock
100
AcDbText
 10
204.3536281158304
 20
11.75
 30
0.0
 40
3.5
  1

 41
0.9
  7
ATOM
 72
     1
 11
204.3536281158304
 21
13.5
 31
0.0
100
AcDbAttributeDefinition
  3
作図?
  2
作図
 70
     0
 74
     2
1001
AcDbBlockRepETag
1070
     1
1071
       70
1005
0
1001
AcDbAttr
1070
     0
1070
     1
  0
ATTDEF
  5
634
330
574
100
AcDbEntity
  8
frame
  6
ByBlock
100
AcDbText
 10
182.5000000000009
 20
18.75
 30
0.0
 40
3.5
  1

 41
0.8
  7
ATOM
 72
     1
 11
182.5000000000009
 21
20.5
 31
0.0
100
AcDbAttributeDefinition
  3
承認日?
  2
承認日
 70
     0
 74
     2
1001
AcDbBlockRepETag
1070
     1
1071
      173
1005
0
1001
AcDbAttr
1070
     0
1070
     1
  0
ATTDEF
  5
635
330
574
100
AcDbEntity
  8
frame
  6
ByBlock
100
AcDbText
 10
182.5000000000009
 20
11.75
 30
0.0
 40
3.5
  1

 41
0.8
  7
ATOM
 72
     1
 11
182.5000000000009
 21
13.5
 31
0.0
100
AcDbAttributeDefinition
  3
検図日?
  2
検図日
 70
     0
 74
     2
1001
AcDbBlockRepETag
1070
     1
1071
      174
1005
0
1001
AcDbAttr
1070
     0
1070
     1
  0
LINE
  5
636
330
574
100
AcDbEntity
  8
frame
  6
ByBlock
100
AcDbLine
 10
106.0000000000009
 20
186.0000000000037
 30
0.0
 11
106.0000000000018
 21
193.0000000000037
 31
0.0
1001
AcDbBlockRepETag
1070
     1
1071
      202
1005
636
  0
LINE
  5
637
330
574
100
AcDbEntity
  8
frame
  6
ByBlock
100
AcDbLine
 10
106.0000000000009
 20
186.0000000000037
 30
0.0
 11
290.0000000000018
 21
186.0000000000037
 31
0.0
1001
AcDbBlockRepETag
1070
     1
1071
      203
1005
637
  0
LINE
  5
638
330
574
100
AcDbEntity
  8
frame
  6
ByBlock
100
AcDbLine
 10
250.0000000000018
 20
193.0000000000037
 30
0.0
 11
250.0000000000018
 21
186.0000000000037
 31
0.0
1001
AcDbBlockRepETag
1070
     1
1071
      204
1005
638
  0
LINE
  5
639
330
574
100
AcDbEntity
  8
frame
  6
ByBlock
100
AcDbLine
 10
225.0000000000018
 20
193.0000000000037
 30
0.0
 11
225.0000000000018
 21
186.0000000000037
 31
0.0
1001
AcDbBlockRepETag
1070
     1
1071
      205
1005
639
  0
LINE
  5
63A
330
574
100
AcDbEntity
  8
frame
  6
ByBlock
100
AcDbLine
 10
210.0000000000018
 20
193.0000000000037
 30
0.0
 11
210.0000000000018
 21
186.0000000000037
 31
0.0
1001
AcDbBlockRepETag
1070
     1
1071
      206
1005
63A
  0
LINE
  5
63B
330
574
100
AcDbEntity
  8
frame
  6
ByBlock
100
AcDbLine
 10
113.0000000000018
 20
193.0000000000037
 30
0.0
 11
113.0000000000018
 21
186.0000000000037
 31
0.0
1001
AcDbBlockRepETag
1070
     1
1071
      207
1005
63B
  0
LINE
  5
63C
330
574
100
AcDbEntity
  8
frame
  6
ByBlock
100
AcDbLine
 10
265.0000000000018
 20
193.0000000000037
 30
0.0
 11
265.0000000000018
 21
186.0000000000037
 31
0.0
1001
AcDbBlockRepETag
1070
     1
1071
      208
1005
63C
  0
ATTDEF
  5
63D
330
574
100
AcDbEntity
  8
frame
  6
ByBlock
100
AcDbText
 10
224.0000000000009
 20
18.75
 30
0.0
 40
3.5
  1

 41
0.8
  7
ATOM
 72
     1
 11
224.0000000000009
 21
20.5
 31
0.0
100
AcDbAttributeDefinition
  3
設計日?
  2
設計日
 70
     0
 74
     2
1001
AcDbBlockRepETag
1070
     1
1071
       68
1005
0
1001
AcDbAttr
1070
     0
1070
     1
  0
ATTDEF
  5
63E
330
574
100
AcDbEntity
  8
frame
  6
ByBlock
100
AcDbText
 10
224.0000000000009
 20
11.75
 30
0.0
 40
3.5
  1

 41
0.8
  7
ATOM
 72
     1
 11
224.0000000000009
 21
13.5
 31
0.0
100
AcDbAttributeDefinition
  3
作図日?
  2
作図日
 70
     0
 74
     2
1001
AcDbBlockRepETag
1070
     1
1071
       69
1005
0
1001
AcDbAttr
1070
     0
1070
     1
  0
ATTDEF
  5
63F
330
574
100
AcDbEntity
  8
frame
  6
ByBlock
100
AcDbText
 10
264.0
 20
25.75
 30
0.0
 40
3.5
  1

 41
0.9
  7
ATOM
 72
     1
 11
264.0
 21
27.5
 31
0.0
100
AcDbAttributeDefinition
  3
品番?
  2
品番
 70
     0
 74
     2
1001
AcDbBlockRepETag
1070
     1
1071
       66
1005
0
1001
AcDbAttr
1070
     0
1070
     1
  0
ATTDEF
  5
640
330
574
100
AcDbEntity
  8
frame
  6
ByBlock
100
AcDbText
 10
209.0
 20
25.75
 30
0.0
 40
3.5
  1

 41
0.9
  7
ATOM
 72
     1
 11
209.0
 21
27.5
 31
0.0
100
AcDbAttributeDefinition
  3
品名?
  2
品名
 70
     0
 74
     2
1001
AcDbBlockRepETag
1070
     1
1071
      177
1005
0
1001
AcDbAttr
1070
     0
1070
     1
  0
ATTDEF
  5
641
330
574
100
AcDbEntity
  8
frame
  6
ByBlock
100
AcDbText
 10
264.0
 20
18.75
 30
0.0
 40
3.5
  1

 41
0.9
  7
ATOM
 72
     1
 11
264.0
 21
20.5
 31
0.0
100
AcDbAttributeDefinition
  3
図名?
  2
図名
 70
     0
 74
     2
1001
AcDbBlockRepETag
1070
     1
1071
       67
1005
0
1001
AcDbAttr
1070
     0
1070
     1
  0
ATTDEF
  5
642
330
574
100
AcDbEntity
  8
frame
  6
ByBlock
100
AcDbText
 10
258.75
 20
11.75
 30
0.0
 40
3.5
  1

 41
0.9
  7
ATOM
 72
     1
 11
258.75
 21
13.5
 31
0.0
100
AcDbAttributeDefinition
  3
図番?
  2
図番
 70
     0
 74
     2
1001
AcDbBlockRepETag
1070
     1
1071
      182
1005
0
1001
AcDbAttr
1070
     0
1070
     1
  0
LINE
  5
643
330
574
100
AcDbEntity
  8
frame
  6
ByBlock
100
AcDbLine
 10
247.9999995067949
 20
45.00000022203699
 30
0.0
 11
247.9999995067949
 21
38.00000022203699
 31
0.0
1001
AcDbBlockRepETag
1070
     1
1071
      215
1005
643
  0
LINE
  5
644
330
574
100
AcDbEntity
  8
frame
  6
ByBlock
100
AcDbLine
 10
197.9999995067949
 20
45.00000022203699
 30
0.0
 11
197.9999995067949
 21
38.00000022203699
 31
0.0
1001
AcDbBlockRepETag
1070
     1
1071
      216
1005
644
  0
LINE
  5
645
330
574
100
AcDbEntity
  8
frame
  6
ByBlock
100
AcDbLine
 10
190.9999995067949
 20
45.00000022203699
 30
0.0
 11
190.9999995067949
 21
38.00000022203699
 31
0.0
1001
AcDbBlockRepETag
1070
     1
1071
      217
1005
645
  0
LINE
  5
646
330
574
100
AcDbEntity
  8
frame
  6
ByBlock
100
AcDbLine
 10
162.9999995067949
 20
45.00000022203699
 30
0.0
 11
162.9999995067949
 21
38.00000022203699
 31
0.0
1001
AcDbBlockRepETag
1070
     1
1071
      218
1005
646
  0
LINE
  5
647
330
574
100
AcDbEntity
  8
frame
  6
ByBlock
100
AcDbLine
 10
112.9999995067949
 20
45.00000022203699
 30
0.0
 11
112.9999995067949
 21
38.00000022203699
 31
0.0
1001
AcDbBlockRepETag
1070
     1
1071
      219
1005
647
  0
LINE
  5
648
330
574
100
AcDbEntity
  8
frame
  6
ByBlock
100
AcDbLine
 10
105.999999506794
 20
45.00000022203699
 30
0.0
 11
289.9999995067949
 21
45.00000022203699
 31
0.0
1001
AcDbBlockRepETag
1070
     1
1071
      220
1005
648
  0
LINE
  5
649
330
574
100
AcDbEntity
  8
frame
  6
ByBlock
100
AcDbLine
 10
105.999999506794
 20
38.00000022203699
 30
0.0
 11
105.999999506794
 21
45.00000022203699
 31
0.0
1001
AcDbBlockRepETag
1070
     1
1071
      221
1005
649
  0
ATTDEF
  5
64A
102
{ACAD_XDICTIONARY
360
64B
102
}
330
574
100
AcDbEntity
  8
frame
  6
ByBlock
100
AcDbText
 10
109.4999995067949
 20
40.00000022203699
 30
0.0
 40
3.0
  1

 41
0.9
  7
ATOM
 72
     1
 11
109.4999995067949
 21
41.50000022203697
 31
0.0
100
AcDbAttributeDefinition
  3
部番?
  2
部番
 70
     0
 74
     2
1001
AcadAnnotative
1000
AnnotativeData
1002
{
1070
     1
1070
     1
1002
}
1001
AcDbBlockRepETag
1070
     1
1071
      227
1005
0
1001
AcDbAttr
1070
     0
1070
     1
  0
ATTDEF
  5
64F
102
{ACAD_XDICTIONARY
360
650
102
}
330
574
100
AcDbEntity
  8
frame
  6
ByBlock
100
AcDbText
 10
137.9999995067949
 20
40.00000022203699
 30
0.0
 40
3.0
  1

 41
0.9
  7
ATOM
 72
     1
 11
137.9999995067949
 21
41.50000022203697
 31
0.0
100
AcDbAttributeDefinition
  3
部品名?
  2
部　　　　品　　　　名
 70
     0
 74
     2
1001
AcadAnnotative
1000
AnnotativeData
1002
{
1070
     1
1070
     1
1002
}
1001
AcDbBlockRepETag
1070
     1
1071
      225
1005
0
1001
AcDbAttr
1070
     0
1070
     1
  0
ATTDEF
  5
654
102
{ACAD_XDICTIONARY
360
655
102
}
330
574
100
AcDbEntity
  8
frame
  6
ByBlock
100
AcDbText
 10
176.9999995067949
 20
40.00000022203699
 30
0.0
 40
3.0
  1

 41
0.9
  7
ATOM
 72
     1
 11
176.9999995067949
 21
41.50000022203697
 31
0.0
100
AcDbAttributeDefinition
  3
材質?
  2
材　　質
 70
     0
 74
     2
1001
AcadAnnotative
1000
AnnotativeData
1002
{
1070
     1
1070
     1
1002
}
1001
AcDbBlockRepETag
1070
     1
1071
      224
1005
0
1001
AcDbAttr
1070
     0
1070
     1
  0
ATTDEF
  5
659
102
{ACAD_XDICTIONARY
360
65A
102
}
330
574
100
AcDbEntity
  8
frame
  6
ByBlock
100
AcDbText
 10
194.4999995067949
 20
40.00000022203699
 30
0.0
 40
3.0
  1

 41
0.9
  7
ATOM
 72
     1
 11
194.4999995067949
 21
41.50000022203697
 31
0.0
100
AcDbAttributeDefinition
  3
数量?
  2
数量
 70
     0
 74
     2
1001
AcadAnnotative
1000
AnnotativeData
1002
{
1070
     1
1070
     1
1002
}
1001
AcDbBlockRepETag
1070
     1
1071
      226
1005
0
1001
AcDbAttr
1070
     0
1070
     1
  0
ATTDEF
  5
65E
102
{ACAD_XDICTIONARY
360
65F
102
}
330
574
100
AcDbEntity
  8
frame
  6
ByBlock
100
AcDbText
 10
222.9999995067949
 20
40.00000022203699
 30
0.0
 40
3.0
  1

 41
0.9
  7
ATOM
 72
     1
 11
222.9999995067949
 21
41.50000022203697
 31
0.0
100
AcDbAttributeDefinition
  3
表面処理?
  2
表　　面　　処　　理
 70
     0
 74
     2
1001
AcadAnnotative
1000
AnnotativeData
1002
{
1070
     1
1070
     1
1002
}
1001
AcDbBlockRepETag
1070
     1
1071
      223
1005
0
1001
AcDbAttr
1070
     0
1070
     1
  0
ATTDEF
  5
663
102
{ACAD_XDICTIONARY
360
664
102
}
330
574
100
AcDbEntity
  8
frame
  6
ByBlock
100
AcDbText
 10
268.9999995067949
 20
40.00000022203699
 30
0.0
 40
3.0
  1

 41
0.9
  7
ATOM
 72
     1
 11
268.9999995067949
 21
41.50000022203697
 31
0.0
100
AcDbAttributeDefinition
  3
備考?
  2
備　　　考
 70
     0
 74
     2
1001
AcadAnnotative
1000
AnnotativeData
1002
{
1070
     1
1070
     1
1002
}
1001
AcDbBlockRepETag
1070
     1
1071
      222
1005
0
1001
AcDbAttr
1070
     0
1070
     1
  0
ENDBLK
  5
668
330
574
100
AcDbEntity
  8
0
100
AcDbBlockEnd
  0
BLOCK
  5
6A1
330
69E
100
AcDbEntity
  8
0
100
AcDbBlockBegin
  2
部品表
 70
     2
 10
0.0
 20
0.0
 30
0.0
  3
部品表
  1

  0
LINE
  5
6A2
330
69E
100
AcDbEntity
  8
frame
  6
ByBlock
100
AcDbLine
 10
142.0000000000009
 20
7.000000222036987
 30
0.0
 11
142.0000000000009
 21
0.0000002220369879
 31
0.0
1001
AcDbBlockRepETag
1070
     1
1071
        8
1005
6A2
  0
LINE
  5
6A3
330
69E
100
AcDbEntity
  8
frame
  6
ByBlock
100
AcDbLine
 10
92.00000000000091
 20
7.000000222036987
 30
0.0
 11
92.00000000000091
 21
0.0000002220369879
 31
0.0
1001
AcDbBlockRepETag
1070
     1
1071
        9
1005
6A3
  0
LINE
  5
6A4
330
69E
100
AcDbEntity
  8
frame
  6
ByBlock
100
AcDbLine
 10
85.0000000000009
 20
7.000000222036987
 30
0.0
 11
85.0000000000009
 21
0.0000002220369879
 31
0.0
1001
AcDbBlockRepETag
1070
     1
1071
       10
1005
6A4
  0
LINE
  5
6A5
330
69E
100
AcDbEntity
  8
frame
  6
ByBlock
100
AcDbLine
 10
57.00000000000091
 20
7.000000222036987
 30
0.0
 11
57.00000000000091
 21
0.0000002220369879
 31
0.0
1001
AcDbBlockRepETag
1070
     1
1071
       11
1005
6A5
  0
LINE
  5
6A6
330
69E
100
AcDbEntity
  8
frame
  6
ByBlock
100
AcDbLine
 10
7.000000000000909
 20
7.000000222036987
 30
0.0
 11
7.000000000000909
 21
0.0000002220369879
 31
0.0
1001
AcDbBlockRepETag
1070
     1
1071
       12
1005
6A6
  0
LINE
  5
6A7
330
69E
100
AcDbEntity
  8
frame
  6
ByBlock
100
AcDbLine
 10
0.0
 20
7.000000222036987
 30
0.0
 11
184.0000000000009
 21
7.000000222036987
 31
0.0
1001
AcDbBlockRepETag
1070
     1
1071
       13
1005
6A7
  0
LINE
  5
6A8
330
69E
100
AcDbEntity
  8
frame
  6
ByBlock
100
AcDbLine
 10
0.0
 20
0.0000002220369879
 30
0.0
 11
0.0
 21
7.000000222036987
 31
0.0
1001
AcDbBlockRepETag
1070
     1
1071
      123
1005
6A8
  0
ATTDEF
  5
6A9
102
{ACAD_XDICTIONARY
360
6AA
102
}
330
69E
100
AcDbEntity
  8
frame
  6
ByBlock
100
AcDbText
 10
3.500000000000909
 20
2.000000222036987
 30
0.0
 40
3.0
  1

 41
0.9
  7
ATOM
 72
     1
 11
3.500000000000909
 21
3.500000222036987
 31
0.0
100
AcDbAttributeDefinition
  3
部番?
  2
部番
 70
     0
 74
     2
1001
AcadAnnotative
1000
AnnotativeData
1002
{
1070
     1
1070
     1
1002
}
1001
AcDbBlockRepETag
1070
     1
1071
       16
1005
0
1001
AcDbAttr
1070
     0
1070
     1
  0
ATTDEF
  5
6AE
102
{ACAD_XDICTIONARY
360
6AF
102
}
330
69E
100
AcDbEntity
  8
frame
  6
ByBlock
100
AcDbText
 10
32.00000000000091
 20
2.000000222036987
 30
0.0
 40
3.0
  1

 41
0.9
  7
ATOM
 72
     1
 11
32.00000000000091
 21
3.500000222036987
 31
0.0
100
AcDbAttributeDefinition
  3
部品名?
  2
部　　　　品　　　　名
 70
     0
 74
     2
1001
AcadAnnotative
1000
AnnotativeData
1002
{
1070
     1
1070
     1
1002
}
1001
AcDbBlockRepETag
1070
     1
1071
       15
1005
0
1001
AcDbAttr
1070
     0
1070
     1
  0
ATTDEF
  5
6B3
102
{ACAD_XDICTIONARY
360
6B4
102
}
330
69E
100
AcDbEntity
  8
frame
  6
ByBlock
100
AcDbText
 10
71.00000000000091
 20
2.000000222036987
 30
0.0
 40
3.0
  1

 41
0.9
  7
ATOM
 72
     1
 11
71.00000000000091
 21
3.500000222036987
 31
0.0
100
AcDbAttributeDefinition
  3
材質?
  2
材　　質
 70
     0
 74
     2
1001
AcadAnnotative
1000
AnnotativeData
1002
{
1070
     1
1070
     1
1002
}
1001
AcDbBlockRepETag
1070
     1
1071
       14
1005
0
1001
AcDbAttr
1070
     0
1070
     1
  0
ATTDEF
  5
6B8
102
{ACAD_XDICTIONARY
360
6B9
102
}
330
69E
100
AcDbEntity
  8
frame
  6
ByBlock
100
AcDbText
 10
88.50000000000092
 20
2.000000222036987
 30
0.0
 40
3.0
  1

 41
0.9
  7
ATOM
 72
     1
 11
88.50000000000092
 21
3.500000222036987
 31
0.0
100
AcDbAttributeDefinition
  3
数量?
  2
数量
 70
     0
 74
     2
1001
AcDbBlockRepETag
1070
     1
1071
      178
1005
0
1001
AcadAnnotative
1000
AnnotativeData
1002
{
1070
     1
1070
     1
1002
}
1001
AcDbAttr
1070
     0
1070
     1
  0
ATTDEF
  5
6BD
102
{ACAD_XDICTIONARY
360
6BE
102
}
330
69E
100
AcDbEntity
  8
frame
  6
ByBlock
100
AcDbText
 10
117.0000000000009
 20
2.000000222036987
 30
0.0
 40
3.0
  1

 41
0.9
  7
ATOM
 72
     1
 11
117.0000000000009
 21
3.500000222036987
 31
0.0
100
AcDbAttributeDefinition
  3
表面処理?
  2
表　　面　　処　　理
 70
     0
 74
     2
1001
AcadAnnotative
1000
AnnotativeData
1002
{
1070
     1
1070
     1
1002
}
1001
AcDbBlockRepETag
1070
     1
1071
       17
1005
0
1001
AcDbAttr
1070
     0
1070
     1
  0
ATTDEF
  5
6C2
102
{ACAD_XDICTIONARY
360
6C3
102
}
330
69E
100
AcDbEntity
  8
frame
  6
ByBlock
100
AcDbText
 10
163.0000000000009
 20
2.000000222036987
 30
0.0
 40
3.0
  1

 41
0.9
  7
ATOM
 72
     1
 11
163.0000000000009
 21
3.500000222036987
 31
0.0
100
AcDbAttributeDefinition
  3
備考?
  2
備　　　考
 70
     0
 74
     2
1001
AcDbBlockRepETag
1070
     1
1071
      181
1005
0
1001
AcadAnnotative
1000
AnnotativeData
1002
{
1070
     1
1070
     1
1002
}
1001
AcDbAttr
1070
     0
1070
     1
  0
ENDBLK
  5
6C7
330
69E
100
AcDbEntity
  8
0
100
AcDbBlockEnd
  0
BLOCK
  5
708
330
707
100
AcDbEntity
  8
0
100
AcDbBlockBegin
  2
*E3922
 70
     3
 10
0.0
 20
0.0
 30
0.0
  3
*E3922
  1

  0
TEXT
  5
70A
330
707
100
AcDbEntity
  8
frame
  6
ByBlock
100
AcDbText
 10
273.1800000000018
 20
195.0000000000019
 30
0.0
 40
3.0
  1
改正日
 41
0.9
  7
ATOM
 72
     1
 11
277.5000000000018
 21
196.5000000000019
 31
0.0
100
AcDbText
 73
     2
1001
AcDbBlockRepETag
1070
     1
1071
        0
1005
70A
  0
TEXT
  5
70B
330
707
100
AcDbEntity
  8
frame
  6
ByBlock
100
AcDbText
 10
251.4700000000018
 20
195.0000000000019
 30
0.0
 40
3.0
  1
改正担当
 41
0.9
  7
ATOM
 72
     1
 11
257.5000000000018
 21
196.5000000000019
 31
0.0
100
AcDbText
 73
     2
1001
AcDbBlockRepETag
1070
     1
1071
        1
1005
70B
  0
TEXT
  5
70C
330
707
100
AcDbEntity
  8
frame
  6
ByBlock
100
AcDbText
 10
229.9400000000018
 20
195.0000000000037
 30
0.0
 40
3.0
  1
改正承認日
 41
0.9
  7
ATOM
 72
     1
 11
237.5000000000018
 21
196.5000000000037
 31
0.0
100
AcDbText
 73
     2
1001
AcDbBlockRepETag
1070
     1
1071
        2
1005
70C
  0
TEXT
  5
70D
330
707
100
AcDbEntity
  8
frame
  6
ByBlock
100
AcDbText
 10
211.3800000000018
 20
195.0000000000019
 30
0.0
 40
3.0
  1
改正承認
 41
0.9
  7
ATOM
 72
     1
 11
217.5000000000018
 21
196.5000000000019
 31
0.0
100
AcDbText
 73
     2
1001
AcDbBlockRepETag
1070
     1
1071
        3
1005
70D
  0
TEXT
  5
70E
330
707
100
AcDbEntity
  8
frame
  6
ByBlock
100
AcDbText
 10
136.0300000000018
 20
195.0000000000019
 30
0.0
 40
3.0
  1
改　　　　正　　　　理　　　　由
 41
0.9
  7
ATOM
 72
     1
 11
161.5000000000018
 21
196.5000000000019
 31
0.0
100
AcDbText
 73
     2
1001
AcDbBlockRepETag
1070
     1
1071
        4
1005
70E
  0
TEXT
  5
70F
330
707
100
AcDbEntity
  8
frame
  6
ByBlock
100
AcDbText
 10
106.6200000000018
 20
195.0000000000019
 30
0.0
 40
3.0
  1
改番
 41
0.9
  7
ATOM
 72
     1
 11
109.5000000000018
 21
196.5000000000019
 31
0.0
100
AcDbText
 73
     2
1001
AcDbBlockRepETag
1070
     1
1071
        5
1005
70F
  0
LINE
  5
710
330
707
100
AcDbEntity
  8
frame
  6
ByBlock
100
AcDbLine
 10
113.0000000000018
 20
200.0000000000037
 30
0.0
 11
113.0000000000018
 21
193.0000000000037
 31
0.0
1001
AcDbBlockRepETag
1070
     1
1071
        6
1005
710
  0
LINE
  5
711
330
707
100
AcDbEntity
  8
frame
  6
ByBlock
100
AcDbLine
 10
113.0850000000018
 20
200.0000000000037
 30
0.0
 11
113.0850000000018
 21
193.0000000000037
 31
0.0
1001
AcDbBlockRepETag
1070
     1
1071
        7
1005
711
  0
LINE
  5
712
330
707
100
AcDbEntity
  8
frame
  6
ByBlock
100
AcDbLine
 10
112.9150000000018
 20
200.0000000000037
 30
0.0
 11
112.9150000000018
 21
193.0000000000037
 31
0.0
1001
AcDbBlockRepETag
1070
     1
1071
        8
1005
712
  0
LINE
  5
713
330
707
100
AcDbEntity
  8
frame
  6
ByBlock
100
AcDbLine
 10
210.0000000000018
 20
200.0000000000037
 30
0.0
 11
210.0000000000018
 21
193.0000000000037
 31
0.0
1001
AcDbBlockRepETag
1070
     1
1071
        9
1005
713
  0
LINE
  5
714
330
707
100
AcDbEntity
  8
frame
  6
ByBlock
100
AcDbLine
 10
210.0850000000018
 20
200.0000000000037
 30
0.0
 11
210.0850000000018
 21
193.0000000000037
 31
0.0
1001
AcDbBlockRepETag
1070
     1
1071
       10
1005
714
  0
LINE
  5
715
330
707
100
AcDbEntity
  8
frame
  6
ByBlock
100
AcDbLine
 10
209.9150000000018
 20
200.0000000000037
 30
0.0
 11
209.9150000000018
 21
193.0000000000037
 31
0.0
1001
AcDbBlockRepETag
1070
     1
1071
       11
1005
715
  0
LINE
  5
716
330
707
100
AcDbEntity
  8
frame
  6
ByBlock
100
AcDbLine
 10
225.0000000000018
 20
200.0000000000037
 30
0.0
 11
225.0000000000018
 21
193.0000000000037
 31
0.0
1001
AcDbBlockRepETag
1070
     1
1071
       12
1005
716
  0
LINE
  5
717
330
707
100
AcDbEntity
  8
frame
  6
ByBlock
100
AcDbLine
 10
225.0850000000018
 20
200.0000000000037
 30
0.0
 11
225.0850000000018
 21
193.0000000000037
 31
0.0
1001
AcDbBlockRepETag
1070
     1
1071
       13
1005
717
  0
LINE
  5
718
330
707
100
AcDbEntity
  8
frame
  6
ByBlock
100
AcDbLine
 10
224.9150000000018
 20
200.0000000000037
 30
0.0
 11
224.9150000000018
 21
193.0000000000037
 31
0.0
1001
AcDbBlockRepETag
1070
     1
1071
       14
1005
718
  0
LINE
  5
719
330
707
100
AcDbEntity
  8
frame
  6
ByBlock
100
AcDbLine
 10
250.0000000000018
 20
200.0000000000037
 30
0.0
 11
250.0000000000018
 21
193.0000000000037
 31
0.0
1001
AcDbBlockRepETag
1070
     1
1071
       15
1005
719
  0
LINE
  5
71A
330
707
100
AcDbEntity
  8
frame
  6
ByBlock
100
AcDbLine
 10
250.0850000000018
 20
200.0000000000037
 30
0.0
 11
250.0850000000018
 21
193.0000000000037
 31
0.0
1001
AcDbBlockRepETag
1070
     1
1071
       16
1005
71A
  0
LINE
  5
71B
330
707
100
AcDbEntity
  8
frame
  6
ByBlock
100
AcDbLine
 10
249.9150000000018
 20
200.0000000000037
 30
0.0
 11
249.9150000000018
 21
193.0000000000037
 31
0.0
1001
AcDbBlockRepETag
1070
     1
1071
       17
1005
71B
  0
LINE
  5
71C
330
707
100
AcDbEntity
  8
frame
  6
ByBlock
100
AcDbLine
 10
265.0000000000018
 20
200.0000000000037
 30
0.0
 11
265.0000000000018
 21
193.0000000000037
 31
0.0
1001
AcDbBlockRepETag
1070
     1
1071
       18
1005
71C
  0
LINE
  5
71D
330
707
100
AcDbEntity
  8
frame
  6
ByBlock
100
AcDbLine
 10
265.0850000000019
 20
200.0000000000037
 30
0.0
 11
265.0850000000019
 21
193.0000000000037
 31
0.0
1001
AcDbBlockRepETag
1070
     1
1071
       19
1005
71D
  0
LINE
  5
71E
330
707
100
AcDbEntity
  8
frame
  6
ByBlock
100
AcDbLine
 10
264.9150000000018
 20
200.0000000000037
 30
0.0
 11
264.9150000000018
 21
193.0000000000037
 31
0.0
1001
AcDbBlockRepETag
1070
     1
1071
       20
1005
71E
  0
LWPOLYLINE
  5
71F
330
707
100
AcDbEntity
  8
frame
  6
ByBlock
100
AcDbPolyline
 90
        3
 70
     0
 43
0.0
 10
290.0000000000018
 20
193.0000000000037
 10
106.0000000000018
 20
193.0000000000037
 10
106.0000000000018
 20
200.0
1001
AcDbBlockRepETag
1070
     1
1071
       21
1005
71F
  0
LWPOLYLINE
  5
720
330
707
100
AcDbEntity
  8
frame
  6
ByBlock
100
AcDbPolyline
 90
        3
 70
     0
 43
0.0
 10
290.0000000000018
 20
193.0850000000028
 10
106.0850000000018
 20
193.0850000000028
 10
106.0850000000018
 20
200.0
1001
AcDbBlockRepETag
1070
     1
1071
       22
1005
720
  0
LWPOLYLINE
  5
721
330
707
100
AcDbEntity
  8
frame
  6
ByBlock
100
AcDbPolyline
 90
        3
 70
     0
 43
0.0
 10
290.0000000000018
 20
192.9150000000026
 10
105.9150000000018
 20
192.9150000000026
 10
105.9150000000018
 20
200.0
1001
AcDbBlockRepETag
1070
     1
1071
       23
1005
721
  0
LWPOLYLINE
  5
722
330
707
100
AcDbEntity
  8
frame
  6
ByBlock
100
AcDbPolyline
 90
        4
 70
     1
 43
0.0
 10
137.5999999999976
 20
11.02453525127566
 10
133.5942130249641
 20
12.21128572090492
 10
133.5942130249641
 20
14.45924095267401
 10
137.5999999999976
 20
15.64599142230327
1001
AcDbBlockRepETag
1070
     1
1071
       24
1005
722
  0
LWPOLYLINE
  5
723
330
707
100
AcDbEntity
  8
frame
  6
ByBlock
100
AcDbPolyline
 90
        4
 70
     1
 43
0.0
 10
137.6849999999977
 20
10.91070147934988
 10
133.5092130249641
 20
12.14781598009176
 10
133.5092130249641
 20
14.52271069348899
 10
137.6849999999977
 20
15.75982519422905
1001
AcDbBlockRepETag
1070
     1
1071
       25
1005
723
  0
LWPOLYLINE
  5
724
330
707
100
AcDbEntity
  8
frame
  6
ByBlock
100
AcDbPolyline
 90
        4
 70
     1
 43
0.0
 10
137.5149999999976
 20
11.13836902320145
 10
133.6792130249641
 20
12.2747554617199
 10
133.6792130249641
 20
14.39577121186085
 10
137.5149999999976
 20
15.53215765037748
1001
AcDbBlockRepETag
1070
     1
1071
       26
1005
724
  0
TEXT
  5
725
330
707
100
AcDbEntity
  8
frame
  6
ByBlock
100
AcDbText
 10
27.81938469602648
 20
12.28100545243615
 30
0.0
 40
5.0
  1
アトムリビンテック株式会社
 41
0.6
  7
ATOM
 72
     1
 11
51.01938469602647
 21
14.78100545243615
 31
0.0
100
AcDbText
 73
     2
1001
AcDbBlockRepETag
1070
     1
1071
       27
1005
725
  0
TEXT
  5
726
330
707
100
AcDbEntity
  8
frame
  6
ByBlock
100
AcDbText
 10
79.76014210243829
 20
22.03100545243615
 30
0.0
 40
4.0
  1
開　　発　　部
 41
0.9
  7
ATOM
 11
79.76014210243829
 21
24.03100545243615
 31
0.0
100
AcDbText
 73
     2
1001
AcDbBlockRepETag
1070
     1
1071
       28
1005
726
  0
TEXT
  5
727
330
707
100
AcDbEntity
  8
frame
  6
ByBlock
100
AcDbText
 10
79.76014210243829
 20
17.53100545243615
 30
0.0
 40
3.0
  1
〒110-8680
 41
0.7
  7
ATOM
 11
79.76014210243829
 21
19.03100545243615
 31
0.0
100
AcDbText
 73
     2
1001
AcDbBlockRepETag
1070
     1
1071
       29
1005
727
  0
TEXT
  5
728
330
707
100
AcDbEntity
  8
frame
  6
ByBlock
100
AcDbText
 10
79.76014210243829
 20
13.03100545243614
 30
0.0
 40
3.0
  1
東京都 台東区 入谷 1-27-4
 41
0.65
  7
ATOM
 11
79.76014210243829
 21
14.53100545243614
 31
0.0
100
AcDbText
 73
     2
1001
AcDbBlockRepETag
1070
     1
1071
       30
1005
728
  0
TEXT
  5
729
330
707
100
AcDbEntity
  8
frame
  6
ByBlock
100
AcDbText
 10
126.5250000000009
 20
28.0
 30
0.0
 40
2.5
  1
名
 41
0.9
  7
ATOM
 72
     1
 11
127.5000000000009
 21
29.25
 31
0.0
100
AcDbText
 73
     2
1001
AcDbBlockRepETag
1070
     1
1071
       31
1005
729
  0
TEXT
  5
72A
330
707
100
AcDbEntity
  8
frame
  6
ByBlock
100
AcDbText
 10
126.4500000000009
 20
24.5
 30
0.0
 40
2.5
  1
称
 41
0.9
  7
ATOM
 72
     1
 11
127.5000000000009
 21
25.75
 31
0.0
100
AcDbText
 73
     2
1001
AcDbBlockRepETag
1070
     1
1071
       32
1005
72A
  0
TEXT
  5
72B
330
707
100
AcDbEntity
  8
frame
  6
ByBlock
100
AcDbText
 10
126.4500000000009
 20
21.0
 30
0.0
 40
2.5
  1
尺
 41
0.9
  7
ATOM
 72
     1
 11
127.5000000000009
 21
22.25
 31
0.0
100
AcDbText
 73
     2
1001
AcDbBlockRepETag
1070
     1
1071
       33
1005
72B
  0
TEXT
  5
72C
330
707
100
AcDbEntity
  8
frame
  6
ByBlock
100
AcDbText
 10
126.4500000000009
 20
17.5
 30
0.0
 40
2.5
  1
度
 41
0.9
  7
ATOM
 72
     1
 11
127.5000000000009
 21
18.75
 31
0.0
100
AcDbText
 73
     2
1001
AcDbBlockRepETag
1070
     1
1071
       34
1005
72C
  0
TEXT
  5
72D
330
707
100
AcDbEntity
  8
frame
  6
ByBlock
100
AcDbText
 10
142.9211411888642
 20
11.75
 30
0.0
 40
3.5
  1
A4
 41
0.8
  7
ATOM
 72
     1
 11
145.2544745221976
 21
13.5
 31
0.0
100
AcDbText
 73
     2
1001
AcDbBlockRepETag
1070
     1
1071
       35
1005
72D
  0
LINE
  5
72E
330
707
100
AcDbEntity
  8
frame
  6
ByBlock
100
AcDbLine
 10
126.0000000000009
 20
24.0
 30
0.0
 11
290.0000000000009
 21
24.0
 31
0.0
1001
AcDbBlockRepETag
1070
     1
1071
       36
1005
72E
  0
LINE
  5
72F
330
707
100
AcDbEntity
  8
frame
  6
ByBlock
100
AcDbLine
 10
126.0000000000009
 20
23.91500000000087
 30
0.0
 11
290.0000000000009
 21
23.91500000000087
 31
0.0
1001
AcDbBlockRepETag
1070
     1
1071
       37
1005
72F
  0
LINE
  5
730
330
707
100
AcDbEntity
  8
frame
  6
ByBlock
100
AcDbLine
 10
126.0000000000009
 20
24.08500000000095
 30
0.0
 11
290.0000000000009
 21
24.08500000000095
 31
0.0
1001
AcDbBlockRepETag
1070
     1
1071
       38
1005
730
  0
LINE
  5
731
330
707
100
AcDbEntity
  8
frame
  6
ByBlock
100
AcDbLine
 10
126.0000000000009
 20
17.0
 30
0.0
 11
290.0000000000009
 21
17.0
 31
0.0
1001
AcDbBlockRepETag
1070
     1
1071
       39
1005
731
  0
LINE
  5
732
330
707
100
AcDbEntity
  8
frame
  6
ByBlock
100
AcDbLine
 10
126.0000000000009
 20
16.91500000000087
 30
0.0
 11
290.0000000000009
 21
16.91500000000087
 31
0.0
1001
AcDbBlockRepETag
1070
     1
1071
       40
1005
732
  0
LINE
  5
733
330
707
100
AcDbEntity
  8
frame
  6
ByBlock
100
AcDbLine
 10
126.0000000000009
 20
17.08500000000094
 30
0.0
 11
290.0000000000009
 21
17.08500000000094
 31
0.0
1001
AcDbBlockRepETag
1070
     1
1071
       41
1005
733
  0
LINE
  5
734
330
707
100
AcDbEntity
  8
frame
  6
ByBlock
100
AcDbLine
 10
126.0000000000009
 20
31.0
 30
0.0
 11
126.0000000000009
 21
10.0
 31
0.0
1001
AcDbBlockRepETag
1070
     1
1071
       42
1005
734
  0
LINE
  5
735
330
707
100
AcDbEntity
  8
frame
  6
ByBlock
100
AcDbLine
 10
126.0850000000009
 20
31.0
 30
0.0
 11
126.0850000000009
 21
10.0
 31
0.0
1001
AcDbBlockRepETag
1070
     1
1071
       43
1005
735
  0
LINE
  5
736
330
707
100
AcDbEntity
  8
frame
  6
ByBlock
100
AcDbLine
 10
125.9150000000008
 20
31.0
 30
0.0
 11
125.9150000000008
 21
10.0
 31
0.0
1001
AcDbBlockRepETag
1070
     1
1071
       44
1005
736
  0
LINE
  5
737
330
707
100
AcDbEntity
  8
frame
  6
ByBlock
100
AcDbLine
 10
129.0000000000009
 20
17.0
 30
0.0
 11
129.0000000000009
 21
31.0
 31
0.0
1001
AcDbBlockRepETag
1070
     1
1071
       45
1005
737
  0
LINE
  5
738
330
707
100
AcDbEntity
  8
frame
  6
ByBlock
100
AcDbLine
 10
129.0850000000009
 20
17.0
 30
0.0
 11
129.0850000000009
 21
31.0
 31
0.0
1001
AcDbBlockRepETag
1070
     1
1071
       46
1005
738
  0
LINE
  5
739
330
707
100
AcDbEntity
  8
frame
  6
ByBlock
100
AcDbLine
 10
128.9150000000008
 20
17.0
 30
0.0
 11
128.9150000000008
 21
31.0
 31
0.0
1001
AcDbBlockRepETag
1070
     1
1071
       47
1005
739
  0
LINE
  5
73A
330
707
100
AcDbEntity
  8
frame
  6
ByBlock
100
AcDbLine
 10
139.0000000000009
 20
17.0
 30
0.0
 11
139.0000000000009
 21
10.0
 31
0.0
1001
AcDbBlockRepETag
1070
     1
1071
       48
1005
73A
  0
LINE
  5
73B
330
707
100
AcDbEntity
  8
frame
  6
ByBlock
100
AcDbLine
 10
139.0850000000009
 20
17.0
 30
0.0
 11
139.0850000000009
 21
10.0
 31
0.0
1001
AcDbBlockRepETag
1070
     1
1071
       49
1005
73B
  0
LINE
  5
73C
330
707
100
AcDbEntity
  8
frame
  6
ByBlock
100
AcDbLine
 10
138.9150000000008
 20
17.0
 30
0.0
 11
138.9150000000008
 21
10.0
 31
0.0
1001
AcDbBlockRepETag
1070
     1
1071
       50
1005
73C
  0
LWPOLYLINE
  5
73D
330
707
100
AcDbEntity
  8
frame
  6
ByBlock
100
AcDbPolyline
 90
        4
 70
     1
 43
0.0
 10
52.25704337596926
 20
20.8343018923988
 10
57.07356782752867
 20
25.65082634396095
 42
0.9999999999997582
 10
55.43389992912671
 20
27.29049424236291
 10
50.61737547756546
 20
22.4739697908044
 42
1.000000000000484
1001
AcDbBlockRepETag
1070
     1
1071
       51
1005
73D
  0
LWPOLYLINE
  5
73E
330
707
100
AcDbEntity
  8
frame
  6
ByBlock
100
AcDbPolyline
 90
        4
 70
     1
 43
0.0
 10
52.19693929956886
 20
20.89440596880013
 10
57.01346375112826
 20
25.71093042036228
 42
1.0
 10
55.49400400552713
 20
27.23039016596158
 10
50.6774795539659
 20
22.41386571440307
 42
1.0
1001
AcDbBlockRepETag
1070
     1
1071
       52
1005
73E
  0
LWPOLYLINE
  5
73F
330
707
100
AcDbEntity
  8
frame
  6
ByBlock
100
AcDbPolyline
 90
        4
 70
     1
 43
0.0
 10
52.31714745236968
 20
20.77419781599747
 10
57.13367190393
 20
25.59072226755962
 42
1.0
 10
55.37379585272538
 20
27.35059831876424
 10
50.55727140116414
 20
22.53407386720573
 42
1.0
1001
AcDbBlockRepETag
1070
     1
1071
       53
1005
73F
  0
LWPOLYLINE
  5
740
330
707
100
AcDbEntity
  8
frame
  6
ByBlock
100
AcDbPolyline
 90
        6
 70
     1
 43
0.0
 10
35.91807250752117
 20
23.41022415433872
 42
0.5040414943243567
 10
36.12596484577443
 20
23.69117452493083
 10
35.14032051253889
 20
26.9150718731853
 42
0.7399610750323026
 10
34.72453583603329
 20
26.9150718731853
 10
33.73889150279865
 20
23.69117452493083
 42
0.5040414943247417
 10
33.946783841051
 20
23.41022415433872
1001
AcDbBlockRepETag
1070
     1
1071
       54
1005
740
  0
LWPOLYLINE
  5
741
330
707
100
AcDbEntity
  8
frame
  6
ByBlock
100
AcDbPolyline
 90
        6
 70
     1
 43
0.0
 10
35.91807250752117
 20
23.32522415433778
 42
0.504041494324358
 10
36.20725075003065
 20
23.71602611983144
 10
35.22160641679602
 20
26.93992346808773
 42
0.7399610750322863
 10
34.64324993177616
 20
26.93992346808773
 10
33.65760559854243
 20
23.71602611983144
 42
0.5040414943247422
 10
33.946783841051
 20
23.32522415433778
1001
AcDbBlockRepETag
1070
     1
1071
       55
1005
741
  0
LWPOLYLINE
  5
742
330
707
100
AcDbEntity
  8
frame
  6
ByBlock
100
AcDbPolyline
 90
        6
 70
     1
 43
0.0
 10
35.91807250752117
 20
23.49522415433785
 42
0.5040414943243489
 10
36.0446789415173
 20
23.6663229300284
 10
35.05903460828267
 20
26.8902202782847
 42
0.7399610750322957
 10
34.80582174029041
 20
26.8902202782847
 10
33.82017740705578
 20
23.6663229300284
 42
0.5040414943247367
 10
33.946783841051
 20
23.49522415433785
1001
AcDbBlockRepETag
1070
     1
1071
       56
1005
742
  0
LWPOLYLINE
  5
743
330
707
100
AcDbEntity
  8
frame
  6
ByBlock
100
AcDbPolyline
 90
       26
 70
     1
 43
0.0
 10
36.4961122794175
 20
22.48047682237484
 10
37.20505299004525
 20
20.16163624266301
 42
-0.5040414943260745
 10
36.9278632057094
 20
19.7870357485408
 10
36.52663107283661
 20
19.7870357485408
 42
0.4142135623730951
 10
36.38170353660462
 20
19.64210821230881
 10
36.38170353660462
 20
19.06239806738085
 10
40.72952962356247
 20
19.06239806738085
 10
40.72952962356247
 20
19.64210821230881
 42
0.4142135623730951
 10
40.58460208733049
 20
19.7870357485408
 10
40.08824893694145
 20
19.7870357485408
 42
-0.3297505471416469
 10
39.74176170651936
 20
20.04342281204845
 10
36.98438425564746
 20
29.06239806738085
 10
34.62329168707129
 20
29.06239806738085
 10
31.86591423619848
 20
20.04342281204845
 42
-0.3297505471416475
 10
31.51942700577729
 20
19.7870357485408
 10
31.16431223225664
 20
19.7870357485408
 42
0.4142135623730951
 10
31.01938469602647
 20
19.64210821230881
 10
31.01938469602647
 20
19.06239806738085
 10
33.33822527573466
 20
19.06239806738085
 10
33.33822527573466
 20
19.64210821230881
 42
0.4142135623730951
 10
33.19329773950449
 20
19.7870357485408
 10
32.83906398069394
 20
19.7870357485408
 42
-0.5040414943243619
 10
32.63117164244068
 20
20.06798611913291
 10
33.38442114748433
 20
22.53175423507491
 42
-0.329750547139216
 10
33.59231348573667
 20
22.68558647317878
 10
36.21892249507983
 20
22.68558647317878
 42
-0.3297505471401503
1001
AcDbBlockRepETag
1070
     1
1071
       57
1005
743
  0
LWPOLYLINE
  5
744
330
707
100
AcDbEntity
  8
frame
  6
ByBlock
100
AcDbPolyline
 90
       26
 70
     1
 43
0.0
 10
36.41482637516038
 20
22.45562522747241
 10
37.12376708578813
 20
20.1367846477624
 42
-0.5040414943260704
 10
36.9278632057094
 20
19.87203574854175
 10
36.52663107283661
 20
19.87203574854175
 42
0.4142135623730974
 10
36.29670353660549
 20
19.64210821230881
 10
36.29670353660549
 20
18.97739806738172
 10
40.81452962356252
 20
18.97739806738172
 10
40.81452962356252
 20
19.64210821230881
 42
0.4142135623730974
 10
40.58460208733049
 20
19.87203574854175
 10
40.08824893694145
 20
19.87203574853993
 42
-0.3297505471416459
 10
39.82304761077648
 20
20.06827440694906
 10
37.04728094702478
 20
29.1473980673818
 10
34.56039499569397
 20
29.1473980673818
 10
31.78462833194136
 20
20.06827440694906
 42
-0.3297505471416504
 10
31.51942700577729
 20
19.87203574854175
 10
31.16431223225664
 20
19.87203574854175
 42
0.4142135623730974
 10
30.93438469602643
 20
19.64210821230881
 10
30.93438469602643
 20
18.97739806738172
 10
33.4232252757347
 20
18.97739806738172
 10
33.4232252757347
 20
19.64210821230881
 42
0.4142135623730974
 10
33.19329773950449
 20
19.87203574854175
 10
32.83906398069394
 20
19.87203574854175
 42
-0.5040414943243603
 10
32.71245754669781
 20
20.0431345242323
 10
33.46570705174145
 20
22.5069026401743
 42
-0.3297505471392114
 10
33.59231348573667
 20
22.60058647317783
 10
36.21892249508074
 20
22.60058647317965
 42
-0.3297505471401487
1001
AcDbBlockRepETag
1070
     1
1071
       58
1005
744
  0
LWPOLYLINE
  5
745
330
707
100
AcDbEntity
  8
frame
  6
ByBlock
100
AcDbPolyline
 90
       26
 70
     1
 43
0.0
 10
36.57739818367372
 20
22.50532841727545
 10
37.28633889430148
 20
20.18648783756544
 42
-0.5040414943260731
 10
36.9278632057094
 20
19.70203574854167
 10
36.52663107283661
 20
19.70203574854167
 42
0.4142135623730869
 10
36.46670353660466
 20
19.64210821230881
 10
36.46670353660466
 20
19.1473980673818
 10
40.64452962356243
 20
19.1473980673818
 10
40.64452962356243
 20
19.64210821230881
 42
0.4142135623730869
 10
40.58460208733049
 20
19.70203574854167
 10
40.08824893694145
 20
19.70203574853985
 42
-0.3297505471416466
 10
39.66047580226223
 20
20.01857121714784
 10
36.92148756427014
 20
28.97739806738173
 10
34.68618837844861
 20
28.97739806738173
 10
31.9472001404547
 20
20.01857121714784
 42
-0.3297505471416456
 10
31.51942700577729
 20
19.70203574854167
 10
31.16431223225664
 20
19.70203574854167
 42
0.4142135623730869
 10
31.1043846960265
 20
19.64210821230881
 10
31.1043846960265
 20
19.1473980673818
 10
33.25322527573553
 20
19.1473980673818
 10
33.25322527573553
 20
19.64210821230881
 42
0.4142135623730869
 10
33.19329773950358
 20
19.70203574854167
 10
32.83906398069394
 20
19.70203574854167
 42
-0.5040414943243603
 10
32.54988573818446
 20
20.09283771403352
 10
33.30313524322719
 20
22.55660582997554
 42
-0.3297505471392168
 10
33.59231348573667
 20
22.7705864731779
 10
36.21892249507983
 20
22.77058647317971
 42
-0.3297505471401506
1001
AcDbBlockRepETag
1070
     1
1071
       59
1005
745
  0
LWPOLYLINE
  5
746
330
707
100
AcDbEntity
  8
frame
  6
ByBlock
100
AcDbPolyline
 90
       26
 70
     1
 43
0.0
 10
48.1931083897025
 20
26.82773339255437
 10
48.12083397138849
 20
29.06239806738085
 10
44.1353267250115
 20
29.06239806738085
 10
40.14981947863453
 20
29.06239806738085
 10
40.0775450603196
 20
26.82773339255437
 42
0.8721984941219423
 10
40.78527569253036
 20
26.7072334197037
 10
41.07507349164189
 20
27.62787357363232
 42
-0.3274643887701543
 10
42.0427566876524
 20
28.33776038622273
 10
42.25126875399655
 20
28.33776038622273
 42
-0.4142135623730951
 10
42.7585151308085
 20
27.83051400941076
 10
42.75851513080669
 20
20.14935458912078
 42
-0.4142135623730951
 10
42.39619629022853
 20
19.7870357485408
 10
42.10634121776545
 20
19.7870357485408
 42
0.4142135623730951
 10
41.96141368153347
 20
19.64210821230881
 10
41.96141368153347
 20
19.06239806738085
 10
44.1353267250115
 20
19.06239806738085
 10
46.30923976848861
 20
19.06239806738085
 10
46.30923976848861
 20
19.64210821230881
 42
0.4142135623730951
 10
46.16431223225845
 20
19.7870357485408
 10
45.87445715979447
 20
19.7870357485408
 42
-0.4142135623730951
 10
45.51213831921449
 20
20.14935458912078
 10
45.51213831921449
 20
27.83051400941076
 42
-0.4142135623730951
 10
46.01938469602646
 20
28.33776038622273
 10
46.22789676236971
 20
28.33776038622273
 42
-0.3274643887701542
 10
47.19557995838113
 20
27.62787357363232
 10
47.48537775749172
 20
26.7072334197037
 42
0.872198494121949
1001
AcDbBlockRepETag
1070
     1
1071
       60
1005
746
  0
LWPOLYLINE
  5
747
330
707
100
AcDbEntity
  8
frame
  6
ByBlock
100
AcDbPolyline
 90
       26
 70
     1
 43
0.0
 10
48.2780639682387
 20
26.83048105984017
 10
48.20312931209628
 20
29.1473980673818
 10
44.1353267250115
 20
29.1473980673818
 10
40.06752413792582
 20
29.1473980673818
 10
39.9925894817825
 20
26.83048105984017
 42
0.8721984941219334
 10
40.86635372031014
 20
26.68171179335877
 10
41.15615151942164
 20
27.6023519472874
 42
-0.3274643887701552
 10
42.0427566876524
 20
28.25276038622178
 10
42.25126875399655
 20
28.25276038622178
 42
-0.414213562373094
 10
42.67351513080846
 20
27.83051400941076
 10
42.67351513080664
 20
20.14935458912078
 42
-0.4142135623730935
 10
42.39619629022853
 20
19.87203574854175
 10
42.10634121776545
 20
19.87203574854175
 42
0.4142135623730974
 10
41.87641368153345
 20
19.64210821230881
 10
41.87641368153345
 20
18.97739806738172
 10
44.1353267250115
 20
18.97739806738172
 10
46.39423976848864
 20
18.97739806738172
 10
46.39423976848864
 20
19.64210821230881
 42
0.4142135623730974
 10
46.16431223225845
 20
19.87203574854175
 10
45.87445715979355
 20
19.87203574853993
 42
-0.4142135623730935
 10
45.59713831921453
 20
20.14935458912078
 10
45.59713831921453
 20
27.83051400941076
 42
-0.414213562373094
 10
46.01938469602646
 20
28.25276038622178
 10
46.22789676237061
 20
28.25276038622178
 42
-0.3274643887701549
 10
47.11450193060136
 20
27.6023519472874
 10
47.40429972971194
 20
26.68171179335877
 42
0.8721984941219462
1001
AcDbBlockRepETag
1070
     1
1071
       61
1005
747
  0
LWPOLYLINE
  5
748
330
707
100
AcDbEntity
  8
frame
  6
ByBlock
100
AcDbPolyline
 90
       26
 70
     1
 43
0.0
 10
48.10815281116538
 20
26.82498572526856
 10
48.03853863067979
 20
28.97739806738173
 10
44.1353267250115
 20
28.97739806738173
 10
40.23211481934231
 20
28.97739806738173
 10
40.16250063885581
 20
26.82498572527038
 42
0.8721984941219337
 10
40.70419766474969
 20
26.73275504604863
 10
40.99399546386121
 20
27.65339519997724
 42
-0.327464388770155
 10
42.0427566876524
 20
28.42276038622186
 10
42.25126875399655
 20
28.42276038622186
 42
-0.4142135623730959
 10
42.84351513080764
 20
27.83051400941076
 10
42.84351513080673
 20
20.14935458912078
 42
-0.4142135623730962
 10
42.39619629022853
 20
19.70203574854167
 10
42.10634121776545
 20
19.70203574854167
 42
0.4142135623730869
 10
42.04641368153352
 20
19.64210821230881
 10
42.04641368153352
 20
19.1473980673818
 10
44.1353267250115
 20
19.1473980673818
 10
46.22423976848949
 20
19.1473980673818
 10
46.22423976848949
 20
19.64210821230881
 42
0.4142135623730869
 10
46.16431223225752
 20
19.70203574854167
 10
45.87445715979447
 20
19.70203574853985
 42
-0.414213562373096
 10
45.42713831921445
 20
20.14935458912078
 10
45.42713831921445
 20
27.83051400941076
 42
-0.4142135623730959
 10
46.01938469602646
 20
28.42276038622186
 10
46.22789676236971
 20
28.42276038622186
 42
-0.3274643887701536
 10
47.27665798616089
 20
27.65339519997724
 10
47.56645578527241
 20
26.73275504604863
 42
0.8721984941219799
1001
AcDbBlockRepETag
1070
     1
1071
       62
1005
748
  0
LWPOLYLINE
  5
749
330
707
100
AcDbEntity
  8
frame
  6
ByBlock
100
AcDbPolyline
 90
       40
 70
     1
 43
0.0
 10
70.87445715979446
 20
19.7870357485408
 42
-0.4142135623730951
 10
71.01938469602647
 20
19.64210821230881
 10
71.01938469602647
 20
19.06239806738085
 10
66.96141368153348
 20
19.06239806738085
 10
66.96141368153348
 20
19.64210821230881
 42
-0.4142135623730951
 10
67.10634121776546
 20
19.7870357485408
 10
67.39619629022945
 20
19.7870357485408
 42
0.4142135623730951
 10
67.75851513080849
 20
20.14935458912078
 10
67.75851513080849
 20
28.12706220569089
 42
0.8769764629942649
 10
67.33113995118038
 20
28.1833272154945
 10
64.88719435172242
 20
19.06239806738085
 10
64.19167443671813
 20
19.06239806738085
 10
61.73661494811677
 20
28.22480481444291
 42
0.8769764629925763
 10
61.30923976849043
 20
28.16853980463747
 10
61.30923976849043
 20
20.00442705288879
 42
0.4142135623730951
 10
61.52663107283661
 20
19.7870357485408
 10
61.74402237718549
 20
19.7870357485408
 42
-0.4142135623730951
 10
61.88894991341749
 20
19.64210821230881
 10
61.88894991341749
 20
19.06239806738085
 10
59.85996440617054
 20
19.06239806738085
 10
59.85996440617054
 20
19.64210821230881
 42
-0.4142135623730951
 10
60.00489194240254
 20
19.7870357485408
 10
60.36721078298251
 20
19.7870357485408
 42
0.4142135623730951
 10
60.58460208733049
 20
20.00442705288879
 10
60.58460208733049
 20
28.12036908187474
 42
0.4142135623730951
 10
60.36721078298251
 20
28.33776038622273
 10
60.00489194240254
 20
28.33776038622273
 42
-0.4142135623730951
 10
59.85996440617054
 20
28.48268792245472
 10
59.85996440617054
 20
29.06239806738085
 10
64.06286295689461
 20
29.06239806738085
 10
65.22969067581835
 20
24.70773773668225
 42
0.7673269879785563
 10
65.64965842637866
 20
24.70773773668225
 10
66.81648614530151
 20
29.06239806738085
 10
71.01938469602647
 20
29.06239806738085
 10
71.01938469602647
 20
28.48268792245472
 42
-0.4142135623730951
 10
70.87445715979446
 20
28.33776038622273
 10
70.58460208733048
 20
28.33776038622273
 42
0.4142135623730951
 10
70.22228324675052
 20
27.97544154564275
 10
70.22228324675052
 20
20.14935458912078
 42
0.4142135623730951
 10
70.58460208733048
 20
19.7870357485408
1001
AcDbBlockRepETag
1070
     1
1071
       63
1005
749
  0
LWPOLYLINE
  5
74A
330
707
100
AcDbEntity
  8
frame
  6
ByBlock
100
AcDbPolyline
 90
       40
 70
     1
 43
0.0
 10
70.87445715979446
 20
19.87203574854175
 42
-0.4142135623730974
 10
71.1043846960265
 20
19.64210821230881
 10
71.1043846960265
 20
18.97739806738172
 10
66.87641368153345
 20
18.97739806738172
 10
66.87641368153345
 20
19.64210821230881
 42
-0.4142135623730974
 10
67.10634121776546
 20
19.87203574854175
 10
67.39619629022945
 20
19.87203574854175
 42
0.4142135623730935
 10
67.67351513080848
 20
20.14935458912078
 10
67.67351513080848
 20
28.12706220569089
 42
0.8769764629942653
 10
67.41324364641513
 20
28.16132759666107
 10
64.95241714570056
 20
18.97739806738172
 10
64.12645164274
 20
18.97739806738172
 10
61.65451125288291
 20
28.20280519560947
 42
0.8769764629924258
 10
61.39423976849048
 20
28.16853980463747
 10
61.39423976849048
 20
20.00442705288879
 42
0.4142135623730835
 10
61.52663107283752
 20
19.87203574854175
 10
61.74402237718549
 20
19.87203574854175
 42
-0.4142135623730974
 10
61.97394991341752
 20
19.64210821230881
 10
61.97394991341752
 20
18.97739806738172
 10
59.77496440617051
 20
18.97739806738172
 10
59.77496440617051
 20
19.64210821230881
 42
-0.4142135623730974
 10
60.00489194240254
 20
19.87203574854175
 10
60.36721078298251
 20
19.87203574854175
 42
0.4142135623730913
 10
60.49960208733047
 20
20.00442705288879
 10
60.49960208733047
 20
28.12036908187474
 42
0.4142135623730913
 10
60.36721078298251
 20
28.25276038622178
 10
60.00489194240254
 20
28.25276038622178
 42
-0.4142135623730974
 10
59.77496440617051
 20
28.48268792245472
 10
59.77496440617051
 20
29.1473980673818
 10
64.12808575087365
 20
29.1473980673818
 10
65.31179437105311
 20
24.72973735551568
 42
0.767326987978615
 10
65.5675547311439
 20
24.72973735551568
 10
66.75126335132336
 20
29.1473980673818
 10
71.1043846960265
 20
29.1473980673818
 10
71.1043846960265
 20
28.48268792245472
 42
-0.4142135623730974
 10
70.87445715979446
 20
28.25276038622178
 10
70.58460208733048
 20
28.25276038622178
 42
0.4142135623730896
 10
70.30728324674965
 20
27.97544154564275
 10
70.30728324674965
 20
20.14935458912078
 42
0.4142135623730895
 10
70.58460208733048
 20
19.87203574854175
1001
AcDbBlockRepETag
1070
     1
1071
       64
1005
74A
  0
LWPOLYLINE
  5
74B
330
707
100
AcDbEntity
  8
frame
  6
ByBlock
100
AcDbPolyline
 90
       40
 70
     1
 43
0.0
 10
70.87445715979446
 20
19.70203574854167
 42
-0.4142135623730869
 10
70.93438469602642
 20
19.64210821230881
 10
70.93438469602642
 20
19.1473980673818
 10
67.04641368153352
 20
19.1473980673818
 10
67.04641368153352
 20
19.64210821230881
 42
-0.4142135623730869
 10
67.10634121776546
 20
19.70203574854167
 10
67.39619629022945
 20
19.70203574854167
 42
0.4142135623730962
 10
67.84351513080763
 20
20.14935458912078
 10
67.84351513080763
 20
28.12706220569089
 42
0.8769764629943033
 10
67.24903625594561
 20
28.20532683432793
 10
64.82197155774429
 20
19.1473980673818
 10
64.25689723069628
 20
19.1473980673818
 10
61.81871864335153
 20
28.24680443327634
 42
0.8769764629925827
 10
61.22423976849042
 20
28.16853980463747
 10
61.22423976849042
 20
20.00442705288879
 42
0.4142135623731002
 10
61.52663107283661
 20
19.70203574854167
 10
61.74402237718549
 20
19.70203574854167
 42
-0.4142135623730869
 10
61.80394991341746
 20
19.64210821230881
 10
61.80394991341746
 20
19.1473980673818
 10
59.94496440616967
 20
19.1473980673818
 10
59.94496440616967
 20
19.64210821230881
 42
-0.4142135623730869
 10
60.00489194240254
 20
19.70203574854167
 10
60.36721078298251
 20
19.70203574854167
 42
0.4142135623730966
 10
60.66960208733053
 20
20.00442705288879
 10
60.66960208733053
 20
28.12036908187474
 42
0.4142135623730966
 10
60.36721078298251
 20
28.42276038622186
 10
60.00489194240254
 20
28.42276038622186
 42
-0.4142135623730869
 10
59.94496440616967
 20
28.48268792245472
 10
59.94496440616967
 20
28.97739806738173
 10
63.99764016291647
 20
28.97739806738173
 10
65.14758698058358
 20
24.68573811784882
 42
0.7673269879785485
 10
65.73176212161252
 20
24.68573811784882
 10
66.88170893927964
 20
28.97739806738173
 10
70.93438469602642
 20
28.97739806738173
 10
70.93438469602642
 20
28.48268792245472
 42
-0.4142135623730869
 10
70.87445715979446
 20
28.42276038622186
 10
70.58460208733048
 20
28.42276038622186
 42
0.4142135623730962
 10
70.13728324675049
 20
27.97544154564275
 10
70.13728324675049
 20
20.14935458912078
 42
0.4142135623730985
 10
70.58460208733048
 20
19.70203574854167
1001
AcDbBlockRepETag
1070
     1
1071
       65
1005
74B
  0
ATTDEF
  5
74C
330
707
100
AcDbEntity
  8
frame
  6
ByBlock
100
AcDbText
 10
109.5000000000018
 20
188.0000000000037
 30
0.0
 40
3.0
  1

 41
0.9
  7
ATOM
 72
     1
 11
109.5000000000018
 21
189.5000000000037
 31
0.0
100
AcDbAttributeDefinition
  3
改番?
  2
改番
 70
     0
 74
     2
1001
AcDbBlockRepETag
1070
     1
1071
      213
1005
0
1001
AcDbAttr
1070
     0
1070
     1
  0
ATTDEF
  5
74D
330
707
100
AcDbEntity
  8
frame
  6
ByBlock
100
AcDbText
 10
161.5000000000018
 20
188.0000000000037
 30
0.0
 40
3.0
  1

 41
0.9
  7
ATOM
 72
     1
 11
161.5000000000018
 21
189.5000000000037
 31
0.0
100
AcDbAttributeDefinition
  3
改正理由?
  2
改　　　　正　　　　理　　　　由
 70
     0
 74
     2
1001
AcDbBlockRepETag
1070
     1
1071
      214
1005
0
1001
AcDbAttr
1070
     0
1070
     1
  0
ATTDEF
  5
74E
330
707
100
AcDbEntity
  8
frame
  6
ByBlock
100
AcDbText
 10
217.5000000000018
 20
188.0000000000037
 30
0.0
 40
3.0
  1

 41
0.9
  7
ATOM
 72
     1
 11
217.5000000000018
 21
189.5000000000037
 31
0.0
100
AcDbAttributeDefinition
  3
改正承認?
  2
改正承認
 70
     0
 74
     2
1001
AcDbBlockRepETag
1070
     1
1071
      212
1005
0
1001
AcDbAttr
1070
     0
1070
     1
  0
ATTDEF
  5
74F
330
707
100
AcDbEntity
  8
frame
  6
ByBlock
100
AcDbText
 10
237.5000000000018
 20
188.0000000000037
 30
0.0
 40
3.0
  1

 41
0.9
  7
ATOM
 72
     1
 11
237.5000000000018
 21
189.5000000000037
 31
0.0
100
AcDbAttributeDefinition
  3
改正承認日?
  2
改正承認日
 70
     0
 74
     2
1001
AcDbBlockRepETag
1070
     1
1071
      211
1005
0
1001
AcDbAttr
1070
     0
1070
     1
  0
ATTDEF
  5
750
330
707
100
AcDbEntity
  8
frame
  6
ByBlock
100
AcDbText
 10
257.5000000000018
 20
188.0000000000037
 30
0.0
 40
3.0
  1

 41
0.9
  7
ATOM
 72
     1
 11
257.5000000000018
 21
189.5000000000037
 31
0.0
100
AcDbAttributeDefinition
  3
改正担当?
  2
改正担当
 70
     0
 74
     2
1001
AcDbBlockRepETag
1070
     1
1071
      210
1005
0
1001
AcDbAttr
1070
     0
1070
     1
  0
ATTDEF
  5
751
330
707
100
AcDbEntity
  8
frame
  6
ByBlock
100
AcDbText
 10
277.5000000000018
 20
188.0000000000037
 30
0.0
 40
3.0
  1

 41
0.9
  7
ATOM
 72
     1
 11
277.5000000000018
 21
189.5000000000037
 31
0.0
100
AcDbAttributeDefinition
  3
改正日?
  2
改正日
 70
     0
 74
     2
1001
AcDbBlockRepETag
1070
     1
1071
      209
1005
0
1001
AcDbAttr
1070
     0
1070
     1
  0
CIRCLE
  5
752
330
707
100
AcDbEntity
  8
frame
100
AcDbCircle
 10
129.6985756137883
 20
13.33526333679037
 30
0.0
 40
1.123977615884085
1001
AcDbBlockRepETag
1070
     1
1071
       74
1005
752
  0
CIRCLE
  5
753
330
707
100
AcDbEntity
  8
frame
100
AcDbCircle
 10
129.6985756137883
 20
13.33526333679037
 30
0.0
 40
1.208977615884085
1001
AcDbBlockRepETag
1070
     1
1071
       75
1005
753
  0
CIRCLE
  5
754
330
707
100
AcDbEntity
  8
frame
100
AcDbCircle
 10
129.6985756137883
 20
13.33526333679037
 30
0.0
 40
1.038977615884085
1001
AcDbBlockRepETag
1070
     1
1071
       76
1005
754
  0
CIRCLE
  5
755
330
707
100
AcDbEntity
  8
frame
100
AcDbCircle
 10
129.6985756137883
 20
13.33526333679037
 30
0.0
 40
2.310728085513118
1001
AcDbBlockRepETag
1070
     1
1071
       77
1005
755
  0
CIRCLE
  5
756
330
707
100
AcDbEntity
  8
frame
100
AcDbCircle
 10
129.6985756137883
 20
13.33526333679037
 30
0.0
 40
2.395728085513117
1001
AcDbBlockRepETag
1070
     1
1071
       78
1005
756
  0
CIRCLE
  5
757
330
707
100
AcDbEntity
  8
frame
100
AcDbCircle
 10
129.6985756137883
 20
13.33526333679037
 30
0.0
 40
2.225728085513118
1001
AcDbBlockRepETag
1070
     1
1071
       79
1005
757
  0
CIRCLE
  5
758
330
707
100
AcDbEntity
  8
frame
100
AcDbCircle
 10
53.86576029150639
 20
24.16239806738122
 30
0.0
 40
5.269566433505018
1001
AcDbBlockRepETag
1070
     1
1071
       80
1005
758
  0
CIRCLE
  5
759
330
707
100
AcDbEntity
  8
frame
100
AcDbCircle
 10
53.86576029150639
 20
24.16239806738122
 30
0.0
 40
5.354566433505018
1001
AcDbBlockRepETag
1070
     1
1071
       81
1005
759
  0
CIRCLE
  5
75A
330
707
100
AcDbEntity
  8
frame
100
AcDbCircle
 10
53.86576029150639
 20
24.16239806738122
 30
0.0
 40
5.184566433505018
1001
AcDbBlockRepETag
1070
     1
1071
       82
1005
75A
  0
LINE
  5
75B
330
707
100
AcDbEntity
  8
frame
100
AcDbLine
 10
132.9942130249637
 20
13.33526333679037
 30
0.0
 11
134.9942130249637
 21
13.33526333679037
 31
0.0
1001
AcDbBlockRepETag
1070
     1
1071
       83
1005
75B
  0
LINE
  5
75C
330
707
100
AcDbEntity
  8
frame
100
AcDbLine
 10
135.4942130249637
 20
13.33526333679037
 30
0.0
 11
135.9942130249637
 21
13.33526333679037
 31
0.0
1001
AcDbBlockRepETag
1070
     1
1071
       84
1005
75C
  0
LINE
  5
75D
330
707
100
AcDbEntity
  8
frame
100
AcDbLine
 10
136.4942130249637
 20
13.33526333679037
 30
0.0
 11
138.1999999999989
 21
13.33526333679037
 31
0.0
1001
AcDbBlockRepETag
1070
     1
1071
       85
1005
75D
  0
LINE
  5
75E
330
707
100
AcDbEntity
  8
frame
100
AcDbLine
 10
126.7999999999992
 20
13.33526333679037
 30
0.0
 11
127.9985756137885
 21
13.33526333679037
 31
0.0
1001
AcDbBlockRepETag
1070
     1
1071
       86
1005
75E
  0
LINE
  5
75F
330
707
100
AcDbEntity
  8
frame
100
AcDbLine
 10
128.4985756137885
 20
13.33526333679037
 30
0.0
 11
128.9985756137885
 21
13.33526333679037
 31
0.0
1001
AcDbBlockRepETag
1070
     1
1071
       87
1005
75F
  0
LINE
  5
760
330
707
100
AcDbEntity
  8
frame
100
AcDbLine
 10
129.4985756137885
 20
13.33526333679037
 30
0.0
 11
132.5971512275773
 21
13.33526333679037
 31
0.0
1001
AcDbBlockRepETag
1070
     1
1071
       88
1005
760
  0
LINE
  5
761
330
707
100
AcDbEntity
  8
frame
100
AcDbLine
 10
129.6985756137883
 20
16.2338389505785
 30
0.0
 11
129.6985756137883
 21
15.03526333678928
 31
0.0
1001
AcDbBlockRepETag
1070
     1
1071
       89
1005
761
  0
LINE
  5
762
330
707
100
AcDbEntity
  8
frame
100
AcDbLine
 10
129.6985756137883
 20
14.53526333678928
 30
0.0
 11
129.6985756137883
 21
14.03526333678928
 31
0.0
1001
AcDbBlockRepETag
1070
     1
1071
       90
1005
762
  0
LINE
  5
763
330
707
100
AcDbEntity
  8
frame
100
AcDbLine
 10
129.6985756137883
 20
13.53526333678928
 30
0.0
 11
129.6985756137883
 21
10.43668772300043
 31
0.0
1001
AcDbBlockRepETag
1070
     1
1071
       91
1005
763
  0
LWPOLYLINE
  5
764
330
707
100
AcDbEntity
  8
frame
  6
ByBlock
100
AcDbPolyline
 90
        4
 70
     1
 43
0.0
 10
290.0000000000009
 20
200.0
 10
12.99999999999909
 20
200.0
 10
12.99999999999909
 20
10.0
 10
290.0000000000009
 20
10.0
1001
AcDbBlockRepETag
1070
     1
1071
       92
1005
764
  0
LWPOLYLINE
  5
765
330
707
100
AcDbEntity
  8
frame
  6
ByBlock
100
AcDbPolyline
 90
        4
 70
     1
 43
0.0
 10
290.1600000000017
 20
200.1600000000017
 10
12.83999999999923
 20
200.1600000000017
 10
12.83999999999923
 20
9.840000000000143
 10
290.1600000000008
 20
9.840000000000143
1001
AcDbBlockRepETag
1070
     1
1071
       93
1005
765
  0
LWPOLYLINE
  5
766
330
707
100
AcDbEntity
  8
frame
  6
ByBlock
100
AcDbPolyline
 90
        4
 70
     1
 43
0.0
 10
289.8400000000011
 20
199.8400000000002
 10
13.15999999999985
 20
199.8400000000002
 10
13.15999999999985
 20
10.16000000000167
 10
289.8400000000011
 20
10.16000000000167
1001
AcDbBlockRepETag
1070
     1
1071
       94
1005
766
  0
LWPOLYLINE
  5
767
330
707
100
AcDbEntity
  8
frame
  6
ByBlock
390
86
100
AcDbPolyline
 90
        4
 70
     1
 43
0.0
 10
3.0
 20
0.0
 10
300.0000000000018
 20
0.0
 10
300.0000000000018
 20
210.0
 10
3.0
 20
210.0
1001
AcDbBlockRepETag
1070
     1
1071
       95
1005
767
  0
LINE
  5
768
330
707
100
AcDbEntity
  8
frame
  6
ByBlock
100
AcDbLine
 10
151.5000000000009
 20
0.0
 30
0.0
 11
151.5000000000009
 21
10.0
 31
0.0
1001
AcDbBlockRepETag
1070
     1
1071
       96
1005
768
  0
LINE
  5
769
330
707
100
AcDbEntity
  8
frame
  6
ByBlock
100
AcDbLine
 10
151.6600000000017
 20
0.0
 30
0.0
 11
151.6600000000007
 21
10.0
 31
0.0
1001
AcDbBlockRepETag
1070
     1
1071
       97
1005
769
  0
LINE
  5
76A
330
707
100
AcDbEntity
  8
frame
  6
ByBlock
100
AcDbLine
 10
151.340000000001
 20
0.0
 30
0.0
 11
151.340000000001
 21
10.0
 31
0.0
1001
AcDbBlockRepETag
1070
     1
1071
       98
1005
76A
  0
LINE
  5
76B
330
707
100
AcDbEntity
  8
frame
  6
ByBlock
100
AcDbLine
 10
300.0000000000018
 20
105.0
 30
0.0
 11
290.0000000000009
 21
105.0
 31
0.0
1001
AcDbBlockRepETag
1070
     1
1071
       99
1005
76B
  0
LINE
  5
76C
330
707
100
AcDbEntity
  8
frame
  6
ByBlock
100
AcDbLine
 10
300.0000000000018
 20
104.8400000000002
 30
0.0
 11
290.0000000000009
 21
104.8400000000002
 31
0.0
1001
AcDbBlockRepETag
1070
     1
1071
      100
1005
76C
  0
LINE
  5
76D
330
707
100
AcDbEntity
  8
frame
  6
ByBlock
100
AcDbLine
 10
300.0000000000018
 20
105.1600000000017
 30
0.0
 11
290.0000000000009
 21
105.1600000000017
 31
0.0
1001
AcDbBlockRepETag
1070
     1
1071
      101
1005
76D
  0
LINE
  5
76E
330
707
100
AcDbEntity
  8
frame
  6
ByBlock
100
AcDbLine
 10
151.5000000000009
 20
210.0
 30
0.0
 11
151.5000000000009
 21
200.0
 31
0.0
1001
AcDbBlockRepETag
1070
     1
1071
      102
1005
76E
  0
LINE
  5
76F
330
707
100
AcDbEntity
  8
frame
  6
ByBlock
100
AcDbLine
 10
151.340000000001
 20
210.0
 30
0.0
 11
151.340000000001
 21
200.0
 31
0.0
1001
AcDbBlockRepETag
1070
     1
1071
      103
1005
76F
  0
LINE
  5
770
330
707
100
AcDbEntity
  8
frame
  6
ByBlock
100
AcDbLine
 10
151.6600000000017
 20
210.0
 30
0.0
 11
151.6600000000017
 21
200.0
 31
0.0
1001
AcDbBlockRepETag
1070
     1
1071
      104
1005
770
  0
LINE
  5
771
330
707
100
AcDbEntity
  8
frame
  6
ByBlock
100
AcDbLine
 10
3.0
 20
105.0
 30
0.0
 11
12.99999999999909
 21
105.0
 31
0.0
1001
AcDbBlockRepETag
1070
     1
1071
      105
1005
771
  0
LINE
  5
772
330
707
100
AcDbEntity
  8
frame
  6
ByBlock
100
AcDbLine
 10
3.0
 20
104.8400000000002
 30
0.0
 11
12.99999999999909
 21
104.8400000000002
 31
0.0
1001
AcDbBlockRepETag
1070
     1
1071
      106
1005
772
  0
LINE
  5
773
330
707
100
AcDbEntity
  8
frame
  6
ByBlock
100
AcDbLine
 10
3.0
 20
105.1600000000017
 30
0.0
 11
12.99999999999909
 21
105.1600000000017
 31
0.0
1001
AcDbBlockRepETag
1070
     1
1071
      107
1005
773
  0
TEXT
  5
774
330
707
100
AcDbEntity
  8
frame
  6
ByBlock
100
AcDbText
 10
106.6200000000018
 20
33.0
 30
0.0
 40
3.0
  1
部番
 41
0.9
  7
ATOM
 72
     1
 11
109.5000000000018
 21
34.5
 31
0.0
100
AcDbText
 73
     2
1001
AcDbBlockRepETag
1070
     1
1071
      108
1005
774
  0
TEXT
  5
775
330
707
100
AcDbEntity
  8
frame
  6
ByBlock
100
AcDbText
 10
120.6300000000018
 20
33.0
 30
0.0
 40
3.0
  1
部　　　　品　　　　名
 41
0.9
  7
ATOM
 72
     1
 11
138.0000000000018
 21
34.5
 31
0.0
100
AcDbText
 73
     2
1001
AcDbBlockRepETag
1070
     1
1071
      109
1005
775
  0
TEXT
  5
776
330
707
100
AcDbEntity
  8
frame
  6
ByBlock
100
AcDbText
 10
170.8800000000018
 20
33.0
 30
0.0
 40
3.0
  1
材　　質
 41
0.9
  7
ATOM
 72
     1
 11
177.0000000000018
 21
34.5
 31
0.0
100
AcDbText
 73
     2
1001
AcDbBlockRepETag
1070
     1
1071
      110
1005
776
  0
TEXT
  5
777
330
707
100
AcDbEntity
  8
frame
  6
ByBlock
100
AcDbText
 10
191.6200000000018
 20
33.0
 30
0.0
 40
3.0
  1
数量
 41
0.9
  7
ATOM
 72
     1
 11
194.5000000000018
 21
34.5
 31
0.0
100
AcDbText
 73
     2
1001
AcDbBlockRepETag
1070
     1
1071
      111
1005
777
  0
TEXT
  5
778
330
707
100
AcDbEntity
  8
frame
  6
ByBlock
100
AcDbText
 10
207.1600000000018
 20
33.0
 30
0.0
 40
3.0
  1
表　　面　　処　　理
 41
0.9
  7
ATOM
 72
     1
 11
223.0000000000018
 21
34.5
 31
0.0
100
AcDbText
 73
     2
1001
AcDbBlockRepETag
1070
     1
1071
      112
1005
778
  0
TEXT
  5
779
330
707
100
AcDbEntity
  8
frame
  6
ByBlock
100
AcDbText
 10
261.2600000000009
 20
33.0
 30
0.0
 40
3.0
  1
備　　　考
 41
0.9
  7
ATOM
 72
     1
 11
269.0000000000009
 21
34.5
 31
0.0
100
AcDbText
 73
     2
1001
AcDbBlockRepETag
1070
     1
1071
      113
1005
779
  0
LWPOLYLINE
  5
77A
330
707
100
AcDbEntity
  8
frame
  6
ByBlock
100
AcDbPolyline
 90
        2
 70
     0
 43
0.0
 10
290.0000000000009
 20
31.0
 10
290.0000000000009
 20
45.0
1001
AcDbBlockRepETag
1070
     1
1071
      114
1005
77A
  0
LINE
  5
77B
330
707
100
AcDbEntity
  8
frame
  6
ByBlock
100
AcDbLine
 10
113.0000000000018
 20
38.0
 30
0.0
 11
113.0000000000018
 21
31.0
 31
0.0
1001
AcDbBlockRepETag
1070
     1
1071
      115
1005
77B
  0
LINE
  5
77C
330
707
100
AcDbEntity
  8
frame
  6
ByBlock
100
AcDbLine
 10
112.9150000000018
 20
38.0
 30
0.0
 11
112.9150000000018
 21
31.0
 31
0.0
1001
AcDbBlockRepETag
1070
     1
1071
      116
1005
77C
  0
LINE
  5
77D
330
707
100
AcDbEntity
  8
frame
  6
ByBlock
100
AcDbLine
 10
113.0850000000018
 20
38.0
 30
0.0
 11
113.0850000000018
 21
31.0
 31
0.0
1001
AcDbBlockRepETag
1070
     1
1071
      117
1005
77D
  0
LINE
  5
77E
330
707
100
AcDbEntity
  8
frame
  6
ByBlock
100
AcDbLine
 10
163.0000000000018
 20
31.0
 30
0.0
 11
163.0000000000018
 21
38.0
 31
0.0
1001
AcDbBlockRepETag
1070
     1
1071
      118
1005
77E
  0
LINE
  5
77F
330
707
100
AcDbEntity
  8
frame
  6
ByBlock
100
AcDbLine
 10
163.0850000000018
 20
31.0
 30
0.0
 11
163.0850000000018
 21
38.0
 31
0.0
1001
AcDbBlockRepETag
1070
     1
1071
      119
1005
77F
  0
LINE
  5
780
330
707
100
AcDbEntity
  8
frame
  6
ByBlock
100
AcDbLine
 10
162.9150000000018
 20
31.0
 30
0.0
 11
162.9150000000018
 21
38.0
 31
0.0
1001
AcDbBlockRepETag
1070
     1
1071
      120
1005
780
  0
LINE
  5
781
330
707
100
AcDbEntity
  8
frame
  6
ByBlock
100
AcDbLine
 10
191.0000000000018
 20
38.0
 30
0.0
 11
191.0000000000018
 21
31.0
 31
0.0
1001
AcDbBlockRepETag
1070
     1
1071
      121
1005
781
  0
LINE
  5
782
330
707
100
AcDbEntity
  8
frame
  6
ByBlock
100
AcDbLine
 10
191.0850000000018
 20
38.0
 30
0.0
 11
191.0850000000018
 21
31.0
 31
0.0
1001
AcDbBlockRepETag
1070
     1
1071
      122
1005
782
  0
LINE
  5
783
330
707
100
AcDbEntity
  8
frame
  6
ByBlock
100
AcDbLine
 10
190.9150000000018
 20
38.0
 30
0.0
 11
190.9150000000018
 21
31.0
 31
0.0
1001
AcDbBlockRepETag
1070
     1
1071
      123
1005
783
  0
LINE
  5
784
330
707
100
AcDbEntity
  8
frame
  6
ByBlock
100
AcDbLine
 10
197.9150000000018
 20
38.0
 30
0.0
 11
197.9150000000018
 21
31.0
 31
0.0
1001
AcDbBlockRepETag
1070
     1
1071
      124
1005
784
  0
LINE
  5
785
330
707
100
AcDbEntity
  8
frame
  6
ByBlock
100
AcDbLine
 10
198.0000000000018
 20
38.0
 30
0.0
 11
198.0000000000018
 21
31.0
 31
0.0
1001
AcDbBlockRepETag
1070
     1
1071
      125
1005
785
  0
LINE
  5
786
330
707
100
AcDbEntity
  8
frame
  6
ByBlock
100
AcDbLine
 10
198.0850000000018
 20
38.0
 30
0.0
 11
198.0850000000018
 21
31.0
 31
0.0
1001
AcDbBlockRepETag
1070
     1
1071
      126
1005
786
  0
LINE
  5
787
330
707
100
AcDbEntity
  8
frame
  6
ByBlock
100
AcDbLine
 10
248.0000000000018
 20
38.0
 30
0.0
 11
248.0000000000018
 21
31.0
 31
0.0
1001
AcDbBlockRepETag
1070
     1
1071
      127
1005
787
  0
LINE
  5
788
330
707
100
AcDbEntity
  8
frame
  6
ByBlock
100
AcDbLine
 10
248.0850000000018
 20
38.0
 30
0.0
 11
248.0850000000018
 21
31.0
 31
0.0
1001
AcDbBlockRepETag
1070
     1
1071
      128
1005
788
  0
LINE
  5
789
330
707
100
AcDbEntity
  8
frame
  6
ByBlock
100
AcDbLine
 10
247.9150000000018
 20
38.0
 30
0.0
 11
247.9150000000018
 21
31.0
 31
0.0
1001
AcDbBlockRepETag
1070
     1
1071
      129
1005
789
  0
LINE
  5
78A
330
707
100
AcDbEntity
  8
frame
  6
ByBlock
100
AcDbLine
 10
106.0000000000009
 20
38.0
 30
0.0
 11
290.0000000000018
 21
38.0
 31
0.0
1001
AcDbBlockRepETag
1070
     1
1071
      130
1005
78A
  0
LINE
  5
78B
330
707
100
AcDbEntity
  8
frame
  6
ByBlock
100
AcDbLine
 10
106.0850000000009
 20
37.91499999999905
 30
0.0
 11
290.0000000000018
 21
37.91500000000088
 31
0.0
1001
AcDbBlockRepETag
1070
     1
1071
      131
1005
78B
  0
LINE
  5
78C
330
707
100
AcDbEntity
  8
frame
  6
ByBlock
100
AcDbLine
 10
105.9150000000008
 20
38.08500000000094
 30
0.0
 11
290.0000000000018
 21
38.08500000000094
 31
0.0
1001
AcDbBlockRepETag
1070
     1
1071
      132
1005
78C
  0
LINE
  5
78D
330
707
100
AcDbEntity
  8
frame
  6
ByBlock
100
AcDbLine
 10
13.15999999999985
 20
31.0
 30
0.0
 11
290.0000000000018
 21
31.0
 31
0.0
1001
AcDbBlockRepETag
1070
     1
1071
      133
1005
78D
  0
LINE
  5
78E
330
707
100
AcDbEntity
  8
frame
  6
ByBlock
100
AcDbLine
 10
12.99999999999909
 20
31.0
 30
0.0
 11
290.0000000000009
 21
31.0
 31
0.0
1001
AcDbBlockRepETag
1070
     1
1071
      134
1005
78E
  0
LINE
  5
78F
330
707
100
AcDbEntity
  8
frame
  6
ByBlock
100
AcDbLine
 10
12.99999999999909
 20
30.91499999999906
 30
0.0
 11
290.0000000000009
 21
30.91500000000087
 31
0.0
1001
AcDbBlockRepETag
1070
     1
1071
      135
1005
78F
  0
LINE
  5
790
330
707
100
AcDbEntity
  8
frame
  6
ByBlock
100
AcDbLine
 10
12.99999999999909
 20
31.08499999999731
 30
0.0
 11
290.0000000000009
 21
31.08500000000095
 31
0.0
1001
AcDbBlockRepETag
1070
     1
1071
      136
1005
790
  0
TEXT
  5
791
330
707
100
AcDbEntity
  8
frame
  6
ByBlock
100
AcDbText
 10
193.4500000000009
 20
21.00000000000182
 30
0.0
 40
2.5
  1
設
 41
0.9
  7
ATOM
 72
     1
 11
194.5000000000009
 21
22.25000000000182
 31
0.0
100
AcDbText
 73
     2
1001
AcDbBlockRepETag
1070
     1
1071
      137
1005
791
  0
TEXT
  5
792
330
707
100
AcDbEntity
  8
frame
  6
ByBlock
100
AcDbText
 10
193.4500000000009
 20
17.50000000000182
 30
0.0
 40
2.5
  1
計
 41
0.9
  7
ATOM
 72
     1
 11
194.5000000000009
 21
18.75000000000182
 31
0.0
100
AcDbText
 73
     2
1001
AcDbBlockRepETag
1070
     1
1071
      138
1005
792
  0
TEXT
  5
793
330
707
100
AcDbEntity
  8
frame
  6
ByBlock
100
AcDbText
 10
193.4500000000009
 20
14.00000000000182
 30
0.0
 40
2.5
  1
作
 41
0.9
  7
ATOM
 72
     1
 11
194.5000000000009
 21
15.25000000000182
 31
0.0
100
AcDbText
 73
     2
1001
AcDbBlockRepETag
1070
     1
1071
      139
1005
793
  0
TEXT
  5
794
330
707
100
AcDbEntity
  8
frame
  6
ByBlock
100
AcDbText
 10
193.4500000000009
 20
10.50000000000182
 30
0.0
 40
2.5
  1
図
 41
0.9
  7
ATOM
 72
     1
 11
194.5000000000009
 21
11.75000000000182
 31
0.0
100
AcDbText
 73
     2
1001
AcDbBlockRepETag
1070
     1
1071
      140
1005
794
  0
TEXT
  5
795
330
707
100
AcDbEntity
  8
frame
  6
ByBlock
100
AcDbText
 10
151.9500000000009
 20
21.00000000000182
 30
0.0
 40
2.5
  1
承
 41
0.9
  7
ATOM
 72
     1
 11
153.0000000000009
 21
22.25000000000182
 31
0.0
100
AcDbText
 73
     2
1001
AcDbBlockRepETag
1070
     1
1071
      141
1005
795
  0
TEXT
  5
796
330
707
100
AcDbEntity
  8
frame
  6
ByBlock
100
AcDbText
 10
151.9500000000009
 20
17.50000000000182
 30
0.0
 40
2.5
  1
認
 41
0.9
  7
ATOM
 72
     1
 11
153.0000000000009
 21
18.75000000000182
 31
0.0
100
AcDbText
 73
     2
1001
AcDbBlockRepETag
1070
     1
1071
      142
1005
796
  0
TEXT
  5
797
330
707
100
AcDbEntity
  8
frame
  6
ByBlock
100
AcDbText
 10
151.9500000000009
 20
14.00000000000182
 30
0.0
 40
2.5
  1
検
 41
0.9
  7
ATOM
 72
     1
 11
153.0000000000009
 21
15.25000000000182
 31
0.0
100
AcDbText
 73
     2
1001
AcDbBlockRepETag
1070
     1
1071
      143
1005
797
  0
TEXT
  5
798
330
707
100
AcDbEntity
  8
frame
  6
ByBlock
100
AcDbText
 10
151.9500000000009
 20
10.50000000000182
 30
0.0
 40
2.5
  1
図
 41
0.9
  7
ATOM
 72
     1
 11
153.0000000000009
 21
11.75000000000182
 31
0.0
100
AcDbText
 73
     2
1001
AcDbBlockRepETag
1070
     1
1071
      144
1005
798
  0
TEXT
  5
799
330
707
100
AcDbEntity
  8
frame
  6
ByBlock
100
AcDbText
 10
234.9500000000009
 20
21.00000000000182
 30
0.0
 40
2.5
  1
図
 41
0.9
  7
ATOM
 72
     1
 11
236.0000000000009
 21
22.25000000000182
 31
0.0
100
AcDbText
 73
     2
1001
AcDbBlockRepETag
1070
     1
1071
      145
1005
799
  0
TEXT
  5
79A
330
707
100
AcDbEntity
  8
frame
  6
ByBlock
100
AcDbText
 10
235.0250000000009
 20
17.50000000000182
 30
0.0
 40
2.5
  1
名
 41
0.9
  7
ATOM
 72
     1
 11
236.0000000000009
 21
18.75000000000182
 31
0.0
100
AcDbText
 73
     2
1001
AcDbBlockRepETag
1070
     1
1071
      146
1005
79A
  0
TEXT
  5
79B
330
707
100
AcDbEntity
  8
frame
  6
ByBlock
100
AcDbText
 10
234.9500000000009
 20
14.00000000000182
 30
0.0
 40
2.5
  1
図
 41
0.9
  7
ATOM
 72
     1
 11
236.0000000000009
 21
15.25000000000182
 31
0.0
100
AcDbText
 73
     2
1001
AcDbBlockRepETag
1070
     1
1071
      147
1005
79B
  0
TEXT
  5
79C
330
707
100
AcDbEntity
  8
frame
  6
ByBlock
100
AcDbText
 10
234.9500000000009
 20
10.50000000000182
 30
0.0
 40
2.5
  1
番
 41
0.9
  7
ATOM
 72
     1
 11
236.0000000000009
 21
11.75000000000182
 31
0.0
100
AcDbText
 73
     2
1001
AcDbBlockRepETag
1070
     1
1071
      148
1005
79C
  0
LINE
  5
79D
330
707
100
AcDbEntity
  8
frame
  6
ByBlock
100
AcDbLine
 10
234.5000000000009
 20
31.00000000000183
 30
0.0
 11
234.5000000000009
 21
10.0
 31
0.0
1001
AcDbBlockRepETag
1070
     1
1071
      149
1005
79D
  0
LINE
  5
79E
330
707
100
AcDbEntity
  8
frame
  6
ByBlock
100
AcDbLine
 10
234.4150000000009
 20
31.00000000000183
 30
0.0
 11
234.4150000000009
 21
10.0
 31
0.0
1001
AcDbBlockRepETag
1070
     1
1071
      150
1005
79E
  0
LINE
  5
79F
330
707
100
AcDbEntity
  8
frame
  6
ByBlock
100
AcDbLine
 10
234.585
 20
31.00000000000183
 30
0.0
 11
234.5850000000009
 21
10.0
 31
0.0
1001
AcDbBlockRepETag
1070
     1
1071
      151
1005
79F
  0
LINE
  5
7A0
330
707
100
AcDbEntity
  8
frame
  6
ByBlock
100
AcDbLine
 10
237.5000000000009
 20
31.00000000000183
 30
0.0
 11
237.5000000000009
 21
10.0
 31
0.0
1001
AcDbBlockRepETag
1070
     1
1071
      152
1005
7A0
  0
LINE
  5
7A1
330
707
100
AcDbEntity
  8
frame
  6
ByBlock
100
AcDbLine
 10
237.4150000000009
 20
31.00000000000183
 30
0.0
 11
237.4150000000009
 21
10.0
 31
0.0
1001
AcDbBlockRepETag
1070
     1
1071
      153
1005
7A1
  0
LINE
  5
7A2
330
707
100
AcDbEntity
  8
frame
  6
ByBlock
100
AcDbLine
 10
237.585
 20
31.00000000000183
 30
0.0
 11
237.585000000001
 21
10.0
 31
0.0
1001
AcDbBlockRepETag
1070
     1
1071
      154
1005
7A2
  0
LINE
  5
7A3
330
707
100
AcDbEntity
  8
frame
  6
ByBlock
100
AcDbLine
 10
196.0000000000009
 20
24.0
 30
0.0
 11
196.0000000000009
 21
10.0
 31
0.0
1001
AcDbBlockRepETag
1070
     1
1071
      155
1005
7A3
  0
LINE
  5
7A4
330
707
100
AcDbEntity
  8
frame
  6
ByBlock
100
AcDbLine
 10
195.9150000000009
 20
24.0
 30
0.0
 11
195.9150000000009
 21
10.0
 31
0.0
1001
AcDbBlockRepETag
1070
     1
1071
      156
1005
7A4
  0
LINE
  5
7A5
330
707
100
AcDbEntity
  8
frame
  6
ByBlock
100
AcDbLine
 10
196.0850000000009
 20
24.0
 30
0.0
 11
196.0850000000009
 21
10.0
 31
0.0
1001
AcDbBlockRepETag
1070
     1
1071
      157
1005
7A5
  0
LINE
  5
7A6
330
707
100
AcDbEntity
  8
frame
  6
ByBlock
100
AcDbLine
 10
193.0000000000009
 20
24.0
 30
0.0
 11
193.0000000000009
 21
10.0
 31
0.0
1001
AcDbBlockRepETag
1070
     1
1071
      158
1005
7A6
  0
LINE
  5
7A7
330
707
100
AcDbEntity
  8
frame
  6
ByBlock
100
AcDbLine
 10
192.9150000000008
 20
24.0
 30
0.0
 11
192.9150000000008
 21
10.0
 31
0.0
1001
AcDbBlockRepETag
1070
     1
1071
      159
1005
7A7
  0
LINE
  5
7A8
330
707
100
AcDbEntity
  8
frame
  6
ByBlock
100
AcDbLine
 10
193.085
 20
24.0
 30
0.0
 11
193.0850000000009
 21
10.0
 31
0.0
1001
AcDbBlockRepETag
1070
     1
1071
      160
1005
7A8
  0
LINE
  5
7A9
330
707
100
AcDbEntity
  8
frame
  6
ByBlock
100
AcDbLine
 10
154.5000000000009
 20
24.0
 30
0.0
 11
154.5000000000009
 21
10.0
 31
0.0
1001
AcDbBlockRepETag
1070
     1
1071
      161
1005
7A9
  0
LINE
  5
7AA
330
707
100
AcDbEntity
  8
frame
  6
ByBlock
100
AcDbLine
 10
154.4150000000009
 20
24.0
 30
0.0
 11
154.4150000000009
 21
10.0
 31
0.0
1001
AcDbBlockRepETag
1070
     1
1071
      162
1005
7AA
  0
LINE
  5
7AB
330
707
100
AcDbEntity
  8
frame
  6
ByBlock
100
AcDbLine
 10
154.585
 20
24.0
 30
0.0
 11
154.5850000000009
 21
10.0
 31
0.0
1001
AcDbBlockRepETag
1070
     1
1071
      163
1005
7AB
  0
LINE
  5
7AC
330
707
100
AcDbEntity
  8
frame
  6
ByBlock
100
AcDbLine
 10
151.5000000000009
 20
24.0
 30
0.0
 11
151.5000000000009
 21
10.0
 31
0.0
1001
AcDbBlockRepETag
1070
     1
1071
      164
1005
7AC
  0
LINE
  5
7AD
330
707
100
AcDbEntity
  8
frame
  6
ByBlock
100
AcDbLine
 10
151.4150000000008
 20
24.0
 30
0.0
 11
151.4150000000008
 21
10.0
 31
0.0
1001
AcDbBlockRepETag
1070
     1
1071
      165
1005
7AD
  0
LINE
  5
7AE
330
707
100
AcDbEntity
  8
frame
  6
ByBlock
100
AcDbLine
 10
151.585
 20
24.0
 30
0.0
 11
151.5850000000009
 21
10.0
 31
0.0
1001
AcDbBlockRepETag
1070
     1
1071
      166
1005
7AE
  0
LINE
  5
7AF
330
707
100
AcDbEntity
  8
frame
  6
ByBlock
100
AcDbLine
 10
180.0000000000009
 20
31.00000000000183
 30
0.0
 11
180.0000000000009
 21
24.0
 31
0.0
1001
AcDbBlockRepETag
1070
     1
1071
      167
1005
7AF
  0
LINE
  5
7B0
330
707
100
AcDbEntity
  8
frame
  6
ByBlock
100
AcDbLine
 10
179.9150000000008
 20
31.00000000000183
 30
0.0
 11
179.9150000000008
 21
24.0
 31
0.0
1001
AcDbBlockRepETag
1070
     1
1071
      168
1005
7B0
  0
LINE
  5
7B1
330
707
100
AcDbEntity
  8
frame
  6
ByBlock
100
AcDbLine
 10
180.085
 20
31.00000000000183
 30
0.0
 11
180.0850000000009
 21
24.0
 31
0.0
1001
AcDbBlockRepETag
1070
     1
1071
      169
1005
7B1
  0
LINE
  5
7B2
330
707
100
AcDbEntity
  8
frame
  6
ByBlock
100
AcDbLine
 10
183.0000000000009
 20
31.00000000000183
 30
0.0
 11
183.0000000000009
 21
24.0
 31
0.0
1001
AcDbBlockRepETag
1070
     1
1071
      170
1005
7B2
  0
LINE
  5
7B3
330
707
100
AcDbEntity
  8
frame
  6
ByBlock
100
AcDbLine
 10
182.9150000000008
 20
31.00000000000183
 30
0.0
 11
182.9150000000008
 21
24.0
 31
0.0
1001
AcDbBlockRepETag
1070
     1
1071
      171
1005
7B3
  0
LINE
  5
7B4
330
707
100
AcDbEntity
  8
frame
  6
ByBlock
100
AcDbLine
 10
183.085
 20
31.00000000000183
 30
0.0
 11
183.0850000000009
 21
24.0
 31
0.0
1001
AcDbBlockRepETag
1070
     1
1071
      172
1005
7B4
  0
ATTDEF
  5
7B5
330
707
100
AcDbEntity
  8
frame
  6
ByBlock
100
AcDbText
 10
154.7500000000009
 20
25.75
 30
0.0
 40
3.5
  1

 41
0.9
  7
ATOM
 72
     1
 11
154.7500000000009
 21
27.5
 31
0.0
100
AcDbAttributeDefinition
  3
名称?
  2
名称
 70
     0
 74
     2
1001
AcDbBlockRepETag
1070
     1
1071
       72
1005
0
1001
AcDbAttr
1070
     0
1070
     1
  0
TEXT
  5
7B6
330
707
100
AcDbEntity
  8
frame
  6
ByBlock
100
AcDbText
 10
180.4500000000009
 20
28.00000000000364
 30
0.0
 40
2.5
  1
品
 41
0.9
  7
ATOM
 72
     1
 11
181.5000000000009
 21
29.25000000000364
 31
0.0
100
AcDbText
 73
     2
1001
AcDbBlockRepETag
1070
     1
1071
      178
1005
7B6
  0
TEXT
  5
7B7
330
707
100
AcDbEntity
  8
frame
  6
ByBlock
100
AcDbText
 10
180.5250000000009
 20
24.50000000000364
 30
0.0
 40
2.5
  1
名
 41
0.9
  7
ATOM
 72
     1
 11
181.5000000000009
 21
25.75000000000364
 31
0.0
100
AcDbText
 73
     2
1001
AcDbBlockRepETag
1070
     1
1071
      179
1005
7B7
  0
TEXT
  5
7B8
330
707
100
AcDbEntity
  8
frame
  6
ByBlock
100
AcDbText
 10
234.9500000000009
 20
28.00000000000546
 30
0.0
 40
2.5
  1
品
 41
0.9
  7
ATOM
 72
     1
 11
236.0000000000009
 21
29.25000000000546
 31
0.0
100
AcDbText
 73
     2
1001
AcDbBlockRepETag
1070
     1
1071
      180
1005
7B8
  0
TEXT
  5
7B9
330
707
100
AcDbEntity
  8
frame
  6
ByBlock
100
AcDbText
 10
234.9500000000009
 20
24.50000000000546
 30
0.0
 40
2.5
  1
番
 41
0.9
  7
ATOM
 72
     1
 11
236.0000000000009
 21
25.75000000000546
 31
0.0
100
AcDbText
 73
     2
1001
AcDbBlockRepETag
1070
     1
1071
      181
1005
7B9
  0
ATTDEF
  5
7BA
330
707
100
AcDbEntity
  8
frame
  6
ByBlock
100
AcDbText
 10
140.2486757486822
 20
18.78589838486187
 30
0.0
 40
3.5
  1

 41
0.9
  7
ATOM
 72
     1
 11
140.2486757486822
 21
20.53589838486187
 31
0.0
100
AcDbAttributeDefinition
  3
尺度?
  2
尺度
 70
     0
 74
     2
1001
AcDbBlockRepETag
1070
     1
1071
       73
1005
0
1001
AcDbAttr
1070
     0
1070
     1
  0
LINE
  5
7BB
330
707
100
AcDbEntity
  8
frame
100
AcDbLine
 10
171.6600000000026
 20
10.0
 30
0.0
 11
171.6600000000026
 21
24.00000000000182
 31
0.0
1001
AcDbBlockRepETag
1070
     1
1071
      183
1005
7BB
  0
LINE
  5
7BC
330
707
100
AcDbEntity
  8
frame
100
AcDbLine
 10
213.1600000000017
 20
10.0
 30
0.0
 11
213.1600000000017
 21
24.0
 31
0.0
1001
AcDbBlockRepETag
1070
     1
1071
      184
1005
7BC
  0
LINE
  5
7BD
330
707
100
AcDbEntity
  8
frame
100
AcDbLine
 10
279.6600000000017
 20
10.0
 30
0.0
 11
279.6600000000017
 21
17.0
 31
0.0
1001
AcDbBlockRepETag
1070
     1
1071
      185
1005
7BD
  0
LINE
  5
7BE
330
707
100
AcDbEntity
  8
frame
  6
ByBlock
100
AcDbLine
 10
106.0000000000009
 20
38.0
 30
0.0
 11
106.0000000000009
 21
31.0
 31
0.0
1001
AcDbBlockRepETag
1070
     1
1071
      186
1005
7BE
  0
LINE
  5
7BF
330
707
100
AcDbEntity
  8
frame
  6
ByBlock
100
AcDbLine
 10
105.9150000000008
 20
38.08500000000094
 30
0.0
 11
105.9150000000008
 21
31.0
 31
0.0
1001
AcDbBlockRepETag
1070
     1
1071
      187
1005
7BF
  0
LINE
  5
7C0
330
707
100
AcDbEntity
  8
frame
  6
ByBlock
100
AcDbLine
 10
106.0850000000009
 20
37.91499999999905
 30
0.0
 11
106.0850000000009
 21
31.0
 31
0.0
1001
AcDbBlockRepETag
1070
     1
1071
      188
1005
7C0
  0
ATTDEF
  5
7C1
330
707
100
AcDbEntity
  8
frame
  6
ByBlock
100
AcDbText
 10
162.8536281158303
 20
18.75
 30
0.0
 40
3.5
  1

 41
0.9
  7
ATOM
 72
     1
 11
162.8536281158303
 21
20.5
 31
0.0
100
AcDbAttributeDefinition
  3
承認?
  2
承認
 70
     0
 74
     2
1001
AcDbBlockRepETag
1070
     1
1071
      176
1005
0
1001
AcDbAttr
1070
     0
1070
     1
  0
ATTDEF
  5
7C2
330
707
100
AcDbEntity
  8
frame
  6
ByBlock
100
AcDbText
 10
162.8536281158303
 20
11.75
 30
0.0
 40
3.5
  1

 41
0.9
  7
ATOM
 72
     1
 11
162.8536281158303
 21
13.5
 31
0.0
100
AcDbAttributeDefinition
  3
検図?
  2
検図
 70
     0
 74
     2
1001
AcDbBlockRepETag
1070
     1
1071
      175
1005
0
1001
AcDbAttr
1070
     0
1070
     1
  0
ATTDEF
  5
7C3
330
707
100
AcDbEntity
  8
frame
  6
ByBlock
100
AcDbText
 10
204.3536281158304
 20
18.75
 30
0.0
 40
3.5
  1

 41
0.9
  7
ATOM
 72
     1
 11
204.3536281158304
 21
20.5
 31
0.0
100
AcDbAttributeDefinition
  3
設計?
  2
設計
 70
     0
 74
     2
1001
AcDbBlockRepETag
1070
     1
1071
       71
1005
0
1001
AcDbAttr
1070
     0
1070
     1
  0
ATTDEF
  5
7C4
330
707
100
AcDbEntity
  8
frame
  6
ByBlock
100
AcDbText
 10
204.3536281158304
 20
11.75
 30
0.0
 40
3.5
  1

 41
0.9
  7
ATOM
 72
     1
 11
204.3536281158304
 21
13.5
 31
0.0
100
AcDbAttributeDefinition
  3
作図?
  2
作図
 70
     0
 74
     2
1001
AcDbBlockRepETag
1070
     1
1071
       70
1005
0
1001
AcDbAttr
1070
     0
1070
     1
  0
ATTDEF
  5
7C5
330
707
100
AcDbEntity
  8
frame
  6
ByBlock
100
AcDbText
 10
182.5000000000009
 20
18.75
 30
0.0
 40
3.5
  1

 41
0.8
  7
ATOM
 72
     1
 11
182.5000000000009
 21
20.5
 31
0.0
100
AcDbAttributeDefinition
  3
承認日?
  2
承認日
 70
     0
 74
     2
1001
AcDbBlockRepETag
1070
     1
1071
      173
1005
0
1001
AcDbAttr
1070
     0
1070
     1
  0
ATTDEF
  5
7C6
330
707
100
AcDbEntity
  8
frame
  6
ByBlock
100
AcDbText
 10
182.5000000000009
 20
11.75
 30
0.0
 40
3.5
  1

 41
0.8
  7
ATOM
 72
     1
 11
182.5000000000009
 21
13.5
 31
0.0
100
AcDbAttributeDefinition
  3
検図日?
  2
検図日
 70
     0
 74
     2
1001
AcDbBlockRepETag
1070
     1
1071
      174
1005
0
1001
AcDbAttr
1070
     0
1070
     1
  0
LINE
  5
7C7
330
707
100
AcDbEntity
  8
frame
  6
ByBlock
100
AcDbLine
 10
106.0000000000009
 20
186.0000000000037
 30
0.0
 11
106.0000000000018
 21
193.0000000000037
 31
0.0
1001
AcDbBlockRepETag
1070
     1
1071
      202
1005
7C7
  0
LINE
  5
7C8
330
707
100
AcDbEntity
  8
frame
  6
ByBlock
100
AcDbLine
 10
106.0000000000009
 20
186.0000000000037
 30
0.0
 11
290.0000000000018
 21
186.0000000000037
 31
0.0
1001
AcDbBlockRepETag
1070
     1
1071
      203
1005
7C8
  0
LINE
  5
7C9
330
707
100
AcDbEntity
  8
frame
  6
ByBlock
100
AcDbLine
 10
250.0000000000018
 20
193.0000000000037
 30
0.0
 11
250.0000000000018
 21
186.0000000000037
 31
0.0
1001
AcDbBlockRepETag
1070
     1
1071
      204
1005
7C9
  0
LINE
  5
7CA
330
707
100
AcDbEntity
  8
frame
  6
ByBlock
100
AcDbLine
 10
225.0000000000018
 20
193.0000000000037
 30
0.0
 11
225.0000000000018
 21
186.0000000000037
 31
0.0
1001
AcDbBlockRepETag
1070
     1
1071
      205
1005
7CA
  0
LINE
  5
7CB
330
707
100
AcDbEntity
  8
frame
  6
ByBlock
100
AcDbLine
 10
210.0000000000018
 20
193.0000000000037
 30
0.0
 11
210.0000000000018
 21
186.0000000000037
 31
0.0
1001
AcDbBlockRepETag
1070
     1
1071
      206
1005
7CB
  0
LINE
  5
7CC
330
707
100
AcDbEntity
  8
frame
  6
ByBlock
100
AcDbLine
 10
113.0000000000018
 20
193.0000000000037
 30
0.0
 11
113.0000000000018
 21
186.0000000000037
 31
0.0
1001
AcDbBlockRepETag
1070
     1
1071
      207
1005
7CC
  0
LINE
  5
7CD
330
707
100
AcDbEntity
  8
frame
  6
ByBlock
100
AcDbLine
 10
265.0000000000018
 20
193.0000000000037
 30
0.0
 11
265.0000000000018
 21
186.0000000000037
 31
0.0
1001
AcDbBlockRepETag
1070
     1
1071
      208
1005
7CD
  0
ATTDEF
  5
7CE
330
707
100
AcDbEntity
  8
frame
  6
ByBlock
100
AcDbText
 10
224.0000000000009
 20
18.75
 30
0.0
 40
3.5
  1

 41
0.8
  7
ATOM
 72
     1
 11
224.0000000000009
 21
20.5
 31
0.0
100
AcDbAttributeDefinition
  3
設計日?
  2
設計日
 70
     0
 74
     2
1001
AcDbBlockRepETag
1070
     1
1071
       68
1005
0
1001
AcDbAttr
1070
     0
1070
     1
  0
ATTDEF
  5
7CF
330
707
100
AcDbEntity
  8
frame
  6
ByBlock
100
AcDbText
 10
224.0000000000009
 20
11.75
 30
0.0
 40
3.5
  1

 41
0.8
  7
ATOM
 72
     1
 11
224.0000000000009
 21
13.5
 31
0.0
100
AcDbAttributeDefinition
  3
作図日?
  2
作図日
 70
     0
 74
     2
1001
AcDbBlockRepETag
1070
     1
1071
       69
1005
0
1001
AcDbAttr
1070
     0
1070
     1
  0
ATTDEF
  5
7D0
330
707
100
AcDbEntity
  8
frame
  6
ByBlock
100
AcDbText
 10
264.0
 20
25.75
 30
0.0
 40
3.5
  1

 41
0.9
  7
ATOM
 72
     1
 11
264.0
 21
27.5
 31
0.0
100
AcDbAttributeDefinition
  3
品番?
  2
品番
 70
     0
 74
     2
1001
AcDbBlockRepETag
1070
     1
1071
       66
1005
0
1001
AcDbAttr
1070
     0
1070
     1
  0
ATTDEF
  5
7D1
330
707
100
AcDbEntity
  8
frame
  6
ByBlock
100
AcDbText
 10
209.0
 20
25.75
 30
0.0
 40
3.5
  1

 41
0.9
  7
ATOM
 72
     1
 11
209.0
 21
27.5
 31
0.0
100
AcDbAttributeDefinition
  3
品名?
  2
品名
 70
     0
 74
     2
1001
AcDbBlockRepETag
1070
     1
1071
      177
1005
0
1001
AcDbAttr
1070
     0
1070
     1
  0
ATTDEF
  5
7D2
330
707
100
AcDbEntity
  8
frame
  6
ByBlock
100
AcDbText
 10
264.0
 20
18.75
 30
0.0
 40
3.5
  1

 41
0.9
  7
ATOM
 72
     1
 11
264.0
 21
20.5
 31
0.0
100
AcDbAttributeDefinition
  3
図名?
  2
図名
 70
     0
 74
     2
1001
AcDbBlockRepETag
1070
     1
1071
       67
1005
0
1001
AcDbAttr
1070
     0
1070
     1
  0
ATTDEF
  5
7D3
330
707
100
AcDbEntity
  8
frame
  6
ByBlock
100
AcDbText
 10
258.75
 20
11.75
 30
0.0
 40
3.5
  1

 41
0.9
  7
ATOM
 72
     1
 11
258.75
 21
13.5
 31
0.0
100
AcDbAttributeDefinition
  3
図番?
  2
図番
 70
     0
 74
     2
1001
AcDbBlockRepETag
1070
     1
1071
      182
1005
0
1001
AcDbAttr
1070
     0
1070
     1
  0
LINE
  5
7D4
330
707
100
AcDbEntity
  8
frame
  6
ByBlock
100
AcDbLine
 10
247.9999995067949
 20
45.00000022203699
 30
0.0
 11
247.9999995067949
 21
38.00000022203699
 31
0.0
1001
AcDbBlockRepETag
1070
     1
1071
      215
1005
7D4
  0
LINE
  5
7D5
330
707
100
AcDbEntity
  8
frame
  6
ByBlock
100
AcDbLine
 10
197.9999995067949
 20
45.00000022203699
 30
0.0
 11
197.9999995067949
 21
38.00000022203699
 31
0.0
1001
AcDbBlockRepETag
1070
     1
1071
      216
1005
7D5
  0
LINE
  5
7D6
330
707
100
AcDbEntity
  8
frame
  6
ByBlock
100
AcDbLine
 10
190.9999995067949
 20
45.00000022203699
 30
0.0
 11
190.9999995067949
 21
38.00000022203699
 31
0.0
1001
AcDbBlockRepETag
1070
     1
1071
      217
1005
7D6
  0
LINE
  5
7D7
330
707
100
AcDbEntity
  8
frame
  6
ByBlock
100
AcDbLine
 10
162.9999995067949
 20
45.00000022203699
 30
0.0
 11
162.9999995067949
 21
38.00000022203699
 31
0.0
1001
AcDbBlockRepETag
1070
     1
1071
      218
1005
7D7
  0
LINE
  5
7D8
330
707
100
AcDbEntity
  8
frame
  6
ByBlock
100
AcDbLine
 10
112.9999995067949
 20
45.00000022203699
 30
0.0
 11
112.9999995067949
 21
38.00000022203699
 31
0.0
1001
AcDbBlockRepETag
1070
     1
1071
      219
1005
7D8
  0
LINE
  5
7D9
330
707
100
AcDbEntity
  8
frame
  6
ByBlock
100
AcDbLine
 10
105.999999506794
 20
45.00000022203699
 30
0.0
 11
289.9999995067949
 21
45.00000022203699
 31
0.0
1001
AcDbBlockRepETag
1070
     1
1071
      220
1005
7D9
  0
LINE
  5
7DA
330
707
100
AcDbEntity
  8
frame
  6
ByBlock
100
AcDbLine
 10
105.999999506794
 20
38.00000022203699
 30
0.0
 11
105.999999506794
 21
45.00000022203699
 31
0.0
1001
AcDbBlockRepETag
1070
     1
1071
      221
1005
7DA
  0
ATTDEF
  5
7DB
102
{ACAD_XDICTIONARY
360
7DC
102
}
330
707
100
AcDbEntity
  8
frame
  6
ByBlock
100
AcDbText
 10
109.4999995067949
 20
40.00000022203696
 30
0.0
 40
3.0
  1

 41
0.9
  7
ATOM
 72
     1
 11
109.4999995067949
 21
41.50000022203697
 31
0.0
100
AcDbAttributeDefinition
  3
部番?
  2
部番
 70
     0
 74
     2
1001
AcDbBlockRepETag
1070
     1
1071
      227
1005
0
1001
AcadAnnotative
1000
AnnotativeData
1002
{
1070
     1
1070
     0
1002
}
1001
AcDbAttr
1070
     0
1070
     1
  0
ATTDEF
  5
7E0
102
{ACAD_XDICTIONARY
360
7E1
102
}
330
707
100
AcDbEntity
  8
frame
  6
ByBlock
100
AcDbText
 10
137.9999995067949
 20
40.00000022203696
 30
0.0
 40
3.0
  1

 41
0.9
  7
ATOM
 72
     1
 11
137.9999995067949
 21
41.50000022203697
 31
0.0
100
AcDbAttributeDefinition
  3
部品名?
  2
部　　　　品　　　　名
 70
     0
 74
     2
1001
AcDbBlockRepETag
1070
     1
1071
      225
1005
0
1001
AcadAnnotative
1000
AnnotativeData
1002
{
1070
     1
1070
     0
1002
}
1001
AcDbAttr
1070
     0
1070
     1
  0
ATTDEF
  5
7E5
102
{ACAD_XDICTIONARY
360
7E6
102
}
330
707
100
AcDbEntity
  8
frame
  6
ByBlock
100
AcDbText
 10
176.9999995067949
 20
40.00000022203696
 30
0.0
 40
3.0
  1

 41
0.9
  7
ATOM
 72
     1
 11
176.9999995067949
 21
41.50000022203697
 31
0.0
100
AcDbAttributeDefinition
  3
材質?
  2
材　　質
 70
     0
 74
     2
1001
AcDbBlockRepETag
1070
     1
1071
      224
1005
0
1001
AcadAnnotative
1000
AnnotativeData
1002
{
1070
     1
1070
     0
1002
}
1001
AcDbAttr
1070
     0
1070
     1
  0
ATTDEF
  5
7EA
102
{ACAD_XDICTIONARY
360
7EB
102
}
330
707
100
AcDbEntity
  8
frame
  6
ByBlock
100
AcDbText
 10
194.4999995067949
 20
40.00000022203696
 30
0.0
 40
3.0
  1

 41
0.9
  7
ATOM
 72
     1
 11
194.4999995067949
 21
41.50000022203697
 31
0.0
100
AcDbAttributeDefinition
  3
数量?
  2
数量
 70
     0
 74
     2
1001
AcDbBlockRepETag
1070
     1
1071
      226
1005
0
1001
AcadAnnotative
1000
AnnotativeData
1002
{
1070
     1
1070
     0
1002
}
1001
AcDbAttr
1070
     0
1070
     1
  0
ATTDEF
  5
7EF
102
{ACAD_XDICTIONARY
360
7F0
102
}
330
707
100
AcDbEntity
  8
frame
  6
ByBlock
100
AcDbText
 10
222.9999995067949
 20
40.00000022203696
 30
0.0
 40
3.0
  1

 41
0.9
  7
ATOM
 72
     1
 11
222.9999995067949
 21
41.50000022203697
 31
0.0
100
AcDbAttributeDefinition
  3
表面処理?
  2
表　　面　　処　　理
 70
     0
 74
     2
1001
AcDbBlockRepETag
1070
     1
1071
      223
1005
0
1001
AcadAnnotative
1000
AnnotativeData
1002
{
1070
     1
1070
     0
1002
}
1001
AcDbAttr
1070
     0
1070
     1
  0
ATTDEF
  5
7F4
102
{ACAD_XDICTIONARY
360
7F5
102
}
330
707
100
AcDbEntity
  8
frame
  6
ByBlock
100
AcDbText
 10
268.9999995067949
 20
40.00000022203696
 30
0.0
 40
3.0
  1

 41
0.9
  7
ATOM
 72
     1
 11
268.9999995067949
 21
41.50000022203697
 31
0.0
100
AcDbAttributeDefinition
  3
備考?
  2
備　　　考
 70
     0
 74
     2
1001
AcDbBlockRepETag
1070
     1
1071
      222
1005
0
1001
AcadAnnotative
1000
AnnotativeData
1002
{
1070
     1
1070
     0
1002
}
1001
AcDbAttr
1070
     0
1070
     1
  0
ENDBLK
  5
709
330
707
100
AcDbEntity
  8
0
100
AcDbBlockEnd
  0
BLOCK
  5
7FA
330
7F9
100
AcDbEntity
  8
0
100
AcDbBlockBegin
  2
*E4023
 70
     3
 10
0.0
 20
0.0
 30
0.0
  3
*E4023
  1

  0
LINE
  5
7FC
330
7F9
100
AcDbEntity
  8
frame
  6
ByBlock
100
AcDbLine
 10
142.0000000000009
 20
7.000000222036987
 30
0.0
 11
142.0000000000009
 21
0.0000002220369879
 31
0.0
1001
AcDbBlockRepETag
1070
     1
1071
        8
1005
7FC
  0
LINE
  5
7FD
330
7F9
100
AcDbEntity
  8
frame
  6
ByBlock
100
AcDbLine
 10
92.00000000000091
 20
7.000000222036987
 30
0.0
 11
92.00000000000091
 21
0.0000002220369879
 31
0.0
1001
AcDbBlockRepETag
1070
     1
1071
        9
1005
7FD
  0
LINE
  5
7FE
330
7F9
100
AcDbEntity
  8
frame
  6
ByBlock
100
AcDbLine
 10
85.0000000000009
 20
7.000000222036987
 30
0.0
 11
85.0000000000009
 21
0.0000002220369879
 31
0.0
1001
AcDbBlockRepETag
1070
     1
1071
       10
1005
7FE
  0
LINE
  5
7FF
330
7F9
100
AcDbEntity
  8
frame
  6
ByBlock
100
AcDbLine
 10
57.00000000000091
 20
7.000000222036987
 30
0.0
 11
57.00000000000091
 21
0.0000002220369879
 31
0.0
1001
AcDbBlockRepETag
1070
     1
1071
       11
1005
7FF
  0
LINE
  5
800
330
7F9
100
AcDbEntity
  8
frame
  6
ByBlock
100
AcDbLine
 10
7.000000000000909
 20
7.000000222036987
 30
0.0
 11
7.000000000000909
 21
0.0000002220369879
 31
0.0
1001
AcDbBlockRepETag
1070
     1
1071
       12
1005
800
  0
LINE
  5
801
330
7F9
100
AcDbEntity
  8
frame
  6
ByBlock
100
AcDbLine
 10
0.0
 20
7.000000222036987
 30
0.0
 11
184.0000000000009
 21
7.000000222036987
 31
0.0
1001
AcDbBlockRepETag
1070
     1
1071
       13
1005
801
  0
LINE
  5
802
330
7F9
100
AcDbEntity
  8
frame
  6
ByBlock
100
AcDbLine
 10
0.0
 20
0.0000002220369879
 30
0.0
 11
0.0
 21
7.000000222036987
 31
0.0
1001
AcDbBlockRepETag
1070
     1
1071
      123
1005
802
  0
ATTDEF
  5
803
102
{ACAD_XDICTIONARY
360
804
102
}
330
7F9
100
AcDbEntity
  8
frame
  6
ByBlock
100
AcDbText
 10
3.500000000000909
 20
2.000000222036987
 30
0.0
 40
3.0
  1

 41
0.9
  7
ATOM
 72
     1
 11
3.500000000000909
 21
3.500000222036987
 31
0.0
100
AcDbAttributeDefinition
  3
部番?
  2
部番
 70
     0
 74
     2
1001
AcDbBlockRepETag
1070
     1
1071
       16
1005
0
1001
AcadAnnotative
1000
AnnotativeData
1002
{
1070
     1
1070
     0
1002
}
1001
AcDbAttr
1070
     0
1070
     1
  0
ATTDEF
  5
808
102
{ACAD_XDICTIONARY
360
809
102
}
330
7F9
100
AcDbEntity
  8
frame
  6
ByBlock
100
AcDbText
 10
32.00000000000091
 20
2.000000222036987
 30
0.0
 40
3.0
  1

 41
0.9
  7
ATOM
 72
     1
 11
32.00000000000091
 21
3.500000222036987
 31
0.0
100
AcDbAttributeDefinition
  3
部品名?
  2
部　　　　品　　　　名
 70
     0
 74
     2
1001
AcDbBlockRepETag
1070
     1
1071
       15
1005
0
1001
AcadAnnotative
1000
AnnotativeData
1002
{
1070
     1
1070
     0
1002
}
1001
AcDbAttr
1070
     0
1070
     1
  0
ATTDEF
  5
80D
102
{ACAD_XDICTIONARY
360
80E
102
}
330
7F9
100
AcDbEntity
  8
frame
  6
ByBlock
100
AcDbText
 10
71.00000000000091
 20
2.000000222036987
 30
0.0
 40
3.0
  1

 41
0.9
  7
ATOM
 72
     1
 11
71.00000000000091
 21
3.500000222036987
 31
0.0
100
AcDbAttributeDefinition
  3
材質?
  2
材　　質
 70
     0
 74
     2
1001
AcDbBlockRepETag
1070
     1
1071
       14
1005
0
1001
AcadAnnotative
1000
AnnotativeData
1002
{
1070
     1
1070
     0
1002
}
1001
AcDbAttr
1070
     0
1070
     1
  0
ATTDEF
  5
812
102
{ACAD_XDICTIONARY
360
813
102
}
330
7F9
100
AcDbEntity
  8
frame
  6
ByBlock
100
AcDbText
 10
88.50000000000092
 20
2.000000222036987
 30
0.0
 40
3.0
  1

 41
0.9
  7
ATOM
 72
     1
 11
88.50000000000092
 21
3.500000222036987
 31
0.0
100
AcDbAttributeDefinition
  3
数量?
  2
数量
 70
     0
 74
     2
1001
AcDbBlockRepETag
1070
     1
1071
      178
1005
0
1001
AcadAnnotative
1000
AnnotativeData
1002
{
1070
     1
1070
     0
1002
}
1001
AcDbAttr
1070
     0
1070
     1
  0
ATTDEF
  5
817
102
{ACAD_XDICTIONARY
360
818
102
}
330
7F9
100
AcDbEntity
  8
frame
  6
ByBlock
100
AcDbText
 10
117.0000000000009
 20
2.000000222036987
 30
0.0
 40
3.0
  1

 41
0.9
  7
ATOM
 72
     1
 11
117.0000000000009
 21
3.500000222036987
 31
0.0
100
AcDbAttributeDefinition
  3
表面処理?
  2
表　　面　　処　　理
 70
     0
 74
     2
1001
AcDbBlockRepETag
1070
     1
1071
       17
1005
0
1001
AcadAnnotative
1000
AnnotativeData
1002
{
1070
     1
1070
     0
1002
}
1001
AcDbAttr
1070
     0
1070
     1
  0
ATTDEF
  5
81C
102
{ACAD_XDICTIONARY
360
81D
102
}
330
7F9
100
AcDbEntity
  8
frame
  6
ByBlock
100
AcDbText
 10
163.0000000000009
 20
2.000000222036987
 30
0.0
 40
3.0
  1

 41
0.9
  7
ATOM
 72
     1
 11
163.0000000000009
 21
3.500000222036987
 31
0.0
100
AcDbAttributeDefinition
  3
備考?
  2
備　　　考
 70
     0
 74
     2
1001
AcDbBlockRepETag
1070
     1
1071
      181
1005
0
1001
AcadAnnotative
1000
AnnotativeData
1002
{
1070
     1
1070
     0
1002
}
1001
AcDbAttr
1070
     0
1070
     1
  0
ENDBLK
  5
7FB
330
7F9
100
AcDbEntity
  8
0
100
AcDbBlockEnd
  0
BLOCK
  5
822
330
821
100
AcDbEntity
  8
0
100
AcDbBlockBegin
  2
*E4124
 70
     3
 10
0.0
 20
0.0
 30
0.0
  3
*E4124
  1

  0
LINE
  5
824
330
821
100
AcDbEntity
  8
frame
  6
ByBlock
100
AcDbLine
 10
142.0000000000009
 20
7.000000222036987
 30
0.0
 11
142.0000000000009
 21
0.0000002220369879
 31
0.0
1001
AcDbBlockRepETag
1070
     1
1071
        8
1005
824
  0
LINE
  5
825
330
821
100
AcDbEntity
  8
frame
  6
ByBlock
100
AcDbLine
 10
92.00000000000091
 20
7.000000222036987
 30
0.0
 11
92.00000000000091
 21
0.0000002220369879
 31
0.0
1001
AcDbBlockRepETag
1070
     1
1071
        9
1005
825
  0
LINE
  5
826
330
821
100
AcDbEntity
  8
frame
  6
ByBlock
100
AcDbLine
 10
85.0000000000009
 20
7.000000222036987
 30
0.0
 11
85.0000000000009
 21
0.0000002220369879
 31
0.0
1001
AcDbBlockRepETag
1070
     1
1071
       10
1005
826
  0
LINE
  5
827
330
821
100
AcDbEntity
  8
frame
  6
ByBlock
100
AcDbLine
 10
57.00000000000091
 20
7.000000222036987
 30
0.0
 11
57.00000000000091
 21
0.0000002220369879
 31
0.0
1001
AcDbBlockRepETag
1070
     1
1071
       11
1005
827
  0
LINE
  5
828
330
821
100
AcDbEntity
  8
frame
  6
ByBlock
100
AcDbLine
 10
7.000000000000909
 20
7.000000222036987
 30
0.0
 11
7.000000000000909
 21
0.0000002220369879
 31
0.0
1001
AcDbBlockRepETag
1070
     1
1071
       12
1005
828
  0
LINE
  5
829
330
821
100
AcDbEntity
  8
frame
  6
ByBlock
100
AcDbLine
 10
0.0
 20
7.000000222036987
 30
0.0
 11
184.0000000000009
 21
7.000000222036987
 31
0.0
1001
AcDbBlockRepETag
1070
     1
1071
       13
1005
829
  0
LINE
  5
82A
330
821
100
AcDbEntity
  8
frame
  6
ByBlock
100
AcDbLine
 10
0.0
 20
0.0000002220369879
 30
0.0
 11
0.0
 21
7.000000222036987
 31
0.0
1001
AcDbBlockRepETag
1070
     1
1071
      123
1005
82A
  0
ATTDEF
  5
82B
102
{ACAD_XDICTIONARY
360
82C
102
}
330
821
100
AcDbEntity
  8
frame
  6
ByBlock
100
AcDbText
 10
3.500000000000909
 20
2.000000222036987
 30
0.0
 40
3.0
  1

 41
0.9
  7
ATOM
 72
     1
 11
3.500000000000909
 21
3.500000222036987
 31
0.0
100
AcDbAttributeDefinition
  3
部番?
  2
部番
 70
     0
 74
     2
1001
AcDbBlockRepETag
1070
     1
1071
       16
1005
0
1001
AcadAnnotative
1000
AnnotativeData
1002
{
1070
     1
1070
     0
1002
}
1001
AcDbAttr
1070
     0
1070
     1
  0
ATTDEF
  5
830
102
{ACAD_XDICTIONARY
360
831
102
}
330
821
100
AcDbEntity
  8
frame
  6
ByBlock
100
AcDbText
 10
32.00000000000091
 20
2.000000222036987
 30
0.0
 40
3.0
  1

 41
0.9
  7
ATOM
 72
     1
 11
32.00000000000091
 21
3.500000222036987
 31
0.0
100
AcDbAttributeDefinition
  3
部品名?
  2
部　　　　品　　　　名
 70
     0
 74
     2
1001
AcDbBlockRepETag
1070
     1
1071
       15
1005
0
1001
AcadAnnotative
1000
AnnotativeData
1002
{
1070
     1
1070
     0
1002
}
1001
AcDbAttr
1070
     0
1070
     1
  0
ATTDEF
  5
835
102
{ACAD_XDICTIONARY
360
836
102
}
330
821
100
AcDbEntity
  8
frame
  6
ByBlock
100
AcDbText
 10
71.00000000000091
 20
2.000000222036987
 30
0.0
 40
3.0
  1

 41
0.9
  7
ATOM
 72
     1
 11
71.00000000000091
 21
3.500000222036987
 31
0.0
100
AcDbAttributeDefinition
  3
材質?
  2
材　　質
 70
     0
 74
     2
1001
AcDbBlockRepETag
1070
     1
1071
       14
1005
0
1001
AcadAnnotative
1000
AnnotativeData
1002
{
1070
     1
1070
     0
1002
}
1001
AcDbAttr
1070
     0
1070
     1
  0
ATTDEF
  5
83A
102
{ACAD_XDICTIONARY
360
83B
102
}
330
821
100
AcDbEntity
  8
frame
  6
ByBlock
100
AcDbText
 10
88.50000000000092
 20
2.000000222036987
 30
0.0
 40
3.0
  1

 41
0.9
  7
ATOM
 72
     1
 11
88.50000000000092
 21
3.500000222036987
 31
0.0
100
AcDbAttributeDefinition
  3
数量?
  2
数量
 70
     0
 74
     2
1001
AcDbBlockRepETag
1070
     1
1071
      178
1005
0
1001
AcadAnnotative
1000
AnnotativeData
1002
{
1070
     1
1070
     0
1002
}
1001
AcDbAttr
1070
     0
1070
     1
  0
ATTDEF
  5
83F
102
{ACAD_XDICTIONARY
360
840
102
}
330
821
100
AcDbEntity
  8
frame
  6
ByBlock
100
AcDbText
 10
117.0000000000009
 20
2.000000222036987
 30
0.0
 40
3.0
  1

 41
0.9
  7
ATOM
 72
     1
 11
117.0000000000009
 21
3.500000222036987
 31
0.0
100
AcDbAttributeDefinition
  3
表面処理?
  2
表　　面　　処　　理
 70
     0
 74
     2
1001
AcDbBlockRepETag
1070
     1
1071
       17
1005
0
1001
AcadAnnotative
1000
AnnotativeData
1002
{
1070
     1
1070
     0
1002
}
1001
AcDbAttr
1070
     0
1070
     1
  0
ATTDEF
  5
844
102
{ACAD_XDICTIONARY
360
845
102
}
330
821
100
AcDbEntity
  8
frame
  6
ByBlock
100
AcDbText
 10
163.0000000000009
 20
2.000000222036987
 30
0.0
 40
3.0
  1

 41
0.9
  7
ATOM
 72
     1
 11
163.0000000000009
 21
3.500000222036987
 31
0.0
100
AcDbAttributeDefinition
  3
備考?
  2
備　　　考
 70
     0
 74
     2
1001
AcDbBlockRepETag
1070
     1
1071
      181
1005
0
1001
AcadAnnotative
1000
AnnotativeData
1002
{
1070
     1
1070
     0
1002
}
1001
AcDbAttr
1070
     0
1070
     1
  0
ENDBLK
  5
823
330
821
100
AcDbEntity
  8
0
100
AcDbBlockEnd
  0
ENDSEC
  0
SECTION
  2
ENTITIES
  0
LINE
  5
E7
330
6C
100
AcDbEntity
  8
guide
100
AcDbLine
 10
163.6424978831283
 20
198.6393868407758
 30
0.0
 11
163.8477555850829
 21
198.6393868407758
 31
0.0
  0
LINE
  5
E8
330
6C
100
AcDbEntity
  8
guide
100
AcDbLine
 10
163.8477555850829
 20
198.6393868407758
 30
0.0
 11
164.0364171817075
 21
198.5585318707939
 31
0.0
  0
LINE
  5
130
330
6C
100
AcDbEntity
  8
カバー
  6
JIS_02_1.0
 62
     7
100
AcDbLine
 10
270.8622404791683
 20
175.6393868407758
 30
0.0
 11
267.5622404791684
 21
175.6393868407758
 31
0.0
  0
LINE
  5
132
330
6C
100
AcDbEntity
  8
カバー
  6
JIS_02_1.0
 62
     7
100
AcDbLine
 10
270.8622404791683
 20
157.2393868407758
 30
0.0
 11
267.5622404791684
 21
157.2393868407758
 31
0.0
  0
LINE
  5
139
330
6C
100
AcDbEntity
  8
カバー
  6
JIS_02_1.0
 62
     7
100
AcDbLine
 10
271.6622404791683
 20
175.6393868407758
 30
0.0
 11
267.5622404791684
 21
175.6393868407758
 31
0.0
  0
LINE
  5
13B
330
6C
100
AcDbEntity
  8
カバー
  6
JIS_02_1.0
 62
     7
100
AcDbLine
 10
271.6622404791683
 20
157.2393868407758
 30
0.0
 11
267.5622404791684
 21
157.2393868407758
 31
0.0
  0
LINE
  5
13E
330
6C
100
AcDbEntity
  8
カバー
  6
Continuous
 62
     7
100
AcDbLine
 10
271.6622404791681
 20
198.6393868407758
 30
0.0
 11
271.6622404791681
 21
155.6393868407758
 31
0.0
  0
LINE
  5
13F
330
6C
100
AcDbEntity
  8
カバー
  6
Continuous
 62
     7
100
AcDbLine
 10
274.6622404791681
 20
156.6393868407758
 30
0.0
 11
274.6622404791681
 21
197.6393868407758
 31
0.0
  0
LINE
  5
140
330
6C
100
AcDbEntity
  8
カバー
  6
Continuous
 62
     7
100
AcDbLine
 10
273.6622404791681
 20
198.6393868407758
 30
0.0
 11
271.6622404791681
 21
198.6393868407758
 31
0.0
  0
ARC
  5
141
330
6C
100
AcDbEntity
  8
カバー
  6
Continuous
 62
     7
100
AcDbCircle
 10
273.6622404791681
 20
197.6393868407758
 30
0.0
 40
1.0
100
AcDbArc
 50
0.0
 51
90.0
  0
LINE
  5
142
330
6C
100
AcDbEntity
  8
カバー
  6
Continuous
 62
     7
100
AcDbLine
 10
273.6622404791681
 20
155.6393868407758
 30
0.0
 11
271.6622404791681
 21
155.6393868407758
 31
0.0
  0
ARC
  5
143
330
6C
100
AcDbEntity
  8
カバー
  6
Continuous
 62
     7
100
AcDbCircle
 10
273.6622404791681
 20
156.6393868407758
 30
0.0
 40
1.0
100
AcDbArc
 50
270.0
 51
0.0
  0
ARC
  5
1E8
330
6C
100
AcDbEntity
  8
AFD-3400
100
AcDbCircle
 10
183.0477555850832
 20
172.1393868407758
 30
0.0
 40
1.499999999999998
100
AcDbArc
 50
90.00000327162217
 51
180.0000021244354
  0
ARC
  5
1EA
330
6C
100
AcDbEntity
  8
AFD-3400
100
AcDbCircle
 10
196.6477555850831
 20
172.1393868407758
 30
0.0
 40
1.500000000000014
100
AcDbArc
 50
0.0000013384181211
 51
90.00000327162217
  0
LINE
  5
1EB
330
6C
100
AcDbEntity
  8
AFD-3400
100
AcDbLine
 10
186.147755585083
 20
175.6393868407758
 30
0.0
 11
193.5477555850832
 21
175.6393868407758
 31
0.0
  0
LINE
  5
1EE
330
6C
100
AcDbEntity
  8
AFD-3400
100
AcDbLine
 10
198.1477555850831
 20
172.1393868407758
 30
0.0
 11
198.1477555850831
 21
158.7393868407758
 31
0.0
  0
LINE
  5
1EF
330
6C
100
AcDbEntity
  8
AFD-3400
100
AcDbLine
 10
181.5477555850832
 20
172.1393868407758
 30
0.0
 11
181.5477555850832
 21
158.7393868407758
 31
0.0
  0
ARC
  5
1F2
330
6C
100
AcDbEntity
  8
AFD-3400
100
AcDbCircle
 10
194.0477555850832
 20
173.3789472304929
 30
0.0
 40
0.5
100
AcDbArc
 50
180.0
 51
270.0
  0
LINE
  5
1F3
330
6C
100
AcDbEntity
  8
AFD-3400
100
AcDbLine
 10
193.5477555850832
 20
175.6393868407758
 30
0.0
 11
193.5477555850832
 21
173.3789472304929
 31
0.0
  0
LINE
  5
1F4
330
6C
100
AcDbEntity
  8
AFD-3400
100
AcDbLine
 10
195.3477555850829
 20
173.6393868407757
 30
0.0
 11
194.0477555850832
 21
172.8789472304929
 31
0.0
  0
LINE
  5
1F5
330
6C
100
AcDbEntity
  8
AFD-3400
100
AcDbLine
 10
196.6477555850831
 20
173.6393868407757
 30
0.0
 11
195.3477555850829
 21
173.6393868407757
 31
0.0
  0
LINE
  5
1F6
330
6C
100
AcDbEntity
  8
AFD-3400
100
AcDbLine
 10
183.0477555850832
 20
173.6393868407757
 30
0.0
 11
184.3477555850829
 21
173.6393868407757
 31
0.0
  0
LINE
  5
1F7
330
6C
100
AcDbEntity
  8
AFD-3400
100
AcDbLine
 10
184.3477555850829
 20
173.6393868407757
 30
0.0
 11
185.6477555850829
 21
172.8789472304929
 31
0.0
  0
ARC
  5
1F8
330
6C
100
AcDbEntity
  8
AFD-3400
100
AcDbCircle
 10
185.6477555850831
 20
173.3789472304929
 30
0.0
 40
0.5
100
AcDbArc
 50
270.0
 51
0.0
  0
LINE
  5
1F9
330
6C
100
AcDbEntity
  8
AFD-3400
100
AcDbLine
 10
186.147755585083
 20
175.6393868407758
 30
0.0
 11
186.147755585083
 21
173.3789472304929
 31
0.0
  0
LINE
  5
1FA
330
6C
100
AcDbEntity
  8
AFD-3400
100
AcDbLine
 10
183.0477555652471
 20
157.2393868407758
 30
0.0
 11
196.647755565247
 21
157.2393868407758
 31
0.0
  0
ARC
  5
1FB
330
6C
100
AcDbEntity
  8
AFD-3400
100
AcDbCircle
 10
196.6477555850831
 20
158.7393868407758
 30
0.0
 40
1.5
100
AcDbArc
 50
269.9999992423176
 51
0.0000013384181211
  0
ARC
  5
200
330
6C
100
AcDbEntity
  8
AFD-3400
100
AcDbCircle
 10
183.0477555850832
 20
158.7393868407758
 30
0.0
 40
1.5
100
AcDbArc
 50
179.9999978754798
 51
269.9999992423176
  0
LINE
  5
207
330
6C
100
AcDbEntity
  8
カバー
  6
JIS_02_1.0
 62
     7
100
AcDbLine
 10
186.347755565247
 20
157.2393868407757
 30
0.0
 11
193.347755565247
 21
157.2393868407757
 31
0.0
  0
LINE
  5
20C
330
6C
100
AcDbEntity
  8
AFD-3400
100
AcDbLine
 10
255.1622404791683
 20
173.8373142465595
 30
0.0
 11
255.1622404791683
 21
159.0393868407759
 31
0.0
  0
LINE
  5
21C
330
6C
100
AcDbEntity
  8
AFD-3400
100
AcDbLine
 10
255.1622404791683
 20
175.6393868407758
 30
0.0
 11
255.1622404791683
 21
173.8373142465595
 31
0.0
  0
LINE
  5
21D
330
6C
100
AcDbEntity
  8
AFD-3400
100
AcDbLine
 10
255.1622404791683
 20
175.6393868407758
 30
0.0
 11
270.6622404791683
 21
175.6393868407758
 31
0.0
  0
LINE
  5
221
330
6C
100
AcDbEntity
  8
AFD-3400
100
AcDbLine
 10
255.1622404791683
 20
157.2393868407758
 30
0.0
 11
255.1622404791683
 21
159.0393868407759
 31
0.0
  0
LINE
  5
222
330
6C
100
AcDbEntity
  8
AFD-3400
100
AcDbLine
 10
255.1622404791683
 20
157.2393868407758
 30
0.0
 11
270.6622404791683
 21
157.2393868407758
 31
0.0
  0
LWPOLYLINE
  5
27F
330
6C
100
AcDbEntity
  8
カバー
  6
Continuous
 62
     7
100
AcDbPolyline
 90
       10
 70
     1
 43
0.0
 10
212.8477555850832
 20
185.2545075757093
 10
212.8477555850829
 20
156.6393868407758
 42
-0.4142135623730951
 10
211.847755585083
 20
155.6393868407758
 10
163.3477555850829
 20
155.6393868407758
 42
-0.4142135623730951
 10
162.3477555850829
 20
156.6393868407758
 10
162.3477555850829
 20
198.3393868407759
 42
-0.4142135623730951
 10
162.6477555850829
 20
198.6393868407758
 10
163.6424978831283
 20
198.6393868407758
 42
-0.1015700823222343
 10
164.0364171817075
 20
198.5585318707939
 10
212.4756879528243
 20
185.7378638721244
 42
-0.3403068719086584
  0
LINE
  5
280
330
6C
100
AcDbEntity
  8
guide
100
AcDbLine
 10
212.8477555850832
 20
185.6393868407756
 30
0.0
 11
212.5324301670671
 21
185.7228456218755
 31
0.0
  0
LINE
  5
281
330
6C
100
AcDbEntity
  8
guide
100
AcDbLine
 10
212.8477555850832
 20
185.2545075757093
 30
0.0
 11
212.8477555850832
 21
185.6393868407756
 31
0.0
  0
LINE
  5
282
330
6C
100
AcDbEntity
  8
カバー
  6
Continuous
 62
     7
100
AcDbLine
 10
271.6622404791681
 20
185.6393868407756
 30
0.0
 11
274.6622404791681
 21
185.6393868407756
 31
0.0
  0
LWPOLYLINE
  5
29D
330
6C
100
AcDbEntity
  8
カバー
  6
Continuous
 62
     7
100
AcDbPolyline
 90
        6
 70
     0
 43
0.0
 10
271.6622404791688
 20
162.4383505436676
 10
270.962240479168
 20
162.4383505436676
 42
-0.414213562373125
 10
270.6622404791681
 20
162.7383505436676
 10
270.6622404791681
 20
163.1383505436678
 42
-0.4142135623730951
 10
270.962240479168
 20
163.4383505436676
 10
271.6622404791688
 20
163.4383505436676
  0
LWPOLYLINE
  5
29E
330
6C
100
AcDbEntity
  8
カバー
  6
Continuous
 62
     7
100
AcDbPolyline
 90
        6
 70
     0
 43
0.0
 10
271.6622404791681
 20
169.4383505436676
 10
270.9622404791687
 20
169.4383505436676
 42
-0.4142135623730951
 10
270.6622404791688
 20
169.7383505436676
 10
270.6622404791688
 20
170.1383505436677
 42
-0.4142135623730617
 10
270.9622404791687
 20
170.4383505436676
 10
271.6622404791681
 20
170.4383505436676
  0
LINE
  5
952
330
6C
100
AcDbEntity
  8
guide
100
AcDbLine
 10
78.9729903273091
 20
198.6393868407758
 30
0.0
 11
78.76773262535451
 21
198.6393868407758
 31
0.0
  0
LINE
  5
953
330
6C
100
AcDbEntity
  8
guide
100
AcDbLine
 10
78.76773262535451
 20
198.6393868407758
 30
0.0
 11
78.57907102872994
 21
198.5585318707939
 31
0.0
  0
LINE
  5
954
330
6C
100
AcDbEntity
  8
カバー
  6
JIS_02_1.0
 62
     7
100
AcDbLine
 10
-28.24675226873086
 20
175.6393868407758
 30
0.0
 11
-24.94675226873096
 21
175.6393868407758
 31
0.0
  0
LINE
  5
955
330
6C
100
AcDbEntity
  8
カバー
  6
JIS_02_1.0
 62
     7
100
AcDbLine
 10
-28.24675226873086
 20
157.2393868407758
 30
0.0
 11
-24.94675226873096
 21
157.2393868407758
 31
0.0
  0
LINE
  5
956
330
6C
100
AcDbEntity
  8
カバー
  6
JIS_02_1.0
 62
     7
100
AcDbLine
 10
-29.04675226873087
 20
175.6393868407758
 30
0.0
 11
-24.94675226873096
 21
175.6393868407758
 31
0.0
  0
LINE
  5
957
330
6C
100
AcDbEntity
  8
カバー
  6
JIS_02_1.0
 62
     7
100
AcDbLine
 10
-29.04675226873087
 20
157.2393868407758
 30
0.0
 11
-24.94675226873096
 21
157.2393868407758
 31
0.0
  0
LINE
  5
958
330
6C
100
AcDbEntity
  8
カバー
  6
Continuous
 62
     7
100
AcDbLine
 10
-29.04675226873064
 20
198.6393868407758
 30
0.0
 11
-29.04675226873064
 21
155.6393868407758
 31
0.0
  0
LINE
  5
959
330
6C
100
AcDbEntity
  8
カバー
  6
Continuous
 62
     7
100
AcDbLine
 10
-32.04675226873064
 20
156.6393868407758
 30
0.0
 11
-32.04675226873064
 21
197.6393868407758
 31
0.0
  0
LINE
  5
95A
330
6C
100
AcDbEntity
  8
カバー
  6
Continuous
 62
     7
100
AcDbLine
 10
-31.04675226873065
 20
198.6393868407758
 30
0.0
 11
-29.04675226873064
 21
198.6393868407758
 31
0.0
  0
ARC
  5
95B
330
6C
100
AcDbEntity
  8
カバー
  6
Continuous
 62
     7
100
AcDbCircle
 10
-31.04675226873065
 20
197.6393868407758
 30
0.0
 40
1.0
100
AcDbArc
 50
90.0
 51
180.0
  0
LINE
  5
95C
330
6C
100
AcDbEntity
  8
カバー
  6
Continuous
 62
     7
100
AcDbLine
 10
-31.04675226873065
 20
155.6393868407758
 30
0.0
 11
-29.04675226873064
 21
155.6393868407758
 31
0.0
  0
ARC
  5
95D
330
6C
100
AcDbEntity
  8
カバー
  6
Continuous
 62
     7
100
AcDbCircle
 10
-31.04675226873065
 20
156.6393868407758
 30
0.0
 40
1.0
100
AcDbArc
 50
180.0
 51
270.0
  0
ARC
  5
95E
330
6C
100
AcDbEntity
  8
AFD-3400
100
AcDbCircle
 10
59.56773262535424
 20
172.1393868407758
 30
0.0
 40
1.499999999999998
100
AcDbArc
 50
359.9999978755646
 51
89.99999672837784
  0
ARC
  5
95F
330
6C
100
AcDbEntity
  8
AFD-3400
100
AcDbCircle
 10
45.96773262535435
 20
172.1393868407758
 30
0.0
 40
1.500000000000014
100
AcDbArc
 50
89.99999672837784
 51
179.9999986615819
  0
LINE
  5
960
330
6C
100
AcDbEntity
  8
AFD-3400
100
AcDbLine
 10
56.46773262535436
 20
175.6393868407758
 30
0.0
 11
49.06773262535423
 21
175.6393868407758
 31
0.0
  0
LINE
  5
961
330
6C
100
AcDbEntity
  8
AFD-3400
100
AcDbLine
 10
44.46773262535436
 20
172.1393868407758
 30
0.0
 11
44.46773262535436
 21
158.7393868407758
 31
0.0
  0
LINE
  5
962
330
6C
100
AcDbEntity
  8
AFD-3400
100
AcDbLine
 10
61.06773262535424
 20
172.1393868407758
 30
0.0
 11
61.06773262535424
 21
158.7393868407758
 31
0.0
  0
ARC
  5
963
330
6C
100
AcDbEntity
  8
AFD-3400
100
AcDbCircle
 10
48.56773262535424
 20
173.3789472304929
 30
0.0
 40
0.5
100
AcDbArc
 50
270.0
 51
0.000000000000007
  0
LINE
  5
964
330
6C
100
AcDbEntity
  8
AFD-3400
100
AcDbLine
 10
49.06773262535423
 20
175.6393868407758
 30
0.0
 11
49.06773262535423
 21
173.3789472304929
 31
0.0
  0
LINE
  5
965
330
6C
100
AcDbEntity
  8
AFD-3400
100
AcDbLine
 10
47.26773262535454
 20
173.6393868407757
 30
0.0
 11
48.56773262535424
 21
172.8789472304929
 31
0.0
  0
LINE
  5
966
330
6C
100
AcDbEntity
  8
AFD-3400
100
AcDbLine
 10
45.96773262535435
 20
173.6393868407757
 30
0.0
 11
47.26773262535454
 21
173.6393868407757
 31
0.0
  0
LINE
  5
967
330
6C
100
AcDbEntity
  8
AFD-3400
100
AcDbLine
 10
59.56773262535424
 20
173.6393868407757
 30
0.0
 11
58.26773262535454
 21
173.6393868407757
 31
0.0
  0
LINE
  5
968
330
6C
100
AcDbEntity
  8
AFD-3400
100
AcDbLine
 10
58.26773262535454
 20
173.6393868407757
 30
0.0
 11
56.96773262535453
 21
172.8789472304929
 31
0.0
  0
ARC
  5
969
330
6C
100
AcDbEntity
  8
AFD-3400
100
AcDbCircle
 10
56.96773262535436
 20
173.3789472304929
 30
0.0
 40
0.5
100
AcDbArc
 50
180.0
 51
270.0
  0
LINE
  5
96A
330
6C
100
AcDbEntity
  8
AFD-3400
100
AcDbLine
 10
56.46773262535436
 20
175.6393868407758
 30
0.0
 11
56.46773262535436
 21
173.3789472304929
 31
0.0
  0
LINE
  5
96B
330
6C
100
AcDbEntity
  8
AFD-3400
100
AcDbLine
 10
59.56773264519035
 20
157.2393868407758
 30
0.0
 11
45.96773264519043
 21
157.2393868407758
 31
0.0
  0
ARC
  5
96C
330
6C
100
AcDbEntity
  8
AFD-3400
100
AcDbCircle
 10
45.96773262535435
 20
158.7393868407758
 30
0.0
 40
1.5
100
AcDbArc
 50
179.9999986615819
 51
270.0000007576824
  0
ARC
  5
96D
330
6C
100
AcDbEntity
  8
AFD-3400
100
AcDbCircle
 10
59.56773262535424
 20
158.7393868407758
 30
0.0
 40
1.5
100
AcDbArc
 50
270.0000007576824
 51
0.0000021245202065
  0
LINE
  5
96E
330
6C
100
AcDbEntity
  8
カバー
  6
JIS_02_1.0
 62
     7
100
AcDbLine
 10
56.26773264519042
 20
157.2393868407757
 30
0.0
 11
49.26773264519042
 21
157.2393868407757
 31
0.0
  0
LINE
  5
96F
330
6C
100
AcDbEntity
  8
AFD-3400
100
AcDbLine
 10
-12.5467522687309
 20
173.8373142465595
 30
0.0
 11
-12.5467522687309
 21
159.0393868407759
 31
0.0
  0
LINE
  5
970
330
6C
100
AcDbEntity
  8
AFD-3400
100
AcDbLine
 10
-12.5467522687309
 20
175.6393868407758
 30
0.0
 11
-12.5467522687309
 21
173.8373142465595
 31
0.0
  0
LINE
  5
971
330
6C
100
AcDbEntity
  8
AFD-3400
100
AcDbLine
 10
-12.5467522687309
 20
175.6393868407758
 30
0.0
 11
-28.04675226873087
 21
175.6393868407758
 31
0.0
  0
LINE
  5
972
330
6C
100
AcDbEntity
  8
AFD-3400
100
AcDbLine
 10
-12.5467522687309
 20
157.2393868407758
 30
0.0
 11
-12.5467522687309
 21
159.0393868407759
 31
0.0
  0
LINE
  5
973
330
6C
100
AcDbEntity
  8
AFD-3400
100
AcDbLine
 10
-12.5467522687309
 20
157.2393868407758
 30
0.0
 11
-28.04675226873087
 21
157.2393868407758
 31
0.0
  0
LWPOLYLINE
  5
974
330
6C
100
AcDbEntity
  8
カバー
  6
Continuous
 62
     7
100
AcDbPolyline
 90
       10
 70
     1
 43
0.0
 10
29.76773262535423
 20
185.2545075757093
 10
29.76773262535454
 20
156.6393868407758
 42
0.4142135623730951
 10
30.76773262535443
 20
155.6393868407758
 10
79.26773262535451
 20
155.6393868407758
 42
0.4142135623730951
 10
80.26773262535451
 20
156.6393868407758
 10
80.26773262535451
 20
198.3393868407759
 42
0.4142135623730951
 10
79.96773262535453
 20
198.6393868407758
 10
78.9729903273091
 20
198.6393868407758
 42
0.1015700823222343
 10
78.57907102872994
 20
198.5585318707939
 10
30.1398002576131
 20
185.7378638721244
 42
0.3403068719086584
  0
LINE
  5
975
330
6C
100
AcDbEntity
  8
guide
100
AcDbLine
 10
29.76773262535423
 20
185.6393868407756
 30
0.0
 11
30.08305804337033
 21
185.7228456218755
 31
0.0
  0
LINE
  5
976
330
6C
100
AcDbEntity
  8
guide
100
AcDbLine
 10
29.76773262535423
 20
185.2545075757093
 30
0.0
 11
29.76773262535423
 21
185.6393868407756
 31
0.0
  0
LINE
  5
977
330
6C
100
AcDbEntity
  8
カバー
  6
Continuous
 62
     7
100
AcDbLine
 10
-29.04675226873064
 20
185.6393868407756
 30
0.0
 11
-32.04675226873064
 21
185.6393868407756
 31
0.0
  0
LWPOLYLINE
  5
978
330
6C
100
AcDbEntity
  8
カバー
  6
Continuous
 62
     7
100
AcDbPolyline
 90
        6
 70
     0
 43
0.0
 10
-29.04675226873138
 20
162.4383505436676
 10
-28.3467522687306
 20
162.4383505436676
 42
0.414213562373125
 10
-28.04675226873064
 20
162.7383505436676
 10
-28.04675226873064
 20
163.1383505436678
 42
0.4142135623730951
 10
-28.3467522687306
 20
163.4383505436676
 10
-29.04675226873138
 20
163.4383505436676
  0
LWPOLYLINE
  5
979
330
6C
100
AcDbEntity
  8
カバー
  6
Continuous
 62
     7
100
AcDbPolyline
 90
        6
 70
     0
 43
0.0
 10
-29.04675226873064
 20
169.4383505436676
 10
-28.34675226873128
 20
169.4383505436676
 42
0.4142135623730951
 10
-28.04675226873138
 20
169.7383505436676
 10
-28.04675226873138
 20
170.1383505436677
 42
0.4142135623730617
 10
-28.34675226873128
 20
170.4383505436676
 10
-29.04675226873064
 20
170.4383505436676
  0
MTEXT
  5
97D
330
6C
100
AcDbEntity
  8
text
100
AcDbMText
 10
-9.766675131666488
 20
230.7092869858174
 30
0.0
 40
10.0
 41
25.7909628372837
 71
     1
 72
     5
  1
左
  7
ATOM_KANJI
 73
     1
 44
1.0
1001
ACAD
1000
ACAD_MTEXT_COLUMN_INFO_BEGIN
1070
    75
1070
     2
1070
    79
1070
     0
1070
    76
1070
     1
1070
    78
1070
     0
1070
    48
1040
25.7909628372837
1070
    49
1040
15.0
1070
    50
1070
     1
1040
0.0
1000
ACAD_MTEXT_COLUMN_INFO_END
1000
MTEXTBEGIN
1070
    73
1070
     1
1070
    44
1040
1.0
1070
    74
1070
     0
1000
MTEXTEND
  0
MTEXT
  5
97E
330
6C
100
AcDbEntity
  8
text
100
AcDbMText
 10
194.5325222369669
 20
230.7092869858174
 30
0.0
 40
10.0
 41
25.7909628372837
 71
     1
 72
     5
  1
右
  7
ATOM_KANJI
 73
     1
 44
1.0
1001
ACAD
1000
ACAD_MTEXT_COLUMN_INFO_BEGIN
1070
    75
1070
     2
1070
    79
1070
     0
1070
    76
1070
     1
1070
    78
1070
     0
1070
    48
1040
25.7909628372837
1070
    49
1040
15.0
1070
    50
1070
     1
1040
0.0
1000
ACAD_MTEXT_COLUMN_INFO_END
1000
MTEXTBEGIN
1070
    73
1070
     1
1070
    44
1040
1.0
1070
    74
1070
     0
1000
MTEXTEND
  0
ENDSEC
  0
SECTION
  2
OBJECTS
  0
DICTIONARY
  5
C
330
0
100
AcDbDictionary
281
     1
  3
ACAD_2007HEADERVARS_RT
350
985
  3
ACAD_CIP_PREVIOUS_PRODUCT_INFO
350
8F8
  3
ACAD_COLOR
350
63
  3
ACAD_GROUP
350
D
  3
ACAD_LAYOUT
350
62
  3
ACAD_MATERIAL
350
10
  3
ACAD_MLEADERSTYLE
350
66
  3
ACAD_MLINESTYLE
350
5F
  3
ACAD_PLOTSETTINGS
350
61
  3
ACAD_PLOTSTYLENAME
350
E
  3
ACAD_SCALELIST
350
42
  3
ACAD_TABLESTYLE
350
64
  3
ACAD_VISUALSTYLE
350
29
  3
ACDB_RECOMPOSE_DATA
350
983
  3
AcDbVariableDictionary
350
8EC
  3
DWGPROPS
350
984
  0
DICTIONARY
  5
8F9
330
54
100
AcDbDictionary
280
     1
281
     1
  3
ADSK_XREC_LAYER_RECONCILED
360
8FA
  0
DICTIONARY
  5
9C
330
9B
100
AcDbDictionary
280
     1
281
     1
  3
ADSK_XREC_LAYER_RECONCILED
360
9D
  0
DICTIONARY
  5
A3
330
A2
100
AcDbDictionary
280
     1
281
     1
  3
ADSK_XREC_LAYER_RECONCILED
360
A4
  0
DICTIONARY
  5
8FB
330
AE
100
AcDbDictionary
280
     1
281
     1
  3
ADSK_XREC_LAYER_RECONCILED
360
8FC
  0
DICTIONARY
  5
B7
330
B6
100
AcDbDictionary
280
     1
281
     1
  3
ADSK_XREC_LAYER_RECONCILED
360
B8
  0
DICTIONARY
  5
D4
330
D3
100
AcDbDictionary
280
     1
281
     1
  3
ADSK_XREC_LAYER_RECONCILED
360
D5
  0
DICTIONARY
  5
8FD
330
145
100
AcDbDictionary
280
     1
281
     1
  3
ADSK_XREC_LAYER_RECONCILED
360
8FE
  0
DICTIONARY
  5
186
330
185
100
AcDbDictionary
280
     1
281
     1
  3
ADSK_XREC_LAYER_RECONCILED
360
187
  0
DICTIONARY
  5
572
330
571
100
AcDbDictionary
280
     1
281
     1
  3
ADSK_XREC_LAYER_RECONCILED
360
573
  0
DICTIONARY
  5
56E
330
6C
100
AcDbDictionary
280
     1
281
     1
  3
ACAD_SORTENTS
360
56F
  0
DICTIONARY
  5
575
330
574
100
AcDbDictionary
280
     1
281
     1
  3
ACAD_SORTENTS
360
576
  0
DICTIONARY
  5
69F
330
69E
100
AcDbDictionary
280
     1
281
     1
  3
ACAD_SORTENTS
360
6A0
  3
AcDbBlockTableRecordData
360
9BE
  0
DICTIONARY
  5
64B
330
64A
100
AcDbDictionary
280
     1
281
     1
  3
AcDbContextDataManager
360
64C
  0
DICTIONARY
  5
650
330
64F
100
AcDbDictionary
280
     1
281
     1
  3
AcDbContextDataManager
360
651
  0
DICTIONARY
  5
655
330
654
100
AcDbDictionary
280
     1
281
     1
  3
AcDbContextDataManager
360
656
  0
DICTIONARY
  5
65A
330
659
100
AcDbDictionary
280
     1
281
     1
  3
AcDbContextDataManager
360
65B
  0
DICTIONARY
  5
65F
330
65E
100
AcDbDictionary
280
     1
281
     1
  3
AcDbContextDataManager
360
660
  0
DICTIONARY
  5
664
330
663
100
AcDbDictionary
280
     1
281
     1
  3
AcDbContextDataManager
360
665
  0
DICTIONARY
  5
6AA
330
6A9
100
AcDbDictionary
280
     1
281
     1
  3
AcDbContextDataManager
360
6AB
  0
DICTIONARY
  5
6AF
330
6AE
100
AcDbDictionary
280
     1
281
     1
  3
AcDbContextDataManager
360
6B0
  0
DICTIONARY
  5
6B4
330
6B3
100
AcDbDictionary
280
     1
281
     1
  3
AcDbContextDataManager
360
6B5
  0
DICTIONARY
  5
6B9
330
6B8
100
AcDbDictionary
280
     1
281
     1
  3
AcDbContextDataManager
360
6BA
  0
DICTIONARY
  5
6BE
330
6BD
100
AcDbDictionary
280
     1
281
     1
  3
AcDbContextDataManager
360
6BF
  0
DICTIONARY
  5
6C3
330
6C2
100
AcDbDictionary
280
     1
281
     1
  3
AcDbContextDataManager
360
6C4
  0
DICTIONARY
  5
7DC
330
7DB
100
AcDbDictionary
280
     1
281
     1
  3
AcDbContextDataManager
360
7DD
  0
DICTIONARY
  5
7E1
330
7E0
100
AcDbDictionary
280
     1
281
     1
  3
AcDbContextDataManager
360
7E2
  0
DICTIONARY
  5
7E6
330
7E5
100
AcDbDictionary
280
     1
281
     1
  3
AcDbContextDataManager
360
7E7
  0
DICTIONARY
  5
7EB
330
7EA
100
AcDbDictionary
280
     1
281
     1
  3
AcDbContextDataManager
360
7EC
  0
DICTIONARY
  5
7F0
330
7EF
100
AcDbDictionary
280
     1
281
     1
  3
AcDbContextDataManager
360
7F1
  0
DICTIONARY
  5
7F5
330
7F4
100
AcDbDictionary
280
     1
281
     1
  3
AcDbContextDataManager
360
7F6
  0
DICTIONARY
  5
804
330
803
100
AcDbDictionary
280
     1
281
     1
  3
AcDbContextDataManager
360
805
  0
DICTIONARY
  5
809
330
808
100
AcDbDictionary
280
     1
281
     1
  3
AcDbContextDataManager
360
80A
  0
DICTIONARY
  5
80E
330
80D
100
AcDbDictionary
280
     1
281
     1
  3
AcDbContextDataManager
360
80F
  0
DICTIONARY
  5
813
330
812
100
AcDbDictionary
280
     1
281
     1
  3
AcDbContextDataManager
360
814
  0
DICTIONARY
  5
818
330
817
100
AcDbDictionary
280
     1
281
     1
  3
AcDbContextDataManager
360
819
  0
DICTIONARY
  5
81D
330
81C
100
AcDbDictionary
280
     1
281
     1
  3
AcDbContextDataManager
360
81E
  0
DICTIONARY
  5
82C
330
82B
100
AcDbDictionary
280
     1
281
     1
  3
AcDbContextDataManager
360
82D
  0
DICTIONARY
  5
831
330
830
100
AcDbDictionary
280
     1
281
     1
  3
AcDbContextDataManager
360
832
  0
DICTIONARY
  5
836
330
835
100
AcDbDictionary
280
     1
281
     1
  3
AcDbContextDataManager
360
837
  0
DICTIONARY
  5
83B
330
83A
100
AcDbDictionary
280
     1
281
     1
  3
AcDbContextDataManager
360
83C
  0
DICTIONARY
  5
840
330
83F
100
AcDbDictionary
280
     1
281
     1
  3
AcDbContextDataManager
360
841
  0
DICTIONARY
  5
845
330
844
100
AcDbDictionary
280
     1
281
     1
  3
AcDbContextDataManager
360
846
  0
DICTIONARY
  5
985
102
{ACAD_REACTORS
330
C
102
}
330
C
100
AcDbDictionary
281
     1
  3
DIMJOGANG
350
986
  0
XRECORD
  5
8F8
102
{ACAD_REACTORS
330
C
102
}
330
C
100
AcDbXrecord
280
     1
300
ACD
300
2012
300
ACD_F_S
  0
DICTIONARY
  5
63
102
{ACAD_REACTORS
330
C
102
}
330
C
100
AcDbDictionary
281
     1
  0
DICTIONARY
  5
D
102
{ACAD_REACTORS
330
C
102
}
330
C
100
AcDbDictionary
281
     1
  0
DICTIONARY
  5
62
102
{ACAD_REACTORS
330
C
102
}
330
C
100
AcDbDictionary
281
     1
  3
Model
350
6F
  3
レイアウト1
350
6B
  3
レイアウト2
350
73
  0
DICTIONARY
  5
10
102
{ACAD_REACTORS
330
C
102
}
330
C
100
AcDbDictionary
281
     1
  3
ByBlock
350
19
  3
ByLayer
350
11
  3
Global
350
21
  0
DICTIONARY
  5
66
102
{ACAD_REACTORS
330
C
102
}
330
C
100
AcDbDictionary
281
     1
  3
ATOM_balloon
350
A7
  3
Standard
350
67
  0
DICTIONARY
  5
5F
102
{ACAD_REACTORS
330
C
102
}
330
C
100
AcDbDictionary
281
     1
  3
Standard
350
60
  0
DICTIONARY
  5
61
102
{ACAD_REACTORS
330
C
102
}
330
C
100
AcDbDictionary
281
     1
  0
ACDBDICTIONARYWDFLT
  5
E
102
{ACAD_REACTORS
330
C
102
}
330
C
100
AcDbDictionary
281
     1
  3
invisible
350
86
  3
Normal
350
F
  3
Style 1
350
87
100
AcDbDictionaryWithDefault
340
F
  0
DICTIONARY
  5
42
102
{ACAD_REACTORS
330
C
102
}
330
C
100
AcDbDictionary
281
     1
  3
*A1
350
88
  3
*A10
350
90
  3
*A11
350
91
  3
*A12
350
92
  3
*A13
350
93
  3
*A14
350
94
  3
*A15
350
95
  3
*A16
350
96
  3
*A17
350
97
  3
*A18
350
98
  3
*A2
350
99
  3
*A3
350
89
  3
*A4
350
8A
  3
*A5
350
8B
  3
*A6
350
8C
  3
*A7
350
8D
  3
*A8
350
8E
  3
*A9
350
8F
  3
A0
350
43
  3
A1
350
44
  3
A2
350
45
  3
A3
350
46
  3
A4
350
47
  3
A5
350
48
  3
A6
350
49
  3
A7
350
4A
  3
A8
350
4B
  3
A9
350
4C
  3
B0
350
4D
  3
B1
350
4E
  3
B2
350
4F
  3
B3
350
50
  3
B4
350
51
  3
B5
350
52
  3
B6
350
53
  0
DICTIONARY
  5
64
102
{ACAD_REACTORS
330
C
102
}
330
C
100
AcDbDictionary
281
     1
  3
Standard
350
65
  0
DICTIONARY
  5
29
102
{ACAD_REACTORS
330
C
102
}
330
C
100
AcDbDictionary
281
     1
  3
2dWireframe
350
2F
  3
Basic
350
2E
  3
Brighten
350
35
  3
ColorChange
350
39
  3
Conceptual
350
32
  3
Dim
350
34
  3
EdgeColorOff
350
41
  3
Facepattern
350
38
  3
Flat
350
2A
  3
FlatWithEdges
350
2B
  3
Gouraud
350
2C
  3
GouraudWithEdges
350
2D
  3
Hidden
350
31
  3
JitterOff
350
3F
  3
Linepattern
350
37
  3
OverhangOff
350
40
  3
Realistic
350
33
  3
Shaded
350
3E
  3
Shaded with edges
350
3D
  3
Shades of Gray
350
3A
  3
Sketchy
350
3B
  3
Thicken
350
36
  3
Wireframe
350
30
  3
X-Ray
350
3C
  0
XRECORD
  5
983
102
{ACAD_REACTORS
330
C
102
}
330
C
100
AcDbXrecord
280
     1
 90
        1
330
65
330
97D
330
97E
  0
DICTIONARY
  5
8EC
102
{ACAD_REACTORS
330
C
102
}
330
C
100
AcDbDictionary
281
     1
  3
ANNOALLVISIBLE
350
8EF
  3
CANNOSCALE
350
8F0
  3
CMLEADERSTYLE
350
8EE
  3
CTABLESTYLE
350
8ED
  3
DIMASSOC
350
905
  3
HIDETEXT
350
903
  3
INDEXCTL
350
902
  3
LAYEREVAL
350
8F1
  3
LAYERNOTIFY
350
8F2
  3
LIGHTINGUNITS
350
900
  3
MSLTSCALE
350
8FF
  3
SORTENTS
350
901
  3
XCLIPFRAME
350
97F
  0
XRECORD
  5
984
102
{ACAD_REACTORS
330
C
102
}
330
C
100
AcDbXrecord
280
     1
  1
DWGPROPS COOKIE
  2

  3

  4

  6

  7

  8
0035sekine
  9

300
=
301
=
302
=
303
=
304
=
305
=
306
=
307
=
308
=
309
=
 40
0.0052291087962963
 41
2456542.471438831
 42
2457574.415258091
  1

 90
        0
  0
XRECORD
  5
8FA
102
{ACAD_REACTORS
330
8F9
102
}
330
8F9
100
AcDbXrecord
280
     1
290
     1
  0
XRECORD
  5
9D
102
{ACAD_REACTORS
330
9C
102
}
330
9C
100
AcDbXrecord
280
     1
290
     1
  0
XRECORD
  5
A4
102
{ACAD_REACTORS
330
A3
102
}
330
A3
100
AcDbXrecord
280
     1
290
     1
  0
XRECORD
  5
8FC
102
{ACAD_REACTORS
330
8FB
102
}
330
8FB
100
AcDbXrecord
280
     1
290
     1
  0
XRECORD
  5
B8
102
{ACAD_REACTORS
330
B7
102
}
330
B7
100
AcDbXrecord
280
     1
290
     1
  0
XRECORD
  5
D5
102
{ACAD_REACTORS
330
D4
102
}
330
D4
100
AcDbXrecord
280
     1
290
     1
  0
XRECORD
  5
8FE
102
{ACAD_REACTORS
330
8FD
102
}
330
8FD
100
AcDbXrecord
280
     1
290
     1
  0
XRECORD
  5
187
102
{ACAD_REACTORS
330
186
102
}
330
186
100
AcDbXrecord
280
     1
290
     1
  0
XRECORD
  5
573
102
{ACAD_REACTORS
330
572
102
}
330
572
100
AcDbXrecord
280
     1
290
     1
  0
SORTENTSTABLE
  5
56F
102
{ACAD_REACTORS
330
56E
102
}
330
56E
100
AcDbSortentsTable
330
6C
  0
SORTENTSTABLE
  5
576
102
{ACAD_REACTORS
330
575
102
}
330
575
100
AcDbSortentsTable
330
574
  0
SORTENTSTABLE
  5
6A0
102
{ACAD_REACTORS
330
69F
102
}
330
69F
100
AcDbSortentsTable
330
69E
  0
DICTIONARY
  5
9BE
102
{ACAD_REACTORS
330
69F
102
}
330
69F
100
AcDbDictionary
280
     1
281
     1
  3
Edit
360
9BF
  0
DICTIONARY
  5
64C
102
{ACAD_REACTORS
330
64B
102
}
330
64B
100
AcDbDictionary
281
     1
  3
ACDB_ANNOTATIONSCALES
350
64D
  0
DICTIONARY
  5
651
102
{ACAD_REACTORS
330
650
102
}
330
650
100
AcDbDictionary
281
     1
  3
ACDB_ANNOTATIONSCALES
350
652
  0
DICTIONARY
  5
656
102
{ACAD_REACTORS
330
655
102
}
330
655
100
AcDbDictionary
281
     1
  3
ACDB_ANNOTATIONSCALES
350
657
  0
DICTIONARY
  5
65B
102
{ACAD_REACTORS
330
65A
102
}
330
65A
100
AcDbDictionary
281
     1
  3
ACDB_ANNOTATIONSCALES
350
65C
  0
DICTIONARY
  5
660
102
{ACAD_REACTORS
330
65F
102
}
330
65F
100
AcDbDictionary
281
     1
  3
ACDB_ANNOTATIONSCALES
350
661
  0
DICTIONARY
  5
665
102
{ACAD_REACTORS
330
664
102
}
330
664
100
AcDbDictionary
281
     1
  3
ACDB_ANNOTATIONSCALES
350
666
  0
DICTIONARY
  5
6AB
102
{ACAD_REACTORS
330
6AA
102
}
330
6AA
100
AcDbDictionary
281
     1
  3
ACDB_ANNOTATIONSCALES
350
6AC
  0
DICTIONARY
  5
6B0
102
{ACAD_REACTORS
330
6AF
102
}
330
6AF
100
AcDbDictionary
281
     1
  3
ACDB_ANNOTATIONSCALES
350
6B1
  0
DICTIONARY
  5
6B5
102
{ACAD_REACTORS
330
6B4
102
}
330
6B4
100
AcDbDictionary
281
     1
  3
ACDB_ANNOTATIONSCALES
350
6B6
  0
DICTIONARY
  5
6BA
102
{ACAD_REACTORS
330
6B9
102
}
330
6B9
100
AcDbDictionary
281
     1
  3
ACDB_ANNOTATIONSCALES
350
6BB
  0
DICTIONARY
  5
6BF
102
{ACAD_REACTORS
330
6BE
102
}
330
6BE
100
AcDbDictionary
281
     1
  3
ACDB_ANNOTATIONSCALES
350
6C0
  0
DICTIONARY
  5
6C4
102
{ACAD_REACTORS
330
6C3
102
}
330
6C3
100
AcDbDictionary
281
     1
  3
ACDB_ANNOTATIONSCALES
350
6C5
  0
DICTIONARY
  5
7DD
102
{ACAD_REACTORS
330
7DC
102
}
330
7DC
100
AcDbDictionary
281
     1
  3
ACDB_ANNOTATIONSCALES
350
7DE
  0
DICTIONARY
  5
7E2
102
{ACAD_REACTORS
330
7E1
102
}
330
7E1
100
AcDbDictionary
281
     1
  3
ACDB_ANNOTATIONSCALES
350
7E3
  0
DICTIONARY
  5
7E7
102
{ACAD_REACTORS
330
7E6
102
}
330
7E6
100
AcDbDictionary
281
     1
  3
ACDB_ANNOTATIONSCALES
350
7E8
  0
DICTIONARY
  5
7EC
102
{ACAD_REACTORS
330
7EB
102
}
330
7EB
100
AcDbDictionary
281
     1
  3
ACDB_ANNOTATIONSCALES
350
7ED
  0
DICTIONARY
  5
7F1
102
{ACAD_REACTORS
330
7F0
102
}
330
7F0
100
AcDbDictionary
281
     1
  3
ACDB_ANNOTATIONSCALES
350
7F2
  0
DICTIONARY
  5
7F6
102
{ACAD_REACTORS
330
7F5
102
}
330
7F5
100
AcDbDictionary
281
     1
  3
ACDB_ANNOTATIONSCALES
350
7F7
  0
DICTIONARY
  5
805
102
{ACAD_REACTORS
330
804
102
}
330
804
100
AcDbDictionary
281
     1
  3
ACDB_ANNOTATIONSCALES
350
806
  0
DICTIONARY
  5
80A
102
{ACAD_REACTORS
330
809
102
}
330
809
100
AcDbDictionary
281
     1
  3
ACDB_ANNOTATIONSCALES
350
80B
  0
DICTIONARY
  5
80F
102
{ACAD_REACTORS
330
80E
102
}
330
80E
100
AcDbDictionary
281
     1
  3
ACDB_ANNOTATIONSCALES
350
810
  0
DICTIONARY
  5
814
102
{ACAD_REACTORS
330
813
102
}
330
813
100
AcDbDictionary
281
     1
  3
ACDB_ANNOTATIONSCALES
350
815
  0
DICTIONARY
  5
819
102
{ACAD_REACTORS
330
818
102
}
330
818
100
AcDbDictionary
281
     1
  3
ACDB_ANNOTATIONSCALES
350
81A
  0
DICTIONARY
  5
81E
102
{ACAD_REACTORS
330
81D
102
}
330
81D
100
AcDbDictionary
281
     1
  3
ACDB_ANNOTATIONSCALES
350
81F
  0
DICTIONARY
  5
82D
102
{ACAD_REACTORS
330
82C
102
}
330
82C
100
AcDbDictionary
281
     1
  3
ACDB_ANNOTATIONSCALES
350
82E
  0
DICTIONARY
  5
832
102
{ACAD_REACTORS
330
831
102
}
330
831
100
AcDbDictionary
281
     1
  3
ACDB_ANNOTATIONSCALES
350
833
  0
DICTIONARY
  5
837
102
{ACAD_REACTORS
330
836
102
}
330
836
100
AcDbDictionary
281
     1
  3
ACDB_ANNOTATIONSCALES
350
838
  0
DICTIONARY
  5
83C
102
{ACAD_REACTORS
330
83B
102
}
330
83B
100
AcDbDictionary
281
     1
  3
ACDB_ANNOTATIONSCALES
350
83D
  0
DICTIONARY
  5
841
102
{ACAD_REACTORS
330
840
102
}
330
840
100
AcDbDictionary
281
     1
  3
ACDB_ANNOTATIONSCALES
350
842
  0
DICTIONARY
  5
846
102
{ACAD_REACTORS
330
845
102
}
330
845
100
AcDbDictionary
281
     1
  3
ACDB_ANNOTATIONSCALES
350
847
  0
XRECORD
  5
986
102
{ACAD_REACTORS
330
985
102
}
330
985
100
AcDbXrecord
280
     1
 40
1.570796326794896
  0
LAYOUT
  5
6F
102
{ACAD_XDICTIONARY
360
9BA
102
}
102
{ACAD_REACTORS
330
62
102
}
330
62
100
AcDbPlotSettings
  1

  2
Adobe PDF
  4
A4
  6

 40
3.174999952316283
 41
3.174999952316283
 42
3.175003051757812
 43
3.17498779296875
 44
209.9733276367186
 45
297.0318298339844
 46
-3.188337683677701
 47
-3.159078955651238
 48
0.0
 49
0.0
140
0.0
141
0.0
142
1.0
143
1.315324803511668
 70
 11954
 72
     1
 73
     1
 74
     0
  7
monochrome.stb
 75
     0
147
0.7602684883081268
148
-42.24644198915115
149
-94.15035498936756
100
AcDbLayout
  1
Model
 70
     1
 71
     0
 10
0.0
 20
0.0
 11
12.0
 21
9.0
 12
0.0
 22
0.0
 32
0.0
 14
0.0
 24
0.0
 34
0.0
 15
0.0
 25
0.0
 35
0.0
146
0.0
 13
0.0
 23
0.0
 33
0.0
 16
1.0
 26
0.0
 36
0.0
 17
0.0
 27
1.0
 37
0.0
 76
     0
330
6C
331
57
1001
ACAD_PSEXT
1000
Adobe PDF
1000
Adobe PDF Converter
1000
My Documents\*.pdf
1000

1070
     0
  0
LAYOUT
  5
6B
102
{ACAD_XDICTIONARY
360
9B8
102
}
102
{ACAD_REACTORS
330
62
102
}
330
62
100
AcDbPlotSettings
  1

  2
Microsoft XPS Document Writer
  4

  6

 40
0.0
 41
0.0
 42
0.0
 43
0.0
 44
0.0
 45
0.0
 46
0.0
 47
0.0
 48
0.0
 49
0.0
140
0.0
141
0.0
142
1.0
143
1.0
 70
   688
 72
     0
 73
     0
 74
     5
  7

 75
    16
147
1.0
148
0.0
149
0.0
100
AcDbLayout
  1
レイアウト1
 70
     1
 71
     1
 10
0.0
 20
0.0
 11
12.0
 21
9.0
 12
0.0
 22
0.0
 32
0.0
 14
1.000000000000000E+20
 24
1.000000000000000E+20
 34
1.000000000000000E+20
 15
-1.000000000000000E+20
 25
-1.000000000000000E+20
 35
-1.000000000000000E+20
146
0.0
 13
0.0
 23
0.0
 33
0.0
 16
1.0
 26
0.0
 36
0.0
 17
0.0
 27
1.0
 37
0.0
 76
     0
330
68
  0
LAYOUT
  5
73
102
{ACAD_XDICTIONARY
360
9BC
102
}
102
{ACAD_REACTORS
330
62
102
}
330
62
100
AcDbPlotSettings
  1

  2
Microsoft XPS Document Writer
  4

  6

 40
0.0
 41
0.0
 42
0.0
 43
0.0
 44
0.0
 45
0.0
 46
0.0
 47
0.0
 48
0.0
 49
0.0
140
0.0
141
0.0
142
1.0
143
1.0
 70
   688
 72
     0
 73
     0
 74
     5
  7

 75
    16
147
1.0
148
0.0
149
0.0
100
AcDbLayout
  1
レイアウト2
 70
     1
 71
     2
 10
0.0
 20
0.0
 11
12.0
 21
9.0
 12
0.0
 22
0.0
 32
0.0
 14
0.0
 24
0.0
 34
0.0
 15
0.0
 25
0.0
 35
0.0
146
0.0
 13
0.0
 23
0.0
 33
0.0
 16
1.0
 26
0.0
 36
0.0
 17
0.0
 27
1.0
 37
0.0
 76
     0
330
70
  0
MATERIAL
  5
19
102
{ACAD_XDICTIONARY
360
1A
102
}
102
{ACAD_REACTORS
330
10
102
}
330
10
100
AcDbMaterial
  1
ByBlock
 72
     0
 43
0.0208333333333333
 43
0.0
 43
0.0
 43
0.0
 43
0.0
 43
0.0208333333333333
 43
0.0
 43
0.0
 43
0.0
 43
0.0
 43
1.0
 43
0.0
 43
0.0
 43
0.0
 43
0.0
 43
1.0
 77
     0
 47
0.0208333333333333
 47
0.0
 47
0.0
 47
0.0
 47
0.0
 47
0.0208333333333333
 47
0.0
 47
0.0
 47
0.0
 47
0.0
 47
1.0
 47
0.0
 47
0.0
 47
0.0
 47
0.0
 47
1.0
171
     0
 49
0.0208333333333333
 49
0.0
 49
0.0
 49
0.0
 49
0.0
 49
0.0208333333333333
 49
0.0
 49
0.0
 49
0.0
 49
0.0
 49
1.0
 49
0.0
 49
0.0
 49
0.0
 49
0.0
 49
1.0
175
     0
142
0.0208333333333333
142
0.0
142
0.0
142
0.0
142
0.0
142
0.0208333333333333
142
0.0
142
0.0
142
0.0
142
0.0
142
1.0
142
0.0
142
0.0
142
0.0
142
0.0
142
1.0
179
     0
144
0.0208333333333333
144
0.0
144
0.0
144
0.0
144
0.0
144
0.0208333333333333
144
0.0
144
0.0
144
0.0
144
0.0
144
1.0
144
0.0
144
0.0
144
0.0
144
0.0
144
1.0
147
0.0208333333333333
147
0.0
147
0.0
147
0.0
147
0.0
147
0.0208333333333333
147
0.0
147
0.0
147
0.0
147
0.0
147
1.0
147
0.0
147
0.0
147
0.0
147
0.0
147
1.0
  0
MATERIAL
  5
11
102
{ACAD_XDICTIONARY
360
12
102
}
102
{ACAD_REACTORS
330
10
102
}
330
10
100
AcDbMaterial
  1
ByLayer
 72
     0
 43
0.0208333333333333
 43
0.0
 43
0.0
 43
0.0
 43
0.0
 43
0.0208333333333333
 43
0.0
 43
0.0
 43
0.0
 43
0.0
 43
1.0
 43
0.0
 43
0.0
 43
0.0
 43
0.0
 43
1.0
 77
     0
 47
0.0208333333333333
 47
0.0
 47
0.0
 47
0.0
 47
0.0
 47
0.0208333333333333
 47
0.0
 47
0.0
 47
0.0
 47
0.0
 47
1.0
 47
0.0
 47
0.0
 47
0.0
 47
0.0
 47
1.0
171
     0
 49
0.0208333333333333
 49
0.0
 49
0.0
 49
0.0
 49
0.0
 49
0.0208333333333333
 49
0.0
 49
0.0
 49
0.0
 49
0.0
 49
1.0
 49
0.0
 49
0.0
 49
0.0
 49
0.0
 49
1.0
175
     0
142
0.0208333333333333
142
0.0
142
0.0
142
0.0
142
0.0
142
0.0208333333333333
142
0.0
142
0.0
142
0.0
142
0.0
142
1.0
142
0.0
142
0.0
142
0.0
142
0.0
142
1.0
179
     0
144
0.0208333333333333
144
0.0
144
0.0
144
0.0
144
0.0
144
0.0208333333333333
144
0.0
144
0.0
144
0.0
144
0.0
144
1.0
144
0.0
144
0.0
144
0.0
144
0.0
144
1.0
147
0.0208333333333333
147
0.0
147
0.0
147
0.0
147
0.0
147
0.0208333333333333
147
0.0
147
0.0
147
0.0
147
0.0
147
1.0
147
0.0
147
0.0
147
0.0
147
0.0
147
1.0
  0
MATERIAL
  5
21
102
{ACAD_XDICTIONARY
360
22
102
}
102
{ACAD_REACTORS
330
10
102
}
330
10
100
AcDbMaterial
  1
Global
 72
     0
 43
0.0208333333333333
 43
0.0
 43
0.0
 43
0.0
 43
0.0
 43
0.0208333333333333
 43
0.0
 43
0.0
 43
0.0
 43
0.0
 43
1.0
 43
0.0
 43
0.0
 43
0.0
 43
0.0
 43
1.0
 77
     0
 47
0.0208333333333333
 47
0.0
 47
0.0
 47
0.0
 47
0.0
 47
0.0208333333333333
 47
0.0
 47
0.0
 47
0.0
 47
0.0
 47
1.0
 47
0.0
 47
0.0
 47
0.0
 47
0.0
 47
1.0
171
     0
 49
0.0208333333333333
 49
0.0
 49
0.0
 49
0.0
 49
0.0
 49
0.0208333333333333
 49
0.0
 49
0.0
 49
0.0
 49
0.0
 49
1.0
 49
0.0
 49
0.0
 49
0.0
 49
0.0
 49
1.0
175
     0
142
0.0208333333333333
142
0.0
142
0.0
142
0.0
142
0.0
142
0.0208333333333333
142
0.0
142
0.0
142
0.0
142
0.0
142
1.0
142
0.0
142
0.0
142
0.0
142
0.0
142
1.0
179
     0
144
0.0208333333333333
144
0.0
144
0.0
144
0.0
144
0.0
144
0.0208333333333333
144
0.0
144
0.0
144
0.0
144
0.0
144
1.0
144
0.0
144
0.0
144
0.0
144
0.0
144
1.0
147
0.0208333333333333
147
0.0
147
0.0
147
0.0
147
0.0
147
0.0208333333333333
147
0.0
147
0.0
147
0.0
147
0.0
147
1.0
147
0.0
147
0.0
147
0.0
147
0.0
147
1.0
  0
MLEADERSTYLE
  5
A7
102
{ACAD_REACTORS
330
66
102
}
330
66
100
AcDbMLeaderStyle
170
     1
171
     1
172
     0
 90
        2
 40
0.0
 41
0.0
173
     1
 91
-1073741824
 92
       -2
290
     1
 42
2.0
291
     0
 43
-0.36
  3
Standard
341
7C
 44
2.399999999999999
300

342
76
174
     1
178
     6
175
     1
176
     0
 93
-1023410173
 45
3.0
292
     0
297
     0
 46
4.0
343
A8
 94
-1073741824
 47
1.0
 49
1.0
140
1.0
293
     1
141
0.0
294
     1
177
     0
142
1.0
295
     0
296
     1
143
3.75
1001
ACAD_MLEADERVER
1070
     2
  0
MLEADERSTYLE
  5
67
102
{ACAD_XDICTIONARY
360
981
102
}
102
{ACAD_REACTORS
330
66
102
}
330
66
100
AcDbMLeaderStyle
170
     2
171
     1
172
     0
 90
        2
 40
0.0
 41
0.0
173
     1
 91
-1056964608
340
5B
 92
       -2
290
     1
 42
0.09
291
     1
 43
0.36
  3
Standard
 44
0.18
300

342
55
174
     1
178
     6
175
     1
176
     0
 93
-1056964608
 45
0.18
292
     0
297
     0
 46
0.18
 94
-1056964608
 47
1.0
 49
1.0
140
1.0
293
     1
141
0.0
294
     1
177
     0
142
1.0
295
     0
296
     0
143
0.125
1001
ACAD_MLEADERVER
1070
     2
  0
MLINESTYLE
  5
60
102
{ACAD_REACTORS
330
5F
102
}
330
5F
100
AcDbMlineStyle
  2
STANDARD
 70
     0
  3

 62
   256
 51
90.0
 52
90.0
 71
     2
 49
0.5
 62
   256
  6
BYLAYER
 49
-0.5
 62
   256
  6
BYLAYER
  0
ACDBPLACEHOLDER
  5
86
102
{ACAD_REACTORS
330
E
102
}
330
E
  0
ACDBPLACEHOLDER
  5
F
102
{ACAD_REACTORS
330
E
102
}
330
E
  0
ACDBPLACEHOLDER
  5
87
102
{ACAD_REACTORS
330
E
102
}
330
E
  0
SCALE
  5
88
102
{ACAD_REACTORS
330
42
102
}
330
42
100
AcDbScale
 70
     0
300
3:1
140
3.0
141
1.0
290
     0
  0
SCALE
  5
90
102
{ACAD_REACTORS
330
42
102
}
330
42
100
AcDbScale
 70
     0
300
3/16" = 1'-0"
140
0.1875
141
12.0
290
     0
  0
SCALE
  5
91
102
{ACAD_REACTORS
330
42
102
}
330
42
100
AcDbScale
 70
     0
300
1/4" = 1'-0"
140
0.25
141
12.0
290
     0
  0
SCALE
  5
92
102
{ACAD_REACTORS
330
42
102
}
330
42
100
AcDbScale
 70
     0
300
3/8" = 1'-0"
140
0.375
141
12.0
290
     0
  0
SCALE
  5
93
102
{ACAD_REACTORS
330
42
102
}
330
42
100
AcDbScale
 70
     0
300
1/2" = 1'-0"
140
0.5
141
12.0
290
     0
  0
SCALE
  5
94
102
{ACAD_REACTORS
330
42
102
}
330
42
100
AcDbScale
 70
     0
300
3/4" = 1'-0"
140
0.75
141
12.0
290
     0
  0
SCALE
  5
95
102
{ACAD_REACTORS
330
42
102
}
330
42
100
AcDbScale
 70
     0
300
1" = 1'-0"
140
1.0
141
12.0
290
     0
  0
SCALE
  5
96
102
{ACAD_REACTORS
330
42
102
}
330
42
100
AcDbScale
 70
     0
300
1-1/2" = 1'-0"
140
1.5
141
12.0
290
     0
  0
SCALE
  5
97
102
{ACAD_REACTORS
330
42
102
}
330
42
100
AcDbScale
 70
     0
300
3" = 1'-0"
140
3.0
141
12.0
290
     0
  0
SCALE
  5
98
102
{ACAD_REACTORS
330
42
102
}
330
42
100
AcDbScale
 70
     0
300
6" = 1'-0"
140
6.0
141
12.0
290
     0
  0
SCALE
  5
99
102
{ACAD_REACTORS
330
42
102
}
330
42
100
AcDbScale
 70
     0
300
1'-0" = 1'-0"
140
12.0
141
12.0
290
     0
  0
SCALE
  5
89
102
{ACAD_REACTORS
330
42
102
}
330
42
100
AcDbScale
 70
     0
300
5:1
140
5.0
141
1.0
290
     0
  0
SCALE
  5
8A
102
{ACAD_REACTORS
330
42
102
}
330
42
100
AcDbScale
 70
     0
300
1/128" = 1'-0"
140
0.0078125
141
12.0
290
     0
  0
SCALE
  5
8B
102
{ACAD_REACTORS
330
42
102
}
330
42
100
AcDbScale
 70
     0
300
1/64" = 1'-0"
140
0.015625
141
12.0
290
     0
  0
SCALE
  5
8C
102
{ACAD_REACTORS
330
42
102
}
330
42
100
AcDbScale
 70
     0
300
1/32" = 1'-0"
140
0.03125
141
12.0
290
     0
  0
SCALE
  5
8D
102
{ACAD_REACTORS
330
42
102
}
330
42
100
AcDbScale
 70
     0
300
1/16" = 1'-0"
140
0.0625
141
12.0
290
     0
  0
SCALE
  5
8E
102
{ACAD_REACTORS
330
42
102
}
330
42
100
AcDbScale
 70
     0
300
3/32" = 1'-0"
140
0.09375
141
12.0
290
     0
  0
SCALE
  5
8F
102
{ACAD_REACTORS
330
42
102
}
330
42
100
AcDbScale
 70
     0
300
1/8" = 1'-0"
140
0.125
141
12.0
290
     0
  0
SCALE
  5
43
102
{ACAD_REACTORS
330
42
102
}
330
42
100
AcDbScale
 70
     0
300
1:1
140
1.0
141
1.0
290
     1
  0
SCALE
  5
44
102
{ACAD_REACTORS
330
42
102
}
330
42
100
AcDbScale
 70
     0
300
1:2
140
1.0
141
2.0
290
     0
  0
SCALE
  5
45
102
{ACAD_REACTORS
330
42
102
}
330
42
100
AcDbScale
 70
     0
300
1:4
140
1.0
141
4.0
290
     0
  0
SCALE
  5
46
102
{ACAD_REACTORS
330
42
102
}
330
42
100
AcDbScale
 70
     0
300
1:5
140
1.0
141
5.0
290
     0
  0
SCALE
  5
47
102
{ACAD_REACTORS
330
42
102
}
330
42
100
AcDbScale
 70
     0
300
1:8
140
1.0
141
8.0
290
     0
  0
SCALE
  5
48
102
{ACAD_REACTORS
330
42
102
}
330
42
100
AcDbScale
 70
     0
300
1:10
140
1.0
141
10.0
290
     0
  0
SCALE
  5
49
102
{ACAD_REACTORS
330
42
102
}
330
42
100
AcDbScale
 70
     0
300
1:16
140
1.0
141
16.0
290
     0
  0
SCALE
  5
4A
102
{ACAD_REACTORS
330
42
102
}
330
42
100
AcDbScale
 70
     0
300
1:20
140
1.0
141
20.0
290
     0
  0
SCALE
  5
4B
102
{ACAD_REACTORS
330
42
102
}
330
42
100
AcDbScale
 70
     0
300
1:30
140
1.0
141
30.0
290
     0
  0
SCALE
  5
4C
102
{ACAD_REACTORS
330
42
102
}
330
42
100
AcDbScale
 70
     0
300
1:40
140
1.0
141
40.0
290
     0
  0
SCALE
  5
4D
102
{ACAD_REACTORS
330
42
102
}
330
42
100
AcDbScale
 70
     0
300
1:50
140
1.0
141
50.0
290
     0
  0
SCALE
  5
4E
102
{ACAD_REACTORS
330
42
102
}
330
42
100
AcDbScale
 70
     0
300
1:100
140
1.0
141
100.0
290
     0
  0
SCALE
  5
4F
102
{ACAD_REACTORS
330
42
102
}
330
42
100
AcDbScale
 70
     0
300
2:1
140
2.0
141
1.0
290
     0
  0
SCALE
  5
50
102
{ACAD_REACTORS
330
42
102
}
330
42
100
AcDbScale
 70
     0
300
4:1
140
4.0
141
1.0
290
     0
  0
SCALE
  5
51
102
{ACAD_REACTORS
330
42
102
}
330
42
100
AcDbScale
 70
     0
300
8:1
140
8.0
141
1.0
290
     0
  0
SCALE
  5
52
102
{ACAD_REACTORS
330
42
102
}
330
42
100
AcDbScale
 70
     0
300
10:1
140
10.0
141
1.0
290
     0
  0
SCALE
  5
53
102
{ACAD_REACTORS
330
42
102
}
330
42
100
AcDbScale
 70
     0
300
100:1
140
100.0
141
1.0
290
     0
  0
TABLESTYLE
  5
65
102
{ACAD_XDICTIONARY
360
907
102
}
102
{ACAD_REACTORS
330
64
102
}
330
64
100
AcDbTableStyle
  3
Standard
 70
     0
 71
     3
 40
1.5
 41
1.5
280
     0
281
     0
  7
Standard
140
4.5
170
     2
 62
     0
 63
     7
283
     0
274
    -2
284
     1
 64
     0
275
    -2
285
     1
 65
     0
276
    -2
286
     1
 66
     0
277
    -2
287
     1
 67
     0
278
    -2
288
     1
 68
     0
279
    -2
289
     1
 69
     0
  7
Standard
140
6.0
170
     5
 62
     0
 63
     7
283
     0
274
    -2
284
     1
 64
     0
275
    -2
285
     1
 65
     0
276
    -2
286
     1
 66
     0
277
    -2
287
     1
 67
     0
278
    -2
288
     1
 68
     0
279
    -2
289
     1
 69
     0
  7
Standard
140
4.5
170
     5
 62
     0
 63
     7
283
     0
274
    -2
284
     1
 64
     0
275
    -2
285
     1
 65
     0
276
    -2
286
     1
 66
     0
277
    -2
287
     1
 67
     0
278
    -2
288
     1
 68
     0
279
    -2
289
     1
 69
     0
  0
VISUALSTYLE
  5
2F
102
{ACAD_XDICTIONARY
360
991
102
}
102
{ACAD_REACTORS
330
29
102
}
330
29
100
AcDbVisualStyle
  2

 70
     4
 71
     0
 72
     2
 73
     0
 90
        0
 40
-0.6
 41
-30.0
 62
     5
 63
     7
 74
     1
 91
        4
 64
     7
 65
   257
 75
     1
175
     1
 42
1.0
 92
        0
 66
   257
 43
1.0
 76
     1
 77
     6
 78
     2
 67
     7
 79
     5
170
     0
171
     0
290
     0
174
     0
 93
        1
 44
0.0
173
     0
291
     0
 45
0.0
1001
ACAD
1000
AcDbSavedByObjectVersion
1070
     0
  0
VISUALSTYLE
  5
2E
102
{ACAD_XDICTIONARY
360
98F
102
}
102
{ACAD_REACTORS
330
29
102
}
330
29
100
AcDbVisualStyle
  2

 70
     7
 71
     1
 72
     0
 73
     1
 90
        0
 40
-0.6
 41
-30.0
 62
     5
 63
     7
 74
     0
 91
        4
 64
     7
 65
   257
 75
     1
175
     1
 42
1.0
 92
        8
 66
     7
 43
1.0
 76
     1
 77
     6
 78
     2
 67
     7
 79
     5
170
     0
171
     0
290
     0
174
     0
 93
        1
 44
0.0
173
     0
291
     1
 45
0.0
1001
ACAD
1000
AcDbSavedByObjectVersion
1070
     0
  0
VISUALSTYLE
  5
35
102
{ACAD_XDICTIONARY
360
99D
102
}
102
{ACAD_REACTORS
330
29
102
}
330
29
100
AcDbVisualStyle
  2

 70
    12
 71
     2
 72
     2
 73
     0
 90
        0
 40
-0.6
 41
-30.0
 62
     5
 63
     7
 74
     1
 91
        4
 64
     7
 65
   257
 75
     1
175
     1
 42
1.0
 92
        8
 66
     7
 43
1.0
 76
     1
 77
     6
 78
     2
 67
     7
 79
     5
170
     0
171
     0
290
     0
174
     0
 93
        1
 44
50.0
173
     0
291
     1
 45
0.0
1001
ACAD
1000
AcDbSavedByObjectVersion
1070
     0
  0
VISUALSTYLE
  5
39
102
{ACAD_XDICTIONARY
360
9A5
102
}
102
{ACAD_REACTORS
330
29
102
}
330
29
100
AcDbVisualStyle
  2

 70
    16
 71
     2
 72
     2
 73
     3
 90
        0
 40
-0.6
 41
-30.0
 62
     5
 63
     8
 74
     1
 91
        4
 64
     7
 65
   257
 75
     1
175
     1
 42
1.0
 92
        8
 66
     8
 43
1.0
 76
     1
 77
     6
 78
     2
 67
     7
 79
     5
170
     0
171
     0
290
     0
174
     0
 93
        1
 44
0.0
173
     0
291
     1
 45
0.0
1001
ACAD
1000
AcDbSavedByObjectVersion
1070
     0
  0
VISUALSTYLE
  5
32
102
{ACAD_XDICTIONARY
360
997
102
}
102
{ACAD_REACTORS
330
29
102
}
330
29
100
AcDbVisualStyle
  2

 70
     9
 71
     3
 72
     2
 73
     0
 90
        0
 40
-0.6
 41
-30.0
 62
     5
 63
     7
 74
     2
 91
        2
 64
     7
 65
   257
 75
     1
175
     1
 42
179.0
 92
        8
 66
     7
 43
1.0
 76
     1
 77
     6
 78
     2
 67
     7
 79
     3
170
     0
171
     0
290
     0
174
     0
 93
        1
 44
0.0
173
     0
291
     0
 45
0.0
1001
ACAD
1000
AcDbSavedByObjectVersion
1070
     0
  0
VISUALSTYLE
  5
34
102
{ACAD_XDICTIONARY
360
99B
102
}
102
{ACAD_REACTORS
330
29
102
}
330
29
100
AcDbVisualStyle
  2

 70
    11
 71
     2
 72
     2
 73
     0
 90
        0
 40
-0.6
 41
-30.0
 62
     5
 63
     7
 74
     1
 91
        4
 64
     7
 65
   257
 75
     1
175
     1
 42
1.0
 92
        8
 66
     7
 43
1.0
 76
     1
 77
     6
 78
     2
 67
     7
 79
     5
170
     0
171
     0
290
     0
174
     0
 93
        1
 44
-50.0
173
     0
291
     1
 45
0.0
1001
ACAD
1000
AcDbSavedByObjectVersion
1070
     0
  0
VISUALSTYLE
  5
41
102
{ACAD_XDICTIONARY
360
9B5
102
}
102
{ACAD_REACTORS
330
29
102
}
330
29
100
AcDbVisualStyle
  2

 70
    22
 71
     2
 72
     2
 73
     0
 90
        0
 40
-0.6
 41
-30.0
 62
     5
 63
     7
 74
     1
 91
        4
 64
     7
 65
   257
 75
     1
175
     1
 42
1.0
 92
        8
 66
     7
 43
1.0
 76
     1
 77
     6
 78
     2
 67
     7
 79
     5
170
     0
171
     0
290
     0
174
     0
 93
        1
 44
0.0
173
     0
291
     1
 45
0.0
1001
ACAD
1000
AcDbSavedByObjectVersion
1070
     0
  0
VISUALSTYLE
  5
38
102
{ACAD_XDICTIONARY
360
9A3
102
}
102
{ACAD_REACTORS
330
29
102
}
330
29
100
AcDbVisualStyle
  2

 70
    15
 71
     2
 72
     2
 73
     0
 90
        0
 40
-0.6
 41
-30.0
 62
     5
 63
     7
 74
     1
 91
        4
 64
     7
 65
   257
 75
     1
175
     1
 42
1.0
 92
        8
 66
     7
 43
1.0
 76
     1
 77
     6
 78
     2
 67
     7
 79
     5
170
     0
171
     0
290
     0
174
     0
 93
        1
 44
0.0
173
     0
291
     1
 45
0.0
1001
ACAD
1000
AcDbSavedByObjectVersion
1070
     0
  0
VISUALSTYLE
  5
2A
102
{ACAD_XDICTIONARY
360
987
102
}
102
{ACAD_REACTORS
330
29
102
}
330
29
100
AcDbVisualStyle
  2

 70
     0
 71
     2
 72
     1
 73
     1
 90
        2
 40
-0.6
 41
30.0
 62
     5
 63
     7
 74
     0
 91
        0
 64
     7
 65
   257
 75
     1
175
     1
 42
1.0
 92
        8
 66
     7
 43
1.0
 76
     1
 77
     6
 78
     2
 67
     7
 79
     5
170
     0
171
     0
290
     0
174
     0
 93
       13
 44
0.0
173
     0
291
     1
 45
0.0
1001
ACAD
1000
AcDbSavedByObjectVersion
1070
     0
  0
VISUALSTYLE
  5
2B
102
{ACAD_XDICTIONARY
360
989
102
}
102
{ACAD_REACTORS
330
29
102
}
330
29
100
AcDbVisualStyle
  2

 70
     1
 71
     2
 72
     1
 73
     1
 90
        2
 40
-0.6
 41
30.0
 62
     5
 63
     7
 74
     1
 91
        0
 64
     7
 65
   257
 75
     1
175
     1
 42
1.0
 92
        0
 66
   257
 43
1.0
 76
     1
 77
     6
 78
     2
 67
     7
 79
     5
170
     0
171
     0
290
     0
174
     0
 93
       13
 44
0.0
173
     0
291
     1
 45
0.0
1001
ACAD
1000
AcDbSavedByObjectVersion
1070
     0
  0
VISUALSTYLE
  5
2C
102
{ACAD_XDICTIONARY
360
98B
102
}
102
{ACAD_REACTORS
330
29
102
}
330
29
100
AcDbVisualStyle
  2

 70
     2
 71
     2
 72
     2
 73
     1
 90
        2
 40
-0.6
 41
30.0
 62
     5
 63
     7
 74
     0
 91
        0
 64
     7
 65
   257
 75
     1
175
     1
 42
1.0
 92
        0
 66
     7
 43
1.0
 76
     1
 77
     6
 78
     2
 67
     7
 79
     5
170
     0
171
     0
290
     0
174
     0
 93
       13
 44
0.0
173
     0
291
     1
 45
0.0
1001
ACAD
1000
AcDbSavedByObjectVersion
1070
     0
  0
VISUALSTYLE
  5
2D
102
{ACAD_XDICTIONARY
360
98D
102
}
102
{ACAD_REACTORS
330
29
102
}
330
29
100
AcDbVisualStyle
  2

 70
     3
 71
     2
 72
     2
 73
     1
 90
        2
 40
-0.6
 41
30.0
 62
     5
 63
     7
 74
     1
 91
        0
 64
     7
 65
   257
 75
     1
175
     1
 42
1.0
 92
        0
 66
   257
 43
1.0
 76
     1
 77
     6
 78
     2
 67
     7
 79
     5
170
     0
171
     0
290
     0
174
     0
 93
       13
 44
0.0
173
     0
291
     1
 45
0.0
1001
ACAD
1000
AcDbSavedByObjectVersion
1070
     0
  0
VISUALSTYLE
  5
31
102
{ACAD_XDICTIONARY
360
995
102
}
102
{ACAD_REACTORS
330
29
102
}
330
29
100
AcDbVisualStyle
  2

 70
     6
 71
     1
 72
     2
 73
     2
 90
        0
 40
-0.6
 41
-30.0
 62
     5
 63
     7
 74
     2
 91
        2
 64
     7
 65
   257
 75
     2
175
     1
 42
40.0
 92
        0
 66
   257
 43
1.0
 76
     1
 77
     6
 78
     2
 67
     7
 79
     3
170
     0
171
     0
290
     0
174
     0
 93
        1
 44
0.0
173
     0
291
     0
 45
0.0
1001
ACAD
1000
AcDbSavedByObjectVersion
1070
     0
  0
VISUALSTYLE
  5
3F
102
{ACAD_XDICTIONARY
360
9B1
102
}
102
{ACAD_REACTORS
330
29
102
}
330
29
100
AcDbVisualStyle
  2

 70
    20
 71
     2
 72
     2
 73
     0
 90
        0
 40
-0.6
 41
-30.0
 62
     5
 63
     7
 74
     1
 91
        4
 64
     7
 65
   257
 75
     1
175
     1
 42
1.0
 92
       10
 66
     7
 43
1.0
 76
     1
 77
     6
 78
     2
 67
     7
 79
     5
170
     0
171
     0
290
     0
174
     0
 93
        1
 44
0.0
173
     0
291
     1
 45
0.0
1001
ACAD
1000
AcDbSavedByObjectVersion
1070
     0
  0
VISUALSTYLE
  5
37
102
{ACAD_XDICTIONARY
360
9A1
102
}
102
{ACAD_REACTORS
330
29
102
}
330
29
100
AcDbVisualStyle
  2

 70
    14
 71
     2
 72
     2
 73
     0
 90
        0
 40
-0.6
 41
-30.0
 62
     5
 63
     7
 74
     1
 91
        4
 64
     7
 65
   257
 75
     7
175
     7
 42
1.0
 92
        8
 66
     7
 43
1.0
 76
     1
 77
     6
 78
     2
 67
     7
 79
     5
170
     0
171
     0
290
     0
174
     0
 93
        1
 44
0.0
173
     0
291
     1
 45
0.0
1001
ACAD
1000
AcDbSavedByObjectVersion
1070
     0
  0
VISUALSTYLE
  5
40
102
{ACAD_XDICTIONARY
360
9B3
102
}
102
{ACAD_REACTORS
330
29
102
}
330
29
100
AcDbVisualStyle
  2

 70
    21
 71
     2
 72
     2
 73
     0
 90
        0
 40
-0.6
 41
-30.0
 62
     5
 63
     7
 74
     1
 91
        4
 64
     7
 65
   257
 75
     1
175
     1
 42
1.0
 92
        9
 66
     7
 43
1.0
 76
     1
 77
     6
 78
     2
 67
     7
 79
     5
170
     0
171
     0
290
     0
174
     0
 93
        1
 44
0.0
173
     0
291
     1
 45
0.0
1001
ACAD
1000
AcDbSavedByObjectVersion
1070
     0
  0
VISUALSTYLE
  5
33
102
{ACAD_XDICTIONARY
360
999
102
}
102
{ACAD_REACTORS
330
29
102
}
330
29
100
AcDbVisualStyle
  2

 70
     8
 71
     2
 72
     3
 73
     0
 90
        2
 40
-0.6
 41
30.0
 62
     5
 63
     7
 74
     0
 91
        0
 64
     7
 65
   257
 75
     1
175
     1
 42
1.0
 92
        8
 66
   257
 43
1.0
 76
     1
 77
     6
 78
     2
 67
     7
 79
     3
170
     0
171
     0
290
     0
174
     0
 93
       13
 44
0.0
173
     0
291
     0
 45
0.0
1001
ACAD
1000
AcDbSavedByObjectVersion
1070
     0
  0
VISUALSTYLE
  5
3E
102
{ACAD_XDICTIONARY
360
9AF
102
}
102
{ACAD_REACTORS
330
29
102
}
330
29
100
AcDbVisualStyle
  2

 70
    27
 71
     2
 72
     2
 73
     1
 90
        2
 40
-0.6
 41
30.0
 62
     5
 63
     7
 74
     0
 91
        4
 64
     7
 65
   257
 75
     1
175
     1
 42
1.0
 92
        8
 66
   257
 43
1.0
 76
     1
 77
     6
 78
     2
 67
     8
 79
     3
170
     0
171
     0
290
     0
174
     0
 93
        5
 44
0.0
173
     0
291
     0
 45
0.0
1001
ACAD
1000
AcDbSavedByObjectVersion
1070
     0
  0
VISUALSTYLE
  5
3D
102
{ACAD_XDICTIONARY
360
9AD
102
}
102
{ACAD_REACTORS
330
29
102
}
330
29
100
AcDbVisualStyle
  2

 70
    26
 71
     2
 72
     2
 73
     1
 90
        2
 40
-0.6
 41
30.0
 62
     5
 63
     7
 74
     1
 91
       10
 64
     7
 65
   257
 75
     2
175
     1
 42
1.0
 92
        8
 66
   257
 43
1.0
 76
     1
 77
     6
 78
     2
 67
     7
 79
     3
170
     0
171
     0
290
     0
174
     0
 93
        5
 44
0.0
173
     0
291
     0
 45
0.0
1001
ACAD
1000
AcDbSavedByObjectVersion
1070
     0
  0
VISUALSTYLE
  5
3A
102
{ACAD_XDICTIONARY
360
9A7
102
}
102
{ACAD_REACTORS
330
29
102
}
330
29
100
AcDbVisualStyle
  2

 70
    23
 71
     2
 72
     2
 73
     3
 90
        0
 40
-0.6
 41
-30.0
 62
     5
 63
     7
 74
     2
 91
        2
 64
     7
 65
     7
 75
     1
175
     1
 42
40.0
 92
        8
 66
     7
 43
1.0
 76
     1
 77
     6
 78
     2
 67
     7
 79
     3
170
     0
171
     0
290
     0
174
     0
 93
        1
 44
0.0
173
     0
291
     0
 45
0.0
1001
ACAD
1000
AcDbSavedByObjectVersion
1070
     0
  0
VISUALSTYLE
  5
3B
102
{ACAD_XDICTIONARY
360
9A9
102
}
102
{ACAD_REACTORS
330
29
102
}
330
29
100
AcDbVisualStyle
  2

 70
    24
 71
     1
 72
     2
 73
     2
 90
        0
 40
-0.6
 41
-30.0
 62
     5
 63
     7
 74
     2
 91
        2
 64
     7
 65
     7
 75
     1
175
     1
 42
40.0
 92
       11
 66
     7
 43
1.0
 76
     1
 77
     6
 78
     2
 67
     7
 79
     6
170
     0
171
     0
290
     0
174
     0
 93
        1
 44
0.0
173
     0
291
     0
 45
0.0
1001
ACAD
1000
AcDbSavedByObjectVersion
1070
     0
  0
VISUALSTYLE
  5
36
102
{ACAD_XDICTIONARY
360
99F
102
}
102
{ACAD_REACTORS
330
29
102
}
330
29
100
AcDbVisualStyle
  2

 70
    13
 71
     2
 72
     2
 73
     0
 90
        0
 40
-0.6
 41
-30.0
 62
     5
 63
     7
 74
     1
 91
        4
 64
     7
 65
   257
 75
     1
175
     1
 42
1.0
 92
       12
 66
     7
 43
1.0
 76
     1
 77
     6
 78
     2
 67
     7
 79
     5
170
     0
171
     0
290
     0
174
     0
 93
        1
 44
0.0
173
     0
291
     1
 45
0.0
1001
ACAD
1000
AcDbSavedByObjectVersion
1070
     0
  0
VISUALSTYLE
  5
30
102
{ACAD_XDICTIONARY
360
993
102
}
102
{ACAD_REACTORS
330
29
102
}
330
29
100
AcDbVisualStyle
  2

 70
     5
 71
     0
 72
     2
 73
     0
 90
        0
 40
-0.6
 41
-30.0
 62
     5
 63
     7
 74
     1
 91
        4
 64
     7
 65
   257
 75
     1
175
     1
 42
1.0
 92
        0
 66
   257
 43
1.0
 76
     1
 77
     6
 78
     2
 67
     7
 79
     3
170
     0
171
     0
290
     0
174
     0
 93
        1
 44
0.0
173
     0
291
     0
 45
0.0
1001
ACAD
1000
AcDbSavedByObjectVersion
1070
     0
  0
VISUALSTYLE
  5
3C
102
{ACAD_XDICTIONARY
360
9AB
102
}
102
{ACAD_REACTORS
330
29
102
}
330
29
100
AcDbVisualStyle
  2

 70
    25
 71
     2
 72
     2
 73
     1
 90
        1
 40
0.5
 41
-30.0
 62
     5
 63
     7
 74
     1
 91
        0
 64
     7
 65
   257
 75
     1
175
     1
 42
1.0
 92
        8
 66
     7
 43
1.0
 76
     1
 77
     6
 78
     2
 67
     7
 79
     3
170
     0
171
     0
290
     0
174
     0
 93
       13
 44
0.0
173
     0
291
     0
 45
0.0
1001
ACAD
1000
AcDbSavedByObjectVersion
1070
     0
  0
DICTIONARYVAR
  5
8EF
102
{ACAD_REACTORS
330
8EC
102
}
330
8EC
100
DictionaryVariables
280
     0
  1
0
  0
DICTIONARYVAR
  5
8F0
102
{ACAD_REACTORS
330
8EC
102
}
330
8EC
100
DictionaryVariables
280
     0
  1
1:1
  0
DICTIONARYVAR
  5
8EE
102
{ACAD_REACTORS
330
8EC
102
}
330
8EC
100
DictionaryVariables
280
     0
  1
STANDARD
  0
DICTIONARYVAR
  5
8ED
102
{ACAD_REACTORS
330
8EC
102
}
330
8EC
100
DictionaryVariables
280
     0
  1
STANDARD
  0
DICTIONARYVAR
  5
905
102
{ACAD_REACTORS
330
8EC
102
}
330
8EC
100
DictionaryVariables
280
     0
  1
2
  0
DICTIONARYVAR
  5
903
102
{ACAD_REACTORS
330
8EC
102
}
330
8EC
100
DictionaryVariables
280
     0
  1
1
  0
DICTIONARYVAR
  5
902
102
{ACAD_REACTORS
330
8EC
102
}
330
8EC
100
DictionaryVariables
280
     0
  1
0
  0
DICTIONARYVAR
  5
8F1
102
{ACAD_REACTORS
330
8EC
102
}
330
8EC
100
DictionaryVariables
280
     0
  1
1
  0
DICTIONARYVAR
  5
8F2
102
{ACAD_REACTORS
330
8EC
102
}
330
8EC
100
DictionaryVariables
280
     0
  1
15
  0
DICTIONARYVAR
  5
900
102
{ACAD_REACTORS
330
8EC
102
}
330
8EC
100
DictionaryVariables
280
     0
  1
2
  0
DICTIONARYVAR
  5
8FF
102
{ACAD_REACTORS
330
8EC
102
}
330
8EC
100
DictionaryVariables
280
     0
  1
1
  0
DICTIONARYVAR
  5
901
102
{ACAD_REACTORS
330
8EC
102
}
330
8EC
100
DictionaryVariables
280
     0
  1
127
  0
DICTIONARYVAR
  5
97F
102
{ACAD_REACTORS
330
8EC
102
}
330
8EC
100
DictionaryVariables
280
     0
  1
2
  0
XRECORD
  5
9BF
102
{ACAD_REACTORS
330
9BE
102
}
330
9BE
100
AcDbXrecord
280
     1
1070
     0
1070
     1
1070
     1
  0
DICTIONARY
  5
64D
102
{ACAD_REACTORS
330
64C
102
}
330
64C
100
AcDbDictionary
281
     1
  3
*A1
350
64E
  0
DICTIONARY
  5
652
102
{ACAD_REACTORS
330
651
102
}
330
651
100
AcDbDictionary
281
     1
  3
*A1
350
653
  0
DICTIONARY
  5
657
102
{ACAD_REACTORS
330
656
102
}
330
656
100
AcDbDictionary
281
     1
  3
*A1
350
658
  0
DICTIONARY
  5
65C
102
{ACAD_REACTORS
330
65B
102
}
330
65B
100
AcDbDictionary
281
     1
  3
*A1
350
65D
  0
DICTIONARY
  5
661
102
{ACAD_REACTORS
330
660
102
}
330
660
100
AcDbDictionary
281
     1
  3
*A1
350
662
  0
DICTIONARY
  5
666
102
{ACAD_REACTORS
330
665
102
}
330
665
100
AcDbDictionary
281
     1
  3
*A1
350
667
  0
DICTIONARY
  5
6AC
102
{ACAD_REACTORS
330
6AB
102
}
330
6AB
100
AcDbDictionary
281
     1
  3
*A1
350
6AD
  0
DICTIONARY
  5
6B1
102
{ACAD_REACTORS
330
6B0
102
}
330
6B0
100
AcDbDictionary
281
     1
  3
*A1
350
6B2
  0
DICTIONARY
  5
6B6
102
{ACAD_REACTORS
330
6B5
102
}
330
6B5
100
AcDbDictionary
281
     1
  3
*A1
350
6B7
  0
DICTIONARY
  5
6BB
102
{ACAD_REACTORS
330
6BA
102
}
330
6BA
100
AcDbDictionary
281
     1
  3
*A1
350
6BC
  0
DICTIONARY
  5
6C0
102
{ACAD_REACTORS
330
6BF
102
}
330
6BF
100
AcDbDictionary
281
     1
  3
*A1
350
6C1
  0
DICTIONARY
  5
6C5
102
{ACAD_REACTORS
330
6C4
102
}
330
6C4
100
AcDbDictionary
281
     1
  3
*A1
350
6C6
  0
DICTIONARY
  5
7DE
102
{ACAD_REACTORS
330
7DD
102
}
330
7DD
100
AcDbDictionary
281
     1
  0
DICTIONARY
  5
7E3
102
{ACAD_REACTORS
330
7E2
102
}
330
7E2
100
AcDbDictionary
281
     1
  0
DICTIONARY
  5
7E8
102
{ACAD_REACTORS
330
7E7
102
}
330
7E7
100
AcDbDictionary
281
     1
  0
DICTIONARY
  5
7ED
102
{ACAD_REACTORS
330
7EC
102
}
330
7EC
100
AcDbDictionary
281
     1
  0
DICTIONARY
  5
7F2
102
{ACAD_REACTORS
330
7F1
102
}
330
7F1
100
AcDbDictionary
281
     1
  0
DICTIONARY
  5
7F7
102
{ACAD_REACTORS
330
7F6
102
}
330
7F6
100
AcDbDictionary
281
     1
  0
DICTIONARY
  5
806
102
{ACAD_REACTORS
330
805
102
}
330
805
100
AcDbDictionary
281
     1
  0
DICTIONARY
  5
80B
102
{ACAD_REACTORS
330
80A
102
}
330
80A
100
AcDbDictionary
281
     1
  0
DICTIONARY
  5
810
102
{ACAD_REACTORS
330
80F
102
}
330
80F
100
AcDbDictionary
281
     1
  0
DICTIONARY
  5
815
102
{ACAD_REACTORS
330
814
102
}
330
814
100
AcDbDictionary
281
     1
  0
DICTIONARY
  5
81A
102
{ACAD_REACTORS
330
819
102
}
330
819
100
AcDbDictionary
281
     1
  0
DICTIONARY
  5
81F
102
{ACAD_REACTORS
330
81E
102
}
330
81E
100
AcDbDictionary
281
     1
  0
DICTIONARY
  5
82E
102
{ACAD_REACTORS
330
82D
102
}
330
82D
100
AcDbDictionary
281
     1
  0
DICTIONARY
  5
833
102
{ACAD_REACTORS
330
832
102
}
330
832
100
AcDbDictionary
281
     1
  0
DICTIONARY
  5
838
102
{ACAD_REACTORS
330
837
102
}
330
837
100
AcDbDictionary
281
     1
  0
DICTIONARY
  5
83D
102
{ACAD_REACTORS
330
83C
102
}
330
83C
100
AcDbDictionary
281
     1
  0
DICTIONARY
  5
842
102
{ACAD_REACTORS
330
841
102
}
330
841
100
AcDbDictionary
281
     1
  0
DICTIONARY
  5
847
102
{ACAD_REACTORS
330
846
102
}
330
846
100
AcDbDictionary
281
     1
  0
DICTIONARY
  5
9BA
330
6F
100
AcDbDictionary
280
     1
281
     1
  3
ACAD_XREC_ROUNDTRIP
360
9BB
  0
DICTIONARY
  5
9B8
330
6B
100
AcDbDictionary
280
     1
281
     1
  3
ACAD_XREC_ROUNDTRIP
360
9B9
  0
DICTIONARY
  5
9BC
330
73
100
AcDbDictionary
280
     1
281
     1
  3
ACAD_XREC_ROUNDTRIP
360
9BD
  0
DICTIONARY
  5
1A
330
19
100
AcDbDictionary
280
     1
281
     1
  3
ACAD_XREC_ROUNDTRIP
360
910
  3
BUMPTILE
360
1C
  3
DIFFUSETILE
360
1B
  3
OPACITYTILE
360
1F
  3
REFLECTIONTILE
360
1E
  3
REFRACTIONTILE
360
20
  3
SPECULARTILE
360
1D
  0
DICTIONARY
  5
12
330
11
100
AcDbDictionary
280
     1
281
     1
  3
ACAD_XREC_ROUNDTRIP
360
90F
  3
BUMPTILE
360
14
  3
DIFFUSETILE
360
13
  3
OPACITYTILE
360
17
  3
REFLECTIONTILE
360
16
  3
REFRACTIONTILE
360
18
  3
SPECULARTILE
360
15
  0
DICTIONARY
  5
22
330
21
100
AcDbDictionary
280
     1
281
     1
  3
ACAD_XREC_ROUNDTRIP
360
911
  3
BUMPTILE
360
24
  3
DIFFUSETILE
360
23
  3
OPACITYTILE
360
27
  3
REFLECTIONTILE
360
26
  3
REFRACTIONTILE
360
28
  3
SPECULARTILE
360
25
  0
DICTIONARY
  5
981
330
67
100
AcDbDictionary
280
     1
281
     1
  3
ACAD_XREC_ROUNDTRIP
360
982
  0
DICTIONARY
  5
907
330
65
100
AcDbDictionary
280
     1
281
     1
  3
ACAD_ROUNDTRIP_2008_TABLESTYLE_CELLSTYLEMAP
360
980
  3
ACAD_XREC_ROUNDTRIP
360
9B7
  0
DICTIONARY
  5
991
330
2F
100
AcDbDictionary
280
     1
281
     1
  3
ACAD_XREC_ROUNDTRIP
360
992
  0
DICTIONARY
  5
98F
330
2E
100
AcDbDictionary
280
     1
281
     1
  3
ACAD_XREC_ROUNDTRIP
360
990
  0
DICTIONARY
  5
99D
330
35
100
AcDbDictionary
280
     1
281
     1
  3
ACAD_XREC_ROUNDTRIP
360
99E
  0
DICTIONARY
  5
9A5
330
39
100
AcDbDictionary
280
     1
281
     1
  3
ACAD_XREC_ROUNDTRIP
360
9A6
  0
DICTIONARY
  5
997
330
32
100
AcDbDictionary
280
     1
281
     1
  3
ACAD_XREC_ROUNDTRIP
360
998
  0
DICTIONARY
  5
99B
330
34
100
AcDbDictionary
280
     1
281
     1
  3
ACAD_XREC_ROUNDTRIP
360
99C
  0
DICTIONARY
  5
9B5
330
41
100
AcDbDictionary
280
     1
281
     1
  3
ACAD_XREC_ROUNDTRIP
360
9B6
  0
DICTIONARY
  5
9A3
330
38
100
AcDbDictionary
280
     1
281
     1
  3
ACAD_XREC_ROUNDTRIP
360
9A4
  0
DICTIONARY
  5
987
330
2A
100
AcDbDictionary
280
     1
281
     1
  3
ACAD_XREC_ROUNDTRIP
360
988
  0
DICTIONARY
  5
989
330
2B
100
AcDbDictionary
280
     1
281
     1
  3
ACAD_XREC_ROUNDTRIP
360
98A
  0
DICTIONARY
  5
98B
330
2C
100
AcDbDictionary
280
     1
281
     1
  3
ACAD_XREC_ROUNDTRIP
360
98C
  0
DICTIONARY
  5
98D
330
2D
100
AcDbDictionary
280
     1
281
     1
  3
ACAD_XREC_ROUNDTRIP
360
98E
  0
DICTIONARY
  5
995
330
31
100
AcDbDictionary
280
     1
281
     1
  3
ACAD_XREC_ROUNDTRIP
360
996
  0
DICTIONARY
  5
9B1
330
3F
100
AcDbDictionary
280
     1
281
     1
  3
ACAD_XREC_ROUNDTRIP
360
9B2
  0
DICTIONARY
  5
9A1
330
37
100
AcDbDictionary
280
     1
281
     1
  3
ACAD_XREC_ROUNDTRIP
360
9A2
  0
DICTIONARY
  5
9B3
330
40
100
AcDbDictionary
280
     1
281
     1
  3
ACAD_XREC_ROUNDTRIP
360
9B4
  0
DICTIONARY
  5
999
330
33
100
AcDbDictionary
280
     1
281
     1
  3
ACAD_XREC_ROUNDTRIP
360
99A
  0
DICTIONARY
  5
9AF
330
3E
100
AcDbDictionary
280
     1
281
     1
  3
ACAD_XREC_ROUNDTRIP
360
9B0
  0
DICTIONARY
  5
9AD
330
3D
100
AcDbDictionary
280
     1
281
     1
  3
ACAD_XREC_ROUNDTRIP
360
9AE
  0
DICTIONARY
  5
9A7
330
3A
100
AcDbDictionary
280
     1
281
     1
  3
ACAD_XREC_ROUNDTRIP
360
9A8
  0
DICTIONARY
  5
9A9
330
3B
100
AcDbDictionary
280
     1
281
     1
  3
ACAD_XREC_ROUNDTRIP
360
9AA
  0
DICTIONARY
  5
99F
330
36
100
AcDbDictionary
280
     1
281
     1
  3
ACAD_XREC_ROUNDTRIP
360
9A0
  0
DICTIONARY
  5
993
330
30
100
AcDbDictionary
280
     1
281
     1
  3
ACAD_XREC_ROUNDTRIP
360
994
  0
DICTIONARY
  5
9AB
330
3C
100
AcDbDictionary
280
     1
281
     1
  3
ACAD_XREC_ROUNDTRIP
360
9AC
  0
ACDB_MTEXTATTRIBUTEOBJECTCONTEXTDATA_CLASS
  5
64E
102
{ACAD_REACTORS
330
64D
102
}
330
64D
100
AcDbObjectContextData
 70
     3
290
     1
100
AcDbAnnotScaleObjectContextData
340
43
 70
     1
 50
0.0
 10
109.4999995067949
 20
40.00000022203699
 11
109.4999995067949
 21
41.50000022203697
290
     0
  0
ACDB_MTEXTATTRIBUTEOBJECTCONTEXTDATA_CLASS
  5
653
102
{ACAD_REACTORS
330
652
102
}
330
652
100
AcDbObjectContextData
 70
     3
290
     1
100
AcDbAnnotScaleObjectContextData
340
43
 70
     1
 50
0.0
 10
137.9999995067949
 20
40.00000022203699
 11
137.9999995067949
 21
41.50000022203697
290
     0
  0
ACDB_MTEXTATTRIBUTEOBJECTCONTEXTDATA_CLASS
  5
658
102
{ACAD_REACTORS
330
657
102
}
330
657
100
AcDbObjectContextData
 70
     3
290
     1
100
AcDbAnnotScaleObjectContextData
340
43
 70
     1
 50
0.0
 10
176.9999995067949
 20
40.00000022203699
 11
176.9999995067949
 21
41.50000022203697
290
     0
  0
ACDB_MTEXTATTRIBUTEOBJECTCONTEXTDATA_CLASS
  5
65D
102
{ACAD_REACTORS
330
65C
102
}
330
65C
100
AcDbObjectContextData
 70
     3
290
     1
100
AcDbAnnotScaleObjectContextData
340
43
 70
     1
 50
0.0
 10
194.4999995067949
 20
40.00000022203699
 11
194.4999995067949
 21
41.50000022203697
290
     0
  0
ACDB_MTEXTATTRIBUTEOBJECTCONTEXTDATA_CLASS
  5
662
102
{ACAD_REACTORS
330
661
102
}
330
661
100
AcDbObjectContextData
 70
     3
290
     1
100
AcDbAnnotScaleObjectContextData
340
43
 70
     1
 50
0.0
 10
222.9999995067949
 20
40.00000022203699
 11
222.9999995067949
 21
41.50000022203697
290
     0
  0
ACDB_MTEXTATTRIBUTEOBJECTCONTEXTDATA_CLASS
  5
667
102
{ACAD_REACTORS
330
666
102
}
330
666
100
AcDbObjectContextData
 70
     3
290
     1
100
AcDbAnnotScaleObjectContextData
340
43
 70
     1
 50
0.0
 10
268.9999995067949
 20
40.00000022203699
 11
268.9999995067949
 21
41.50000022203697
290
     0
  0
ACDB_MTEXTATTRIBUTEOBJECTCONTEXTDATA_CLASS
  5
6AD
102
{ACAD_REACTORS
330
6AC
102
}
330
6AC
100
AcDbObjectContextData
 70
     3
290
     1
100
AcDbAnnotScaleObjectContextData
340
43
 70
     1
 50
0.0
 10
3.500000000000909
 20
2.000000222036987
 11
3.500000000000909
 21
3.500000222036987
290
     0
  0
ACDB_MTEXTATTRIBUTEOBJECTCONTEXTDATA_CLASS
  5
6B2
102
{ACAD_REACTORS
330
6B1
102
}
330
6B1
100
AcDbObjectContextData
 70
     3
290
     1
100
AcDbAnnotScaleObjectContextData
340
43
 70
     1
 50
0.0
 10
32.00000000000091
 20
2.000000222036987
 11
32.00000000000091
 21
3.500000222036987
290
     0
  0
ACDB_MTEXTATTRIBUTEOBJECTCONTEXTDATA_CLASS
  5
6B7
102
{ACAD_REACTORS
330
6B6
102
}
330
6B6
100
AcDbObjectContextData
 70
     3
290
     1
100
AcDbAnnotScaleObjectContextData
340
43
 70
     1
 50
0.0
 10
71.00000000000091
 20
2.000000222036987
 11
71.00000000000091
 21
3.500000222036987
290
     0
  0
ACDB_MTEXTATTRIBUTEOBJECTCONTEXTDATA_CLASS
  5
6BC
102
{ACAD_REACTORS
330
6BB
102
}
330
6BB
100
AcDbObjectContextData
 70
     3
290
     1
100
AcDbAnnotScaleObjectContextData
340
43
 70
     1
 50
0.0
 10
88.50000000000092
 20
2.000000222036987
 11
88.50000000000092
 21
3.500000222036987
290
     0
  0
ACDB_MTEXTATTRIBUTEOBJECTCONTEXTDATA_CLASS
  5
6C1
102
{ACAD_REACTORS
330
6C0
102
}
330
6C0
100
AcDbObjectContextData
 70
     3
290
     1
100
AcDbAnnotScaleObjectContextData
340
43
 70
     1
 50
0.0
 10
117.0000000000009
 20
2.000000222036987
 11
117.0000000000009
 21
3.500000222036987
290
     0
  0
ACDB_MTEXTATTRIBUTEOBJECTCONTEXTDATA_CLASS
  5
6C6
102
{ACAD_REACTORS
330
6C5
102
}
330
6C5
100
AcDbObjectContextData
 70
     3
290
     1
100
AcDbAnnotScaleObjectContextData
340
43
 70
     1
 50
0.0
 10
163.0000000000009
 20
2.000000222036987
 11
163.0000000000009
 21
3.500000222036987
290
     0
  0
XRECORD
  5
9BB
102
{ACAD_REACTORS
330
9BA
102
}
330
9BA
100
AcDbXrecord
280
     1
102
SHADEPLOT
 70
     0
102
SHADEPLOTRESLEVEL
 70
     2
102
SHADEPLOTCUSTOMDPI
 70
   300
  0
XRECORD
  5
9B9
102
{ACAD_REACTORS
330
9B8
102
}
330
9B8
100
AcDbXrecord
280
     1
102
SHADEPLOT
 70
     0
102
SHADEPLOTRESLEVEL
 70
     2
102
SHADEPLOTCUSTOMDPI
 70
   300
  0
XRECORD
  5
9BD
102
{ACAD_REACTORS
330
9BC
102
}
330
9BC
100
AcDbXrecord
280
     1
102
SHADEPLOT
 70
     0
102
SHADEPLOTRESLEVEL
 70
     2
102
SHADEPLOTCUSTOMDPI
 70
   300
  0
XRECORD
  5
910
102
{ACAD_REACTORS
330
1A
102
}
330
1A
100
AcDbXrecord
280
     1
102
MATERIAL
148
0.0
149
0.0
149
0.0
 93
        0
 94
      127
282
     0
 72
     0
 77
     0
171
     0
175
     0
179
     0
273
     0
  0
XRECORD
  5
1C
102
{ACAD_REACTORS
330
1A
102
}
330
1A
100
AcDbXrecord
280
     1
270
     1
271
     1
  0
XRECORD
  5
1B
102
{ACAD_REACTORS
330
1A
102
}
330
1A
100
AcDbXrecord
280
     1
270
     1
271
     1
  0
XRECORD
  5
1F
102
{ACAD_REACTORS
330
1A
102
}
330
1A
100
AcDbXrecord
280
     1
270
     1
271
     1
  0
XRECORD
  5
1E
102
{ACAD_REACTORS
330
1A
102
}
330
1A
100
AcDbXrecord
280
     1
270
     1
271
     1
  0
XRECORD
  5
20
102
{ACAD_REACTORS
330
1A
102
}
330
1A
100
AcDbXrecord
280
     1
270
     1
271
     1
  0
XRECORD
  5
1D
102
{ACAD_REACTORS
330
1A
102
}
330
1A
100
AcDbXrecord
280
     1
270
     1
271
     1
  0
XRECORD
  5
90F
102
{ACAD_REACTORS
330
12
102
}
330
12
100
AcDbXrecord
280
     1
102
MATERIAL
148
0.0
149
0.0
149
0.0
 93
        0
 94
      127
282
     0
 72
     0
 77
     0
171
     0
175
     0
179
     0
273
     0
  0
XRECORD
  5
14
102
{ACAD_REACTORS
330
12
102
}
330
12
100
AcDbXrecord
280
     1
270
     1
271
     1
  0
XRECORD
  5
13
102
{ACAD_REACTORS
330
12
102
}
330
12
100
AcDbXrecord
280
     1
270
     1
271
     1
  0
XRECORD
  5
17
102
{ACAD_REACTORS
330
12
102
}
330
12
100
AcDbXrecord
280
     1
270
     1
271
     1
  0
XRECORD
  5
16
102
{ACAD_REACTORS
330
12
102
}
330
12
100
AcDbXrecord
280
     1
270
     1
271
     1
  0
XRECORD
  5
18
102
{ACAD_REACTORS
330
12
102
}
330
12
100
AcDbXrecord
280
     1
270
     1
271
     1
  0
XRECORD
  5
15
102
{ACAD_REACTORS
330
12
102
}
330
12
100
AcDbXrecord
280
     1
270
     1
271
     1
  0
XRECORD
  5
911
102
{ACAD_REACTORS
330
22
102
}
330
22
100
AcDbXrecord
280
     1
102
MATERIAL
148
0.0
149
0.0
149
0.0
 93
        0
 94
      127
282
     0
 72
     0
 77
     0
171
     0
175
     0
179
     0
273
     0
  0
XRECORD
  5
24
102
{ACAD_REACTORS
330
22
102
}
330
22
100
AcDbXrecord
280
     1
270
     1
271
     1
  0
XRECORD
  5
23
102
{ACAD_REACTORS
330
22
102
}
330
22
100
AcDbXrecord
280
     1
270
     1
271
     1
  0
XRECORD
  5
27
102
{ACAD_REACTORS
330
22
102
}
330
22
100
AcDbXrecord
280
     1
270
     1
271
     1
  0
XRECORD
  5
26
102
{ACAD_REACTORS
330
22
102
}
330
22
100
AcDbXrecord
280
     1
270
     1
271
     1
  0
XRECORD
  5
28
102
{ACAD_REACTORS
330
22
102
}
330
22
100
AcDbXrecord
280
     1
270
     1
271
     1
  0
XRECORD
  5
25
102
{ACAD_REACTORS
330
22
102
}
330
22
100
AcDbXrecord
280
     1
270
     1
271
     1
  0
XRECORD
  5
982
102
{ACAD_REACTORS
330
981
102
}
330
981
100
AcDbXrecord
280
     1
102
ACAD_ROUNDTRIP_2012_MLEADER_STYLE
298
     1
  0
CELLSTYLEMAP
  5
980
102
{ACAD_REACTORS
330
907
102
}
330
907
100
AcDbCellStyleMap
 90
        3
300
CELLSTYLE
  1
TABLEFORMAT_BEGIN
 90
        5
170
     1
 91
        0
 92
    32768
 62
   257
 93
        1
300
CONTENTFORMAT
  1
CONTENTFORMAT_BEGIN
 90
        0
 91
        0
 92
      512
 93
        0
300

 40
0.0
140
1.0
 94
        5
 62
     0
340
55
144
6.0
309
CONTENTFORMAT_END
171
     1
301
MARGIN
  1
CELLMARGIN_BEGIN
 40
1.5
 40
1.5
 40
1.5
 40
1.5
 40
0.18
 40
0.18
309
CELLMARGIN_END
 94
        6
 95
        1
302
GRIDFORMAT
  1
GRIDFORMAT_BEGIN
 90
        0
 91
        1
 62
     0
 92
       -2
340
0
 93
        0
 40
1.125
309
GRIDFORMAT_END
 95
        2
302
GRIDFORMAT
  1
GRIDFORMAT_BEGIN
 90
        0
 91
        1
 62
     0
 92
       -2
340
0
 93
        0
 40
1.125
309
GRIDFORMAT_END
 95
        4
302
GRIDFORMAT
  1
GRIDFORMAT_BEGIN
 90
        0
 91
        1
 62
     0
 92
       -2
340
0
 93
        0
 40
1.125
309
GRIDFORMAT_END
 95
        8
302
GRIDFORMAT
  1
GRIDFORMAT_BEGIN
 90
        0
 91
        1
 62
     0
 92
       -2
340
0
 93
        0
 40
1.125
309
GRIDFORMAT_END
 95
       16
302
GRIDFORMAT
  1
GRIDFORMAT_BEGIN
 90
        0
 91
        1
 62
     0
 92
       -2
340
0
 93
        0
 40
1.125
309
GRIDFORMAT_END
 95
       32
302
GRIDFORMAT
  1
GRIDFORMAT_BEGIN
 90
        0
 91
        1
 62
     0
 92
       -2
340
0
 93
        0
 40
1.125
309
GRIDFORMAT_END
309
TABLEFORMAT_END
  1
CELLSTYLE_BEGIN
 90
        1
 91
        1
300
_TITLE
309
CELLSTYLE_END
300
CELLSTYLE
  1
TABLEFORMAT_BEGIN
 90
        5
170
     1
 91
        0
 92
        0
 62
   257
 93
        1
300
CONTENTFORMAT
  1
CONTENTFORMAT_BEGIN
 90
        0
 91
        0
 92
      512
 93
        0
300

 40
0.0
140
1.0
 94
        5
 62
     0
340
55
144
4.5
309
CONTENTFORMAT_END
171
     1
301
MARGIN
  1
CELLMARGIN_BEGIN
 40
1.5
 40
1.5
 40
1.5
 40
1.5
 40
0.18
 40
0.18
309
CELLMARGIN_END
 94
        6
 95
        1
302
GRIDFORMAT
  1
GRIDFORMAT_BEGIN
 90
        0
 91
        1
 62
     0
 92
       -2
340
0
 93
        0
 40
1.125
309
GRIDFORMAT_END
 95
        2
302
GRIDFORMAT
  1
GRIDFORMAT_BEGIN
 90
        0
 91
        1
 62
     0
 92
       -2
340
0
 93
        0
 40
1.125
309
GRIDFORMAT_END
 95
        4
302
GRIDFORMAT
  1
GRIDFORMAT_BEGIN
 90
        0
 91
        1
 62
     0
 92
       -2
340
0
 93
        0
 40
1.125
309
GRIDFORMAT_END
 95
        8
302
GRIDFORMAT
  1
GRIDFORMAT_BEGIN
 90
        0
 91
        1
 62
     0
 92
       -2
340
0
 93
        0
 40
1.125
309
GRIDFORMAT_END
 95
       16
302
GRIDFORMAT
  1
GRIDFORMAT_BEGIN
 90
        0
 91
        1
 62
     0
 92
       -2
340
0
 93
        0
 40
1.125
309
GRIDFORMAT_END
 95
       32
302
GRIDFORMAT
  1
GRIDFORMAT_BEGIN
 90
        0
 91
        1
 62
     0
 92
       -2
340
0
 93
        0
 40
1.125
309
GRIDFORMAT_END
309
TABLEFORMAT_END
  1
CELLSTYLE_BEGIN
 90
        2
 91
        1
300
_HEADER
309
CELLSTYLE_END
300
CELLSTYLE
  1
TABLEFORMAT_BEGIN
 90
        5
170
     1
 91
        0
 92
        0
 62
   257
 93
        1
300
CONTENTFORMAT
  1
CONTENTFORMAT_BEGIN
 90
        0
 91
        0
 92
      512
 93
        0
300

 40
0.0
140
1.0
 94
        2
 62
     0
340
55
144
4.5
309
CONTENTFORMAT_END
171
     1
301
MARGIN
  1
CELLMARGIN_BEGIN
 40
1.5
 40
1.5
 40
1.5
 40
1.5
 40
0.18
 40
0.18
309
CELLMARGIN_END
 94
        6
 95
        1
302
GRIDFORMAT
  1
GRIDFORMAT_BEGIN
 90
        0
 91
        1
 62
     0
 92
       -2
340
0
 93
        0
 40
1.125
309
GRIDFORMAT_END
 95
        2
302
GRIDFORMAT
  1
GRIDFORMAT_BEGIN
 90
        0
 91
        1
 62
     0
 92
       -2
340
0
 93
        0
 40
1.125
309
GRIDFORMAT_END
 95
        4
302
GRIDFORMAT
  1
GRIDFORMAT_BEGIN
 90
        0
 91
        1
 62
     0
 92
       -2
340
0
 93
        0
 40
1.125
309
GRIDFORMAT_END
 95
        8
302
GRIDFORMAT
  1
GRIDFORMAT_BEGIN
 90
        0
 91
        1
 62
     0
 92
       -2
340
0
 93
        0
 40
1.125
309
GRIDFORMAT_END
 95
       16
302
GRIDFORMAT
  1
GRIDFORMAT_BEGIN
 90
        0
 91
        1
 62
     0
 92
       -2
340
0
 93
        0
 40
1.125
309
GRIDFORMAT_END
 95
       32
302
GRIDFORMAT
  1
GRIDFORMAT_BEGIN
 90
        0
 91
        1
 62
     0
 92
       -2
340
0
 93
        0
 40
1.125
309
GRIDFORMAT_END
309
TABLEFORMAT_END
  1
CELLSTYLE_BEGIN
 90
        3
 91
        2
300
_DATA
309
CELLSTYLE_END
  0
XRECORD
  5
9B7
102
{ACAD_REACTORS
330
907
102
}
330
907
100
AcDbXrecord
280
     1
102
ACAD_ROUNDTRIP_PRE2007_TABLESTYLE
 90
      512
 91
        0
  1

 92
      512
 93
        0
  2

 94
      512
 95
        0
  3

  0
XRECORD
  5
992
102
{ACAD_REACTORS
330
991
102
}
330
991
100
AcDbXrecord
280
     1
102
RTVSPropertyOp0
 70
     1
102
RTVSPropertyOp1
 70
     1
102
RTVSPropertyOp2
 70
     1
102
RTVSPropertyOp3
 70
     1
102
RTVSPropertyOp4
 70
     1
102
RTVSPropertyOp5
 70
     1
102
RTVSPropertyOp6
 70
     1
102
RTVSPropertyOp7
 70
     1
102
RTVSPropertyOp8
 70
     1
102
RTVSPropertyOp9
 70
     1
102
RTVSPropertyOp10
 70
     1
102
RTVSPropertyOp11
 70
     1
102
RTVSPropertyOp12
 70
     1
102
RTVSPropertyOp13
 70
     1
102
RTVSPropertyOp14
 70
     1
102
RTVSPropertyOp15
 70
     1
102
RTVSPropertyOp16
 70
     1
102
RTVSPropertyOp17
 70
     1
102
RTVSPropertyOp18
 70
     1
102
RTVSPropertyOp19
 70
     1
102
RTVSPropertyOp20
 70
     1
102
RTVSPropertyOp21
 70
     1
102
RTVSPropertyOp22
 70
     1
102
RTVSPropertyOp23
 70
     1
102
RTVSPropertyOp24
 70
     1
102
RTVSPropertyOp25
 70
     1
102
RTVSPropertyOp26
 70
     1
102
RTVSPropertyOp27
 70
     1
102
RTVSPropertyOp28
 70
     1
102
RTVSPropertyOp29
 70
     1
102
RTVSPropertyOp30
 70
     1
102
RTVSPropertyOp31
 70
     1
102
RTVSPropertyOp32
 70
     1
  0
XRECORD
  5
990
102
{ACAD_REACTORS
330
98F
102
}
330
98F
100
AcDbXrecord
280
     1
102
RTVSPropertyOp0
 70
     1
102
RTVSPropertyOp1
 70
     1
102
RTVSPropertyOp2
 70
     1
102
RTVSPropertyOp3
 70
     1
102
RTVSPropertyOp4
 70
     1
102
RTVSPropertyOp5
 70
     1
102
RTVSPropertyOp6
 70
     1
102
RTVSPropertyOp7
 70
     1
102
RTVSPropertyOp8
 70
     1
102
RTVSPropertyOp9
 70
     1
102
RTVSPropertyOp10
 70
     1
102
RTVSPropertyOp11
 70
     1
102
RTVSPropertyOp12
 70
     1
102
RTVSPropertyOp13
 70
     1
102
RTVSPropertyOp14
 70
     1
102
RTVSPropertyOp15
 70
     1
102
RTVSPropertyOp16
 70
     1
102
RTVSPropertyOp17
 70
     1
102
RTVSPropertyOp18
 70
     1
102
RTVSPropertyOp19
 70
     1
102
RTVSPropertyOp20
 70
     1
102
RTVSPropertyOp21
 70
     1
102
RTVSPropertyOp22
 70
     1
102
RTVSPropertyOp23
 70
     1
102
RTVSPropertyOp24
 70
     1
102
RTVSPropertyOp25
 70
     1
102
RTVSPropertyOp26
 70
     1
102
RTVSPropertyOp27
 70
     1
102
RTVSPropertyOp28
 70
     1
102
RTVSPropertyOp29
 70
     1
102
RTVSPropertyOp30
 70
     1
102
RTVSPropertyOp31
 70
     1
102
RTVSPropertyOp32
 70
     1
  0
XRECORD
  5
99E
102
{ACAD_REACTORS
330
99D
102
}
330
99D
100
AcDbXrecord
280
     1
102
RTVSPropertyOp0
 70
     1
102
RTVSPropertyOp1
 70
     1
102
RTVSPropertyOp2
 70
     1
102
RTVSPropertyOp3
 70
     1
102
RTVSPropertyOp4
 70
     1
102
RTVSPropertyOp5
 70
     1
102
RTVSPropertyOp6
 70
     1
102
RTVSPropertyOp7
 70
     1
102
RTVSPropertyOp8
 70
     1
102
RTVSPropertyOp9
 70
     1
102
RTVSPropertyOp10
 70
     1
102
RTVSPropertyOp11
 70
     1
102
RTVSPropertyOp12
 70
     1
102
RTVSPropertyOp13
 70
     1
102
RTVSPropertyOp14
 70
     1
102
RTVSPropertyOp15
 70
     1
102
RTVSPropertyOp16
 70
     1
102
RTVSPropertyOp17
 70
     1
102
RTVSPropertyOp18
 70
     1
102
RTVSPropertyOp19
 70
     1
102
RTVSPropertyOp20
 70
     1
102
RTVSPropertyOp21
 70
     1
102
RTVSPropertyOp22
 70
     1
102
RTVSPropertyOp23
 70
     1
102
RTVSPropertyOp24
 70
     1
102
RTVSPropertyOp25
 70
     1
102
RTVSPropertyOp26
 70
     1
102
RTVSPropertyOp27
 70
     1
102
RTVSPropertyOp28
 70
     1
102
RTVSPropertyOp29
 70
     1
102
RTVSPropertyOp30
 70
     1
102
RTVSPropertyOp31
 70
     1
102
RTVSPropertyOp32
 70
     1
  0
XRECORD
  5
9A6
102
{ACAD_REACTORS
330
9A5
102
}
330
9A5
100
AcDbXrecord
280
     1
102
RTVSPropertyOp0
 70
     1
102
RTVSPropertyOp1
 70
     1
102
RTVSPropertyOp2
 70
     1
102
RTVSPropertyOp3
 70
     1
102
RTVSPropertyOp4
 70
     1
102
RTVSPropertyOp5
 70
     1
102
RTVSPropertyOp6
 70
     1
102
RTVSPropertyOp7
 70
     1
102
RTVSPropertyOp8
 70
     1
102
RTVSPropertyOp9
 70
     1
102
RTVSPropertyOp10
 70
     1
102
RTVSPropertyOp11
 70
     1
102
RTVSPropertyOp12
 70
     1
102
RTVSPropertyOp13
 70
     1
102
RTVSPropertyOp14
 70
     1
102
RTVSPropertyOp15
 70
     1
102
RTVSPropertyOp16
 70
     1
102
RTVSPropertyOp17
 70
     1
102
RTVSPropertyOp18
 70
     1
102
RTVSPropertyOp19
 70
     1
102
RTVSPropertyOp20
 70
     1
102
RTVSPropertyOp21
 70
     1
102
RTVSPropertyOp22
 70
     1
102
RTVSPropertyOp23
 70
     1
102
RTVSPropertyOp24
 70
     1
102
RTVSPropertyOp25
 70
     1
102
RTVSPropertyOp26
 70
     1
102
RTVSPropertyOp27
 70
     1
102
RTVSPropertyOp28
 70
     1
102
RTVSPropertyOp29
 70
     1
102
RTVSPropertyOp30
 70
     1
102
RTVSPropertyOp31
 70
     1
102
RTVSPropertyOp32
 70
     1
  0
XRECORD
  5
998
102
{ACAD_REACTORS
330
997
102
}
330
997
100
AcDbXrecord
280
     1
102
RTVSPropertyOp0
 70
     1
102
RTVSPropertyOp1
 70
     1
102
RTVSPropertyOp2
 70
     1
102
RTVSPropertyOp3
 70
     1
102
RTVSPropertyOp4
 70
     1
102
RTVSPropertyOp5
 70
     1
102
RTVSPropertyOp6
 70
     1
102
RTVSPropertyOp7
 70
     1
102
RTVSPropertyOp8
 70
     1
102
RTVSPropertyOp9
 70
     1
102
RTVSPropertyOp10
 70
     1
102
RTVSPropertyOp11
 70
     1
102
RTVSPropertyOp12
 70
     1
102
RTVSPropertyOp13
 70
     1
102
RTVSPropertyOp14
 70
     1
102
RTVSPropertyOp15
 70
     1
102
RTVSPropertyOp16
 70
     1
102
RTVSPropertyOp17
 70
     1
102
RTVSPropertyOp18
 70
     1
102
RTVSPropertyOp19
 70
     1
102
RTVSPropertyOp20
 70
     1
102
RTVSPropertyOp21
 70
     1
102
RTVSPropertyOp22
 70
     1
102
RTVSPropertyOp23
 70
     1
102
RTVSPropertyOp24
 70
     1
102
RTVSPropertyOp25
 70
     1
102
RTVSPropertyOp26
 70
     1
102
RTVSPropertyOp27
 70
     1
102
RTVSPropertyOp28
 70
     1
102
RTVSPropertyOp29
 70
     1
102
RTVSPropertyOp30
 70
     1
102
RTVSPropertyOp31
 70
     1
102
RTVSPropertyOp32
 70
     1
  0
XRECORD
  5
99C
102
{ACAD_REACTORS
330
99B
102
}
330
99B
100
AcDbXrecord
280
     1
102
RTVSPropertyOp0
 70
     1
102
RTVSPropertyOp1
 70
     1
102
RTVSPropertyOp2
 70
     1
102
RTVSPropertyOp3
 70
     1
102
RTVSPropertyOp4
 70
     1
102
RTVSPropertyOp5
 70
     1
102
RTVSPropertyOp6
 70
     1
102
RTVSPropertyOp7
 70
     1
102
RTVSPropertyOp8
 70
     1
102
RTVSPropertyOp9
 70
     1
102
RTVSPropertyOp10
 70
     1
102
RTVSPropertyOp11
 70
     1
102
RTVSPropertyOp12
 70
     1
102
RTVSPropertyOp13
 70
     1
102
RTVSPropertyOp14
 70
     1
102
RTVSPropertyOp15
 70
     1
102
RTVSPropertyOp16
 70
     1
102
RTVSPropertyOp17
 70
     1
102
RTVSPropertyOp18
 70
     1
102
RTVSPropertyOp19
 70
     1
102
RTVSPropertyOp20
 70
     1
102
RTVSPropertyOp21
 70
     1
102
RTVSPropertyOp22
 70
     1
102
RTVSPropertyOp23
 70
     1
102
RTVSPropertyOp24
 70
     1
102
RTVSPropertyOp25
 70
     1
102
RTVSPropertyOp26
 70
     1
102
RTVSPropertyOp27
 70
     1
102
RTVSPropertyOp28
 70
     1
102
RTVSPropertyOp29
 70
     1
102
RTVSPropertyOp30
 70
     1
102
RTVSPropertyOp31
 70
     1
102
RTVSPropertyOp32
 70
     1
  0
XRECORD
  5
9B6
102
{ACAD_REACTORS
330
9B5
102
}
330
9B5
100
AcDbXrecord
280
     1
102
RTVSPropertyOp0
 70
     0
102
RTVSPropertyOp1
 70
     0
102
RTVSPropertyOp2
 70
     0
102
RTVSPropertyOp3
 70
     0
102
RTVSPropertyOp4
 70
     0
102
RTVSPropertyOp5
 70
     0
102
RTVSPropertyOp6
 70
     0
102
RTVSPropertyOp7
 70
     0
102
RTVSPropertyOp8
 70
     0
102
RTVSPropertyOp9
 70
     0
102
RTVSPropertyOp10
 70
     0
102
RTVSPropertyOp11
 70
     0
102
RTVSPropertyOp12
 70
     0
102
RTVSPropertyOp13
 70
     0
102
RTVSPropertyOp14
 70
     2
102
RTVSPropertyOp15
 70
     0
102
RTVSPropertyOp16
 70
     0
102
RTVSPropertyOp17
 70
     0
102
RTVSPropertyOp18
 70
     0
102
RTVSPropertyOp19
 70
     0
102
RTVSPropertyOp20
 70
     0
102
RTVSPropertyOp21
 70
     0
102
RTVSPropertyOp22
 70
     0
102
RTVSPropertyOp23
 70
     0
102
RTVSPropertyOp24
 70
     0
102
RTVSPropertyOp25
 70
     0
102
RTVSPropertyOp26
 70
     0
102
RTVSPropertyOp27
 70
     0
102
RTVSPropertyOp28
 70
     1
102
RTVSPropertyOp29
 70
     1
102
RTVSPropertyOp30
 70
     1
102
RTVSPropertyOp31
 70
     1
102
RTVSPropertyOp32
 70
     1
  0
XRECORD
  5
9A4
102
{ACAD_REACTORS
330
9A3
102
}
330
9A3
100
AcDbXrecord
280
     1
102
RTVSPropertyOp0
 70
     1
102
RTVSPropertyOp1
 70
     1
102
RTVSPropertyOp2
 70
     1
102
RTVSPropertyOp3
 70
     1
102
RTVSPropertyOp4
 70
     1
102
RTVSPropertyOp5
 70
     1
102
RTVSPropertyOp6
 70
     1
102
RTVSPropertyOp7
 70
     1
102
RTVSPropertyOp8
 70
     1
102
RTVSPropertyOp9
 70
     1
102
RTVSPropertyOp10
 70
     1
102
RTVSPropertyOp11
 70
     1
102
RTVSPropertyOp12
 70
     1
102
RTVSPropertyOp13
 70
     1
102
RTVSPropertyOp14
 70
     1
102
RTVSPropertyOp15
 70
     1
102
RTVSPropertyOp16
 70
     1
102
RTVSPropertyOp17
 70
     1
102
RTVSPropertyOp18
 70
     1
102
RTVSPropertyOp19
 70
     1
102
RTVSPropertyOp20
 70
     1
102
RTVSPropertyOp21
 70
     1
102
RTVSPropertyOp22
 70
     1
102
RTVSPropertyOp23
 70
     1
102
RTVSPropertyOp24
 70
     1
102
RTVSPropertyOp25
 70
     1
102
RTVSPropertyOp26
 70
     1
102
RTVSPropertyOp27
 70
     1
102
RTVSPropertyOp28
 70
     1
102
RTVSPropertyOp29
 70
     1
102
RTVSPropertyOp30
 70
     1
102
RTVSPropertyOp31
 70
     1
102
RTVSPropertyOp32
 70
     1
  0
XRECORD
  5
988
102
{ACAD_REACTORS
330
987
102
}
330
987
100
AcDbXrecord
280
     1
102
RTVSPropertyOp0
 70
     1
102
RTVSPropertyOp1
 70
     1
102
RTVSPropertyOp2
 70
     1
102
RTVSPropertyOp3
 70
     1
102
RTVSPropertyOp4
 70
     1
102
RTVSPropertyOp5
 70
     1
102
RTVSPropertyOp6
 70
     1
102
RTVSPropertyOp7
 70
     1
102
RTVSPropertyOp8
 70
     1
102
RTVSPropertyOp9
 70
     1
102
RTVSPropertyOp10
 70
     1
102
RTVSPropertyOp11
 70
     1
102
RTVSPropertyOp12
 70
     1
102
RTVSPropertyOp13
 70
     1
102
RTVSPropertyOp14
 70
     1
102
RTVSPropertyOp15
 70
     1
102
RTVSPropertyOp16
 70
     1
102
RTVSPropertyOp17
 70
     1
102
RTVSPropertyOp18
 70
     1
102
RTVSPropertyOp19
 70
     1
102
RTVSPropertyOp20
 70
     1
102
RTVSPropertyOp21
 70
     1
102
RTVSPropertyOp22
 70
     1
102
RTVSPropertyOp23
 70
     1
102
RTVSPropertyOp24
 70
     1
102
RTVSPropertyOp25
 70
     1
102
RTVSPropertyOp26
 70
     1
102
RTVSPropertyOp27
 70
     1
102
RTVSPropertyOp28
 70
     1
102
RTVSPropertyOp29
 70
     1
102
RTVSPropertyOp30
 70
     1
102
RTVSPropertyOp31
 70
     1
102
RTVSPropertyOp32
 70
     1
  0
XRECORD
  5
98A
102
{ACAD_REACTORS
330
989
102
}
330
989
100
AcDbXrecord
280
     1
102
RTVSPropertyOp0
 70
     1
102
RTVSPropertyOp1
 70
     1
102
RTVSPropertyOp2
 70
     1
102
RTVSPropertyOp3
 70
     1
102
RTVSPropertyOp4
 70
     1
102
RTVSPropertyOp5
 70
     1
102
RTVSPropertyOp6
 70
     1
102
RTVSPropertyOp7
 70
     1
102
RTVSPropertyOp8
 70
     1
102
RTVSPropertyOp9
 70
     1
102
RTVSPropertyOp10
 70
     1
102
RTVSPropertyOp11
 70
     1
102
RTVSPropertyOp12
 70
     1
102
RTVSPropertyOp13
 70
     1
102
RTVSPropertyOp14
 70
     1
102
RTVSPropertyOp15
 70
     1
102
RTVSPropertyOp16
 70
     1
102
RTVSPropertyOp17
 70
     1
102
RTVSPropertyOp18
 70
     1
102
RTVSPropertyOp19
 70
     1
102
RTVSPropertyOp20
 70
     1
102
RTVSPropertyOp21
 70
     1
102
RTVSPropertyOp22
 70
     1
102
RTVSPropertyOp23
 70
     1
102
RTVSPropertyOp24
 70
     1
102
RTVSPropertyOp25
 70
     1
102
RTVSPropertyOp26
 70
     1
102
RTVSPropertyOp27
 70
     1
102
RTVSPropertyOp28
 70
     1
102
RTVSPropertyOp29
 70
     1
102
RTVSPropertyOp30
 70
     1
102
RTVSPropertyOp31
 70
     1
102
RTVSPropertyOp32
 70
     1
  0
XRECORD
  5
98C
102
{ACAD_REACTORS
330
98B
102
}
330
98B
100
AcDbXrecord
280
     1
102
RTVSPropertyOp0
 70
     1
102
RTVSPropertyOp1
 70
     1
102
RTVSPropertyOp2
 70
     1
102
RTVSPropertyOp3
 70
     1
102
RTVSPropertyOp4
 70
     1
102
RTVSPropertyOp5
 70
     1
102
RTVSPropertyOp6
 70
     1
102
RTVSPropertyOp7
 70
     1
102
RTVSPropertyOp8
 70
     1
102
RTVSPropertyOp9
 70
     1
102
RTVSPropertyOp10
 70
     1
102
RTVSPropertyOp11
 70
     1
102
RTVSPropertyOp12
 70
     1
102
RTVSPropertyOp13
 70
     1
102
RTVSPropertyOp14
 70
     1
102
RTVSPropertyOp15
 70
     1
102
RTVSPropertyOp16
 70
     1
102
RTVSPropertyOp17
 70
     1
102
RTVSPropertyOp18
 70
     1
102
RTVSPropertyOp19
 70
     1
102
RTVSPropertyOp20
 70
     1
102
RTVSPropertyOp21
 70
     1
102
RTVSPropertyOp22
 70
     1
102
RTVSPropertyOp23
 70
     1
102
RTVSPropertyOp24
 70
     1
102
RTVSPropertyOp25
 70
     1
102
RTVSPropertyOp26
 70
     1
102
RTVSPropertyOp27
 70
     1
102
RTVSPropertyOp28
 70
     1
102
RTVSPropertyOp29
 70
     1
102
RTVSPropertyOp30
 70
     1
102
RTVSPropertyOp31
 70
     1
102
RTVSPropertyOp32
 70
     1
  0
XRECORD
  5
98E
102
{ACAD_REACTORS
330
98D
102
}
330
98D
100
AcDbXrecord
280
     1
102
RTVSPropertyOp0
 70
     1
102
RTVSPropertyOp1
 70
     1
102
RTVSPropertyOp2
 70
     1
102
RTVSPropertyOp3
 70
     1
102
RTVSPropertyOp4
 70
     1
102
RTVSPropertyOp5
 70
     1
102
RTVSPropertyOp6
 70
     1
102
RTVSPropertyOp7
 70
     1
102
RTVSPropertyOp8
 70
     1
102
RTVSPropertyOp9
 70
     1
102
RTVSPropertyOp10
 70
     1
102
RTVSPropertyOp11
 70
     1
102
RTVSPropertyOp12
 70
     1
102
RTVSPropertyOp13
 70
     1
102
RTVSPropertyOp14
 70
     1
102
RTVSPropertyOp15
 70
     1
102
RTVSPropertyOp16
 70
     1
102
RTVSPropertyOp17
 70
     1
102
RTVSPropertyOp18
 70
     1
102
RTVSPropertyOp19
 70
     1
102
RTVSPropertyOp20
 70
     1
102
RTVSPropertyOp21
 70
     1
102
RTVSPropertyOp22
 70
     1
102
RTVSPropertyOp23
 70
     1
102
RTVSPropertyOp24
 70
     1
102
RTVSPropertyOp25
 70
     1
102
RTVSPropertyOp26
 70
     1
102
RTVSPropertyOp27
 70
     1
102
RTVSPropertyOp28
 70
     1
102
RTVSPropertyOp29
 70
     1
102
RTVSPropertyOp30
 70
     1
102
RTVSPropertyOp31
 70
     1
102
RTVSPropertyOp32
 70
     1
  0
XRECORD
  5
996
102
{ACAD_REACTORS
330
995
102
}
330
995
100
AcDbXrecord
280
     1
102
RTVSPropertyOp0
 70
     1
102
RTVSPropertyOp1
 70
     1
102
RTVSPropertyOp2
 70
     1
102
RTVSPropertyOp3
 70
     1
102
RTVSPropertyOp4
 70
     1
102
RTVSPropertyOp5
 70
     1
102
RTVSPropertyOp6
 70
     1
102
RTVSPropertyOp7
 70
     1
102
RTVSPropertyOp8
 70
     1
102
RTVSPropertyOp9
 70
     1
102
RTVSPropertyOp10
 70
     1
102
RTVSPropertyOp11
 70
     1
102
RTVSPropertyOp12
 70
     1
102
RTVSPropertyOp13
 70
     1
102
RTVSPropertyOp14
 70
     1
102
RTVSPropertyOp15
 70
     1
102
RTVSPropertyOp16
 70
     1
102
RTVSPropertyOp17
 70
     1
102
RTVSPropertyOp18
 70
     1
102
RTVSPropertyOp19
 70
     1
102
RTVSPropertyOp20
 70
     1
102
RTVSPropertyOp21
 70
     1
102
RTVSPropertyOp22
 70
     1
102
RTVSPropertyOp23
 70
     1
102
RTVSPropertyOp24
 70
     1
102
RTVSPropertyOp25
 70
     1
102
RTVSPropertyOp26
 70
     1
102
RTVSPropertyOp27
 70
     1
102
RTVSPropertyOp28
 70
     1
102
RTVSPropertyOp29
 70
     1
102
RTVSPropertyOp30
 70
     1
102
RTVSPropertyOp31
 70
     1
102
RTVSPropertyOp32
 70
     1
  0
XRECORD
  5
9B2
102
{ACAD_REACTORS
330
9B1
102
}
330
9B1
100
AcDbXrecord
280
     1
102
RTVSPropertyOp0
 70
     0
102
RTVSPropertyOp1
 70
     0
102
RTVSPropertyOp2
 70
     0
102
RTVSPropertyOp3
 70
     0
102
RTVSPropertyOp4
 70
     0
102
RTVSPropertyOp5
 70
     0
102
RTVSPropertyOp6
 70
     0
102
RTVSPropertyOp7
 70
     0
102
RTVSPropertyOp8
 70
     0
102
RTVSPropertyOp9
 70
     0
102
RTVSPropertyOp10
 70
     0
102
RTVSPropertyOp11
 70
     0
102
RTVSPropertyOp12
 70
     0
102
RTVSPropertyOp13
 70
     0
102
RTVSPropertyOp14
 70
     2
102
RTVSPropertyOp15
 70
     0
102
RTVSPropertyOp16
 70
     0
102
RTVSPropertyOp17
 70
     0
102
RTVSPropertyOp18
 70
     0
102
RTVSPropertyOp19
 70
     0
102
RTVSPropertyOp20
 70
     0
102
RTVSPropertyOp21
 70
     0
102
RTVSPropertyOp22
 70
     0
102
RTVSPropertyOp23
 70
     0
102
RTVSPropertyOp24
 70
     0
102
RTVSPropertyOp25
 70
     0
102
RTVSPropertyOp26
 70
     0
102
RTVSPropertyOp27
 70
     0
102
RTVSPropertyOp28
 70
     1
102
RTVSPropertyOp29
 70
     1
102
RTVSPropertyOp30
 70
     1
102
RTVSPropertyOp31
 70
     1
102
RTVSPropertyOp32
 70
     1
  0
XRECORD
  5
9A2
102
{ACAD_REACTORS
330
9A1
102
}
330
9A1
100
AcDbXrecord
280
     1
102
RTVSPropertyOp0
 70
     1
102
RTVSPropertyOp1
 70
     1
102
RTVSPropertyOp2
 70
     1
102
RTVSPropertyOp3
 70
     1
102
RTVSPropertyOp4
 70
     1
102
RTVSPropertyOp5
 70
     1
102
RTVSPropertyOp6
 70
     1
102
RTVSPropertyOp7
 70
     1
102
RTVSPropertyOp8
 70
     1
102
RTVSPropertyOp9
 70
     1
102
RTVSPropertyOp10
 70
     1
102
RTVSPropertyOp11
 70
     1
102
RTVSPropertyOp12
 70
     1
102
RTVSPropertyOp13
 70
     1
102
RTVSPropertyOp14
 70
     1
102
RTVSPropertyOp15
 70
     1
102
RTVSPropertyOp16
 70
     1
102
RTVSPropertyOp17
 70
     1
102
RTVSPropertyOp18
 70
     1
102
RTVSPropertyOp19
 70
     1
102
RTVSPropertyOp20
 70
     1
102
RTVSPropertyOp21
 70
     1
102
RTVSPropertyOp22
 70
     1
102
RTVSPropertyOp23
 70
     1
102
RTVSPropertyOp24
 70
     1
102
RTVSPropertyOp25
 70
     1
102
RTVSPropertyOp26
 70
     1
102
RTVSPropertyOp27
 70
     1
102
RTVSPropertyOp28
 70
     1
102
RTVSPropertyOp29
 70
     1
102
RTVSPropertyOp30
 70
     1
102
RTVSPropertyOp31
 70
     1
102
RTVSPropertyOp32
 70
     1
  0
XRECORD
  5
9B4
102
{ACAD_REACTORS
330
9B3
102
}
330
9B3
100
AcDbXrecord
280
     1
102
RTVSPropertyOp0
 70
     0
102
RTVSPropertyOp1
 70
     0
102
RTVSPropertyOp2
 70
     0
102
RTVSPropertyOp3
 70
     0
102
RTVSPropertyOp4
 70
     0
102
RTVSPropertyOp5
 70
     0
102
RTVSPropertyOp6
 70
     0
102
RTVSPropertyOp7
 70
     0
102
RTVSPropertyOp8
 70
     0
102
RTVSPropertyOp9
 70
     0
102
RTVSPropertyOp10
 70
     0
102
RTVSPropertyOp11
 70
     0
102
RTVSPropertyOp12
 70
     0
102
RTVSPropertyOp13
 70
     0
102
RTVSPropertyOp14
 70
     2
102
RTVSPropertyOp15
 70
     0
102
RTVSPropertyOp16
 70
     0
102
RTVSPropertyOp17
 70
     0
102
RTVSPropertyOp18
 70
     0
102
RTVSPropertyOp19
 70
     0
102
RTVSPropertyOp20
 70
     0
102
RTVSPropertyOp21
 70
     0
102
RTVSPropertyOp22
 70
     0
102
RTVSPropertyOp23
 70
     0
102
RTVSPropertyOp24
 70
     0
102
RTVSPropertyOp25
 70
     0
102
RTVSPropertyOp26
 70
     0
102
RTVSPropertyOp27
 70
     0
102
RTVSPropertyOp28
 70
     1
102
RTVSPropertyOp29
 70
     1
102
RTVSPropertyOp30
 70
     1
102
RTVSPropertyOp31
 70
     1
102
RTVSPropertyOp32
 70
     1
  0
XRECORD
  5
99A
102
{ACAD_REACTORS
330
999
102
}
330
999
100
AcDbXrecord
280
     1
102
RTVSPropertyOp0
 70
     1
102
RTVSPropertyOp1
 70
     1
102
RTVSPropertyOp2
 70
     1
102
RTVSPropertyOp3
 70
     1
102
RTVSPropertyOp4
 70
     1
102
RTVSPropertyOp5
 70
     1
102
RTVSPropertyOp6
 70
     1
102
RTVSPropertyOp7
 70
     1
102
RTVSPropertyOp8
 70
     1
102
RTVSPropertyOp9
 70
     1
102
RTVSPropertyOp10
 70
     1
102
RTVSPropertyOp11
 70
     1
102
RTVSPropertyOp12
 70
     1
102
RTVSPropertyOp13
 70
     1
102
RTVSPropertyOp14
 70
     1
102
RTVSPropertyOp15
 70
     1
102
RTVSPropertyOp16
 70
     1
102
RTVSPropertyOp17
 70
     1
102
RTVSPropertyOp18
 70
     1
102
RTVSPropertyOp19
 70
     1
102
RTVSPropertyOp20
 70
     1
102
RTVSPropertyOp21
 70
     1
102
RTVSPropertyOp22
 70
     1
102
RTVSPropertyOp23
 70
     1
102
RTVSPropertyOp24
 70
     1
102
RTVSPropertyOp25
 70
     1
102
RTVSPropertyOp26
 70
     1
102
RTVSPropertyOp27
 70
     1
102
RTVSPropertyOp28
 70
     1
102
RTVSPropertyOp29
 70
     1
102
RTVSPropertyOp30
 70
     1
102
RTVSPropertyOp31
 70
     1
102
RTVSPropertyOp32
 70
     1
  0
XRECORD
  5
9B0
102
{ACAD_REACTORS
330
9AF
102
}
330
9AF
100
AcDbXrecord
280
     1
102
RTVSPropertyOp0
 70
     1
102
RTVSPropertyOp1
 70
     1
102
RTVSPropertyOp2
 70
     1
102
RTVSPropertyOp3
 70
     1
102
RTVSPropertyOp4
 70
     1
102
RTVSPropertyOp5
 70
     1
102
RTVSPropertyOp6
 70
     1
102
RTVSPropertyOp7
 70
     1
102
RTVSPropertyOp8
 70
     1
102
RTVSPropertyOp9
 70
     1
102
RTVSPropertyOp10
 70
     1
102
RTVSPropertyOp11
 70
     1
102
RTVSPropertyOp12
 70
     1
102
RTVSPropertyOp13
 70
     1
102
RTVSPropertyOp14
 70
     1
102
RTVSPropertyOp15
 70
     1
102
RTVSPropertyOp16
 70
     1
102
RTVSPropertyOp17
 70
     1
102
RTVSPropertyOp18
 70
     1
102
RTVSPropertyOp19
 70
     1
102
RTVSPropertyOp20
 70
     1
102
RTVSPropertyOp21
 70
     1
102
RTVSPropertyOp22
 70
     1
102
RTVSPropertyOp23
 70
     1
102
RTVSPropertyOp24
 70
     1
102
RTVSPropertyOp25
 70
     1
102
RTVSPropertyOp26
 70
     1
102
RTVSPropertyOp27
 70
     1
102
RTVSPropertyOp28
 70
     1
102
RTVSPropertyOp29
 70
     1
102
RTVSPropertyOp30
 70
     1
102
RTVSPropertyOp31
 70
     1
102
RTVSPropertyOp32
 70
     1
  0
XRECORD
  5
9AE
102
{ACAD_REACTORS
330
9AD
102
}
330
9AD
100
AcDbXrecord
280
     1
102
RTVSPropertyOp0
 70
     1
102
RTVSPropertyOp1
 70
     1
102
RTVSPropertyOp2
 70
     1
102
RTVSPropertyOp3
 70
     1
102
RTVSPropertyOp4
 70
     1
102
RTVSPropertyOp5
 70
     1
102
RTVSPropertyOp6
 70
     1
102
RTVSPropertyOp7
 70
     1
102
RTVSPropertyOp8
 70
     1
102
RTVSPropertyOp9
 70
     1
102
RTVSPropertyOp10
 70
     1
102
RTVSPropertyOp11
 70
     1
102
RTVSPropertyOp12
 70
     1
102
RTVSPropertyOp13
 70
     1
102
RTVSPropertyOp14
 70
     1
102
RTVSPropertyOp15
 70
     1
102
RTVSPropertyOp16
 70
     1
102
RTVSPropertyOp17
 70
     1
102
RTVSPropertyOp18
 70
     1
102
RTVSPropertyOp19
 70
     1
102
RTVSPropertyOp20
 70
     1
102
RTVSPropertyOp21
 70
     1
102
RTVSPropertyOp22
 70
     1
102
RTVSPropertyOp23
 70
     1
102
RTVSPropertyOp24
 70
     1
102
RTVSPropertyOp25
 70
     1
102
RTVSPropertyOp26
 70
     1
102
RTVSPropertyOp27
 70
     1
102
RTVSPropertyOp28
 70
     1
102
RTVSPropertyOp29
 70
     1
102
RTVSPropertyOp30
 70
     1
102
RTVSPropertyOp31
 70
     1
102
RTVSPropertyOp32
 70
     1
  0
XRECORD
  5
9A8
102
{ACAD_REACTORS
330
9A7
102
}
330
9A7
100
AcDbXrecord
280
     1
102
RTVSPropertyOp0
 70
     1
102
RTVSPropertyOp1
 70
     1
102
RTVSPropertyOp2
 70
     1
102
RTVSPropertyOp3
 70
     1
102
RTVSPropertyOp4
 70
     1
102
RTVSPropertyOp5
 70
     1
102
RTVSPropertyOp6
 70
     1
102
RTVSPropertyOp7
 70
     1
102
RTVSPropertyOp8
 70
     1
102
RTVSPropertyOp9
 70
     1
102
RTVSPropertyOp10
 70
     1
102
RTVSPropertyOp11
 70
     1
102
RTVSPropertyOp12
 70
     1
102
RTVSPropertyOp13
 70
     1
102
RTVSPropertyOp14
 70
     1
102
RTVSPropertyOp15
 70
     1
102
RTVSPropertyOp16
 70
     1
102
RTVSPropertyOp17
 70
     1
102
RTVSPropertyOp18
 70
     1
102
RTVSPropertyOp19
 70
     1
102
RTVSPropertyOp20
 70
     1
102
RTVSPropertyOp21
 70
     1
102
RTVSPropertyOp22
 70
     1
102
RTVSPropertyOp23
 70
     1
102
RTVSPropertyOp24
 70
     1
102
RTVSPropertyOp25
 70
     1
102
RTVSPropertyOp26
 70
     1
102
RTVSPropertyOp27
 70
     1
102
RTVSPropertyOp28
 70
     1
102
RTVSPropertyOp29
 70
     1
102
RTVSPropertyOp30
 70
     1
102
RTVSPropertyOp31
 70
     1
102
RTVSPropertyOp32
 70
     1
  0
XRECORD
  5
9AA
102
{ACAD_REACTORS
330
9A9
102
}
330
9A9
100
AcDbXrecord
280
     1
102
RTVSPropertyOp0
 70
     1
102
RTVSPropertyOp1
 70
     1
102
RTVSPropertyOp2
 70
     1
102
RTVSPropertyOp3
 70
     1
102
RTVSPropertyOp4
 70
     1
102
RTVSPropertyOp5
 70
     1
102
RTVSPropertyOp6
 70
     1
102
RTVSPropertyOp7
 70
     1
102
RTVSPropertyOp8
 70
     1
102
RTVSPropertyOp9
 70
     1
102
RTVSPropertyOp10
 70
     1
102
RTVSPropertyOp11
 70
     1
102
RTVSPropertyOp12
 70
     1
102
RTVSPropertyOp13
 70
     1
102
RTVSPropertyOp14
 70
     1
102
RTVSPropertyOp15
 70
     1
102
RTVSPropertyOp16
 70
     1
102
RTVSPropertyOp17
 70
     1
102
RTVSPropertyOp18
 70
     1
102
RTVSPropertyOp19
 70
     1
102
RTVSPropertyOp20
 70
     1
102
RTVSPropertyOp21
 70
     1
102
RTVSPropertyOp22
 70
     1
102
RTVSPropertyOp23
 70
     1
102
RTVSPropertyOp24
 70
     1
102
RTVSPropertyOp25
 70
     1
102
RTVSPropertyOp26
 70
     1
102
RTVSPropertyOp27
 70
     1
102
RTVSPropertyOp28
 70
     1
102
RTVSPropertyOp29
 70
     1
102
RTVSPropertyOp30
 70
     1
102
RTVSPropertyOp31
 70
     1
102
RTVSPropertyOp32
 70
     1
  0
XRECORD
  5
9A0
102
{ACAD_REACTORS
330
99F
102
}
330
99F
100
AcDbXrecord
280
     1
102
RTVSPropertyOp0
 70
     1
102
RTVSPropertyOp1
 70
     1
102
RTVSPropertyOp2
 70
     1
102
RTVSPropertyOp3
 70
     1
102
RTVSPropertyOp4
 70
     1
102
RTVSPropertyOp5
 70
     1
102
RTVSPropertyOp6
 70
     1
102
RTVSPropertyOp7
 70
     1
102
RTVSPropertyOp8
 70
     1
102
RTVSPropertyOp9
 70
     1
102
RTVSPropertyOp10
 70
     1
102
RTVSPropertyOp11
 70
     1
102
RTVSPropertyOp12
 70
     1
102
RTVSPropertyOp13
 70
     1
102
RTVSPropertyOp14
 70
     1
102
RTVSPropertyOp15
 70
     1
102
RTVSPropertyOp16
 70
     1
102
RTVSPropertyOp17
 70
     1
102
RTVSPropertyOp18
 70
     1
102
RTVSPropertyOp19
 70
     1
102
RTVSPropertyOp20
 70
     1
102
RTVSPropertyOp21
 70
     1
102
RTVSPropertyOp22
 70
     1
102
RTVSPropertyOp23
 70
     1
102
RTVSPropertyOp24
 70
     1
102
RTVSPropertyOp25
 70
     1
102
RTVSPropertyOp26
 70
     1
102
RTVSPropertyOp27
 70
     1
102
RTVSPropertyOp28
 70
     1
102
RTVSPropertyOp29
 70
     1
102
RTVSPropertyOp30
 70
     1
102
RTVSPropertyOp31
 70
     1
102
RTVSPropertyOp32
 70
     1
  0
XRECORD
  5
994
102
{ACAD_REACTORS
330
993
102
}
330
993
100
AcDbXrecord
280
     1
102
RTVSPropertyOp0
 70
     1
102
RTVSPropertyOp1
 70
     1
102
RTVSPropertyOp2
 70
     1
102
RTVSPropertyOp3
 70
     1
102
RTVSPropertyOp4
 70
     1
102
RTVSPropertyOp5
 70
     1
102
RTVSPropertyOp6
 70
     1
102
RTVSPropertyOp7
 70
     1
102
RTVSPropertyOp8
 70
     1
102
RTVSPropertyOp9
 70
     1
102
RTVSPropertyOp10
 70
     1
102
RTVSPropertyOp11
 70
     1
102
RTVSPropertyOp12
 70
     1
102
RTVSPropertyOp13
 70
     1
102
RTVSPropertyOp14
 70
     1
102
RTVSPropertyOp15
 70
     1
102
RTVSPropertyOp16
 70
     1
102
RTVSPropertyOp17
 70
     1
102
RTVSPropertyOp18
 70
     1
102
RTVSPropertyOp19
 70
     1
102
RTVSPropertyOp20
 70
     1
102
RTVSPropertyOp21
 70
     1
102
RTVSPropertyOp22
 70
     1
102
RTVSPropertyOp23
 70
     1
102
RTVSPropertyOp24
 70
     1
102
RTVSPropertyOp25
 70
     1
102
RTVSPropertyOp26
 70
     1
102
RTVSPropertyOp27
 70
     1
102
RTVSPropertyOp28
 70
     1
102
RTVSPropertyOp29
 70
     1
102
RTVSPropertyOp30
 70
     1
102
RTVSPropertyOp31
 70
     1
102
RTVSPropertyOp32
 70
     1
  0
XRECORD
  5
9AC
102
{ACAD_REACTORS
330
9AB
102
}
330
9AB
100
AcDbXrecord
280
     1
102
RTVSPropertyOp0
 70
     1
102
RTVSPropertyOp1
 70
     1
102
RTVSPropertyOp2
 70
     1
102
RTVSPropertyOp3
 70
     1
102
RTVSPropertyOp4
 70
     1
102
RTVSPropertyOp5
 70
     1
102
RTVSPropertyOp6
 70
     1
102
RTVSPropertyOp7
 70
     1
102
RTVSPropertyOp8
 70
     1
102
RTVSPropertyOp9
 70
     1
102
RTVSPropertyOp10
 70
     1
102
RTVSPropertyOp11
 70
     1
102
RTVSPropertyOp12
 70
     1
102
RTVSPropertyOp13
 70
     1
102
RTVSPropertyOp14
 70
     1
102
RTVSPropertyOp15
 70
     1
102
RTVSPropertyOp16
 70
     1
102
RTVSPropertyOp17
 70
     1
102
RTVSPropertyOp18
 70
     1
102
RTVSPropertyOp19
 70
     1
102
RTVSPropertyOp20
 70
     1
102
RTVSPropertyOp21
 70
     1
102
RTVSPropertyOp22
 70
     1
102
RTVSPropertyOp23
 70
     1
102
RTVSPropertyOp24
 70
     1
102
RTVSPropertyOp25
 70
     1
102
RTVSPropertyOp26
 70
     1
102
RTVSPropertyOp27
 70
     1
102
RTVSPropertyOp28
 70
     1
102
RTVSPropertyOp29
 70
     1
102
RTVSPropertyOp30
 70
     1
102
RTVSPropertyOp31
 70
     1
102
RTVSPropertyOp32
 70
     1
  0
ENDSEC
  0
EOF
