  0
SECTION
  2
HEADER
  9
$ACADVER
  1
AC1015
  9
$ACADMAINTVER
 70
    20
  9
$DWGCODEPAGE
  3
ANSI_932
  9
$INSBASE
 10
0.0
 20
0.0
 30
0.0
  9
$EXTMIN
 10
3870.11581708267
 20
-2465.860472508869
 30
0.0
  9
$EXTMAX
 10
4245.115817082672
 20
-2195.860472508869
 30
0.0
  9
$LIMMIN
 10
0.0
 20
0.0
  9
$LIMMAX
 10
0.0
 20
0.0
  9
$ORTHOMODE
 70
     0
  9
$REGENMODE
 70
     1
  9
$FILLMODE
 70
     1
  9
$QTEXTMODE
 70
     0
  9
$MIRRTEXT
 70
     1
  9
$LTSCALE
 40
1.0
  9
$ATTMODE
 70
     1
  9
$TEXTSIZE
 40
0.0
  9
$TRACEWID
 40
0.05
  9
$TEXTSTYLE
  7
STANDARD
  9
$CLAYER
  8
0
  9
$CELTYPE
  6
CONTINUOUS
  9
$CECOLOR
 62
   256
  9
$CELTSCALE
 40
1.0
  9
$DISPSILH
 70
     0
  9
$DIMSCALE
 40
1.0
  9
$DIMASZ
 40
0.18
  9
$DIMEXO
 40
0.0625
  9
$DIMDLI
 40
0.38
  9
$DIMRND
 40
0.0
  9
$DIMDLE
 40
0.0
  9
$DIMEXE
 40
0.18
  9
$DIMTP
 40
0.0
  9
$DIMTM
 40
0.0
  9
$DIMTXT
 40
0.18
  9
$DIMCEN
 40
0.09
  9
$DIMTSZ
 40
0.0
  9
$DIMTOL
 70
     0
  9
$DIMLIM
 70
     0
  9
$DIMTIH
 70
     1
  9
$DIMTOH
 70
     1
  9
$DIMSE1
 70
     0
  9
$DIMSE2
 70
     0
  9
$DIMTAD
 70
     0
  9
$DIMZIN
 70
     0
  9
$DIMBLK
  1

  9
$DIMASO
 70
     1
  9
$DIMSHO
 70
     1
  9
$DIMPOST
  1

  9
$DIMAPOST
  1

  9
$DIMALT
 70
     0
  9
$DIMALTD
 70
     2
  9
$DIMALTF
 40
25.4
  9
$DIMLFAC
 40
1.0
  9
$DIMTOFL
 70
     0
  9
$DIMTVP
 40
0.0
  9
$DIMTIX
 70
     0
  9
$DIMSOXD
 70
     0
  9
$DIMSAH
 70
     0
  9
$DIMBLK1
  1

  9
$DIMBLK2
  1

  9
$DIMSTYLE
  2
STANDARD
  9
$DIMCLRD
 70
     0
  9
$DIMCLRE
 70
     0
  9
$DIMCLRT
 70
     0
  9
$DIMTFAC
 40
1.0
  9
$DIMGAP
 40
0.09
  9
$DIMJUST
 70
     0
  9
$DIMSD1
 70
     0
  9
$DIMSD2
 70
     0
  9
$DIMTOLJ
 70
     1
  9
$DIMTZIN
 70
     0
  9
$DIMALTZ
 70
     0
  9
$DIMALTTZ
 70
     0
  9
$DIMUPT
 70
     0
  9
$DIMDEC
 70
     4
  9
$DIMTDEC
 70
     4
  9
$DIMALTU
 70
     2
  9
$DIMALTTD
 70
     2
  9
$DIMTXSTY
  7
STANDARD
  9
$DIMAUNIT
 70
     0
  9
$DIMADEC
 70
     0
  9
$DIMALTRND
 40
0.0
  9
$DIMAZIN
 70
     0
  9
$DIMDSEP
 70
    46
  9
$DIMATFIT
 70
     3
  9
$DIMFRAC
 70
     0
  9
$DIMLDRBLK
  1

  9
$DIMLUNIT
 70
     2
  9
$DIMLWD
 70
    -2
  9
$DIMLWE
 70
    -2
  9
$DIMTMOVE
 70
     0
  9
$LUNITS
 70
     2
  9
$LUPREC
 70
     4
  9
$SKETCHINC
 40
0.1
  9
$FILLETRAD
 40
0.0
  9
$AUNITS
 70
     0
  9
$AUPREC
 70
     0
  9
$MENU
  1
acad
  9
$ELEVATION
 40
0.0
  9
$PELEVATION
 40
0.0
  9
$THICKNESS
 40
0.0
  9
$LIMCHECK
 70
     0
  9
$CHAMFERA
 40
0.0
  9
$CHAMFERB
 40
0.0
  9
$CHAMFERC
 40
0.0
  9
$CHAMFERD
 40
0.0
  9
$SKPOLY
 70
     0
  9
$TDCREATE
 40
12367012.42919223
  9
$TDUCREATE
 40
6.0000000000
  9
$TDUPDATE
 40
2457585.605306956
  9
$TDUUPDATE
 40
2457585.230306956
  9
$TDINDWG
 40
0.0015462384
  9
$TDUSRTIMER
 40
0.0015462384
  9
$USRTIMER
 70
     1
  9
$ANGBASE
 50
0.0
  9
$ANGDIR
 70
     0
  9
$PDMODE
 70
     0
  9
$PDSIZE
 40
0.0
  9
$PLINEWID
 40
0.0
  9
$SPLFRAME
 70
     0
  9
$SPLINETYPE
 70
     6
  9
$SPLINESEGS
 70
     8
  9
$HANDSEED
  5
487
  9
$SURFTAB1
 70
     6
  9
$SURFTAB2
 70
     6
  9
$SURFTYPE
 70
     6
  9
$SURFU
 70
     6
  9
$SURFV
 70
     6
  9
$UCSBASE
  2

  9
$UCSNAME
  2

  9
$UCSORG
 10
0.0
 20
0.0
 30
0.0
  9
$UCSXDIR
 10
1.0
 20
0.0
 30
0.0
  9
$UCSYDIR
 10
0.0
 20
1.0
 30
0.0
  9
$UCSORTHOREF
  2

  9
$UCSORTHOVIEW
 70
     0
  9
$UCSORGTOP
 10
0.0
 20
0.0
 30
0.0
  9
$UCSORGBOTTOM
 10
0.0
 20
0.0
 30
0.0
  9
$UCSORGLEFT
 10
0.0
 20
0.0
 30
0.0
  9
$UCSORGRIGHT
 10
0.0
 20
0.0
 30
0.0
  9
$UCSORGFRONT
 10
0.0
 20
0.0
 30
0.0
  9
$UCSORGBACK
 10
0.0
 20
0.0
 30
0.0
  9
$PUCSBASE
  2

  9
$PUCSNAME
  2

  9
$PUCSORG
 10
0.0
 20
0.0
 30
0.0
  9
$PUCSXDIR
 10
1.0
 20
0.0
 30
0.0
  9
$PUCSYDIR
 10
0.0
 20
1.0
 30
0.0
  9
$PUCSORTHOREF
  2

  9
$PUCSORTHOVIEW
 70
     0
  9
$PUCSORGTOP
 10
0.0
 20
0.0
 30
0.0
  9
$PUCSORGBOTTOM
 10
0.0
 20
0.0
 30
0.0
  9
$PUCSORGLEFT
 10
0.0
 20
0.0
 30
0.0
  9
$PUCSORGRIGHT
 10
0.0
 20
0.0
 30
0.0
  9
$PUCSORGFRONT
 10
0.0
 20
0.0
 30
0.0
  9
$PUCSORGBACK
 10
0.0
 20
0.0
 30
0.0
  9
$USERI1
 70
     0
  9
$USERI2
 70
     0
  9
$USERI3
 70
     0
  9
$USERI4
 70
     0
  9
$USERI5
 70
     0
  9
$USERR1
 40
12.01
  9
$USERR2
 40
0.0
  9
$USERR3
 40
0.0
  9
$USERR4
 40
0.0
  9
$USERR5
 40
0.0
  9
$WORLDVIEW
 70
     1
  9
$SHADEDGE
 70
     3
  9
$SHADEDIF
 70
    70
  9
$TILEMODE
 70
     1
  9
$MAXACTVP
 70
    16
  9
$PINSBASE
 10
0.0
 20
0.0
 30
0.0
  9
$PLIMCHECK
 70
     0
  9
$PEXTMIN
 10
1.000000000000000E+20
 20
1.000000000000000E+20
 30
1.000000000000000E+20
  9
$PEXTMAX
 10
-1.000000000000000E+20
 20
-1.000000000000000E+20
 30
-1.000000000000000E+20
  9
$PLIMMIN
 10
0.0
 20
0.0
  9
$PLIMMAX
 10
12.0
 20
9.0
  9
$UNITMODE
 70
     0
  9
$VISRETAIN
 70
     0
  9
$PLINEGEN
 70
     1
  9
$PSLTSCALE
 70
     0
  9
$TREEDEPTH
 70
  3020
  9
$CMLSTYLE
  2
STANDARD
  9
$CMLJUST
 70
     0
  9
$CMLSCALE
 40
1.0
  9
$PROXYGRAPHICS
 70
     0
  9
$MEASUREMENT
 70
     1
  9
$CELWEIGHT
370
    -1
  9
$ENDCAPS
280
     0
  9
$JOINSTYLE
280
     0
  9
$LWDISPLAY
290
     0
  9
$INSUNITS
 70
     0
  9
$HYPERLINKBASE
  1

  9
$STYLESHEET
  1

  9
$XEDIT
290
     1
  9
$CEPSNTYPE
380
     0
  9
$PSTYLEMODE
290
     1
  9
$FINGERPRINTGUID
  2
{651D907D-8AB9-439C-A4A8-CD76977267BE}
  9
$VERSIONGUID
  2
{82F9B79A-953D-483A-8DBD-F4147CBE4139}
  9
$EXTNAMES
290
     1
  9
$PSVPSCALE
 40
0.0
  9
$OLESTARTUP
290
     0
  0
ENDSEC
  0
SECTION
  2
CLASSES
  0
CLASS
  1
IMAGE
  2
AcDbRasterImage
  3
ISM
 90
    34943
280
     0
281
     1
  0
CLASS
  1
DICTIONARYVAR
  2
AcDbDictionaryVar
  3
ObjectDBX Classes
 90
        0
280
     0
281
     0
  0
CLASS
  1
RASTERVARIABLES
  2
AcDbRasterVariables
  3
ISM
 90
    32768
280
     0
281
     0
  0
CLASS
  1
IMAGEDEF
  2
AcDbRasterImageDef
  3
ISM
 90
    32768
280
     0
281
     0
  0
CLASS
  1
IMAGEDEF_REACTOR
  2
AcDbRasterImageDefReactor
  3
ISM
 90
    32769
280
     0
281
     0
  0
CLASS
  1
IDBUFFER
  2
AcDbIdBuffer
  3
ObjectDBX Classes
 90
    32768
280
     0
281
     0
  0
CLASS
  1
SPATIAL_FILTER
  2
AcDbSpatialFilter
  3
ObjectDBX Classes
 90
    32768
280
     0
281
     0
  0
CLASS
  1
SORTENTSTABLE
  2
AcDbSortentsTable
  3
ObjectDBX Classes
 90
    32768
280
     0
281
     0
  0
CLASS
  1
LAYER_INDEX
  2
AcDbLayerIndex
  3
ObjectDBX Classes
 90
    32768
280
     0
281
     0
  0
CLASS
  1
SPATIAL_INDEX
  2
AcDbSpatialIndex
  3
ObjectDBX Classes
 90
    32768
280
     0
281
     0
  0
CLASS
  1
OBJECT_PTR
  2
CAseDLPNTableRecord
  3
ASE-LPNTableRecord
 90
    32769
280
     0
281
     0
  0
CLASS
  1
LAYOUT
  2
AcDbLayout
  3
ObjectDBX Classes
 90
        0
280
     0
281
     0
  0
CLASS
  1
PLOTSETTINGS
  2
AcDbPlotSettings
  3
ObjectDBX Classes
 90
    32768
280
     0
281
     0
  0
CLASS
  1
ACDBDICTIONARYWDFLT
  2
AcDbDictionaryWithDefault
  3
ObjectDBX Classes
 90
        0
280
     0
281
     0
  0
CLASS
  1
ACDBPLACEHOLDER
  2
AcDbPlaceHolder
  3
ObjectDBX Classes
 90
        0
280
     0
281
     0
  0
CLASS
  1
MATERIAL
  2
AcDbMaterial
  3
ObjectDBX Classes
 90
     1153
280
     0
281
     0
  0
CLASS
  1
VISUALSTYLE
  2
AcDbVisualStyle
  3
ObjectDBX Classes
 90
     4095
280
     0
281
     0
  0
CLASS
  1
TABLESTYLE
  2
AcDbTableStyle
  3
ObjectDBX Classes
 90
     4095
280
     0
281
     0
  0
CLASS
  1
SCALE
  2
AcDbScale
  3
ObjectDBX Classes
 90
     1153
280
     0
281
     0
  0
CLASS
  1
MLEADERSTYLE
  2
AcDbMLeaderStyle
  3
ACDB_MLEADERSTYLE_CLASS
 90
     4095
280
     0
281
     0
  0
CLASS
  1
CELLSTYLEMAP
  2
AcDbCellStyleMap
  3
ObjectDBX Classes
 90
     1152
280
     0
281
     0
  0
ENDSEC
  0
SECTION
  2
TABLES
  0
TABLE
  2
VPORT
  5
7
330
0
100
AcDbSymbolTable
 70
     1
  0
VPORT
  5
15
330
7
100
AcDbSymbolTableRecord
100
AcDbViewportTableRecord
  2
*ACTIVE
 70
     0
 10
0.0
 20
0.0
 11
1.0
 21
1.0
 12
4020.267545109299
 22
-2298.752750818916
 13
0.0
 23
0.0
 14
1.0
 24
1.0
 15
0.0
 25
0.0
 16
0.0
 26
0.0
 36
1.0
 17
0.0
 27
0.0
 37
0.0
 40
185.9529052283134
 41
2.023923444976076
 42
50.0
 43
0.0
 44
0.0
 50
0.0
 51
0.0
 71
     0
 72
   100
 73
     1
 74
     1
 75
     0
 76
     0
 77
     0
 78
     0
281
     0
 65
     1
110
0.0
120
0.0
130
0.0
111
1.0
121
0.0
131
0.0
112
0.0
122
1.0
132
0.0
 79
     0
146
0.0
1001
ACAD_NAV_VCDISPLAY
1070
     3
  0
ENDTAB
  0
TABLE
  2
LTYPE
  5
4
330
0
100
AcDbSymbolTable
 70
     8
  0
LTYPE
  5
11
330
4
100
AcDbSymbolTableRecord
100
AcDbLinetypeTableRecord
  2
BYBLOCK
 70
     0
  3

 72
    65
 73
     0
 40
0.0
  0
LTYPE
  5
12
330
4
100
AcDbSymbolTableRecord
100
AcDbLinetypeTableRecord
  2
BYLAYER
 70
     0
  3

 72
    65
 73
     0
 40
0.0
  0
LTYPE
  5
13
330
4
100
AcDbSymbolTableRecord
100
AcDbLinetypeTableRecord
  2
CONTINUOUS
 70
     0
  3
Solid line
 72
    65
 73
     0
 40
0.0
  0
LTYPE
  5
1D
330
4
100
AcDbSymbolTableRecord
100
AcDbLinetypeTableRecord
  2
DASHED
 70
     0
  3
Dashed
 72
    65
 73
     2
 40
15.0
 49
7.0
 74
     0
 49
-8.0
 74
     0
  0
LTYPE
  5
1E
330
4
100
AcDbSymbolTableRecord
100
AcDbLinetypeTableRecord
  2
DOTTED
 70
     0
  3
Dotted
 72
    65
 73
     2
 40
1.0
 49
0.0
 74
     0
 49
-1.0
 74
     0
  0
LTYPE
  5
1F
330
4
100
AcDbSymbolTableRecord
100
AcDbLinetypeTableRecord
  2
DOT_CENTER
 70
     0
  3
Dot_Center
 72
    65
 73
     4
 40
14.0
 49
12.0
 74
     0
 49
-1.0
 74
     0
 49
0.0
 74
     0
 49
-1.0
 74
     0
  0
LTYPE
  5
20
330
4
100
AcDbSymbolTableRecord
100
AcDbLinetypeTableRecord
  2
LONG_DASHED
 70
     0
  3
Long_Dashed
 72
    65
 73
     2
 40
15.0
 49
10.0
 74
     0
 49
-5.0
 74
     0
  0
LTYPE
  5
21
330
4
100
AcDbSymbolTableRecord
100
AcDbLinetypeTableRecord
  2
DASH_CENTER
 70
     0
  3
Dash_Center
 72
    65
 73
     4
 40
14.0
 49
11.0
 74
     0
 49
-1.0
 74
     0
 49
1.0
 74
     0
 49
-1.0
 74
     0
  0
LTYPE
  5
22
330
4
100
AcDbSymbolTableRecord
100
AcDbLinetypeTableRecord
  2
PHANTOM
 70
     0
  3
Phantom
 72
    65
 73
     6
 40
13.0
 49
10.0
 74
     0
 49
-1.0
 74
     0
 49
0.0
 74
     0
 49
-1.0
 74
     0
 49
0.0
 74
     0
 49
-1.0
 74
     0
  0
LTYPE
  5
23
330
4
100
AcDbSymbolTableRecord
100
AcDbLinetypeTableRecord
  2
CENTER_DASH_DASH
 70
     0
  3
Center_Dash_Dash
 72
    65
 73
     6
 40
14.0
 49
9.0
 74
     0
 49
-1.0
 74
     0
 49
1.0
 74
     0
 49
-1.0
 74
     0
 49
1.0
 74
     0
 49
-1.0
 74
     0
  0
ENDTAB
  0
TABLE
  2
LAYER
  5
2
330
0
100
AcDbSymbolTable
 70
     2
  0
LAYER
  5
14
102
{ACAD_XDICTIONARY
360
3FD
102
}
330
2
100
AcDbSymbolTableRecord
100
AcDbLayerTableRecord
  2
0
 70
     0
 62
     7
  6
CONTINUOUS
370
    -3
390
3A9
  0
LAYER
  5
24
102
{ACAD_XDICTIONARY
360
3FF
102
}
330
2
100
AcDbSymbolTableRecord
100
AcDbLayerTableRecord
  2
1
 70
     0
 62
     7
  6
CONTINUOUS
370
    -3
390
3A9
  0
ENDTAB
  0
TABLE
  2
STYLE
  5
3
330
0
100
AcDbSymbolTable
 70
     5
  0
STYLE
  5
17
330
3
100
AcDbSymbolTableRecord
100
AcDbTextStyleTableRecord
  2
STANDARD
 70
     0
 40
0.0
 41
1.0
 50
0.0
 71
     0
 42
0.0
  3
txt
  4

  0
STYLE
  5
109
330
3
100
AcDbSymbolTableRecord
100
AcDbTextStyleTableRecord
  2
CONVERTER_1
 70
     0
 40
0.0
 41
0.63
 50
0.0
 71
     0
 42
0.0
  3
txt.shx
  4

  0
STYLE
  5
114
330
3
100
AcDbSymbolTableRecord
100
AcDbTextStyleTableRecord
  2
CONVERTER_2
 70
     0
 40
0.0
 41
0.9
 50
0.0
 71
     0
 42
0.0
  3
txt.shx
  4

  0
STYLE
  5
116
330
3
100
AcDbSymbolTableRecord
100
AcDbTextStyleTableRecord
  2
CONVERTER_3
 70
     0
 40
0.0
 41
0.76
 50
0.0
 71
     0
 42
0.0
  3
complex.shx
  4

  0
STYLE
  5
280
330
3
100
AcDbSymbolTableRecord
100
AcDbTextStyleTableRecord
  2
CONVERTER_4
 70
     0
 40
0.0
 41
0.6650000000000001
 50
0.0
 71
     0
 42
0.0
  3
simplex.shx
  4

  0
ENDTAB
  0
TABLE
  2
VIEW
  5
5
330
0
100
AcDbSymbolTable
 70
     0
  0
ENDTAB
  0
TABLE
  2
UCS
  5
6
330
0
100
AcDbSymbolTable
 70
     0
  0
ENDTAB
  0
TABLE
  2
APPID
  5
8
330
0
100
AcDbSymbolTable
 70
     4
  0
APPID
  5
16
330
8
100
AcDbSymbolTableRecord
100
AcDbRegAppTableRecord
  2
ACAD
 70
     0
  0
APPID
  5
403
330
8
100
AcDbSymbolTableRecord
100
AcDbRegAppTableRecord
  2
DCO15
 70
     0
  0
APPID
  5
40D
330
8
100
AcDbSymbolTableRecord
100
AcDbRegAppTableRecord
  2
ACAD_NAV_VCDISPLAY
 70
     0
  0
APPID
  5
482
330
8
100
AcDbSymbolTableRecord
100
AcDbRegAppTableRecord
  2
ACAD_MLEADERVER
 70
     0
  0
ENDTAB
  0
TABLE
  2
DIMSTYLE
  5
9
330
0
100
AcDbSymbolTable
 70
    22
100
AcDbDimStyleTable
 71
     0
  0
DIMSTYLE
105
18
330
9
100
AcDbSymbolTableRecord
100
AcDbDimStyleTableRecord
  2
STANDARD
 70
     0
340
17
  0
DIMSTYLE
105
289
330
9
100
AcDbSymbolTableRecord
100
AcDbDimStyleTableRecord
  2
ME10_DIM_0
 70
     0
 41
2.5
 42
1.0
 44
1.0
 73
     0
 74
     0
 77
     1
 78
     8
140
3.5
147
0.625
172
     1
173
     1
176
     2
177
     2
178
     3
271
     2
340
280
341
283
343
283
344
283
  0
DIMSTYLE
105
298
330
9
100
AcDbSymbolTableRecord
100
AcDbDimStyleTableRecord
  2
ME10_DIM_1
 70
     0
 41
2.5
 42
1.0
 44
1.0
 73
     0
 74
     0
 77
     1
 78
     8
140
3.5
147
0.625
172
     1
173
     1
176
     2
177
     2
178
     3
271
     2
340
280
341
283
343
283
344
283
  0
DIMSTYLE
105
2A7
330
9
100
AcDbSymbolTableRecord
100
AcDbDimStyleTableRecord
  2
ME10_DIM_2
 70
     0
 41
2.5
 42
1.0
 44
1.0
 73
     0
 74
     0
 77
     1
 78
     8
140
3.5
147
0.625
172
     1
173
     1
176
     2
177
     2
178
     3
271
     2
340
280
341
283
343
283
344
283
  0
DIMSTYLE
105
2B4
330
9
100
AcDbSymbolTableRecord
100
AcDbDimStyleTableRecord
  2
ME10_DIM_3
 70
     0
 41
2.5
 42
1.0
 44
1.0
 73
     0
 74
     0
 77
     1
 78
     8
140
3.5
147
0.625
172
     1
173
     1
176
     2
177
     2
178
     3
271
     2
340
280
341
283
343
283
344
283
  0
DIMSTYLE
105
2C3
330
9
100
AcDbSymbolTableRecord
100
AcDbDimStyleTableRecord
  2
ME10_DIM_4
 70
     0
 41
2.5
 42
1.0
 44
1.0
 73
     0
 74
     0
 77
     1
 78
     8
140
3.5
147
0.625
172
     1
173
     1
176
     2
177
     2
178
     3
271
     2
340
280
341
283
343
283
344
283
  0
DIMSTYLE
105
2D0
330
9
100
AcDbSymbolTableRecord
100
AcDbDimStyleTableRecord
  2
ME10_DIM_5
 70
     0
 41
2.5
 42
1.0
 44
1.0
 73
     0
 74
     0
 77
     1
 78
     8
140
3.5
147
0.625
172
     1
173
     1
176
     2
177
     2
178
     3
271
     2
340
280
341
283
343
283
344
283
  0
DIMSTYLE
105
2DD
330
9
100
AcDbSymbolTableRecord
100
AcDbDimStyleTableRecord
  2
ME10_DIM_6
 70
     0
 41
2.5
 42
1.0
 44
1.0
 73
     0
 74
     0
 77
     1
 78
     8
140
3.5
147
0.625
172
     1
173
     1
176
     2
177
     2
178
     3
271
     2
340
280
341
283
343
283
344
283
  0
DIMSTYLE
105
2EA
330
9
100
AcDbSymbolTableRecord
100
AcDbDimStyleTableRecord
  2
ME10_DIM_7
 70
     0
 41
2.5
 42
1.0
 44
1.0
 73
     0
 74
     0
 77
     1
 78
     8
140
3.5
147
0.625
172
     1
173
     1
176
     2
177
     2
178
     3
271
     2
340
280
341
283
343
283
344
283
  0
DIMSTYLE
105
2F7
330
9
100
AcDbSymbolTableRecord
100
AcDbDimStyleTableRecord
  2
ME10_DIM_8
 70
     0
 41
2.5
 42
1.0
 44
1.0
 73
     0
 74
     0
 77
     1
 78
     8
140
3.5
147
0.625
172
     1
173
     1
176
     2
177
     2
178
     3
271
     2
340
280
341
283
343
283
344
283
  0
DIMSTYLE
105
304
330
9
100
AcDbSymbolTableRecord
100
AcDbDimStyleTableRecord
  2
ME10_DIM_9
 70
     0
 41
2.5
 42
1.0
 44
1.0
 47
0.5
 71
     1
 73
     0
 74
     0
 77
     1
 78
     8
140
3.5
146
0.6
147
0.625
172
     1
173
     1
176
     2
177
     2
178
     3
271
     2
272
     1
340
280
341
283
343
283
344
283
  0
DIMSTYLE
105
311
330
9
100
AcDbSymbolTableRecord
100
AcDbDimStyleTableRecord
  2
ME10_DIM_10
 70
     0
 41
2.5
 42
1.0
 44
1.0
 73
     0
 74
     0
 77
     1
 78
     8
140
3.5
147
0.625
172
     1
173
     1
176
     2
177
     2
178
     3
271
     2
340
280
341
283
343
283
344
283
  0
DIMSTYLE
105
320
330
9
100
AcDbSymbolTableRecord
100
AcDbDimStyleTableRecord
  2
ME10_DIM_11
 70
     0
 41
2.5
 42
1.0
 44
1.0
 73
     0
 74
     0
 77
     1
 78
     8
140
3.5
147
0.625
172
     1
173
     1
176
     2
177
     2
178
     3
271
     2
340
280
341
283
343
283
344
283
  0
DIMSTYLE
105
32F
330
9
100
AcDbSymbolTableRecord
100
AcDbDimStyleTableRecord
  2
ME10_DIM_12
 70
     0
 41
2.5
 42
1.0
 44
1.0
 73
     0
 74
     0
 77
     1
 78
     8
140
3.5
147
0.625
172
     1
173
     1
176
     2
177
     2
178
     3
271
     2
340
280
341
283
343
283
344
283
  0
DIMSTYLE
105
33C
330
9
100
AcDbSymbolTableRecord
100
AcDbDimStyleTableRecord
  2
ME10_DIM_13
 70
     0
 41
2.5
 42
1.0
 44
1.0
 73
     0
 74
     0
 77
     1
 78
     8
140
3.5
147
0.625
172
     1
173
     1
176
     2
177
     2
178
     3
271
     2
340
280
341
283
343
283
344
283
  0
DIMSTYLE
105
34B
330
9
100
AcDbSymbolTableRecord
100
AcDbDimStyleTableRecord
  2
ME10_DIM_14
 70
     0
 41
2.5
 42
1.0
 44
1.0
 73
     0
 74
     0
 77
     1
 78
     8
140
3.5
147
0.625
172
     1
173
     1
176
     2
177
     2
178
     3
271
     2
340
280
341
283
343
283
344
283
  0
DIMSTYLE
105
35A
330
9
100
AcDbSymbolTableRecord
100
AcDbDimStyleTableRecord
  2
ME10_DIM_15
 70
     0
 41
2.5
 42
1.0
 44
1.0
 73
     0
 74
     0
 77
     1
 78
     8
140
3.5
147
0.625
172
     1
173
     1
176
     2
177
     2
178
     3
271
     2
340
280
341
283
343
283
344
283
  0
DIMSTYLE
105
367
330
9
100
AcDbSymbolTableRecord
100
AcDbDimStyleTableRecord
  2
ME10_DIM_16
 70
     0
 41
2.5
 42
1.0
 44
1.0
 47
0.5
 71
     1
 73
     0
 74
     0
 77
     1
 78
     8
140
3.5
146
0.6
147
0.625
172
     1
173
     1
176
     2
177
     2
178
     3
271
     2
272
     1
340
280
341
283
343
283
344
283
  0
DIMSTYLE
105
374
330
9
100
AcDbSymbolTableRecord
100
AcDbDimStyleTableRecord
  2
ME10_DIM_17
 70
     0
 41
2.5
 42
1.0
 44
1.0
 73
     0
 74
     0
 77
     1
 78
     8
140
3.5
147
0.625
172
     1
173
     1
176
     2
177
     2
178
     3
271
     2
340
280
341
283
343
283
344
283
  0
DIMSTYLE
105
383
330
9
100
AcDbSymbolTableRecord
100
AcDbDimStyleTableRecord
  2
ME10_DIM_18
 70
     0
 41
2.5
 42
1.0
 44
1.0
 73
     0
 74
     0
 77
     1
 78
     8
140
3.5
147
0.625
172
     1
173
     1
176
     2
177
     2
178
     3
271
     2
340
280
341
283
343
283
344
283
  0
DIMSTYLE
105
390
330
9
100
AcDbSymbolTableRecord
100
AcDbDimStyleTableRecord
  2
ME10_DIM_19
 70
     0
 41
2.5
 42
1.0
 44
1.0
 73
     0
 74
     0
 77
     1
 78
     8
140
3.5
147
0.625
172
     1
173
     1
176
     2
177
     2
178
     3
271
     2
340
280
341
283
343
283
344
283
  0
DIMSTYLE
105
39F
330
9
100
AcDbSymbolTableRecord
100
AcDbDimStyleTableRecord
  2
ME10_DIM_20
 70
     0
 41
2.5
 42
1.0
 44
1.0
 73
     0
 74
     0
 77
     1
 78
     8
140
3.5
147
0.625
172
     1
173
     1
176
     2
177
     2
178
     3
271
     2
340
280
341
283
343
283
344
283
  0
ENDTAB
  0
TABLE
  2
BLOCK_RECORD
  5
1
330
0
100
AcDbSymbolTable
 70
    25
  0
BLOCK_RECORD
  5
A
330
1
100
AcDbSymbolTableRecord
100
AcDbBlockTableRecord
  2
*MODEL_SPACE
340
3F5
  0
BLOCK_RECORD
  5
B
330
1
100
AcDbSymbolTableRecord
100
AcDbBlockTableRecord
  2
*PAPER_SPACE
340
3F6
  0
BLOCK_RECORD
  5
25
330
1
100
AcDbSymbolTableRecord
100
AcDbBlockTableRecord
  2
_______T______________6X10
340
0
102
{BLKREFS
331
2E
102
}
  0
BLOCK_RECORD
  5
27
330
1
100
AcDbSymbolTableRecord
100
AcDbBlockTableRecord
  2
______
340
0
102
{BLKREFS
331
2B
102
}
  0
BLOCK_RECORD
  5
29
330
1
100
AcDbSymbolTableRecord
100
AcDbBlockTableRecord
  2
FORMAT_A3
340
0
  0
BLOCK_RECORD
  5
277
330
1
100
AcDbSymbolTableRecord
100
AcDbBlockTableRecord
  2
*D3
340
0
  0
BLOCK_RECORD
  5
283
330
1
100
AcDbSymbolTableRecord
100
AcDbBlockTableRecord
  2
_OPEN30
340
0
  0
BLOCK_RECORD
  5
28B
330
1
100
AcDbSymbolTableRecord
100
AcDbBlockTableRecord
  2
*D5
340
0
  0
BLOCK_RECORD
  5
29A
330
1
100
AcDbSymbolTableRecord
100
AcDbBlockTableRecord
  2
*D6
340
0
  0
BLOCK_RECORD
  5
2A9
330
1
100
AcDbSymbolTableRecord
100
AcDbBlockTableRecord
  2
*D7
340
0
  0
BLOCK_RECORD
  5
2B6
330
1
100
AcDbSymbolTableRecord
100
AcDbBlockTableRecord
  2
*D8
340
0
  0
BLOCK_RECORD
  5
2C5
330
1
100
AcDbSymbolTableRecord
100
AcDbBlockTableRecord
  2
*D9
340
0
  0
BLOCK_RECORD
  5
2D2
330
1
100
AcDbSymbolTableRecord
100
AcDbBlockTableRecord
  2
*D10
340
0
  0
BLOCK_RECORD
  5
2DF
330
1
100
AcDbSymbolTableRecord
100
AcDbBlockTableRecord
  2
*D11
340
0
  0
BLOCK_RECORD
  5
2EC
330
1
100
AcDbSymbolTableRecord
100
AcDbBlockTableRecord
  2
*D12
340
0
  0
BLOCK_RECORD
  5
2F9
330
1
100
AcDbSymbolTableRecord
100
AcDbBlockTableRecord
  2
*D13
340
0
  0
BLOCK_RECORD
  5
306
330
1
100
AcDbSymbolTableRecord
100
AcDbBlockTableRecord
  2
*D14
340
0
  0
BLOCK_RECORD
  5
313
330
1
100
AcDbSymbolTableRecord
100
AcDbBlockTableRecord
  2
*D15
340
0
  0
BLOCK_RECORD
  5
322
330
1
100
AcDbSymbolTableRecord
100
AcDbBlockTableRecord
  2
*D16
340
0
  0
BLOCK_RECORD
  5
331
330
1
100
AcDbSymbolTableRecord
100
AcDbBlockTableRecord
  2
*D17
340
0
  0
BLOCK_RECORD
  5
33E
330
1
100
AcDbSymbolTableRecord
100
AcDbBlockTableRecord
  2
*D18
340
0
  0
BLOCK_RECORD
  5
34D
330
1
100
AcDbSymbolTableRecord
100
AcDbBlockTableRecord
  2
*D19
340
0
  0
BLOCK_RECORD
  5
35C
330
1
100
AcDbSymbolTableRecord
100
AcDbBlockTableRecord
  2
*D20
340
0
  0
BLOCK_RECORD
  5
369
330
1
100
AcDbSymbolTableRecord
100
AcDbBlockTableRecord
  2
*D21
340
0
  0
BLOCK_RECORD
  5
376
330
1
100
AcDbSymbolTableRecord
100
AcDbBlockTableRecord
  2
*D22
340
0
  0
BLOCK_RECORD
  5
385
330
1
100
AcDbSymbolTableRecord
100
AcDbBlockTableRecord
  2
*D23
340
0
  0
BLOCK_RECORD
  5
392
330
1
100
AcDbSymbolTableRecord
100
AcDbBlockTableRecord
  2
*D24
340
0
  0
ENDTAB
  0
ENDSEC
  0
SECTION
  2
BLOCKS
  0
BLOCK
  5
D
330
A
100
AcDbEntity
  8
0
100
AcDbBlockBegin
  2
*MODEL_SPACE
 70
     0
 10
0.0
 20
0.0
 30
0.0
  3
*MODEL_SPACE
  1

  0
ENDBLK
  5
E
330
A
100
AcDbEntity
  8
0
100
AcDbBlockEnd
  0
BLOCK
  5
F
330
B
100
AcDbEntity
 67
     1
  8
0
100
AcDbBlockBegin
  2
*PAPER_SPACE
 70
     0
 10
0.0
 20
0.0
 30
0.0
  3
*PAPER_SPACE
  1

  0
ENDBLK
  5
10
330
B
100
AcDbEntity
 67
     1
  8
0
100
AcDbBlockEnd
  0
BLOCK
  5
26
330
25
100
AcDbEntity
  8
0
100
AcDbBlockBegin
  2
_______T______________6X10
 70
     0
 10
3934.726720860187
 20
-2366.533094189203
 30
0.0
  3
_______T______________6X10
  1

  0
ARC
  5
43
330
25
100
AcDbEntity
  8
1
  6
Continuous
 62
     7
100
AcDbCircle
 10
3938.2227949419
 20
-2363.037020107491
 30
0.0
 40
3.4960740817125
100
AcDbArc
 50
-8.716263472148389
 51
8.71626347215575
  0
ARC
  5
42
330
25
100
AcDbEntity
  8
1
  6
Continuous
 62
     7
100
AcDbCircle
 10
3938.2227949419
 20
-2363.037020107491
 30
0.0
 40
3.496074081712569
100
AcDbArc
 50
81.28373652784427
 51
98.7162634721484
  0
ARC
  5
41
330
25
100
AcDbEntity
  8
1
  6
Continuous
 62
     7
100
AcDbCircle
 10
3938.2227949419
 20
-2363.037020107491
 30
0.0
 40
3.496074081712569
100
AcDbArc
 50
171.2837365278442
 51
-171.2837365278516
  0
ARC
  5
40
330
25
100
AcDbEntity
  8
1
  6
Continuous
 62
     7
100
AcDbCircle
 10
3938.2227949419
 20
-2363.037020107491
 30
0.0
 40
3.4960740817125
100
AcDbArc
 50
-98.7162634721484
 51
-81.28373652784427
  0
LINE
  5
3F
330
25
100
AcDbEntity
  8
1
  6
Continuous
 62
     7
100
AcDbLine
 10
3940.268325869693
 20
-2362.426915945504
 30
0.0
 11
3939.331185485143
 21
-2361.928629564248
 31
0.0
  0
LINE
  5
3E
330
25
100
AcDbEntity
  8
1
  6
Continuous
 62
     7
100
AcDbLine
 10
3938.832899103887
 20
-2360.991489179696
 30
0.0
 11
3939.331185485143
 21
-2361.928629564248
 31
0.0
  0
LINE
  5
3D
330
25
100
AcDbEntity
  8
1
  6
Continuous
 62
     7
100
AcDbLine
 10
3937.612690779913
 20
-2360.991489179696
 30
0.0
 11
3937.114404398658
 21
-2361.928629564248
 31
0.0
  0
LINE
  5
3C
330
25
100
AcDbEntity
  8
1
  6
Continuous
 62
     7
100
AcDbLine
 10
3936.177264014105
 20
-2362.426915945504
 30
0.0
 11
3937.114404398658
 21
-2361.928629564248
 31
0.0
  0
LINE
  5
3B
330
25
100
AcDbEntity
  8
1
  6
Continuous
 62
     7
100
AcDbLine
 10
3936.177264014105
 20
-2363.647124269476
 30
0.0
 11
3937.114404398658
 21
-2364.145410650733
 31
0.0
  0
LINE
  5
3A
330
25
100
AcDbEntity
  8
1
  6
Continuous
 62
     7
100
AcDbLine
 10
3937.612690779913
 20
-2365.082551035285
 30
0.0
 11
3937.114404398658
 21
-2364.145410650733
 31
0.0
  0
LINE
  5
39
330
25
100
AcDbEntity
  8
1
  6
Continuous
 62
     7
100
AcDbLine
 10
3938.832899103887
 20
-2365.082551035285
 30
0.0
 11
3939.331185485143
 21
-2364.145410650733
 31
0.0
  0
LINE
  5
38
330
25
100
AcDbEntity
  8
1
  6
Continuous
 62
     7
100
AcDbLine
 10
3940.268325869693
 20
-2363.647124269476
 30
0.0
 11
3939.331185485143
 21
-2364.145410650733
 31
0.0
  0
LINE
  5
37
330
25
100
AcDbEntity
  8
1
  6
Continuous
 62
     7
100
AcDbLine
 10
3941.6784925544
 20
-2362.507220149219
 30
0.0
 11
3940.268325869693
 21
-2362.426915945504
 31
0.0
  0
LINE
  5
36
330
25
100
AcDbEntity
  8
1
  6
Continuous
 62
     7
100
AcDbLine
 10
3938.752594900171
 20
-2359.581322494991
 30
0.0
 11
3938.832899103887
 21
-2360.991489179696
 31
0.0
  0
LINE
  5
35
330
25
100
AcDbEntity
  8
1
  6
Continuous
 62
     7
100
AcDbLine
 10
3937.692994983629
 20
-2359.581322494991
 30
0.0
 11
3937.612690779913
 21
-2360.991489179696
 31
0.0
  0
LINE
  5
34
330
25
100
AcDbEntity
  8
1
  6
Continuous
 62
     7
100
AcDbLine
 10
3934.7670973294
 20
-2362.507220149219
 30
0.0
 11
3936.177264014105
 21
-2362.426915945504
 31
0.0
  0
LINE
  5
33
330
25
100
AcDbEntity
  8
1
  6
Continuous
 62
     7
100
AcDbLine
 10
3934.7670973294
 20
-2363.566820065761
 30
0.0
 11
3936.177264014105
 21
-2363.647124269476
 31
0.0
  0
LINE
  5
32
330
25
100
AcDbEntity
  8
1
  6
Continuous
 62
     7
100
AcDbLine
 10
3937.692994983629
 20
-2366.492717719991
 30
0.0
 11
3937.612690779913
 21
-2365.082551035285
 31
0.0
  0
LINE
  5
31
330
25
100
AcDbEntity
  8
1
  6
Continuous
 62
     7
100
AcDbLine
 10
3938.752594900171
 20
-2366.492717719991
 30
0.0
 11
3938.832899103887
 21
-2365.082551035285
 31
0.0
  0
LINE
  5
30
330
25
100
AcDbEntity
  8
1
  6
Continuous
 62
     7
100
AcDbLine
 10
3941.6784925544
 20
-2363.566820065761
 30
0.0
 11
3940.268325869693
 21
-2363.647124269476
 31
0.0
  0
ENDBLK
  5
44
330
25
100
AcDbEntity
  8
0
100
AcDbBlockEnd
  0
BLOCK
  5
28
330
27
100
AcDbEntity
  8
0
100
AcDbBlockBegin
  2
______
 70
     0
 10
4236.535780791729
 20
-2457.732017075346
 30
0.0
  3
______
  1

  0
MTEXT
  5
134
102
{ACAD_XDICTIONARY
360
44A
102
}
330
27
100
AcDbEntity
  8
1
 62
     4
100
AcDbMText
 10
4182.03074368992
 20
-2403.6077977109
 30
0.0
 40
4.5
 41
0.0
 71
     5
 72
     1
  1
\U+201Af\U+201Aa\U+0090F
  7
CONVERTER_1
 73
     1
 44
1.0
1001
ACAD
1000
MTEXTBEGIN
1070
    73
1070
     1
1070
    44
1040
1.0
1070
    74
1070
     0
1000
MTEXTEND
  0
MTEXT
  5
133
102
{ACAD_XDICTIONARY
360
448
102
}
330
27
100
AcDbEntity
  8
1
 62
     4
100
AcDbMText
 10
4183.207864710079
 20
-2410.42529028598
 30
0.0
 40
4.5
 41
0.0
 71
     5
 72
     1
  1
\U+0192`\U+0192\U+2021\U+0192R\U+0090F
  7
CONVERTER_1
 73
     1
 44
1.0
1001
ACAD
1000
MTEXTBEGIN
1070
    73
1070
     1
1070
    44
1040
1.0
1070
    74
1070
     0
1000
MTEXTEND
  0
MTEXT
  5
132
330
27
100
AcDbEntity
  8
1
 62
     4
100
AcDbMText
 10
4167.277216545329
 20
-2403.53769588862
 30
0.0
 40
4.5
 41
0.0
 71
     5
 72
     1
  1
1
  7
CONVERTER_1
 73
     1
 44
1.0
1001
ACAD
1000
MTEXTBEGIN
1070
    73
1070
     1
1070
    44
1040
1.0
1070
    74
1070
     0
1000
MTEXTEND
  0
MTEXT
  5
131
330
27
100
AcDbEntity
  8
1
 62
     4
100
AcDbMText
 10
4167.277216545329
 20
-2410.53769588862
 30
0.0
 40
4.5
 41
0.0
 71
     5
 72
     1
  1
1
  7
CONVERTER_1
 73
     1
 44
1.0
1001
ACAD
1000
MTEXTBEGIN
1070
    73
1070
     1
1070
    44
1040
1.0
1070
    74
1070
     0
1000
MTEXTEND
  0
MTEXT
  5
130
330
27
100
AcDbEntity
  8
1
 62
     4
100
AcDbMText
 10
4141.53520102135
 20
-2403.664596059361
 30
0.0
 40
4.5
 41
0.0
 71
     5
 72
     1
  1
SWCH10A
  7
CONVERTER_1
 73
     1
 44
1.0
1001
ACAD
1000
MTEXTBEGIN
1070
    73
1070
     1
1070
    44
1040
1.0
1070
    74
1070
     0
1000
MTEXTEND
  0
MTEXT
  5
12F
102
{ACAD_XDICTIONARY
360
446
102
}
330
27
100
AcDbEntity
  8
1
 62
     4
100
AcDbMText
 10
4144.91102149696
 20
-2410.544432724841
 30
0.0
 40
4.5
 41
0.0
 71
     5
 72
     1
  1
\U+201AU\U+201AU\U+0192i\U+0192C\U+0192\U+008D\U+0192\U+201C\U+2022\U+00C0\U+008D\U+2021\U+008D\U+00DF
  7
CONVERTER_1
 73
     1
 44
1.0
1001
ACAD
1000
MTEXTBEGIN
1070
    73
1070
     1
1070
    44
1040
1.0
1070
    74
1070
     0
1000
MTEXTEND
  0
MTEXT
  5
12E
102
{ACAD_XDICTIONARY
360
444
102
}
330
27
100
AcDbEntity
  8
1
 62
     4
100
AcDbMText
 10
4091.04282920718
 20
-2403.5066539952
 30
0.0
 40
4.5
 41
0.0
 71
     5
 72
     1
  1
\U+0081{\U+201A\U+00E0\U+201A\U+00E6\U+008F~\U+201A\U+00F9\U+201A\U+00D1
  7
CONVERTER_1
 73
     1
 44
1.0
1001
ACAD
1000
MTEXTBEGIN
1070
    73
1070
     1
1070
    44
1040
1.0
1070
    74
1070
     0
1000
MTEXTEND
  0
MTEXT
  5
12D
102
{ACAD_XDICTIONARY
360
442
102
}
330
27
100
AcDbEntity
  8
1
 62
     4
100
AcDbMText
 10
4088.482223466129
 20
-2410.57007432507
 30
0.0
 40
4.5
 41
0.0
 71
     5
 72
     1
  1
\U+00B2{   \U+2018\U+00E4
  7
CONVERTER_1
 73
     1
 44
1.0
1001
ACAD
1000
MTEXTBEGIN
1070
    73
1070
     1
1070
    44
1040
1.0
1070
    74
1070
     0
1000
MTEXTEND
  0
MTEXT
  5
12C
330
27
100
AcDbEntity
  8
1
 62
     4
100
AcDbMText
 10
4072.24056570882
 20
-2403.35818704374
 30
0.0
 40
4.5
 41
0.0
 71
     5
 72
     1
  1
2
  7
CONVERTER_1
 73
     1
 44
1.0
1001
ACAD
1000
MTEXTBEGIN
1070
    73
1070
     1
1070
    44
1040
1.0
1070
    74
1070
     0
1000
MTEXTEND
  0
MTEXT
  5
12B
330
27
100
AcDbEntity
  8
1
 62
     4
100
AcDbMText
 10
4072.24056570882
 20
-2410.35818704374
 30
0.0
 40
4.5
 41
0.0
 71
     5
 72
     1
  1
1
  7
CONVERTER_1
 73
     1
 44
1.0
1001
ACAD
1000
MTEXTBEGIN
1070
    73
1070
     1
1070
    44
1040
1.0
1070
    74
1070
     0
1000
MTEXTEND
  0
MTEXT
  5
12A
102
{ACAD_XDICTIONARY
360
440
102
}
330
27
100
AcDbEntity
  8
1
 62
     4
100
AcDbMText
 10
4158.015817082669
 20
-2428.360472508869
 30
0.0
 40
4.0
 41
0.0
 71
     4
 72
     1
  1
\U+2022i\P\U+00B2\U+00A5
  7
CONVERTER_2
 73
     1
 44
1.0
1001
ACAD
1000
MTEXTBEGIN
1070
    73
1070
     1
1070
    44
1040
1.0
1070
    74
1070
     0
1000
MTEXTEND
  0
MTEXT
  5
129
102
{ACAD_XDICTIONARY
360
43E
102
}
330
27
100
AcDbEntity
  8
1
 62
     4
100
AcDbMText
 10
4158.015817082669
 20
-2443.36047250887
 30
0.0
 40
4.0
 41
0.0
 71
     4
 72
     1
  1
\U+0090}\P\U+00B2\U+00A5
  7
CONVERTER_2
 73
     1
 44
1.0
1001
ACAD
1000
MTEXTBEGIN
1070
    73
1070
     1
1070
    44
1040
1.0
1070
    74
1070
     0
1000
MTEXTEND
  0
MTEXT
  5
128
102
{ACAD_XDICTIONARY
360
43C
102
}
330
27
100
AcDbEntity
  8
1
 62
     4
100
AcDbMText
 10
4158.015817082669
 20
-2458.36047250887
 30
0.0
 40
4.0
 41
0.0
 71
     4
 72
     1
  1
\U+0090}\P\U+201D\U+00E5
  7
CONVERTER_2
 73
     1
 44
1.0
1001
ACAD
1000
MTEXTBEGIN
1070
    73
1070
     1
1070
    44
1040
1.0
1070
    74
1070
     0
1000
MTEXTEND
  0
MTEXT
  5
127
102
{ACAD_XDICTIONARY
360
43A
102
}
330
27
100
AcDbEntity
  8
1
 62
     4
100
AcDbMText
 10
4072.615817082669
 20
-2417.36047250887
 30
0.0
 40
4.0
 41
0.0
 71
     5
 72
     1
  1
\U+2022i \U+201D\U+00E5
  7
CONVERTER_2
 73
     1
 44
1.0
1001
ACAD
1000
MTEXTBEGIN
1070
    73
1070
     1
1070
    44
1040
1.0
1070
    74
1070
     0
1000
MTEXTEND
  0
MTEXT
  5
126
102
{ACAD_XDICTIONARY
360
438
102
}
330
27
100
AcDbEntity
  8
1
 62
     4
100
AcDbMText
 10
4105.11581708267
 20
-2417.36047250887
 30
0.0
 40
4.0
 41
0.0
 71
     5
 72
     1
  1
\U+2022i        \U+00B2\U+00A5
  7
CONVERTER_2
 73
     1
 44
1.0
1001
ACAD
1000
MTEXTBEGIN
1070
    73
1070
     1
1070
    44
1040
1.0
1070
    74
1070
     0
1000
MTEXTEND
  0
MTEXT
  5
125
102
{ACAD_XDICTIONARY
360
436
102
}
330
27
100
AcDbEntity
  8
1
 62
     4
100
AcDbMText
 10
4145.11581708267
 20
-2417.36047250887
 30
0.0
 40
4.0
 41
0.0
 71
     5
 72
     1
  1
\U+008D\U+00DF   \U+017D\U+00A2
  7
CONVERTER_2
 73
     1
 44
1.0
1001
ACAD
1000
MTEXTBEGIN
1070
    73
1070
     1
1070
    44
1040
1.0
1070
    74
1070
     0
1000
MTEXTEND
  0
MTEXT
  5
124
102
{ACAD_XDICTIONARY
360
434
102
}
330
27
100
AcDbEntity
  8
1
 62
     4
100
AcDbMText
 10
4167.61581708267
 20
-2417.36047250887
 30
0.0
 40
4.0
 41
0.0
 71
     5
 72
     1
  1
\U+0090\U+201D %%d%%d
  7
CONVERTER_2
 73
     1
 44
1.0
1001
ACAD
1000
MTEXTBEGIN
1070
    73
1070
     1
1070
    44
1040
1.0
1070
    74
1070
     0
1000
MTEXTEND
  0
MTEXT
  5
123
102
{ACAD_XDICTIONARY
360
432
102
}
330
27
100
AcDbEntity
  8
1
 62
     4
100
AcDbMText
 10
4195.11581708267
 20
-2417.36047250887
 30
0.0
 40
4.0
 41
0.0
 71
     5
 72
     1
  1
\U+017Dd   \U+008F\U+00D0   \U+201A\U+00AF
  7
CONVERTER_2
 73
     1
 44
1.0
1001
ACAD
1000
MTEXTBEGIN
1070
    73
1070
     1
1070
    44
1040
1.0
1070
    74
1070
     0
1000
MTEXTEND
  0
MTEXT
  5
122
102
{ACAD_XDICTIONARY
360
430
102
}
330
27
100
AcDbEntity
  8
1
 62
     4
100
AcDbMText
 10
4230.11581708267
 20
-2417.36047250887
 30
0.0
 40
4.0
 41
0.0
 71
     5
 72
     1
  1
\U+2039L   \U+017D\U+00B2
  7
CONVERTER_2
 73
     1
 44
1.0
1001
ACAD
1000
MTEXTBEGIN
1070
    73
1070
     1
1070
    44
1040
1.0
1070
    74
1070
     0
1000
MTEXTEND
  0
MTEXT
  5
121
102
{ACAD_XDICTIONARY
360
42E
102
}
330
27
100
AcDbEntity
  8
1
 62
     4
100
AcDbMText
 10
4108.11581708267
 20
-2424.360472508869
 30
0.0
 40
4.0
 41
0.0
 71
     5
 72
     1
  1
\U+008F\U+00B0  \U+201DF
  7
CONVERTER_2
 73
     1
 44
1.0
1001
ACAD
1000
MTEXTBEGIN
1070
    73
1070
     1
1070
    44
1040
1.0
1070
    74
1070
     0
1000
MTEXTEND
  0
MTEXT
  5
120
102
{ACAD_XDICTIONARY
360
42C
102
}
330
27
100
AcDbEntity
  8
1
 62
     4
100
AcDbMText
 10
4128.11581708267
 20
-2424.360472508869
 30
0.0
 40
4.0
 41
0.0
 71
     5
 72
     1
  1
\U+0152\U+0081  \U+0090}
  7
CONVERTER_2
 73
     1
 44
1.0
1001
ACAD
1000
MTEXTBEGIN
1070
    73
1070
     1
1070
    44
1040
1.0
1070
    74
1070
     0
1000
MTEXTEND
  0
MTEXT
  5
11F
102
{ACAD_XDICTIONARY
360
42A
102
}
330
27
100
AcDbEntity
  8
1
 62
     4
100
AcDbMText
 10
4148.11581708267
 20
-2424.360472508869
 30
0.0
 40
4.0
 41
0.0
 71
     5
 72
     1
  1
\U+2019S  \U+201C\U+00B2
  7
CONVERTER_2
 73
     1
 44
1.0
1001
ACAD
1000
MTEXTBEGIN
1070
    73
1070
     1
1070
    44
1040
1.0
1070
    74
1070
     0
1000
MTEXTEND
  0
MTEXT
  5
11E
102
{ACAD_XDICTIONARY
360
428
102
}
330
27
100
AcDbEntity
  8
1
 62
     4
100
AcDbMText
 10
4069.302888581201
 20
-2423.367328532376
 30
0.0
 40
4.0
 41
0.0
 71
     5
 72
     1
  1
\U+017D\U+00D6\U+201Cx
  7
CONVERTER_2
 73
     1
 44
1.0
1001
ACAD
1000
MTEXTBEGIN
1070
    73
1070
     1
1070
    44
1040
1.0
1070
    74
1070
     0
1000
MTEXTEND
  0
MTEXT
  5
11D
102
{ACAD_XDICTIONARY
360
426
102
}
330
27
100
AcDbEntity
  8
1
 62
     4
100
AcDbMText
 10
4082.04073191226
 20
-2461.454102219336
 30
0.0
 40
4.0
 41
0.0
 71
     5
 72
     1
  1
\U+008D\U+201A\U+2039\U+00C7\U+2039\U+00C1\U+2022\U+00B4\U+0160\U+201D\U+017D\U+00DB\U+2030\U+00FF\U+017D\U+00C5
  7
CONVERTER_2
 73
     1
 44
1.0
1001
ACAD
1000
MTEXTBEGIN
1070
    73
1070
     1
1070
    44
1040
1.0
1070
    74
1070
     0
1000
MTEXTEND
  0
MTEXT
  5
11C
102
{ACAD_XDICTIONARY
360
424
102
}
330
27
100
AcDbEntity
  8
1
 62
     4
100
AcDbMText
 10
4109.605529210265
 20
-2451.18367689166
 30
0.0
 40
3.0
 41
0.0
 71
     5
 72
     1
  1
\U+00B2{\U+017D\U+00C5
  7
CONVERTER_2
 73
     1
 44
1.0
1001
ACAD
1000
MTEXTBEGIN
1070
    73
1070
     1
1070
    44
1040
1.0
1070
    74
1070
     0
1000
MTEXTEND
  0
MTEXT
  5
11B
102
{ACAD_XDICTIONARY
360
422
102
}
330
27
100
AcDbEntity
  8
1
 62
     4
100
AcDbMText
 10
4129.751673692301
 20
-2455.912583371738
 30
0.0
 40
2.5
 41
0.0
 71
     5
 72
     1
  1
\U+201C\U+0152\U+2039\U+20AC\U+201Cs\U+2018\U+00F0\U+201C\U+0152\U+2039\U+00CC\U+201C*\U+2019J
  7
CONVERTER_2
 73
     1
 44
1.0
1001
ACAD
1000
MTEXTBEGIN
1070
    73
1070
     1
1070
    44
1040
1.0
1070
    74
1070
     0
1000
MTEXTEND
  0
MTEXT
  5
11A
330
27
100
AcDbEntity
  8
1
 62
     4
100
AcDbMText
 10
4146.02772001051
 20
-2455.894165661304
 30
0.0
 40
2.0
 41
0.0
 71
     5
 72
     1
  1
1-27-4
  7
CONVERTER_2
 73
     1
 44
1.0
1001
ACAD
1000
MTEXTBEGIN
1070
    73
1070
     1
1070
    44
1040
1.0
1070
    74
1070
     0
1000
MTEXTEND
  0
MTEXT
  5
119
330
27
100
AcDbEntity
  8
1
 62
     4
100
AcDbMText
 10
4126.902021769553
 20
-2461.071410777799
 30
0.0
 40
2.0
 41
0.0
 71
     5
 72
     1
  1
03 (3876) 0600
  7
CONVERTER_2
 73
     1
 44
1.0
1001
ACAD
1000
MTEXTBEGIN
1070
    73
1070
     1
1070
    44
1040
1.0
1070
    74
1070
     0
1000
MTEXTEND
  0
MTEXT
  5
118
102
{ACAD_XDICTIONARY
360
420
102
}
330
27
100
AcDbEntity
  8
1
 62
     4
100
AcDbMText
 10
4108.26560589566
 20
-2456.009737071564
 30
0.0
 40
2.5
 41
0.0
 71
     5
 72
     1
  1
\U+0081\U+00CF
  7
CONVERTER_2
 73
     1
 44
1.0
1001
ACAD
1000
MTEXTBEGIN
1070
    73
1070
     1
1070
    44
1040
1.0
1070
    74
1070
     0
1000
MTEXTEND
  0
MTEXT
  5
117
330
27
100
AcDbEntity
  8
1
 62
     4
100
AcDbMText
 10
4111.236628716134
 20
-2461.051472766917
 30
0.0
 40
2.0
 41
0.0
 71
     5
 72
     1
  1
TEL
  7
CONVERTER_3
 73
     1
 44
1.0
1001
ACAD
1000
MTEXTBEGIN
1070
    73
1070
     1
1070
    44
1040
1.0
1070
    74
1070
     0
1000
MTEXTEND
  0
MTEXT
  5
115
330
27
100
AcDbEntity
  8
1
 62
     4
100
AcDbMText
 10
4112.414526880026
 20
-2455.947279986106
 30
0.0
 40
2.0
 41
0.0
 71
     5
 72
     1
  1
110
  7
CONVERTER_2
 73
     1
 44
1.0
1001
ACAD
1000
MTEXTBEGIN
1070
    73
1070
     1
1070
    44
1040
1.0
1070
    74
1070
     0
1000
MTEXTEND
  0
MTEXT
  5
113
102
{ACAD_XDICTIONARY
360
41E
102
}
330
27
100
AcDbEntity
  8
1
 62
     4
100
AcDbMText
 10
4200.605624336513
 20
-2458.21046049837
 30
0.0
 40
8.0
 41
0.0
 71
     5
 72
     1
  1
\U+201A\U+2021\U+201A\U+201E\U+201A\U+2020\U+201A\U+201E\U+0081|\U+201A\U+0081\U+201A\U+201E\U+201AU\U+0081|\U+201A`\U+201AO\U+201AV
  7
CONVERTER_1
 73
     1
 44
1.0
1001
ACAD
1000
MTEXTBEGIN
1070
    73
1070
     1
1070
    44
1040
1.0
1070
    74
1070
     0
1000
MTEXTEND
  0
MTEXT
  5
112
102
{ACAD_XDICTIONARY
360
41C
102
}
330
27
100
AcDbEntity
  8
1
 62
     4
100
AcDbMText
 10
4175.66387539084
 20
-2443.31255260718
 30
0.0
 40
8.0
 41
0.0
 71
     5
 72
     1
  1
\U+2018g%%d\U+00CF\U+0090}
  7
CONVERTER_1
 73
     1
 44
1.0
1001
ACAD
1000
MTEXTBEGIN
1070
    73
1070
     1
1070
    44
1040
1.0
1070
    74
1070
     0
1000
MTEXTEND
  0
MTEXT
  5
111
330
27
100
AcDbEntity
  8
1
 62
     4
100
AcDbMText
 10
4148.11581708267
 20
-2442.21046049837
 30
0.0
 40
4.0
 41
0.0
 71
     5
 72
     1
  1
96.5.7
  7
CONVERTER_1
 73
     1
 44
1.0
1001
ACAD
1000
MTEXTBEGIN
1070
    73
1070
     1
1070
    44
1040
1.0
1070
    74
1070
     0
1000
MTEXTEND
  0
MTEXT
  5
110
330
27
100
AcDbEntity
  8
1
 62
     4
100
AcDbMText
 10
4128.11581708267
 20
-2442.21046049837
 30
0.0
 40
4.0
 41
0.0
 71
     5
 72
     1
  1
96.5.7
  7
CONVERTER_1
 73
     1
 44
1.0
1001
ACAD
1000
MTEXTBEGIN
1070
    73
1070
     1
1070
    44
1040
1.0
1070
    74
1070
     0
1000
MTEXTEND
  0
MTEXT
  5
10F
330
27
100
AcDbEntity
  8
1
 62
     4
100
AcDbMText
 10
4108.11581708267
 20
-2442.21046049837
 30
0.0
 40
4.0
 41
0.0
 71
     5
 72
     1
  1
96.5.7
  7
CONVERTER_1
 73
     1
 44
1.0
1001
ACAD
1000
MTEXTBEGIN
1070
    73
1070
     1
1070
    44
1040
1.0
1070
    74
1070
     0
1000
MTEXTEND
  0
MTEXT
  5
10E
102
{ACAD_XDICTIONARY
360
41A
102
}
330
27
100
AcDbEntity
  8
1
 62
     4
100
AcDbMText
 10
4085.150810669836
 20
-2425.710460498371
 30
0.0
 40
6.0
 41
0.0
 71
     5
 72
     1
  1
\U+201AP\U+0081F\U+201AP
  7
CONVERTER_1
 73
     1
 44
1.0
1001
ACAD
1000
MTEXTBEGIN
1070
    73
1070
     1
1070
    44
1040
1.0
1070
    74
1070
     0
1000
MTEXTEND
  0
MTEXT
  5
10D
102
{ACAD_XDICTIONARY
360
418
102
}
330
27
100
AcDbEntity
  8
1
 62
     4
100
AcDbMText
 10
4147.770172834111
 20
-2433.819221496186
 30
0.0
 40
7.0
 41
0.0
 71
     5
 72
     1
  1
\U+0160\U+00F8\U+008D^ 
  7
CONVERTER_1
 73
     1
 44
1.0
1001
ACAD
1000
MTEXTBEGIN
1070
    73
1070
     1
1070
    44
1040
1.0
1070
    74
1070
     0
1000
MTEXTEND
  0
MTEXT
  5
10C
102
{ACAD_XDICTIONARY
360
416
102
}
330
27
100
AcDbEntity
  8
1
 62
     4
100
AcDbMText
 10
4128.34206585838
 20
-2433.597495035804
 30
0.0
 40
7.0
 41
0.0
 71
     5
 72
     1
  1
\U+2019\U+2020\U+201C\U+2021
  7
CONVERTER_1
 73
     1
 44
1.0
1001
ACAD
1000
MTEXTBEGIN
1070
    73
1070
     1
1070
    44
1040
1.0
1070
    74
1070
     0
1000
MTEXTEND
  0
MTEXT
  5
10B
102
{ACAD_XDICTIONARY
360
414
102
}
330
27
100
AcDbEntity
  8
1
 62
     4
100
AcDbMText
 10
4107.852079340684
 20
-2433.625327226468
 30
0.0
 40
7.0
 41
0.0
 71
     5
 72
     1
  1
\U+02C6\U+00CF\U+008D\U+00E3
  7
CONVERTER_1
 73
     1
 44
1.0
1001
ACAD
1000
MTEXTBEGIN
1070
    73
1070
     1
1070
    44
1040
1.0
1070
    74
1070
     0
1000
MTEXTEND
  0
MTEXT
  5
10A
102
{ACAD_XDICTIONARY
360
412
102
}
330
27
100
AcDbEntity
  8
1
 62
     4
100
AcDbMText
 10
4186.315429154518
 20
-2428.360472508869
 30
0.0
 40
8.0
 41
0.0
 71
     5
 72
     1
  1
\U+201A`\U+201Ae\U+201Ac\U+0081|\U+201AR\U+201AR\U+201AO
  7
CONVERTER_1
 73
     1
 44
1.0
1001
ACAD
1000
MTEXTBEGIN
1070
    73
1070
     1
1070
    44
1040
1.0
1070
    74
1070
     0
1000
MTEXTEND
  0
ARC
  5
108
330
27
100
AcDbEntity
  8
1
  6
Continuous
 62
     7
100
AcDbCircle
 10
4070.451148788758
 20
-2451.59024907799
 30
0.0
 40
0.15691335823345
100
AcDbArc
 50
16.99999999972435
 51
163.0000000002756
  0
ARC
  5
107
330
27
100
AcDbEntity
  8
1
  6
Continuous
 62
     7
100
AcDbCircle
 10
4069.73970928194
 20
-2453.917262851758
 30
0.0
 40
0.15691335823271
100
AcDbArc
 50
163.0000000000197
 51
-90.0
  0
ARC
  5
106
330
27
100
AcDbEntity
  8
1
  6
Continuous
 62
     7
100
AcDbCircle
 10
4071.162588295576
 20
-2453.917262851758
 30
0.0
 40
0.15691335823385
100
AcDbArc
 50
-90.0
 51
16.99999999978605
  0
ARC
  5
105
330
27
100
AcDbEntity
  8
1
  6
Continuous
 62
     7
100
AcDbCircle
 10
4069.483852066246
 20
-2454.75413409567
 30
0.0
 40
0.15691335823203
100
AcDbArc
 50
90.0
 51
163.0000000000197
  0
ARC
  5
104
330
27
100
AcDbEntity
  8
1
  6
Continuous
 62
     7
100
AcDbCircle
 10
4068.940155482896
 20
-2456.532485488984
 30
0.0
 40
0.15691335823498
100
AcDbArc
 50
162.9999999995788
 51
-90.0
  0
ARC
  5
103
330
27
100
AcDbEntity
  8
1
  6
Continuous
 62
     7
100
AcDbCircle
 10
4071.379742252187
 20
-2454.806438548417
 30
0.0
 40
0.20921781097989
100
AcDbArc
 50
17.00000000034182
 51
90.0
  0
ARC
  5
102
330
27
100
AcDbEntity
  8
1
  6
Continuous
 62
     7
100
AcDbCircle
 10
4071.891456683577
 20
-2456.480181036237
 30
0.0
 40
0.20921781098014
100
AcDbArc
 50
-90.0
 51
16.99999999941562
  0
ARC
  5
101
330
27
100
AcDbEntity
  8
1
  6
Continuous
 62
     7
100
AcDbCircle
 10
4067.987639603732
 20
-2456.427876583496
 30
0.0
 40
0.26152226372187
100
AcDbArc
 50
-90.0
 51
-16.9999999996485
  0
ARC
  5
100
330
27
100
AcDbEntity
  8
1
  6
Continuous
 62
     7
100
AcDbCircle
 10
4074.172627680222
 20
-2456.427876583496
 30
0.0
 40
0.26152226372199
100
AcDbArc
 50
-163.0000000003514
 51
-90.0
  0
ARC
  5
FF
330
27
100
AcDbEntity
  8
1
  6
Continuous
 62
     7
100
AcDbCircle
 10
4067.731317246043
 20
-2456.794007752706
 30
0.0
 40
0.10460890548802
100
AcDbArc
 50
90.0
 51
180.0
  0
ARC
  5
FE
330
27
100
AcDbEntity
  8
1
  6
Continuous
 62
     7
100
AcDbCircle
 10
4069.195841922889
 20
-2456.794007752706
 30
0.0
 40
0.10460890548893
100
AcDbArc
 50
0.0
 51
90.0
  0
ARC
  5
FD
330
27
100
AcDbEntity
  8
1
  6
Continuous
 62
     7
100
AcDbCircle
 10
4071.601846749135
 20
-2456.794007752706
 30
0.0
 40
0.10460890548802
100
AcDbArc
 50
90.0
 51
180.0
  0
ARC
  5
FC
330
27
100
AcDbEntity
  8
1
  6
Continuous
 62
     7
100
AcDbCircle
 10
4074.530896102827
 20
-2456.794007752706
 30
0.0
 40
0.10460890548984
100
AcDbArc
 50
0.0
 51
90.0
  0
ARC
  5
FB
330
27
100
AcDbEntity
  8
1
  6
Continuous
 62
     7
100
AcDbCircle
 10
4075.733898515951
 20
-2450.883604592579
 30
0.0
 40
0.3661311692108
100
AcDbArc
 50
0.0
 51
90.0
  0
ARC
  5
FA
330
27
100
AcDbEntity
  8
1
  6
Continuous
 62
     7
100
AcDbCircle
 10
4078.453730058665
 20
-2450.883604592579
 30
0.0
 40
0.36613116921217
100
AcDbArc
 50
90.0
 51
180.0
  0
ARC
  5
F9
330
27
100
AcDbEntity
  8
1
  6
Continuous
 62
     7
100
AcDbCircle
 10
4078.604234370054
 20
-2451.24973576179
 30
0.0
 40
0.7322623384232401
100
AcDbArc
 50
17.47288527037265
 51
90.0
  0
ARC
  5
F8
330
27
100
AcDbEntity
  8
1
  6
Continuous
 62
     7
100
AcDbCircle
 10
4075.583394204566
 20
-2451.24973576179
 30
0.0
 40
0.73226233842388
100
AcDbArc
 50
90.0
 51
162.5271147296594
  0
ARC
  5
F7
330
27
100
AcDbEntity
  8
1
  6
Continuous
 62
     7
100
AcDbCircle
 10
4075.838507421442
 20
-2456.427876583496
 30
0.0
 40
0.26152226372187
100
AcDbArc
 50
-90.0
 51
0.0
  0
ARC
  5
F6
330
27
100
AcDbEntity
  8
1
  6
Continuous
 62
     7
100
AcDbCircle
 10
4078.349121153177
 20
-2456.427876583496
 30
0.0
 40
0.26152226372233
100
AcDbArc
 50
180.0
 51
-90.0
  0
ARC
  5
F5
330
27
100
AcDbEntity
  8
1
  6
Continuous
 62
     7
100
AcDbCircle
 10
4078.558338964156
 20
-2456.794007752706
 30
0.0
 40
0.10460890548802
100
AcDbArc
 50
0.0
 51
90.0
  0
ARC
  5
F4
330
27
100
AcDbEntity
  8
1
  6
Continuous
 62
     7
100
AcDbCircle
 10
4075.629289610463
 20
-2456.794007752706
 30
0.0
 40
0.10460890548802
100
AcDbArc
 50
90.0
 51
180.0
  0
ARC
  5
F3
330
27
100
AcDbEntity
  8
1
  6
Continuous
 62
     7
100
AcDbCircle
 10
4088.548489438353
 20
-2450.412864517876
 30
0.0
 40
0.10460890548802
100
AcDbArc
 50
180.0
 51
-90.0
  0
ARC
  5
F2
330
27
100
AcDbEntity
  8
1
  6
Continuous
 62
     7
100
AcDbCircle
 10
4096.394157350029
 20
-2450.412864517876
 30
0.0
 40
0.10460890548984
100
AcDbArc
 50
-90.0
 51
0.0
  0
ARC
  5
F1
330
27
100
AcDbEntity
  8
1
  6
Continuous
 62
     7
100
AcDbCircle
 10
4096.394157350029
 20
-2456.794007752706
 30
0.0
 40
0.10460890548802
100
AcDbArc
 50
0.0
 51
90.0
  0
ARC
  5
F0
330
27
100
AcDbEntity
  8
1
  6
Continuous
 62
     7
100
AcDbCircle
 10
4093.674325807316
 20
-2456.794007752706
 30
0.0
 40
0.10460890548802
100
AcDbArc
 50
90.0
 51
180.0
  0
ARC
  5
EF
330
27
100
AcDbEntity
  8
1
  6
Continuous
 62
     7
100
AcDbCircle
 10
4088.548489438353
 20
-2456.794007752706
 30
0.0
 40
0.10460890548802
100
AcDbArc
 50
90.0
 51
180.0
  0
ARC
  5
EE
330
27
100
AcDbEntity
  8
1
  6
Continuous
 62
     7
100
AcDbCircle
 10
4089.803796304223
 20
-2456.794007752706
 30
0.0
 40
0.10460890548802
100
AcDbArc
 50
0.0
 51
90.0
  0
ARC
  5
ED
330
27
100
AcDbEntity
  8
1
  6
Continuous
 62
     7
100
AcDbCircle
 10
4088.810011702078
 20
-2450.6743867816
 30
0.0
 40
0.15691335823385
100
AcDbArc
 50
0.0
 51
90.0
  0
ARC
  5
EC
330
27
100
AcDbEntity
  8
1
  6
Continuous
 62
     7
100
AcDbCircle
 10
4088.810011702078
 20
-2456.532485488984
 30
0.0
 40
0.15691335823385
100
AcDbArc
 50
-90.0
 51
0.0
  0
ARC
  5
EB
330
27
100
AcDbEntity
  8
1
  6
Continuous
 62
     7
100
AcDbCircle
 10
4089.64688294599
 20
-2456.532485488984
 30
0.0
 40
0.15691335823385
100
AcDbArc
 50
180.0
 51
-90.0
  0
ARC
  5
EA
330
27
100
AcDbEntity
  8
1
  6
Continuous
 62
     7
100
AcDbCircle
 10
4089.64688294599
 20
-2450.639617084164
 30
0.0
 40
0.15691335823408
100
AcDbArc
 50
14.99999999997748
 51
180.0
  0
ARC
  5
E9
330
27
100
AcDbEntity
  8
1
  6
Continuous
 62
     7
100
AcDbCircle
 10
4092.471323394192
 20
-2453.097016862078
 30
0.0
 40
0.1569133582332
100
AcDbArc
 50
-164.9999999999366
 51
-14.99999999997748
  0
ARC
  5
E8
330
27
100
AcDbEntity
  8
1
  6
Continuous
 62
     7
100
AcDbCircle
 10
4093.988152523781
 20
-2450.669555675137
 30
0.0
 40
0.15691335823385
100
AcDbArc
 50
0.0
 51
164.9999999998077
  0
ARC
  5
E7
330
27
100
AcDbEntity
  8
1
  6
Continuous
 62
     7
100
AcDbCircle
 10
4096.184939539051
 20
-2450.778995687091
 30
0.0
 40
0.26152226372415
100
AcDbArc
 50
90.0
 51
180.0
  0
ARC
  5
E6
330
27
100
AcDbEntity
  8
1
  6
Continuous
 62
     7
100
AcDbCircle
 10
4093.883543618294
 20
-2456.427876583496
 30
0.0
 40
0.26152226372187
100
AcDbArc
 50
-90.0
 51
0.0
  0
ARC
  5
E5
330
27
100
AcDbEntity
  8
1
  6
Continuous
 62
     7
100
AcDbCircle
 10
4096.184939539051
 20
-2456.427876583496
 30
0.0
 40
0.26152226372278
100
AcDbArc
 50
180.0
 51
-90.0
  0
CIRCLE
  5
E4
330
27
100
AcDbEntity
  8
1
  6
Continuous
 62
     7
100
AcDbCircle
 10
4084.102610955072
 20
-2453.603436135292
 30
0.0
 40
3.818225050350069
  0
CIRCLE
  5
E3
330
27
100
AcDbEntity
  8
1
  6
Continuous
 62
     5
100
AcDbCircle
 10
4073.191263543988
 20
-2438.36047250887
 30
0.0
 40
2.0
  0
CIRCLE
  5
E2
330
27
100
AcDbEntity
  8
1
  6
Continuous
 62
     5
100
AcDbCircle
 10
4073.191263543988
 20
-2438.36047250887
 30
0.0
 40
4.0
  0
ARC
  5
E1
330
27
100
AcDbEntity
  8
1
  6
Continuous
 62
     7
100
AcDbCircle
 10
4079.761341377277
 20
-2451.615866931
 30
0.0
 40
0.26152226372225
100
AcDbArc
 50
-162.5271147292234
 51
1.852437285171729
  0
ARC
  5
E0
330
27
100
AcDbEntity
  8
1
  6
Continuous
 62
     7
100
AcDbCircle
 10
4074.42628719734
 20
-2451.615866931
 30
0.0
 40
0.26152226372285
100
AcDbArc
 50
178.1475627148122
 51
-17.47288527065687
  0
ARC
  5
DF
330
27
100
AcDbEntity
  8
1
  6
Continuous
 62
     7
100
AcDbCircle
 10
4085.840898116503
 20
-2451.865148973864
 30
0.0
 40
0.8368712439118198
100
AcDbArc
 50
-45.0
 51
134.9999999999119
  0
ARC
  5
DE
330
27
100
AcDbEntity
  8
1
  6
Continuous
 62
     7
100
AcDbCircle
 10
4082.364323793643
 20
-2455.34172329672
 30
0.0
 40
0.8368712439118198
100
AcDbArc
 50
135.0
 51
-45.00000000008807
  0
LINE
  5
DD
330
27
100
AcDbEntity
  8
1
  6
Continuous
 62
     5
100
AcDbLine
 10
4065.11581708267
 20
-2406.860472508869
 30
0.0
 11
4065.11581708267
 21
-2399.860472508869
 31
0.0
  0
LINE
  5
DC
330
27
100
AcDbEntity
  8
1
  6
Continuous
 62
     5
100
AcDbLine
 10
4065.11581708267
 20
-2399.860472508869
 30
0.0
 11
4080.11581708267
 21
-2399.860472508869
 31
0.0
  0
LINE
  5
DB
330
27
100
AcDbEntity
  8
1
  6
Continuous
 62
     5
100
AcDbLine
 10
4080.11581708267
 20
-2399.860472508869
 30
0.0
 11
4080.11581708267
 21
-2406.860472508869
 31
0.0
  0
LINE
  5
DA
330
27
100
AcDbEntity
  8
1
  6
Continuous
 62
     5
100
AcDbLine
 10
4080.11581708267
 20
-2399.860472508869
 30
0.0
 11
4130.11581708267
 21
-2399.860472508869
 31
0.0
  0
LINE
  5
D9
330
27
100
AcDbEntity
  8
1
  6
Continuous
 62
     5
100
AcDbLine
 10
4130.11581708267
 20
-2399.860472508869
 30
0.0
 11
4130.11581708267
 21
-2406.860472508869
 31
0.0
  0
LINE
  5
D8
330
27
100
AcDbEntity
  8
1
  6
Continuous
 62
     5
100
AcDbLine
 10
4130.11581708267
 20
-2399.860472508869
 30
0.0
 11
4160.11581708267
 21
-2399.860472508869
 31
0.0
  0
LINE
  5
D7
330
27
100
AcDbEntity
  8
1
  6
Continuous
 62
     5
100
AcDbLine
 10
4160.11581708267
 20
-2399.860472508869
 30
0.0
 11
4160.11581708267
 21
-2406.860472508869
 31
0.0
  0
LINE
  5
D6
330
27
100
AcDbEntity
  8
1
  6
Continuous
 62
     5
100
AcDbLine
 10
4160.11581708267
 20
-2399.860472508869
 30
0.0
 11
4175.11581708267
 21
-2399.860472508869
 31
0.0
  0
LINE
  5
D5
330
27
100
AcDbEntity
  8
1
  6
Continuous
 62
     5
100
AcDbLine
 10
4175.11581708267
 20
-2399.860472508869
 30
0.0
 11
4175.11581708267
 21
-2406.860472508869
 31
0.0
  0
LINE
  5
D4
330
27
100
AcDbEntity
  8
1
  6
Continuous
 62
     5
100
AcDbLine
 10
4175.11581708267
 20
-2399.860472508869
 30
0.0
 11
4215.11581708267
 21
-2399.860472508869
 31
0.0
  0
LINE
  5
D3
330
27
100
AcDbEntity
  8
1
  6
Continuous
 62
     5
100
AcDbLine
 10
4215.11581708267
 20
-2399.860472508869
 30
0.0
 11
4215.11581708267
 21
-2406.860472508869
 31
0.0
  0
LINE
  5
D2
330
27
100
AcDbEntity
  8
1
  6
Continuous
 62
     5
100
AcDbLine
 10
4215.11581708267
 20
-2399.860472508869
 30
0.0
 11
4245.11581708267
 21
-2399.860472508869
 31
0.0
  0
LINE
  5
D1
330
27
100
AcDbEntity
  8
1
  6
Continuous
 62
     7
100
AcDbLine
 10
4065.11581708267
 20
-2465.860472508869
 30
0.0
 11
4158.11581708267
 21
-2465.860472508869
 31
0.0
  0
LINE
  5
D0
330
27
100
AcDbEntity
  8
1
  6
Continuous
 62
     7
100
AcDbLine
 10
4245.11581708267
 20
-2465.860472508869
 30
0.0
 11
4245.11581708267
 21
-2450.86047250887
 31
0.0
  0
LINE
  5
CF
330
27
100
AcDbEntity
  8
1
  6
Continuous
 62
     7
100
AcDbLine
 10
4245.11581708267
 20
-2413.860472508869
 30
0.0
 11
4215.11581708267
 21
-2413.860472508869
 31
0.0
  0
LINE
  5
CE
330
27
100
AcDbEntity
  8
1
  6
Continuous
 62
     7
100
AcDbLine
 10
4065.11581708267
 20
-2413.860472508869
 30
0.0
 11
4065.11581708267
 21
-2420.86047250887
 31
0.0
  0
LINE
  5
CD
330
27
100
AcDbEntity
  8
1
  6
Continuous
 62
     7
100
AcDbLine
 10
4065.11581708267
 20
-2420.86047250887
 30
0.0
 11
4080.11581708267
 21
-2420.86047250887
 31
0.0
  0
LINE
  5
CC
330
27
100
AcDbEntity
  8
1
  6
Continuous
 62
     7
100
AcDbLine
 10
4065.11581708267
 20
-2420.86047250887
 30
0.0
 11
4065.11581708267
 21
-2430.86047250887
 31
0.0
  0
LINE
  5
CB
330
27
100
AcDbEntity
  8
1
  6
Continuous
 62
     7
100
AcDbLine
 10
4245.11581708267
 20
-2420.86047250887
 30
0.0
 11
4245.11581708267
 21
-2413.860472508869
 31
0.0
  0
LINE
  5
CA
330
27
100
AcDbEntity
  8
1
  6
Continuous
 62
     7
100
AcDbLine
 10
4158.11581708267
 20
-2420.86047250887
 30
0.0
 11
4158.11581708267
 21
-2427.86047250887
 31
0.0
  0
LINE
  5
C9
330
27
100
AcDbEntity
  8
1
  6
Continuous
 62
     7
100
AcDbLine
 10
4158.11581708267
 20
-2420.86047250887
 30
0.0
 11
4160.11581708267
 21
-2420.86047250887
 31
0.0
  0
LINE
  5
C8
330
27
100
AcDbEntity
  8
1
  6
Continuous
 62
     7
100
AcDbLine
 10
4158.11581708267
 20
-2465.860472508869
 30
0.0
 11
4165.11581708267
 21
-2465.860472508869
 31
0.0
  0
LINE
  5
C7
330
27
100
AcDbEntity
  8
1
  6
Continuous
 62
     7
100
AcDbLine
 10
4165.11581708267
 20
-2420.86047250887
 30
0.0
 11
4165.11581708267
 21
-2465.860472508869
 31
0.0
  0
LINE
  5
C6
330
27
100
AcDbEntity
  8
1
  6
Continuous
 62
     7
100
AcDbLine
 10
4165.11581708267
 20
-2420.86047250887
 30
0.0
 11
4175.11581708267
 21
-2420.86047250887
 31
0.0
  0
LINE
  5
C5
330
27
100
AcDbEntity
  8
1
  6
Continuous
 62
     7
100
AcDbLine
 10
4165.11581708267
 20
-2465.860472508869
 30
0.0
 11
4245.11581708267
 21
-2465.860472508869
 31
0.0
  0
LINE
  5
C4
330
27
100
AcDbEntity
  8
1
  6
Continuous
 62
     7
100
AcDbLine
 10
4158.11581708267
 20
-2435.86047250887
 30
0.0
 11
4245.11581708267
 21
-2435.86047250887
 31
0.0
  0
LINE
  5
C3
330
27
100
AcDbEntity
  8
1
  6
Continuous
 62
     7
100
AcDbLine
 10
4158.11581708267
 20
-2435.86047250887
 30
0.0
 11
4158.11581708267
 21
-2438.860472508869
 31
0.0
  0
LINE
  5
C2
330
27
100
AcDbEntity
  8
1
  6
Continuous
 62
     7
100
AcDbLine
 10
4245.11581708267
 20
-2435.86047250887
 30
0.0
 11
4245.11581708267
 21
-2420.86047250887
 31
0.0
  0
LINE
  5
C1
330
27
100
AcDbEntity
  8
1
  6
Continuous
 62
     7
100
AcDbLine
 10
4158.11581708267
 20
-2450.86047250887
 30
0.0
 11
4245.11581708267
 21
-2450.86047250887
 31
0.0
  0
LINE
  5
C0
330
27
100
AcDbEntity
  8
1
  6
Continuous
 62
     7
100
AcDbLine
 10
4158.11581708267
 20
-2450.86047250887
 30
0.0
 11
4158.11581708267
 21
-2465.860472508869
 31
0.0
  0
LINE
  5
BF
330
27
100
AcDbEntity
  8
1
  6
Continuous
 62
     7
100
AcDbLine
 10
4245.11581708267
 20
-2450.86047250887
 30
0.0
 11
4245.11581708267
 21
-2435.86047250887
 31
0.0
  0
LINE
  5
BE
330
27
100
AcDbEntity
  8
1
  6
Continuous
 62
     7
100
AcDbLine
 10
4098.11581708267
 20
-2420.86047250887
 30
0.0
 11
4098.11581708267
 21
-2427.86047250887
 31
0.0
  0
LINE
  5
BD
330
27
100
AcDbEntity
  8
1
  6
Continuous
 62
     7
100
AcDbLine
 10
4098.11581708267
 20
-2420.86047250887
 30
0.0
 11
4118.11581708267
 21
-2420.86047250887
 31
0.0
  0
LINE
  5
BC
330
27
100
AcDbEntity
  8
1
  6
Continuous
 62
     7
100
AcDbLine
 10
4065.11581708267
 20
-2445.860472508869
 30
0.0
 11
4118.11581708267
 21
-2445.860472508869
 31
0.0
  0
LINE
  5
BB
330
27
100
AcDbEntity
  8
1
  6
Continuous
 62
     7
100
AcDbLine
 10
4065.11581708267
 20
-2445.860472508869
 30
0.0
 11
4065.11581708267
 21
-2465.860472508869
 31
0.0
  0
LINE
  5
BA
330
27
100
AcDbEntity
  8
1
  6
Continuous
 62
     7
100
AcDbLine
 10
4158.11581708267
 20
-2445.860472508869
 30
0.0
 11
4158.11581708267
 21
-2450.86047250887
 31
0.0
  0
LINE
  5
B9
330
27
100
AcDbEntity
  8
1
  6
Continuous
 62
     7
100
AcDbLine
 10
4098.11581708267
 20
-2427.86047250887
 30
0.0
 11
4158.11581708267
 21
-2427.86047250887
 31
0.0
  0
LINE
  5
B8
330
27
100
AcDbEntity
  8
1
  6
Continuous
 62
     7
100
AcDbLine
 10
4098.11581708267
 20
-2427.86047250887
 30
0.0
 11
4098.11581708267
 21
-2430.86047250887
 31
0.0
  0
LINE
  5
B7
330
27
100
AcDbEntity
  8
1
  6
Continuous
 62
     7
100
AcDbLine
 10
4158.11581708267
 20
-2427.86047250887
 30
0.0
 11
4158.11581708267
 21
-2435.86047250887
 31
0.0
  0
LINE
  5
B6
330
27
100
AcDbEntity
  8
1
  6
Continuous
 62
     7
100
AcDbLine
 10
4118.11581708267
 20
-2420.86047250887
 30
0.0
 11
4118.11581708267
 21
-2445.860472508869
 31
0.0
  0
LINE
  5
B5
330
27
100
AcDbEntity
  8
1
  6
Continuous
 62
     7
100
AcDbLine
 10
4118.11581708267
 20
-2420.86047250887
 30
0.0
 11
4130.11581708267
 21
-2420.86047250887
 31
0.0
  0
LINE
  5
B4
330
27
100
AcDbEntity
  8
1
  6
Continuous
 62
     7
100
AcDbLine
 10
4118.11581708267
 20
-2445.860472508869
 30
0.0
 11
4138.115817082669
 21
-2445.860472508869
 31
0.0
  0
LINE
  5
B3
330
27
100
AcDbEntity
  8
1
  6
Continuous
 62
     7
100
AcDbLine
 10
4138.115817082669
 20
-2420.86047250887
 30
0.0
 11
4138.115817082669
 21
-2445.860472508869
 31
0.0
  0
LINE
  5
B2
330
27
100
AcDbEntity
  8
1
  6
Continuous
 62
     7
100
AcDbLine
 10
4138.115817082669
 20
-2420.86047250887
 30
0.0
 11
4158.11581708267
 21
-2420.86047250887
 31
0.0
  0
LINE
  5
B1
330
27
100
AcDbEntity
  8
1
  6
Continuous
 62
     7
100
AcDbLine
 10
4138.115817082669
 20
-2445.860472508869
 30
0.0
 11
4158.11581708267
 21
-2445.860472508869
 31
0.0
  0
LINE
  5
B0
330
27
100
AcDbEntity
  8
1
  6
Continuous
 62
     7
100
AcDbLine
 10
4065.11581708267
 20
-2430.86047250887
 30
0.0
 11
4098.11581708267
 21
-2430.86047250887
 31
0.0
  0
LINE
  5
AF
330
27
100
AcDbEntity
  8
1
  6
Continuous
 62
     7
100
AcDbLine
 10
4065.11581708267
 20
-2430.86047250887
 30
0.0
 11
4065.11581708267
 21
-2445.860472508869
 31
0.0
  0
LINE
  5
AE
330
27
100
AcDbEntity
  8
1
  6
Continuous
 62
     7
100
AcDbLine
 10
4098.11581708267
 20
-2430.86047250887
 30
0.0
 11
4098.11581708267
 21
-2438.860472508869
 31
0.0
  0
LINE
  5
AD
330
27
100
AcDbEntity
  8
1
  6
Continuous
 62
     7
100
AcDbLine
 10
4215.11581708267
 20
-2413.860472508869
 30
0.0
 11
4215.11581708267
 21
-2420.86047250887
 31
0.0
  0
LINE
  5
AC
330
27
100
AcDbEntity
  8
1
  6
Continuous
 62
     7
100
AcDbLine
 10
4215.11581708267
 20
-2413.860472508869
 30
0.0
 11
4175.11581708267
 21
-2413.860472508869
 31
0.0
  0
LINE
  5
AB
330
27
100
AcDbEntity
  8
1
  6
Continuous
 62
     7
100
AcDbLine
 10
4215.11581708267
 20
-2420.86047250887
 30
0.0
 11
4245.11581708267
 21
-2420.86047250887
 31
0.0
  0
LINE
  5
AA
330
27
100
AcDbEntity
  8
1
  6
Continuous
 62
     7
100
AcDbLine
 10
4175.11581708267
 20
-2413.860472508869
 30
0.0
 11
4175.11581708267
 21
-2420.86047250887
 31
0.0
  0
LINE
  5
A9
330
27
100
AcDbEntity
  8
1
  6
Continuous
 62
     7
100
AcDbLine
 10
4175.11581708267
 20
-2413.860472508869
 30
0.0
 11
4160.11581708267
 21
-2413.860472508869
 31
0.0
  0
LINE
  5
A8
330
27
100
AcDbEntity
  8
1
  6
Continuous
 62
     7
100
AcDbLine
 10
4175.11581708267
 20
-2420.86047250887
 30
0.0
 11
4215.11581708267
 21
-2420.86047250887
 31
0.0
  0
LINE
  5
A7
330
27
100
AcDbEntity
  8
1
  6
Continuous
 62
     7
100
AcDbLine
 10
4160.11581708267
 20
-2413.860472508869
 30
0.0
 11
4160.11581708267
 21
-2420.86047250887
 31
0.0
  0
LINE
  5
A6
330
27
100
AcDbEntity
  8
1
  6
Continuous
 62
     7
100
AcDbLine
 10
4160.11581708267
 20
-2413.860472508869
 30
0.0
 11
4130.11581708267
 21
-2413.860472508869
 31
0.0
  0
LINE
  5
A5
330
27
100
AcDbEntity
  8
1
  6
Continuous
 62
     7
100
AcDbLine
 10
4160.11581708267
 20
-2420.86047250887
 30
0.0
 11
4165.11581708267
 21
-2420.86047250887
 31
0.0
  0
LINE
  5
A4
330
27
100
AcDbEntity
  8
1
  6
Continuous
 62
     7
100
AcDbLine
 10
4130.11581708267
 20
-2413.860472508869
 30
0.0
 11
4130.11581708267
 21
-2420.86047250887
 31
0.0
  0
LINE
  5
A3
330
27
100
AcDbEntity
  8
1
  6
Continuous
 62
     7
100
AcDbLine
 10
4130.11581708267
 20
-2413.860472508869
 30
0.0
 11
4080.11581708267
 21
-2413.860472508869
 31
0.0
  0
LINE
  5
A2
330
27
100
AcDbEntity
  8
1
  6
Continuous
 62
     7
100
AcDbLine
 10
4130.11581708267
 20
-2420.86047250887
 30
0.0
 11
4138.115817082669
 21
-2420.86047250887
 31
0.0
  0
LINE
  5
A1
330
27
100
AcDbEntity
  8
1
  6
Continuous
 62
     7
100
AcDbLine
 10
4080.11581708267
 20
-2413.860472508869
 30
0.0
 11
4080.11581708267
 21
-2420.86047250887
 31
0.0
  0
LINE
  5
A0
330
27
100
AcDbEntity
  8
1
  6
Continuous
 62
     7
100
AcDbLine
 10
4080.11581708267
 20
-2413.860472508869
 30
0.0
 11
4065.11581708267
 21
-2413.860472508869
 31
0.0
  0
LINE
  5
9F
330
27
100
AcDbEntity
  8
1
  6
Continuous
 62
     7
100
AcDbLine
 10
4080.11581708267
 20
-2420.86047250887
 30
0.0
 11
4098.11581708267
 21
-2420.86047250887
 31
0.0
  0
LINE
  5
9E
330
27
100
AcDbEntity
  8
1
  6
Continuous
 62
     5
100
AcDbLine
 10
4065.11581708267
 20
-2413.860472508869
 30
0.0
 11
4065.11581708267
 21
-2406.860472508869
 31
0.0
  0
LINE
  5
9D
330
27
100
AcDbEntity
  8
1
  6
Continuous
 62
     5
100
AcDbLine
 10
4065.11581708267
 20
-2406.860472508869
 30
0.0
 11
4080.11581708267
 21
-2406.860472508869
 31
0.0
  0
LINE
  5
9C
330
27
100
AcDbEntity
  8
1
  6
Continuous
 62
     5
100
AcDbLine
 10
4245.11581708267
 20
-2406.860472508869
 30
0.0
 11
4245.11581708267
 21
-2413.860472508869
 31
0.0
  0
LINE
  5
9B
330
27
100
AcDbEntity
  8
1
  6
Continuous
 62
     5
100
AcDbLine
 10
4215.11581708267
 20
-2406.860472508869
 30
0.0
 11
4215.11581708267
 21
-2413.860472508869
 31
0.0
  0
LINE
  5
9A
330
27
100
AcDbEntity
  8
1
  6
Continuous
 62
     5
100
AcDbLine
 10
4215.11581708267
 20
-2406.860472508869
 30
0.0
 11
4245.11581708267
 21
-2406.860472508869
 31
0.0
  0
LINE
  5
99
330
27
100
AcDbEntity
  8
1
  6
Continuous
 62
     5
100
AcDbLine
 10
4175.11581708267
 20
-2406.860472508869
 30
0.0
 11
4175.11581708267
 21
-2413.860472508869
 31
0.0
  0
LINE
  5
98
330
27
100
AcDbEntity
  8
1
  6
Continuous
 62
     5
100
AcDbLine
 10
4175.11581708267
 20
-2406.860472508869
 30
0.0
 11
4215.11581708267
 21
-2406.860472508869
 31
0.0
  0
LINE
  5
97
330
27
100
AcDbEntity
  8
1
  6
Continuous
 62
     5
100
AcDbLine
 10
4160.11581708267
 20
-2406.860472508869
 30
0.0
 11
4160.11581708267
 21
-2413.860472508869
 31
0.0
  0
LINE
  5
96
330
27
100
AcDbEntity
  8
1
  6
Continuous
 62
     5
100
AcDbLine
 10
4160.11581708267
 20
-2406.860472508869
 30
0.0
 11
4175.11581708267
 21
-2406.860472508869
 31
0.0
  0
LINE
  5
95
330
27
100
AcDbEntity
  8
1
  6
Continuous
 62
     5
100
AcDbLine
 10
4130.11581708267
 20
-2406.860472508869
 30
0.0
 11
4130.11581708267
 21
-2413.860472508869
 31
0.0
  0
LINE
  5
94
330
27
100
AcDbEntity
  8
1
  6
Continuous
 62
     5
100
AcDbLine
 10
4130.11581708267
 20
-2406.860472508869
 30
0.0
 11
4160.11581708267
 21
-2406.860472508869
 31
0.0
  0
LINE
  5
93
330
27
100
AcDbEntity
  8
1
  6
Continuous
 62
     5
100
AcDbLine
 10
4080.11581708267
 20
-2406.860472508869
 30
0.0
 11
4080.11581708267
 21
-2413.860472508869
 31
0.0
  0
LINE
  5
92
330
27
100
AcDbEntity
  8
1
  6
Continuous
 62
     5
100
AcDbLine
 10
4080.11581708267
 20
-2406.860472508869
 30
0.0
 11
4130.11581708267
 21
-2406.860472508869
 31
0.0
  0
LINE
  5
91
330
27
100
AcDbEntity
  8
1
  6
Continuous
 62
     5
100
AcDbLine
 10
4098.11581708267
 20
-2438.860472508869
 30
0.0
 11
4158.11581708267
 21
-2438.860472508869
 31
0.0
  0
LINE
  5
90
330
27
100
AcDbEntity
  8
1
  6
Continuous
 62
     7
100
AcDbLine
 10
4098.11581708267
 20
-2438.860472508869
 30
0.0
 11
4098.11581708267
 21
-2445.860472508869
 31
0.0
  0
LINE
  5
8F
330
27
100
AcDbEntity
  8
1
  6
Continuous
 62
     7
100
AcDbLine
 10
4158.11581708267
 20
-2438.860472508869
 30
0.0
 11
4158.11581708267
 21
-2445.860472508869
 31
0.0
  0
LINE
  5
8E
330
27
100
AcDbEntity
  8
1
  6
Continuous
 62
     7
100
AcDbLine
 10
4069.300450828378
 20
-2457.212443374662
 30
0.0
 11
4067.626708340556
 21
-2457.212443374662
 31
0.0
  0
LINE
  5
8D
330
27
100
AcDbEntity
  8
1
  6
Continuous
 62
     7
100
AcDbLine
 10
4067.626708340556
 20
-2457.212443374662
 30
0.0
 11
4067.626708340556
 21
-2456.794007752706
 31
0.0
  0
LINE
  5
8C
330
27
100
AcDbEntity
  8
1
  6
Continuous
 62
     7
100
AcDbLine
 10
4067.731317246043
 20
-2456.689398847217
 30
0.0
 11
4067.987639603732
 21
-2456.689398847217
 31
0.0
  0
LINE
  5
8B
330
27
100
AcDbEntity
  8
1
  6
Continuous
 62
     7
100
AcDbLine
 10
4068.237734588319
 20
-2456.504338293561
 30
0.0
 11
4070.228013624694
 21
-2449.994428895922
 31
0.0
  0
LINE
  5
8A
330
27
100
AcDbEntity
  8
1
  6
Continuous
 62
     7
100
AcDbLine
 10
4070.228013624694
 20
-2449.994428895922
 30
0.0
 11
4071.932253659257
 21
-2449.994428895922
 31
0.0
  0
LINE
  5
89
330
27
100
AcDbEntity
  8
1
  6
Continuous
 62
     7
100
AcDbLine
 10
4071.932253659257
 20
-2449.994428895922
 30
0.0
 11
4073.922532695633
 21
-2456.504338293561
 31
0.0
  0
LINE
  5
88
330
27
100
AcDbEntity
  8
1
  6
Continuous
 62
     7
100
AcDbLine
 10
4074.172627680222
 20
-2456.689398847217
 30
0.0
 11
4074.530896102827
 21
-2456.689398847217
 31
0.0
  0
LINE
  5
87
330
27
100
AcDbEntity
  8
1
  6
Continuous
 62
     7
100
AcDbLine
 10
4074.635505008318
 20
-2456.794007752706
 30
0.0
 11
4074.635505008318
 21
-2457.212443374662
 31
0.0
  0
LINE
  5
86
330
27
100
AcDbEntity
  8
1
  6
Continuous
 62
     7
100
AcDbLine
 10
4074.635505008318
 20
-2457.212443374662
 30
0.0
 11
4071.497237843648
 21
-2457.212443374662
 31
0.0
  0
LINE
  5
85
330
27
100
AcDbEntity
  8
1
  6
Continuous
 62
     7
100
AcDbLine
 10
4071.497237843648
 20
-2457.212443374662
 30
0.0
 11
4071.497237843648
 21
-2456.794007752706
 31
0.0
  0
LINE
  5
84
330
27
100
AcDbEntity
  8
1
  6
Continuous
 62
     7
100
AcDbLine
 10
4071.601846749135
 20
-2456.689398847217
 30
0.0
 11
4071.891456683577
 21
-2456.689398847217
 31
0.0
  0
LINE
  5
83
330
27
100
AcDbEntity
  8
1
  6
Continuous
 62
     7
100
AcDbLine
 10
4072.091532671247
 20
-2456.419011668187
 30
0.0
 11
4071.579818239858
 21
-2454.745269180361
 31
0.0
  0
LINE
  5
82
330
27
100
AcDbEntity
  8
1
  6
Continuous
 62
     7
100
AcDbLine
 10
4071.379742252187
 20
-2454.597220737438
 30
0.0
 11
4069.483852066246
 21
-2454.597220737438
 31
0.0
  0
LINE
  5
81
330
27
100
AcDbEntity
  8
1
  6
Continuous
 62
     7
100
AcDbLine
 10
4069.333795075493
 20
-2454.70825706963
 30
0.0
 11
4068.790098492143
 21
-2456.486608462942
 31
0.0
  0
LINE
  5
80
330
27
100
AcDbEntity
  8
1
  6
Continuous
 62
     7
100
AcDbLine
 10
4068.940155482896
 20
-2456.689398847217
 30
0.0
 11
4069.195841922889
 21
-2456.689398847217
 31
0.0
  0
LINE
  5
7F
330
27
100
AcDbEntity
  8
1
  6
Continuous
 62
     7
100
AcDbLine
 10
4069.300450828378
 20
-2456.794007752706
 30
0.0
 11
4069.300450828378
 21
-2457.212443374662
 31
0.0
  0
LINE
  5
7E
330
27
100
AcDbEntity
  8
1
  6
Continuous
 62
     7
100
AcDbLine
 10
4070.301091798004
 20
-2451.54437205195
 30
0.0
 11
4069.589652291187
 21
-2453.871385825717
 31
0.0
  0
LINE
  5
7D
330
27
100
AcDbEntity
  8
1
  6
Continuous
 62
     7
100
AcDbLine
 10
4069.73970928194
 20
-2454.074176209992
 30
0.0
 11
4071.162588295576
 21
-2454.074176209992
 31
0.0
  0
LINE
  5
7C
330
27
100
AcDbEntity
  8
1
  6
Continuous
 62
     7
100
AcDbLine
 10
4071.312645286329
 20
-2453.871385825717
 30
0.0
 11
4070.601205779511
 21
-2451.54437205195
 31
0.0
  0
LINE
  5
7B
330
27
100
AcDbEntity
  8
1
  6
Continuous
 62
     7
100
AcDbLine
 10
4077.09381428731
 20
-2449.994428895922
 30
0.0
 11
4079.970559188256
 21
-2449.994428895922
 31
0.0
  0
LINE
  5
7A
330
27
100
AcDbEntity
  8
1
  6
Continuous
 62
     7
100
AcDbLine
 10
4079.970559188256
 20
-2449.994428895922
 30
0.0
 11
4080.022726968041
 21
-2451.607413093724
 31
0.0
  0
LINE
  5
79
330
27
100
AcDbEntity
  8
1
  6
Continuous
 62
     7
100
AcDbLine
 10
4079.511885973006
 20
-2451.694390148598
 30
0.0
 11
4079.302709502017
 21
-2451.029870752521
 31
0.0
  0
LINE
  5
78
330
27
100
AcDbEntity
  8
1
  6
Continuous
 62
     7
100
AcDbLine
 10
4078.604234370054
 20
-2450.517473423366
 30
0.0
 11
4078.453730058665
 21
-2450.517473423366
 31
0.0
  0
LINE
  5
77
330
27
100
AcDbEntity
  8
1
  6
Continuous
 62
     7
100
AcDbLine
 10
4078.087598889456
 20
-2450.883604592579
 30
0.0
 11
4078.087598889456
 21
-2456.427876583496
 31
0.0
  0
LINE
  5
76
330
27
100
AcDbEntity
  8
1
  6
Continuous
 62
     7
100
AcDbLine
 10
4078.349121153177
 20
-2456.689398847217
 30
0.0
 11
4078.558338964156
 21
-2456.689398847217
 31
0.0
  0
LINE
  5
75
330
27
100
AcDbEntity
  8
1
  6
Continuous
 62
     7
100
AcDbLine
 10
4078.662947869644
 20
-2456.794007752706
 30
0.0
 11
4078.662947869644
 21
-2457.212443374662
 31
0.0
  0
LINE
  5
74
330
27
100
AcDbEntity
  8
1
  6
Continuous
 62
     7
100
AcDbLine
 10
4078.662947869644
 20
-2457.212443374662
 30
0.0
 11
4077.09381428731
 21
-2457.212443374662
 31
0.0
  0
LINE
  5
73
330
27
100
AcDbEntity
  8
1
  6
Continuous
 62
     7
100
AcDbLine
 10
4074.217069386362
 20
-2449.994428895922
 30
0.0
 11
4077.09381428731
 21
-2449.994428895922
 31
0.0
  0
LINE
  5
72
330
27
100
AcDbEntity
  8
1
  6
Continuous
 62
     7
100
AcDbLine
 10
4074.164901606578
 20
-2451.607413093724
 30
0.0
 11
4074.217069386362
 21
-2449.994428895922
 31
0.0
  0
LINE
  5
71
330
27
100
AcDbEntity
  8
1
  6
Continuous
 62
     7
100
AcDbLine
 10
4074.884919072601
 20
-2451.029870752521
 30
0.0
 11
4074.675742601614
 21
-2451.694390148598
 31
0.0
  0
LINE
  5
70
330
27
100
AcDbEntity
  8
1
  6
Continuous
 62
     7
100
AcDbLine
 10
4075.733898515951
 20
-2450.517473423366
 30
0.0
 11
4075.583394204566
 21
-2450.517473423366
 31
0.0
  0
LINE
  5
6F
330
27
100
AcDbEntity
  8
1
  6
Continuous
 62
     7
100
AcDbLine
 10
4076.100029685163
 20
-2456.427876583496
 30
0.0
 11
4076.100029685163
 21
-2450.883604592579
 31
0.0
  0
LINE
  5
6E
330
27
100
AcDbEntity
  8
1
  6
Continuous
 62
     7
100
AcDbLine
 10
4075.629289610463
 20
-2456.689398847217
 30
0.0
 11
4075.838507421442
 21
-2456.689398847217
 31
0.0
  0
LINE
  5
6D
330
27
100
AcDbEntity
  8
1
  6
Continuous
 62
     7
100
AcDbLine
 10
4075.524680704972
 20
-2457.212443374662
 30
0.0
 11
4075.524680704972
 21
-2456.794007752706
 31
0.0
  0
LINE
  5
6C
330
27
100
AcDbEntity
  8
1
  6
Continuous
 62
     7
100
AcDbLine
 10
4077.09381428731
 20
-2457.212443374662
 30
0.0
 11
4075.524680704972
 21
-2457.212443374662
 31
0.0
  0
LINE
  5
6B
330
27
100
AcDbEntity
  8
1
  6
Continuous
 62
     7
100
AcDbLine
 10
4086.432655448052
 20
-2452.456906305414
 30
0.0
 11
4082.956081125194
 21
-2455.933480628273
 31
0.0
  0
LINE
  5
6A
330
27
100
AcDbEntity
  8
1
  6
Continuous
 62
     7
100
AcDbLine
 10
4081.772566462094
 20
-2454.74996596517
 30
0.0
 11
4085.249140784951
 21
-2451.273391642312
 31
0.0
  0
LINE
  5
69
330
27
100
AcDbEntity
  8
1
  6
Continuous
 62
     7
100
AcDbLine
 10
4091.477538792045
 20
-2449.994428895922
 30
0.0
 11
4092.319756728985
 21
-2453.13762902762
 31
0.0
  0
LINE
  5
68
330
27
100
AcDbEntity
  8
1
  6
Continuous
 62
     7
100
AcDbLine
 10
4092.6228900594
 20
-2453.13762902762
 30
0.0
 11
4093.465107996337
 21
-2449.994428895922
 31
0.0
  0
LINE
  5
67
330
27
100
AcDbEntity
  8
1
  6
Continuous
 62
     7
100
AcDbLine
 10
4089.64688294599
 20
-2456.689398847217
 30
0.0
 11
4089.803796304223
 21
-2456.689398847217
 31
0.0
  0
LINE
  5
66
330
27
100
AcDbEntity
  8
1
  6
Continuous
 62
     7
100
AcDbLine
 10
4089.908405209711
 20
-2456.794007752706
 30
0.0
 11
4089.908405209711
 21
-2457.212443374662
 31
0.0
  0
LINE
  5
65
330
27
100
AcDbEntity
  8
1
  6
Continuous
 62
     7
100
AcDbLine
 10
4089.908405209711
 20
-2457.212443374662
 30
0.0
 11
4088.443880532865
 21
-2457.212443374662
 31
0.0
  0
LINE
  5
64
330
27
100
AcDbEntity
  8
1
  6
Continuous
 62
     7
100
AcDbLine
 10
4088.443880532865
 20
-2457.212443374662
 30
0.0
 11
4088.443880532865
 21
-2456.794007752706
 31
0.0
  0
LINE
  5
63
330
27
100
AcDbEntity
  8
1
  6
Continuous
 62
     7
100
AcDbLine
 10
4088.548489438353
 20
-2456.689398847217
 30
0.0
 11
4088.810011702078
 21
-2456.689398847217
 31
0.0
  0
LINE
  5
62
330
27
100
AcDbEntity
  8
1
  6
Continuous
 62
     7
100
AcDbLine
 10
4088.966925060312
 20
-2456.532485488984
 30
0.0
 11
4088.966925060312
 21
-2450.6743867816
 31
0.0
  0
LINE
  5
61
330
27
100
AcDbEntity
  8
1
  6
Continuous
 62
     7
100
AcDbLine
 10
4088.810011702078
 20
-2450.517473423366
 30
0.0
 11
4088.548489438353
 21
-2450.517473423366
 31
0.0
  0
LINE
  5
60
330
27
100
AcDbEntity
  8
1
  6
Continuous
 62
     7
100
AcDbLine
 10
4088.443880532865
 20
-2450.412864517876
 30
0.0
 11
4088.443880532865
 21
-2449.994428895922
 31
0.0
  0
LINE
  5
5F
330
27
100
AcDbEntity
  8
1
  6
Continuous
 62
     7
100
AcDbLine
 10
4088.443880532865
 20
-2449.994428895922
 30
0.0
 11
4091.477538792045
 21
-2449.994428895922
 31
0.0
  0
LINE
  5
5E
330
27
100
AcDbEntity
  8
1
  6
Continuous
 62
     7
100
AcDbLine
 10
4093.465107996337
 20
-2449.994428895922
 30
0.0
 11
4096.498766255518
 21
-2449.994428895922
 31
0.0
  0
LINE
  5
5D
330
27
100
AcDbEntity
  8
1
  6
Continuous
 62
     7
100
AcDbLine
 10
4096.498766255518
 20
-2449.994428895922
 30
0.0
 11
4096.498766255518
 21
-2450.412864517876
 31
0.0
  0
LINE
  5
5C
330
27
100
AcDbEntity
  8
1
  6
Continuous
 62
     7
100
AcDbLine
 10
4096.394157350029
 20
-2450.517473423366
 30
0.0
 11
4096.184939539051
 21
-2450.517473423366
 31
0.0
  0
LINE
  5
5B
330
27
100
AcDbEntity
  8
1
  6
Continuous
 62
     7
100
AcDbLine
 10
4095.923417275328
 20
-2450.778995687091
 30
0.0
 11
4095.923417275328
 21
-2456.427876583496
 31
0.0
  0
LINE
  5
5A
330
27
100
AcDbEntity
  8
1
  6
Continuous
 62
     7
100
AcDbLine
 10
4096.184939539051
 20
-2456.689398847217
 30
0.0
 11
4096.394157350029
 21
-2456.689398847217
 31
0.0
  0
LINE
  5
59
330
27
100
AcDbEntity
  8
1
  6
Continuous
 62
     7
100
AcDbLine
 10
4096.498766255518
 20
-2456.794007752706
 30
0.0
 11
4096.498766255518
 21
-2457.212443374662
 31
0.0
  0
LINE
  5
58
330
27
100
AcDbEntity
  8
1
  6
Continuous
 62
     7
100
AcDbLine
 10
4096.498766255518
 20
-2457.212443374662
 30
0.0
 11
4093.569716901825
 21
-2457.212443374662
 31
0.0
  0
LINE
  5
57
330
27
100
AcDbEntity
  8
1
  6
Continuous
 62
     7
100
AcDbLine
 10
4093.569716901825
 20
-2457.212443374662
 30
0.0
 11
4093.569716901825
 21
-2456.794007752706
 31
0.0
  0
LINE
  5
56
330
27
100
AcDbEntity
  8
1
  6
Continuous
 62
     7
100
AcDbLine
 10
4093.674325807316
 20
-2456.689398847217
 30
0.0
 11
4093.883543618294
 21
-2456.689398847217
 31
0.0
  0
LINE
  5
55
330
27
100
AcDbEntity
  8
1
  6
Continuous
 62
     7
100
AcDbLine
 10
4092.07254238636
 20
-2457.212443374662
 30
0.0
 11
4091.570515104685
 21
-2457.212443374662
 31
0.0
  0
LINE
  5
54
330
27
100
AcDbEntity
  8
1
  6
Continuous
 62
     7
100
AcDbLine
 10
4089.489969587755
 20
-2456.532485488984
 30
0.0
 11
4089.489969587755
 21
-2450.639617084164
 31
0.0
  0
LINE
  5
53
330
27
100
AcDbEntity
  8
1
  6
Continuous
 62
     7
100
AcDbLine
 10
4089.798449611198
 20
-2450.599004918622
 30
0.0
 11
4091.570515104685
 21
-2457.212443374662
 31
0.0
  0
LINE
  5
52
330
27
100
AcDbEntity
  8
1
  6
Continuous
 62
     7
100
AcDbLine
 10
4092.07254238636
 20
-2457.212443374662
 30
0.0
 11
4093.836585858576
 21
-2450.628943509596
 31
0.0
  0
LINE
  5
51
330
27
100
AcDbEntity
  8
1
  6
Continuous
 62
     7
100
AcDbLine
 10
4094.145065882016
 20
-2450.669555675137
 30
0.0
 11
4094.145065882016
 21
-2456.427876583496
 31
0.0
  0
LINE
  5
50
330
27
100
AcDbEntity
  8
1
  6
Continuous
 62
     5
100
AcDbLine
 10
4083.166143488069
 20
-2440.360472508869
 30
0.0
 11
4083.166143488069
 21
-2436.36047250887
 31
0.0
  0
LINE
  5
4F
330
27
100
AcDbEntity
  8
1
  6
Continuous
 62
     5
100
AcDbLine
 10
4083.166143488069
 20
-2436.36047250887
 30
0.0
 11
4092.997499979719
 21
-2434.36047250887
 31
0.0
  0
LINE
  5
4E
330
27
100
AcDbEntity
  8
1
  6
Continuous
 62
     5
100
AcDbLine
 10
4092.997499979719
 20
-2434.36047250887
 30
0.0
 11
4092.997499979719
 21
-2442.36047250887
 31
0.0
  0
LINE
  5
4D
330
27
100
AcDbEntity
  8
1
  6
Continuous
 62
     5
100
AcDbLine
 10
4092.997499979719
 20
-2442.36047250887
 30
0.0
 11
4083.166143488069
 21
-2440.360472508869
 31
0.0
  0
LINE
  5
4C
330
27
100
AcDbEntity
  8
1
  6
Continuous
 62
     5
100
AcDbLine
 10
4067.710101489864
 20
-2438.36047250887
 30
0.0
 11
4071.75743473418
 21
-2438.36047250887
 31
0.0
  0
LINE
  5
4B
330
27
100
AcDbEntity
  8
1
  6
Continuous
 62
     5
100
AcDbLine
 10
4072.306225682559
 20
-2438.36047250887
 30
0.0
 11
4074.26129343617
 21
-2438.36047250887
 31
0.0
  0
LINE
  5
4A
330
27
100
AcDbEntity
  8
1
  6
Continuous
 62
     5
100
AcDbLine
 10
4074.741485516005
 20
-2438.36047250887
 30
0.0
 11
4086.814886380401
 21
-2438.36047250887
 31
0.0
  0
LINE
  5
49
330
27
100
AcDbEntity
  8
1
  6
Continuous
 62
     5
100
AcDbLine
 10
4087.329377894511
 20
-2438.36047250887
 30
0.0
 11
4088.186863751358
 21
-2438.36047250887
 31
0.0
  0
LINE
  5
48
330
27
100
AcDbEntity
  8
1
  6
Continuous
 62
     5
100
AcDbLine
 10
4088.941451305383
 20
-2438.36047250887
 30
0.0
 11
4095.389744948867
 21
-2438.36047250887
 31
0.0
  0
LINE
  5
47
330
27
100
AcDbEntity
  8
1
  6
Continuous
 62
     5
100
AcDbLine
 10
4073.191263543988
 20
-2432.764433870196
 30
0.0
 11
4073.191263543988
 21
-2437.120462022976
 31
0.0
  0
LINE
  5
46
330
27
100
AcDbEntity
  8
1
  6
Continuous
 62
     5
100
AcDbLine
 10
4073.191263543988
 20
-2437.566354668536
 30
0.0
 11
4073.191263543988
 21
-2439.075529776586
 31
0.0
  0
LINE
  5
45
330
27
100
AcDbEntity
  8
1
  6
Continuous
 62
     5
100
AcDbLine
 10
4073.191263543988
 20
-2439.55572185642
 30
0.0
 11
4073.191263543988
 21
-2444.35764265476
 31
0.0
  0
ENDBLK
  5
135
330
27
100
AcDbEntity
  8
0
100
AcDbBlockEnd
  0
BLOCK
  5
2A
330
29
100
AcDbEntity
  8
0
100
AcDbBlockBegin
  2
FORMAT_A3
 70
     0
 10
3870.11581708267
 20
-2465.860472508869
 30
0.0
  3
FORMAT_A3
  1

  0
LINE
  5
139
330
29
100
AcDbEntity
  8
1
  6
Continuous
 62
     7
100
AcDbLine
 10
3870.11581708267
 20
-2195.860472508869
 30
0.0
 11
3870.11581708267
 21
-2465.860472508869
 31
0.0
  0
LINE
  5
138
330
29
100
AcDbEntity
  8
1
  6
Continuous
 62
     7
100
AcDbLine
 10
4245.115817082672
 20
-2195.860472508869
 30
0.0
 11
3870.11581708267
 21
-2195.860472508869
 31
0.0
  0
LINE
  5
137
330
29
100
AcDbEntity
  8
1
  6
Continuous
 62
     7
100
AcDbLine
 10
4245.11581708267
 20
-2413.860472508869
 30
0.0
 11
4245.115817082672
 21
-2195.860472508869
 31
0.0
  0
LINE
  5
136
330
29
100
AcDbEntity
  8
1
  6
Continuous
 62
     7
100
AcDbLine
 10
4065.11581708267
 20
-2465.860472508869
 30
0.0
 11
3870.11581708267
 21
-2465.860472508869
 31
0.0
  0
INSERT
  5
2B
330
29
100
AcDbEntity
  8
0
100
AcDbBlockReference
  2
______
 10
4236.535780791729
 20
-2457.732017075346
 30
0.0
  0
ENDBLK
  5
13A
330
29
100
AcDbEntity
  8
0
100
AcDbBlockEnd
  0
BLOCK
  5
278
330
277
100
AcDbEntity
  8
0
100
AcDbBlockBegin
  2
*D3
 70
     1
 10
0.0
 20
0.0
 30
0.0
  3
*D3
  1

  0
LINE
  5
279
330
277
100
AcDbEntity
  8
0
  6
Continuous
 62
     2
100
AcDbLine
 10
3926.722794941899
 20
-2315.434515715242
 30
0.0
 11
3949.722794941901
 21
-2315.434515715242
 31
0.0
  0
LINE
  5
27A
330
277
100
AcDbEntity
  8
0
  6
Continuous
 62
     2
100
AcDbLine
 10
3926.722794941899
 20
-2300.934515715242
 30
0.0
 11
3926.722794941899
 21
-2316.434515715242
 31
0.0
  0
LINE
  5
27B
330
277
100
AcDbEntity
  8
0
  6
Continuous
 62
     2
100
AcDbLine
 10
3949.722794941901
 20
-2300.934515715242
 30
0.0
 11
3949.722794941901
 21
-2316.434515715242
 31
0.0
  0
LINE
  5
27C
330
277
100
AcDbEntity
  8
0
 62
     2
100
AcDbLine
 10
3926.722794941899
 20
-2315.434515715242
 30
0.0
 11
3929.222794941899
 21
-2314.764642734164
 31
0.0
  0
LINE
  5
27D
330
277
100
AcDbEntity
  8
0
 62
     2
100
AcDbLine
 10
3926.722794941899
 20
-2315.434515715242
 30
0.0
 11
3929.222794941899
 21
-2316.10438869632
 31
0.0
  0
LINE
  5
27E
330
277
100
AcDbEntity
  8
0
 62
     2
100
AcDbLine
 10
3949.722794941901
 20
-2315.434515715242
 30
0.0
 11
3947.2227949419
 21
-2316.10438869632
 31
0.0
  0
LINE
  5
27F
330
277
100
AcDbEntity
  8
0
 62
     2
100
AcDbLine
 10
3949.722794941901
 20
-2315.434515715242
 30
0.0
 11
3947.2227949419
 21
-2314.764642734164
 31
0.0
  0
MTEXT
  5
281
330
277
100
AcDbEntity
  8
0
 62
     3
100
AcDbMText
 10
3936.385294941901
 20
-2314.434515715242
 30
0.0
 40
3.5
 41
0.0
 71
     7
 72
     1
  1
23
  7
CONVERTER_4
 11
0.999999999997062
 21
0.00000242406841
 31
0.0
 73
     1
 44
1.0
1001
ACAD
1000
MTEXTBEGIN
1070
    73
1070
     1
1070
    44
1040
1.0
1070
    74
1070
     0
1000
MTEXTEND
  0
ENDBLK
  5
282
330
277
100
AcDbEntity
  8
0
100
AcDbBlockEnd
  0
BLOCK
  5
284
330
283
100
AcDbEntity
  8
0
 62
     0
100
AcDbBlockBegin
  2
_OPEN30
 70
     0
 10
0.0
 20
0.0
 30
0.0
  3
_OPEN30
  1

  0
LINE
  5
285
330
283
100
AcDbEntity
  8
0
  6
ByBlock
 62
     0
100
AcDbLine
 10
-1.0
 20
0.267949
 30
0.0
 11
0.0
 21
0.0
 31
0.0
  0
LINE
  5
286
330
283
100
AcDbEntity
  8
0
  6
ByBlock
 62
     0
100
AcDbLine
 10
0.0
 20
0.0
 30
0.0
 11
-1.0
 21
-0.267949
 31
0.0
  0
LINE
  5
287
330
283
100
AcDbEntity
  8
0
  6
ByBlock
 62
     0
100
AcDbLine
 10
0.0
 20
0.0
 30
0.0
 11
-1.0
 21
0.0
 31
0.0
  0
ENDBLK
  5
288
330
283
100
AcDbEntity
  8
0
 62
     0
100
AcDbBlockEnd
  0
BLOCK
  5
28C
330
28B
100
AcDbEntity
  8
0
100
AcDbBlockBegin
  2
*D5
 70
     1
 10
0.0
 20
0.0
 30
0.0
  3
*D5
  1

  0
LINE
  5
28D
330
28B
100
AcDbEntity
  8
0
  6
Continuous
 62
     2
100
AcDbLine
 10
3931.722794941901
 20
-2315.434515715242
 30
0.0
 11
3926.7227949419
 21
-2315.434515715242
 31
0.0
  0
LINE
  5
28E
330
28B
100
AcDbEntity
  8
0
  6
Continuous
 62
     2
100
AcDbLine
 10
3926.4227949419
 20
-2315.434515715242
 30
0.0
 11
3926.7227949419
 21
-2315.434515715242
 31
0.0
  0
LINE
  5
28F
330
28B
100
AcDbEntity
  8
0
  6
Continuous
 62
     2
100
AcDbLine
 10
3926.4227949419
 20
-2315.434515715242
 30
0.0
 11
3918.12116008497
 21
-2315.434515715242
 31
0.0
  0
LINE
  5
290
330
28B
100
AcDbEntity
  8
0
  6
Continuous
 62
     2
100
AcDbLine
 10
3926.4227949419
 20
-2298.434515715242
 30
0.0
 11
3926.4227949419
 21
-2316.434515715242
 31
0.0
  0
LINE
  5
291
330
28B
100
AcDbEntity
  8
0
  6
Continuous
 62
     2
100
AcDbLine
 10
3926.7227949419
 20
-2300.934515715242
 30
0.0
 11
3926.7227949419
 21
-2316.434515715242
 31
0.0
  0
LINE
  5
292
330
28B
100
AcDbEntity
  8
0
 62
     2
100
AcDbLine
 10
3926.7227949419
 20
-2315.434515715242
 30
0.0
 11
3929.2227949419
 21
-2314.764642734164
 31
0.0
  0
LINE
  5
293
330
28B
100
AcDbEntity
  8
0
 62
     2
100
AcDbLine
 10
3926.7227949419
 20
-2315.434515715242
 30
0.0
 11
3929.2227949419
 21
-2316.10438869632
 31
0.0
  0
LINE
  5
294
330
28B
100
AcDbEntity
  8
0
 62
     2
100
AcDbLine
 10
3926.4227949419
 20
-2315.434515715242
 30
0.0
 11
3923.9227949419
 21
-2316.10438869632
 31
0.0
  0
LINE
  5
295
330
28B
100
AcDbEntity
  8
0
 62
     2
100
AcDbLine
 10
3926.4227949419
 20
-2315.434515715242
 30
0.0
 11
3923.9227949419
 21
-2314.764642734164
 31
0.0
  0
MTEXT
  5
296
330
28B
100
AcDbEntity
  8
0
 62
     3
100
AcDbMText
 10
3918.12116008497
 20
-2314.434515715242
 30
0.0
 40
3.5
 41
0.0
 71
     7
 72
     1
  1
0.3
  7
CONVERTER_4
 11
0.999999999997062
 21
0.00000242406841
 31
0.0
 73
     1
 44
1.0
1001
ACAD
1000
MTEXTBEGIN
1070
    73
1070
     1
1070
    44
1040
1.0
1070
    74
1070
     0
1000
MTEXTEND
  0
ENDBLK
  5
297
330
28B
100
AcDbEntity
  8
0
100
AcDbBlockEnd
  0
BLOCK
  5
29B
330
29A
100
AcDbEntity
  8
0
100
AcDbBlockBegin
  2
*D6
 70
     1
 10
0.0
 20
0.0
 30
0.0
  3
*D6
  1

  0
LINE
  5
29C
330
29A
100
AcDbEntity
  8
0
  6
Continuous
 62
     2
100
AcDbLine
 10
3944.722794941901
 20
-2315.434515715242
 30
0.0
 11
3949.722794941902
 21
-2315.434515715242
 31
0.0
  0
LINE
  5
29D
330
29A
100
AcDbEntity
  8
0
  6
Continuous
 62
     2
100
AcDbLine
 10
3949.722794941902
 20
-2315.434515715242
 30
0.0
 11
3950.022794941901
 21
-2315.434515715242
 31
0.0
  0
LINE
  5
29E
330
29A
100
AcDbEntity
  8
0
  6
Continuous
 62
     2
100
AcDbLine
 10
3950.022794941901
 20
-2315.434515715242
 30
0.0
 11
3959.91864755441
 21
-2315.434515715242
 31
0.0
  0
LINE
  5
29F
330
29A
100
AcDbEntity
  8
0
  6
Continuous
 62
     2
100
AcDbLine
 10
3949.722794941902
 20
-2300.934515715242
 30
0.0
 11
3949.722794941902
 21
-2316.434515715242
 31
0.0
  0
LINE
  5
2A0
330
29A
100
AcDbEntity
  8
0
  6
Continuous
 62
     2
100
AcDbLine
 10
3950.022794941901
 20
-2298.434515715242
 30
0.0
 11
3950.022794941901
 21
-2316.434515715242
 31
0.0
  0
LINE
  5
2A1
330
29A
100
AcDbEntity
  8
0
 62
     2
100
AcDbLine
 10
3949.722794941902
 20
-2315.434515715242
 30
0.0
 11
3947.222794941902
 21
-2316.10438869632
 31
0.0
  0
LINE
  5
2A2
330
29A
100
AcDbEntity
  8
0
 62
     2
100
AcDbLine
 10
3949.722794941902
 20
-2315.434515715242
 30
0.0
 11
3947.222794941902
 21
-2314.764642734164
 31
0.0
  0
LINE
  5
2A3
330
29A
100
AcDbEntity
  8
0
 62
     2
100
AcDbLine
 10
3950.022794941901
 20
-2315.434515715242
 30
0.0
 11
3952.522794941901
 21
-2314.764642734164
 31
0.0
  0
LINE
  5
2A4
330
29A
100
AcDbEntity
  8
0
 62
     2
100
AcDbLine
 10
3950.022794941901
 20
-2315.434515715242
 30
0.0
 11
3952.522794941901
 21
-2316.10438869632
 31
0.0
  0
MTEXT
  5
2A5
330
29A
100
AcDbEntity
  8
0
 62
     3
100
AcDbMText
 10
3955.38614755441
 20
-2314.434515715242
 30
0.0
 40
3.5
 41
0.0
 71
     7
 72
     1
  1
0.3
  7
CONVERTER_4
 11
0.999999999997062
 21
0.00000242406841
 31
0.0
 73
     1
 44
1.0
1001
ACAD
1000
MTEXTBEGIN
1070
    73
1070
     1
1070
    44
1040
1.0
1070
    74
1070
     0
1000
MTEXTEND
  0
ENDBLK
  5
2A6
330
29A
100
AcDbEntity
  8
0
100
AcDbBlockEnd
  0
BLOCK
  5
2AA
330
2A9
100
AcDbEntity
  8
0
100
AcDbBlockBegin
  2
*D7
 70
     1
 10
0.0
 20
0.0
 30
0.0
  3
*D7
  1

  0
LINE
  5
2AB
330
2A9
100
AcDbEntity
  8
0
  6
Continuous
 62
     2
100
AcDbLine
 10
3926.422794941899
 20
-2323.434515715242
 30
0.0
 11
3950.022794941901
 21
-2323.434515715242
 31
0.0
  0
LINE
  5
2AC
330
2A9
100
AcDbEntity
  8
0
  6
Continuous
 62
     2
100
AcDbLine
 10
3926.422794941899
 20
-2298.434515715242
 30
0.0
 11
3926.422794941899
 21
-2324.434515715242
 31
0.0
  0
LINE
  5
2AD
330
2A9
100
AcDbEntity
  8
0
  6
Continuous
 62
     2
100
AcDbLine
 10
3950.022794941901
 20
-2298.434515715242
 30
0.0
 11
3950.022794941901
 21
-2324.434515715242
 31
0.0
  0
LINE
  5
2AE
330
2A9
100
AcDbEntity
  8
0
 62
     2
100
AcDbLine
 10
3950.022794941901
 20
-2323.434515715242
 30
0.0
 11
3947.522794941902
 21
-2324.10438869632
 31
0.0
  0
LINE
  5
2AF
330
2A9
100
AcDbEntity
  8
0
 62
     2
100
AcDbLine
 10
3950.022794941901
 20
-2323.434515715242
 30
0.0
 11
3947.522794941902
 21
-2322.764642734164
 31
0.0
  0
LINE
  5
2B0
330
2A9
100
AcDbEntity
  8
0
 62
     2
100
AcDbLine
 10
3926.422794941899
 20
-2323.434515715242
 30
0.0
 11
3928.922794941899
 21
-2322.764642734164
 31
0.0
  0
LINE
  5
2B1
330
2A9
100
AcDbEntity
  8
0
 62
     2
100
AcDbLine
 10
3926.422794941899
 20
-2323.434515715242
 30
0.0
 11
3928.922794941899
 21
-2324.10438869632
 31
0.0
  0
MTEXT
  5
2B2
330
2A9
100
AcDbEntity
  8
0
 62
     3
100
AcDbMText
 10
3934.8540449419
 20
-2322.434515715242
 30
0.0
 40
3.5
 41
0.0
 71
     7
 72
     1
  1
23.6
  7
CONVERTER_4
 11
0.999999999997062
 21
0.00000242406841
 31
0.0
 73
     1
 44
1.0
1001
ACAD
1000
MTEXTBEGIN
1070
    73
1070
     1
1070
    44
1040
1.0
1070
    74
1070
     0
1000
MTEXTEND
  0
ENDBLK
  5
2B3
330
2A9
100
AcDbEntity
  8
0
100
AcDbBlockEnd
  0
BLOCK
  5
2B7
330
2B6
100
AcDbEntity
  8
0
100
AcDbBlockBegin
  2
*D8
 70
     1
 10
0.0
 20
0.0
 30
0.0
  3
*D8
  1

  0
LINE
  5
2B8
330
2B6
100
AcDbEntity
  8
0
  6
Continuous
 62
     2
100
AcDbLine
 10
3911.422794941901
 20
-2292.434515715243
 30
0.0
 11
3911.422794941901
 21
-2297.434515715242
 31
0.0
  0
LINE
  5
2B9
330
2B6
100
AcDbEntity
  8
0
  6
Continuous
 62
     2
100
AcDbLine
 10
3911.422794941901
 20
-2300.434515715243
 30
0.0
 11
3911.422794941901
 21
-2297.434515715242
 31
0.0
  0
LINE
  5
2BA
330
2B6
100
AcDbEntity
  8
0
  6
Continuous
 62
     2
100
AcDbLine
 10
3911.422794941901
 20
-2300.434515715243
 30
0.0
 11
3911.422794941901
 21
-2305.663998932191
 31
0.0
  0
LINE
  5
2BB
330
2B6
100
AcDbEntity
  8
0
  6
Continuous
 62
     2
100
AcDbLine
 10
3926.222794941901
 20
-2300.434515715243
 30
0.0
 11
3910.4227949419
 21
-2300.434515715243
 31
0.0
  0
LINE
  5
2BC
330
2B6
100
AcDbEntity
  8
0
  6
Continuous
 62
     2
100
AcDbLine
 10
3925.4227949419
 20
-2297.434515715242
 30
0.0
 11
3910.4227949419
 21
-2297.434515715242
 31
0.0
  0
LINE
  5
2BD
330
2B6
100
AcDbEntity
  8
0
 62
     2
100
AcDbLine
 10
3911.422794941901
 20
-2300.434515715243
 30
0.0
 11
3912.092667922978
 21
-2302.934515715242
 31
0.0
  0
LINE
  5
2BE
330
2B6
100
AcDbEntity
  8
0
 62
     2
100
AcDbLine
 10
3911.422794941901
 20
-2300.434515715243
 30
0.0
 11
3910.752921960823
 21
-2302.934515715242
 31
0.0
  0
LINE
  5
2BF
330
2B6
100
AcDbEntity
  8
0
 62
     2
100
AcDbLine
 10
3911.422794941901
 20
-2297.434515715242
 30
0.0
 11
3910.752921960823
 21
-2294.934515715242
 31
0.0
  0
LINE
  5
2C0
330
2B6
100
AcDbEntity
  8
0
 62
     2
100
AcDbLine
 10
3911.422794941901
 20
-2297.434515715242
 30
0.0
 11
3912.092667922978
 21
-2294.934515715242
 31
0.0
  0
MTEXT
  5
2C1
330
2B6
100
AcDbEntity
  8
0
 62
     3
100
AcDbMText
 10
3910.4227949419
 20
-2305.663998932191
 30
0.0
 40
3.5
 41
0.0
 71
     7
 72
     1
  1
3
  7
CONVERTER_4
 11
0.0
 21
1.0
 31
0.0
 73
     1
 44
1.0
1001
ACAD
1000
MTEXTBEGIN
1070
    73
1070
     1
1070
    44
1040
1.0
1070
    74
1070
     0
1000
MTEXTEND
  0
ENDBLK
  5
2C2
330
2B6
100
AcDbEntity
  8
0
100
AcDbBlockEnd
  0
BLOCK
  5
2C6
330
2C5
100
AcDbEntity
  8
0
100
AcDbBlockBegin
  2
*D9
 70
     1
 10
0.0
 20
0.0
 30
0.0
  3
*D9
  1

  0
LINE
  5
2C7
330
2C5
100
AcDbEntity
  8
0
  6
Continuous
 62
     2
100
AcDbLine
 10
3911.422794941901
 20
-2297.434515715242
 30
0.0
 11
3911.422794941901
 21
-2282.434515715242
 31
0.0
  0
LINE
  5
2C8
330
2C5
100
AcDbEntity
  8
0
  6
Continuous
 62
     2
100
AcDbLine
 10
3925.4227949419
 20
-2297.434515715242
 30
0.0
 11
3910.4227949419
 21
-2297.434515715242
 31
0.0
  0
LINE
  5
2C9
330
2C5
100
AcDbEntity
  8
0
  6
Continuous
 62
     2
100
AcDbLine
 10
3926.4227949419
 20
-2282.434515715242
 30
0.0
 11
3910.4227949419
 21
-2282.434515715242
 31
0.0
  0
LINE
  5
2CA
330
2C5
100
AcDbEntity
  8
0
 62
     2
100
AcDbLine
 10
3911.422794941901
 20
-2297.434515715242
 30
0.0
 11
3910.752921960823
 21
-2294.934515715242
 31
0.0
  0
LINE
  5
2CB
330
2C5
100
AcDbEntity
  8
0
 62
     2
100
AcDbLine
 10
3911.422794941901
 20
-2297.434515715242
 30
0.0
 11
3912.092667922978
 21
-2294.934515715242
 31
0.0
  0
LINE
  5
2CC
330
2C5
100
AcDbEntity
  8
0
 62
     2
100
AcDbLine
 10
3911.422794941901
 20
-2282.434515715242
 30
0.0
 11
3912.092667922978
 21
-2284.934515715242
 31
0.0
  0
LINE
  5
2CD
330
2C5
100
AcDbEntity
  8
0
 62
     2
100
AcDbLine
 10
3911.422794941901
 20
-2282.434515715242
 30
0.0
 11
3910.752921960823
 21
-2284.934515715242
 31
0.0
  0
MTEXT
  5
2CE
330
2C5
100
AcDbEntity
  8
0
 62
     3
100
AcDbMText
 10
3910.4227949419
 20
-2291.404515715242
 30
0.0
 40
3.5
 41
0.0
 71
     7
 72
     1
  1
15
  7
CONVERTER_4
 11
0.0
 21
1.0
 31
0.0
 73
     1
 44
1.0
1001
ACAD
1000
MTEXTBEGIN
1070
    73
1070
     1
1070
    44
1040
1.0
1070
    74
1070
     0
1000
MTEXTEND
  0
ENDBLK
  5
2CF
330
2C5
100
AcDbEntity
  8
0
100
AcDbBlockEnd
  0
BLOCK
  5
2D3
330
2D2
100
AcDbEntity
  8
0
100
AcDbBlockBegin
  2
*D10
 70
     1
 10
0.0
 20
0.0
 30
0.0
  3
*D10
  1

  0
LINE
  5
2D4
330
2D2
100
AcDbEntity
  8
0
  6
Continuous
 62
     2
100
AcDbLine
 10
3903.4227949419
 20
-2300.434515715242
 30
0.0
 11
3903.4227949419
 21
-2282.434515715242
 31
0.0
  0
LINE
  5
2D5
330
2D2
100
AcDbEntity
  8
0
  6
Continuous
 62
     2
100
AcDbLine
 10
3926.222794941901
 20
-2300.434515715242
 30
0.0
 11
3902.4227949419
 21
-2300.434515715242
 31
0.0
  0
LINE
  5
2D6
330
2D2
100
AcDbEntity
  8
0
  6
Continuous
 62
     2
100
AcDbLine
 10
3926.4227949419
 20
-2282.434515715242
 30
0.0
 11
3902.4227949419
 21
-2282.434515715242
 31
0.0
  0
LINE
  5
2D7
330
2D2
100
AcDbEntity
  8
0
 62
     2
100
AcDbLine
 10
3903.4227949419
 20
-2300.434515715242
 30
0.0
 11
3902.752921960823
 21
-2297.934515715242
 31
0.0
  0
LINE
  5
2D8
330
2D2
100
AcDbEntity
  8
0
 62
     2
100
AcDbLine
 10
3903.4227949419
 20
-2300.434515715242
 30
0.0
 11
3904.092667922978
 21
-2297.934515715242
 31
0.0
  0
LINE
  5
2D9
330
2D2
100
AcDbEntity
  8
0
 62
     2
100
AcDbLine
 10
3903.4227949419
 20
-2282.434515715242
 30
0.0
 11
3904.092667922978
 21
-2284.934515715242
 31
0.0
  0
LINE
  5
2DA
330
2D2
100
AcDbEntity
  8
0
 62
     2
100
AcDbLine
 10
3903.4227949419
 20
-2282.434515715242
 30
0.0
 11
3902.752921960823
 21
-2284.934515715242
 31
0.0
  0
MTEXT
  5
2DB
330
2D2
100
AcDbEntity
  8
0
 62
     3
100
AcDbMText
 10
3902.4227949419
 20
-2292.904515715241
 30
0.0
 40
3.5
 41
0.0
 71
     7
 72
     1
  1
18
  7
CONVERTER_4
 11
0.0
 21
1.0
 31
0.0
 73
     1
 44
1.0
1001
ACAD
1000
MTEXTBEGIN
1070
    73
1070
     1
1070
    44
1040
1.0
1070
    74
1070
     0
1000
MTEXTEND
  0
ENDBLK
  5
2DC
330
2D2
100
AcDbEntity
  8
0
100
AcDbBlockEnd
  0
BLOCK
  5
2E0
330
2DF
100
AcDbEntity
  8
0
100
AcDbBlockBegin
  2
*D11
 70
     1
 10
0.0
 20
0.0
 30
0.0
  3
*D11
  1

  0
LINE
  5
2E1
330
2DF
100
AcDbEntity
  8
0
  6
Continuous
 62
     2
100
AcDbLine
 10
3895.4227949419
 20
-2300.434515715242
 30
0.0
 11
3895.4227949419
 21
-2276.934515715242
 31
0.0
  0
LINE
  5
2E2
330
2DF
100
AcDbEntity
  8
0
  6
Continuous
 62
     2
100
AcDbLine
 10
3926.222794941901
 20
-2300.434515715242
 30
0.0
 11
3894.4227949419
 21
-2300.434515715242
 31
0.0
  0
LINE
  5
2E3
330
2DF
100
AcDbEntity
  8
0
  6
Continuous
 62
     2
100
AcDbLine
 10
3936.2227949419
 20
-2276.934515715242
 30
0.0
 11
3894.4227949419
 21
-2276.934515715242
 31
0.0
  0
LINE
  5
2E4
330
2DF
100
AcDbEntity
  8
0
 62
     2
100
AcDbLine
 10
3895.4227949419
 20
-2300.434515715242
 30
0.0
 11
3894.752921960823
 21
-2297.934515715242
 31
0.0
  0
LINE
  5
2E5
330
2DF
100
AcDbEntity
  8
0
 62
     2
100
AcDbLine
 10
3895.4227949419
 20
-2300.434515715242
 30
0.0
 11
3896.092667922977
 21
-2297.934515715242
 31
0.0
  0
LINE
  5
2E6
330
2DF
100
AcDbEntity
  8
0
 62
     2
100
AcDbLine
 10
3895.4227949419
 20
-2276.934515715242
 30
0.0
 11
3896.092667922977
 21
-2279.434515715242
 31
0.0
  0
LINE
  5
2E7
330
2DF
100
AcDbEntity
  8
0
 62
     2
100
AcDbLine
 10
3895.4227949419
 20
-2276.934515715242
 30
0.0
 11
3894.752921960823
 21
-2279.434515715242
 31
0.0
  0
MTEXT
  5
2E8
102
{ACAD_XDICTIONARY
360
44C
102
}
330
2DF
100
AcDbEntity
  8
0
 62
     3
100
AcDbMText
 10
3894.4227949419
 20
-2294.258265715242
 30
0.0
 40
3.5
 41
0.0
 71
     7
 72
     1
  1
\U+0081i23.5\U+0081j
  7
CONVERTER_4
 11
0.0
 21
1.0
 31
0.0
 73
     1
 44
1.0
1001
ACAD
1000
MTEXTBEGIN
1070
    73
1070
     1
1070
    44
1040
1.0
1070
    74
1070
     0
1000
MTEXTEND
  0
ENDBLK
  5
2E9
330
2DF
100
AcDbEntity
  8
0
100
AcDbBlockEnd
  0
BLOCK
  5
2ED
330
2EC
100
AcDbEntity
  8
0
100
AcDbBlockBegin
  2
*D12
 70
     1
 10
0.0
 20
0.0
 30
0.0
  3
*D12
  1

  0
LINE
  5
2EE
330
2EC
100
AcDbEntity
  8
0
  6
Continuous
 62
     2
100
AcDbLine
 10
3975.899876234751
 20
-2315.434515715242
 30
0.0
 11
3994.899876234751
 21
-2315.434515715242
 31
0.0
  0
LINE
  5
2EF
330
2EC
100
AcDbEntity
  8
0
  6
Continuous
 62
     2
100
AcDbLine
 10
3975.899876234751
 20
-2300.934515715242
 30
0.0
 11
3975.899876234751
 21
-2316.434515715242
 31
0.0
  0
LINE
  5
2F0
330
2EC
100
AcDbEntity
  8
0
  6
Continuous
 62
     2
100
AcDbLine
 10
3994.899876234751
 20
-2300.934515715242
 30
0.0
 11
3994.899876234751
 21
-2316.434515715242
 31
0.0
  0
LINE
  5
2F1
330
2EC
100
AcDbEntity
  8
0
 62
     2
100
AcDbLine
 10
3975.899876234751
 20
-2315.434515715242
 30
0.0
 11
3978.399876234751
 21
-2314.764642734164
 31
0.0
  0
LINE
  5
2F2
330
2EC
100
AcDbEntity
  8
0
 62
     2
100
AcDbLine
 10
3975.899876234751
 20
-2315.434515715242
 30
0.0
 11
3978.399876234751
 21
-2316.10438869632
 31
0.0
  0
LINE
  5
2F3
330
2EC
100
AcDbEntity
  8
0
 62
     2
100
AcDbLine
 10
3994.899876234751
 20
-2315.434515715242
 30
0.0
 11
3992.399876234751
 21
-2316.10438869632
 31
0.0
  0
LINE
  5
2F4
330
2EC
100
AcDbEntity
  8
0
 62
     2
100
AcDbLine
 10
3994.899876234751
 20
-2315.434515715242
 30
0.0
 11
3992.399876234751
 21
-2314.764642734164
 31
0.0
  0
MTEXT
  5
2F5
330
2EC
100
AcDbEntity
  8
0
 62
     3
100
AcDbMText
 10
3983.929876234751
 20
-2314.434515715242
 30
0.0
 40
3.5
 41
0.0
 71
     7
 72
     1
  1
19
  7
CONVERTER_4
 11
0.999999999997062
 21
0.00000242406841
 31
0.0
 73
     1
 44
1.0
1001
ACAD
1000
MTEXTBEGIN
1070
    73
1070
     1
1070
    44
1040
1.0
1070
    74
1070
     0
1000
MTEXTEND
  0
ENDBLK
  5
2F6
330
2EC
100
AcDbEntity
  8
0
100
AcDbBlockEnd
  0
BLOCK
  5
2FA
330
2F9
100
AcDbEntity
  8
0
100
AcDbBlockBegin
  2
*D13
 70
     1
 10
0.0
 20
0.0
 30
0.0
  3
*D13
  1

  0
LINE
  5
2FB
330
2F9
100
AcDbEntity
  8
0
  6
Continuous
 62
     2
100
AcDbLine
 10
4168.41839910904
 20
-2340.88355347488
 30
0.0
 11
4191.61839910904
 21
-2340.88355347488
 31
0.0
  0
LINE
  5
2FC
330
2F9
100
AcDbEntity
  8
0
  6
Continuous
 62
     2
100
AcDbLine
 10
4168.41839910904
 20
-2316.88355347488
 30
0.0
 11
4168.41839910904
 21
-2341.88355347488
 31
0.0
  0
LINE
  5
2FD
330
2F9
100
AcDbEntity
  8
0
  6
Continuous
 62
     2
100
AcDbLine
 10
4191.61839910904
 20
-2316.88355347488
 30
0.0
 11
4191.61839910904
 21
-2341.88355347488
 31
0.0
  0
LINE
  5
2FE
330
2F9
100
AcDbEntity
  8
0
 62
     2
100
AcDbLine
 10
4168.41839910904
 20
-2340.88355347488
 30
0.0
 11
4170.91839910904
 21
-2340.213680493803
 31
0.0
  0
LINE
  5
2FF
330
2F9
100
AcDbEntity
  8
0
 62
     2
100
AcDbLine
 10
4168.41839910904
 20
-2340.88355347488
 30
0.0
 11
4170.91839910904
 21
-2341.553426455958
 31
0.0
  0
LINE
  5
300
330
2F9
100
AcDbEntity
  8
0
 62
     2
100
AcDbLine
 10
4191.61839910904
 20
-2340.88355347488
 30
0.0
 11
4189.11839910904
 21
-2341.553426455958
 31
0.0
  0
LINE
  5
301
330
2F9
100
AcDbEntity
  8
0
 62
     2
100
AcDbLine
 10
4191.61839910904
 20
-2340.88355347488
 30
0.0
 11
4189.11839910904
 21
-2340.213680493803
 31
0.0
  0
MTEXT
  5
302
330
2F9
100
AcDbEntity
  8
0
 62
     3
100
AcDbMText
 10
4173.82689910904
 20
-2339.00855347488
 30
0.0
 40
3.5
 41
0.0
 71
     7
 72
     1
  1
\C3;23.2\C3;\H2.100000;\S+0.5^  0;
  7
CONVERTER_4
 11
0.999999999997062
 21
0.00000242406841
 31
0.0
 73
     1
 44
1.0
1001
ACAD
1000
MTEXTBEGIN
1070
    73
1070
     1
1070
    44
1040
1.0
1070
    74
1070
     0
1000
MTEXTEND
  0
ENDBLK
  5
303
330
2F9
100
AcDbEntity
  8
0
100
AcDbBlockEnd
  0
BLOCK
  5
307
330
306
100
AcDbEntity
  8
0
100
AcDbBlockBegin
  2
*D14
 70
     1
 10
0.0
 20
0.0
 30
0.0
  3
*D14
  1

  0
LINE
  5
308
330
306
100
AcDbEntity
  8
0
  6
Continuous
 62
     2
100
AcDbLine
 10
4168.518399109039
 20
-2332.88355347488
 30
0.0
 11
4191.518399109041
 21
-2332.88355347488
 31
0.0
  0
LINE
  5
309
330
306
100
AcDbEntity
  8
0
  6
Continuous
 62
     2
100
AcDbLine
 10
4168.518399109039
 20
-2316.88355347488
 30
0.0
 11
4168.518399109039
 21
-2333.88355347488
 31
0.0
  0
LINE
  5
30A
330
306
100
AcDbEntity
  8
0
  6
Continuous
 62
     2
100
AcDbLine
 10
4191.518399109041
 20
-2316.88355347488
 30
0.0
 11
4191.518399109041
 21
-2333.88355347488
 31
0.0
  0
LINE
  5
30B
330
306
100
AcDbEntity
  8
0
 62
     2
100
AcDbLine
 10
4168.518399109039
 20
-2332.88355347488
 30
0.0
 11
4171.01839910904
 21
-2332.213680493802
 31
0.0
  0
LINE
  5
30C
330
306
100
AcDbEntity
  8
0
 62
     2
100
AcDbLine
 10
4168.518399109039
 20
-2332.88355347488
 30
0.0
 11
4171.01839910904
 21
-2333.553426455958
 31
0.0
  0
LINE
  5
30D
330
306
100
AcDbEntity
  8
0
 62
     2
100
AcDbLine
 10
4191.518399109041
 20
-2332.88355347488
 30
0.0
 11
4189.01839910904
 21
-2333.553426455958
 31
0.0
  0
LINE
  5
30E
330
306
100
AcDbEntity
  8
0
 62
     2
100
AcDbLine
 10
4191.518399109041
 20
-2332.88355347488
 30
0.0
 11
4189.01839910904
 21
-2332.213680493802
 31
0.0
  0
MTEXT
  5
30F
330
306
100
AcDbEntity
  8
0
 62
     3
100
AcDbMText
 10
4178.180899109039
 20
-2331.88355347488
 30
0.0
 40
3.5
 41
0.0
 71
     7
 72
     1
  1
23
  7
CONVERTER_4
 11
0.999999999997062
 21
0.00000242406841
 31
0.0
 73
     1
 44
1.0
1001
ACAD
1000
MTEXTBEGIN
1070
    73
1070
     1
1070
    44
1040
1.0
1070
    74
1070
     0
1000
MTEXTEND
  0
ENDBLK
  5
310
330
306
100
AcDbEntity
  8
0
100
AcDbBlockEnd
  0
BLOCK
  5
314
330
313
100
AcDbEntity
  8
0
100
AcDbBlockBegin
  2
*D15
 70
     1
 10
0.0
 20
0.0
 30
0.0
  3
*D15
  1

  0
LINE
  5
315
330
313
100
AcDbEntity
  8
0
  6
Continuous
 62
     2
100
AcDbLine
 10
4173.51839910904
 20
-2332.88355347488
 30
0.0
 11
4168.518399109039
 21
-2332.88355347488
 31
0.0
  0
LINE
  5
316
330
313
100
AcDbEntity
  8
0
  6
Continuous
 62
     2
100
AcDbLine
 10
4168.41839910904
 20
-2332.88355347488
 30
0.0
 11
4168.518399109039
 21
-2332.88355347488
 31
0.0
  0
LINE
  5
317
330
313
100
AcDbEntity
  8
0
  6
Continuous
 62
     2
100
AcDbLine
 10
4168.41839910904
 20
-2332.88355347488
 30
0.0
 11
4160.525374138809
 21
-2332.88355347488
 31
0.0
  0
LINE
  5
318
330
313
100
AcDbEntity
  8
0
  6
Continuous
 62
     2
100
AcDbLine
 10
4168.41839910904
 20
-2316.88355347488
 30
0.0
 11
4168.41839910904
 21
-2333.88355347488
 31
0.0
  0
LINE
  5
319
330
313
100
AcDbEntity
  8
0
  6
Continuous
 62
     2
100
AcDbLine
 10
4168.518399109039
 20
-2316.88355347488
 30
0.0
 11
4168.518399109039
 21
-2333.88355347488
 31
0.0
  0
LINE
  5
31A
330
313
100
AcDbEntity
  8
0
 62
     2
100
AcDbLine
 10
4168.518399109039
 20
-2332.88355347488
 30
0.0
 11
4171.01839910904
 21
-2332.213680493802
 31
0.0
  0
LINE
  5
31B
330
313
100
AcDbEntity
  8
0
 62
     2
100
AcDbLine
 10
4168.518399109039
 20
-2332.88355347488
 30
0.0
 11
4171.01839910904
 21
-2333.553426455958
 31
0.0
  0
LINE
  5
31C
330
313
100
AcDbEntity
  8
0
 62
     2
100
AcDbLine
 10
4168.41839910904
 20
-2332.88355347488
 30
0.0
 11
4165.91839910904
 21
-2333.553426455958
 31
0.0
  0
LINE
  5
31D
330
313
100
AcDbEntity
  8
0
 62
     2
100
AcDbLine
 10
4168.41839910904
 20
-2332.88355347488
 30
0.0
 11
4165.91839910904
 21
-2332.213680493802
 31
0.0
  0
MTEXT
  5
31E
330
313
100
AcDbEntity
  8
0
 62
     3
100
AcDbMText
 10
4160.525374138809
 20
-2331.88355347488
 30
0.0
 40
3.5
 41
0.0
 71
     7
 72
     1
  1
0.1
  7
CONVERTER_4
 11
0.999999999997062
 21
0.00000242406841
 31
0.0
 73
     1
 44
1.0
1001
ACAD
1000
MTEXTBEGIN
1070
    73
1070
     1
1070
    44
1040
1.0
1070
    74
1070
     0
1000
MTEXTEND
  0
ENDBLK
  5
31F
330
313
100
AcDbEntity
  8
0
100
AcDbBlockEnd
  0
BLOCK
  5
323
330
322
100
AcDbEntity
  8
0
100
AcDbBlockBegin
  2
*D16
 70
     1
 10
0.0
 20
0.0
 30
0.0
  3
*D16
  1

  0
LINE
  5
324
330
322
100
AcDbEntity
  8
0
  6
Continuous
 62
     2
100
AcDbLine
 10
4186.518399109041
 20
-2332.88355347488
 30
0.0
 11
4191.518399109041
 21
-2332.88355347488
 31
0.0
  0
LINE
  5
325
330
322
100
AcDbEntity
  8
0
  6
Continuous
 62
     2
100
AcDbLine
 10
4191.518399109041
 20
-2332.88355347488
 30
0.0
 11
4191.61839910904
 21
-2332.88355347488
 31
0.0
  0
LINE
  5
326
330
322
100
AcDbEntity
  8
0
  6
Continuous
 62
     2
100
AcDbLine
 10
4191.61839910904
 20
-2332.88355347488
 30
0.0
 11
4199.1388723816
 21
-2332.88355347488
 31
0.0
  0
LINE
  5
327
330
322
100
AcDbEntity
  8
0
  6
Continuous
 62
     2
100
AcDbLine
 10
4191.518399109041
 20
-2316.88355347488
 30
0.0
 11
4191.518399109041
 21
-2333.88355347488
 31
0.0
  0
LINE
  5
328
330
322
100
AcDbEntity
  8
0
  6
Continuous
 62
     2
100
AcDbLine
 10
4191.61839910904
 20
-2316.88355347488
 30
0.0
 11
4191.61839910904
 21
-2333.88355347488
 31
0.0
  0
LINE
  5
329
330
322
100
AcDbEntity
  8
0
 62
     2
100
AcDbLine
 10
4191.518399109041
 20
-2332.88355347488
 30
0.0
 11
4189.01839910904
 21
-2333.553426455958
 31
0.0
  0
LINE
  5
32A
330
322
100
AcDbEntity
  8
0
 62
     2
100
AcDbLine
 10
4191.518399109041
 20
-2332.88355347488
 30
0.0
 11
4189.01839910904
 21
-2332.213680493802
 31
0.0
  0
LINE
  5
32B
330
322
100
AcDbEntity
  8
0
 62
     2
100
AcDbLine
 10
4191.61839910904
 20
-2332.88355347488
 30
0.0
 11
4194.11839910904
 21
-2332.213680493802
 31
0.0
  0
LINE
  5
32C
330
322
100
AcDbEntity
  8
0
 62
     2
100
AcDbLine
 10
4191.61839910904
 20
-2332.88355347488
 30
0.0
 11
4194.11839910904
 21
-2333.553426455958
 31
0.0
  0
MTEXT
  5
32D
330
322
100
AcDbEntity
  8
0
 62
     3
100
AcDbMText
 10
4195.341372381599
 20
-2331.88355347488
 30
0.0
 40
3.5
 41
0.0
 71
     7
 72
     1
  1
0.1
  7
CONVERTER_4
 11
0.999999999997062
 21
0.00000242406841
 31
0.0
 73
     1
 44
1.0
1001
ACAD
1000
MTEXTBEGIN
1070
    73
1070
     1
1070
    44
1040
1.0
1070
    74
1070
     0
1000
MTEXTEND
  0
ENDBLK
  5
32E
330
322
100
AcDbEntity
  8
0
100
AcDbBlockEnd
  0
BLOCK
  5
332
330
331
100
AcDbEntity
  8
0
100
AcDbBlockBegin
  2
*D17
 70
     1
 10
0.0
 20
0.0
 30
0.0
  3
*D17
  1

  0
LINE
  5
333
330
331
100
AcDbEntity
  8
0
  6
Continuous
 62
     2
100
AcDbLine
 10
4168.218399109039
 20
-2276.38355347488
 30
0.0
 11
4191.818399109041
 21
-2276.38355347488
 31
0.0
  0
LINE
  5
334
330
331
100
AcDbEntity
  8
0
  6
Continuous
 62
     2
100
AcDbLine
 10
4168.218399109039
 20
-2298.38355347488
 30
0.0
 11
4168.218399109039
 21
-2275.38355347488
 31
0.0
  0
LINE
  5
335
330
331
100
AcDbEntity
  8
0
  6
Continuous
 62
     2
100
AcDbLine
 10
4191.818399109041
 20
-2298.38355347488
 30
0.0
 11
4191.818399109041
 21
-2275.38355347488
 31
0.0
  0
LINE
  5
336
330
331
100
AcDbEntity
  8
0
 62
     2
100
AcDbLine
 10
4168.218399109039
 20
-2276.38355347488
 30
0.0
 11
4170.718399109039
 21
-2275.713680493803
 31
0.0
  0
LINE
  5
337
330
331
100
AcDbEntity
  8
0
 62
     2
100
AcDbLine
 10
4168.218399109039
 20
-2276.38355347488
 30
0.0
 11
4170.718399109039
 21
-2277.053426455958
 31
0.0
  0
LINE
  5
338
330
331
100
AcDbEntity
  8
0
 62
     2
100
AcDbLine
 10
4191.818399109041
 20
-2276.38355347488
 30
0.0
 11
4189.318399109041
 21
-2277.053426455958
 31
0.0
  0
LINE
  5
339
330
331
100
AcDbEntity
  8
0
 62
     2
100
AcDbLine
 10
4191.818399109041
 20
-2276.38355347488
 30
0.0
 11
4189.318399109041
 21
-2275.713680493803
 31
0.0
  0
MTEXT
  5
33A
330
331
100
AcDbEntity
  8
0
 62
     3
100
AcDbMText
 10
4176.64964910904
 20
-2275.38355347488
 30
0.0
 40
3.5
 41
0.0
 71
     7
 72
     1
  1
23.6
  7
CONVERTER_4
 11
0.999999999997062
 21
0.00000242406841
 31
0.0
 73
     1
 44
1.0
1001
ACAD
1000
MTEXTBEGIN
1070
    73
1070
     1
1070
    44
1040
1.0
1070
    74
1070
     0
1000
MTEXTEND
  0
ENDBLK
  5
33B
330
331
100
AcDbEntity
  8
0
100
AcDbBlockEnd
  0
BLOCK
  5
33F
330
33E
100
AcDbEntity
  8
0
100
AcDbBlockBegin
  2
*D18
 70
     1
 10
0.0
 20
0.0
 30
0.0
  3
*D18
  1

  0
LINE
  5
340
330
33E
100
AcDbEntity
  8
0
  6
Continuous
 62
     2
100
AcDbLine
 10
4186.818399109041
 20
-2276.38355347488
 30
0.0
 11
4191.818399109041
 21
-2276.38355347488
 31
0.0
  0
LINE
  5
341
330
33E
100
AcDbEntity
  8
0
  6
Continuous
 62
     2
100
AcDbLine
 10
4191.818399109041
 20
-2276.38355347488
 30
0.0
 11
4192.01839910904
 21
-2276.38355347488
 31
0.0
  0
LINE
  5
342
330
33E
100
AcDbEntity
  8
0
  6
Continuous
 62
     2
100
AcDbLine
 10
4192.01839910904
 20
-2276.38355347488
 30
0.0
 11
4201.58581654894
 21
-2276.38355347488
 31
0.0
  0
LINE
  5
343
330
33E
100
AcDbEntity
  8
0
  6
Continuous
 62
     2
100
AcDbLine
 10
4191.818399109041
 20
-2298.38355347488
 30
0.0
 11
4191.818399109041
 21
-2275.38355347488
 31
0.0
  0
LINE
  5
344
330
33E
100
AcDbEntity
  8
0
  6
Continuous
 62
     2
100
AcDbLine
 10
4192.01839910904
 20
-2297.88355347488
 30
0.0
 11
4192.01839910904
 21
-2275.38355347488
 31
0.0
  0
LINE
  5
345
330
33E
100
AcDbEntity
  8
0
 62
     2
100
AcDbLine
 10
4191.818399109041
 20
-2276.38355347488
 30
0.0
 11
4189.318399109041
 21
-2277.053426455958
 31
0.0
  0
LINE
  5
346
330
33E
100
AcDbEntity
  8
0
 62
     2
100
AcDbLine
 10
4191.818399109041
 20
-2276.38355347488
 30
0.0
 11
4189.318399109041
 21
-2275.713680493803
 31
0.0
  0
LINE
  5
347
330
33E
100
AcDbEntity
  8
0
 62
     2
100
AcDbLine
 10
4192.01839910904
 20
-2276.38355347488
 30
0.0
 11
4194.518399109039
 21
-2275.713680493803
 31
0.0
  0
LINE
  5
348
330
33E
100
AcDbEntity
  8
0
 62
     2
100
AcDbLine
 10
4192.01839910904
 20
-2276.38355347488
 30
0.0
 11
4194.518399109039
 21
-2277.053426455958
 31
0.0
  0
MTEXT
  5
349
330
33E
100
AcDbEntity
  8
0
 62
     3
100
AcDbMText
 10
4197.053316548941
 20
-2275.38355347488
 30
0.0
 40
3.5
 41
0.0
 71
     7
 72
     1
  1
0.2
  7
CONVERTER_4
 11
0.999999999997062
 21
0.00000242406841
 31
0.0
 73
     1
 44
1.0
1001
ACAD
1000
MTEXTBEGIN
1070
    73
1070
     1
1070
    44
1040
1.0
1070
    74
1070
     0
1000
MTEXTEND
  0
ENDBLK
  5
34A
330
33E
100
AcDbEntity
  8
0
100
AcDbBlockEnd
  0
BLOCK
  5
34E
330
34D
100
AcDbEntity
  8
0
100
AcDbBlockBegin
  2
*D19
 70
     1
 10
0.0
 20
0.0
 30
0.0
  3
*D19
  1

  0
LINE
  5
34F
330
34D
100
AcDbEntity
  8
0
  6
Continuous
 62
     2
100
AcDbLine
 10
4173.218399109039
 20
-2276.38355347488
 30
0.0
 11
4168.218399109039
 21
-2276.38355347488
 31
0.0
  0
LINE
  5
350
330
34D
100
AcDbEntity
  8
0
  6
Continuous
 62
     2
100
AcDbLine
 10
4168.01839910904
 20
-2276.38355347488
 30
0.0
 11
4168.218399109039
 21
-2276.38355347488
 31
0.0
  0
LINE
  5
351
330
34D
100
AcDbEntity
  8
0
  6
Continuous
 62
     2
100
AcDbLine
 10
4168.01839910904
 20
-2276.38355347488
 30
0.0
 11
4159.965022465342
 21
-2276.38355347488
 31
0.0
  0
LINE
  5
352
330
34D
100
AcDbEntity
  8
0
  6
Continuous
 62
     2
100
AcDbLine
 10
4168.01839910904
 20
-2297.88355347488
 30
0.0
 11
4168.01839910904
 21
-2275.38355347488
 31
0.0
  0
LINE
  5
353
330
34D
100
AcDbEntity
  8
0
  6
Continuous
 62
     2
100
AcDbLine
 10
4168.218399109039
 20
-2298.38355347488
 30
0.0
 11
4168.218399109039
 21
-2275.38355347488
 31
0.0
  0
LINE
  5
354
330
34D
100
AcDbEntity
  8
0
 62
     2
100
AcDbLine
 10
4168.218399109039
 20
-2276.38355347488
 30
0.0
 11
4170.718399109039
 21
-2275.713680493803
 31
0.0
  0
LINE
  5
355
330
34D
100
AcDbEntity
  8
0
 62
     2
100
AcDbLine
 10
4168.218399109039
 20
-2276.38355347488
 30
0.0
 11
4170.718399109039
 21
-2277.053426455958
 31
0.0
  0
LINE
  5
356
330
34D
100
AcDbEntity
  8
0
 62
     2
100
AcDbLine
 10
4168.01839910904
 20
-2276.38355347488
 30
0.0
 11
4165.518399109039
 21
-2277.053426455958
 31
0.0
  0
LINE
  5
357
330
34D
100
AcDbEntity
  8
0
 62
     2
100
AcDbLine
 10
4168.01839910904
 20
-2276.38355347488
 30
0.0
 11
4165.518399109039
 21
-2275.713680493803
 31
0.0
  0
MTEXT
  5
358
330
34D
100
AcDbEntity
  8
0
 62
     3
100
AcDbMText
 10
4159.965022465342
 20
-2275.38355347488
 30
0.0
 40
3.5
 41
0.0
 71
     7
 72
     1
  1
0.2
  7
CONVERTER_4
 11
0.999999999997062
 21
0.00000242406841
 31
0.0
 73
     1
 44
1.0
1001
ACAD
1000
MTEXTBEGIN
1070
    73
1070
     1
1070
    44
1040
1.0
1070
    74
1070
     0
1000
MTEXTEND
  0
ENDBLK
  5
359
330
34D
100
AcDbEntity
  8
0
100
AcDbBlockEnd
  0
BLOCK
  5
35D
330
35C
100
AcDbEntity
  8
0
100
AcDbBlockBegin
  2
*D20
 70
     1
 10
0.0
 20
0.0
 30
0.0
  3
*D20
  1

  0
LINE
  5
35E
330
35C
100
AcDbEntity
  8
0
  6
Continuous
 62
     2
100
AcDbLine
 10
4168.01839910904
 20
-2268.38355347488
 30
0.0
 11
4192.01839910904
 21
-2268.38355347488
 31
0.0
  0
LINE
  5
35F
330
35C
100
AcDbEntity
  8
0
  6
Continuous
 62
     2
100
AcDbLine
 10
4168.01839910904
 20
-2297.88355347488
 30
0.0
 11
4168.01839910904
 21
-2267.38355347488
 31
0.0
  0
LINE
  5
360
330
35C
100
AcDbEntity
  8
0
  6
Continuous
 62
     2
100
AcDbLine
 10
4192.01839910904
 20
-2297.88355347488
 30
0.0
 11
4192.01839910904
 21
-2267.38355347488
 31
0.0
  0
LINE
  5
361
330
35C
100
AcDbEntity
  8
0
 62
     2
100
AcDbLine
 10
4168.01839910904
 20
-2268.38355347488
 30
0.0
 11
4170.51839910904
 21
-2267.713680493803
 31
0.0
  0
LINE
  5
362
330
35C
100
AcDbEntity
  8
0
 62
     2
100
AcDbLine
 10
4168.01839910904
 20
-2268.38355347488
 30
0.0
 11
4170.51839910904
 21
-2269.053426455958
 31
0.0
  0
LINE
  5
363
330
35C
100
AcDbEntity
  8
0
 62
     2
100
AcDbLine
 10
4192.01839910904
 20
-2268.38355347488
 30
0.0
 11
4189.518399109039
 21
-2269.053426455958
 31
0.0
  0
LINE
  5
364
330
35C
100
AcDbEntity
  8
0
 62
     2
100
AcDbLine
 10
4192.01839910904
 20
-2268.38355347488
 30
0.0
 11
4189.518399109039
 21
-2267.713680493803
 31
0.0
  0
MTEXT
  5
365
330
35C
100
AcDbEntity
  8
0
 62
     3
100
AcDbMText
 10
4175.358149109039
 20
-2266.50855347488
 30
0.0
 40
3.5
 41
0.0
 71
     7
 72
     1
  1
\C3;24\C3;\H2.100000;\S+0.5^  0;
  7
CONVERTER_4
 11
0.999999999997062
 21
0.00000242406841
 31
0.0
 73
     1
 44
1.0
1001
ACAD
1000
MTEXTBEGIN
1070
    73
1070
     1
1070
    44
1040
1.0
1070
    74
1070
     0
1000
MTEXTEND
  0
ENDBLK
  5
366
330
35C
100
AcDbEntity
  8
0
100
AcDbBlockEnd
  0
BLOCK
  5
36A
330
369
100
AcDbEntity
  8
0
100
AcDbBlockBegin
  2
*D21
 70
     1
 10
0.0
 20
0.0
 30
0.0
  3
*D21
  1

  0
LINE
  5
36B
330
369
100
AcDbEntity
  8
0
  6
Continuous
 62
     2
100
AcDbLine
 10
4151.518399109039
 20
-2316.38355347488
 30
0.0
 11
4151.518399109039
 21
-2298.38355347488
 31
0.0
  0
LINE
  5
36C
330
369
100
AcDbEntity
  8
0
  6
Continuous
 62
     2
100
AcDbLine
 10
4168.01839910904
 20
-2316.38355347488
 30
0.0
 11
4150.518399109039
 21
-2316.38355347488
 31
0.0
  0
LINE
  5
36D
330
369
100
AcDbEntity
  8
0
  6
Continuous
 62
     2
100
AcDbLine
 10
4168.218399109039
 20
-2298.38355347488
 30
0.0
 11
4150.518399109039
 21
-2298.38355347488
 31
0.0
  0
LINE
  5
36E
330
369
100
AcDbEntity
  8
0
 62
     2
100
AcDbLine
 10
4151.518399109039
 20
-2316.38355347488
 30
0.0
 11
4150.848526127962
 21
-2313.88355347488
 31
0.0
  0
LINE
  5
36F
330
369
100
AcDbEntity
  8
0
 62
     2
100
AcDbLine
 10
4151.518399109039
 20
-2316.38355347488
 30
0.0
 11
4152.188272090117
 21
-2313.88355347488
 31
0.0
  0
LINE
  5
370
330
369
100
AcDbEntity
  8
0
 62
     2
100
AcDbLine
 10
4151.518399109039
 20
-2298.38355347488
 30
0.0
 11
4152.188272090117
 21
-2300.88355347488
 31
0.0
  0
LINE
  5
371
330
369
100
AcDbEntity
  8
0
 62
     2
100
AcDbLine
 10
4151.518399109039
 20
-2298.38355347488
 30
0.0
 11
4150.848526127962
 21
-2300.88355347488
 31
0.0
  0
MTEXT
  5
372
330
369
100
AcDbEntity
  8
0
 62
     3
100
AcDbMText
 10
4150.518399109039
 20
-2308.85355347488
 30
0.0
 40
3.5
 41
0.0
 71
     7
 72
     1
  1
18
  7
CONVERTER_4
 11
0.0
 21
1.0
 31
0.0
 73
     1
 44
1.0
1001
ACAD
1000
MTEXTBEGIN
1070
    73
1070
     1
1070
    44
1040
1.0
1070
    74
1070
     0
1000
MTEXTEND
  0
ENDBLK
  5
373
330
369
100
AcDbEntity
  8
0
100
AcDbBlockEnd
  0
BLOCK
  5
377
330
376
100
AcDbEntity
  8
0
100
AcDbBlockBegin
  2
*D22
 70
     1
 10
0.0
 20
0.0
 30
0.0
  3
*D22
  1

  0
LINE
  5
378
330
376
100
AcDbEntity
  8
0
  6
Continuous
 62
     2
100
AcDbLine
 10
4151.54100649704
 20
-2297.88355347488
 30
0.0
 11
4151.54100649704
 21
-2284.81547596601
 31
0.0
  0
LINE
  5
379
330
376
100
AcDbEntity
  8
0
  6
Continuous
 62
     2
100
AcDbLine
 10
4151.54100649704
 20
-2298.38355347488
 30
0.0
 11
4151.54100649704
 21
-2297.88355347488
 31
0.0
  0
LINE
  5
37A
330
376
100
AcDbEntity
  8
0
  6
Continuous
 62
     2
100
AcDbLine
 10
4151.54100649704
 20
-2303.38355347488
 30
0.0
 11
4151.54100649704
 21
-2298.38355347488
 31
0.0
  0
LINE
  5
37B
330
376
100
AcDbEntity
  8
0
  6
Continuous
 62
     2
100
AcDbLine
 10
4168.01839910904
 20
-2297.88355347488
 30
0.0
 11
4150.54100649704
 21
-2297.88355347488
 31
0.0
  0
LINE
  5
37C
330
376
100
AcDbEntity
  8
0
  6
Continuous
 62
     2
100
AcDbLine
 10
4168.218399109039
 20
-2298.38355347488
 30
0.0
 11
4150.54100649704
 21
-2298.38355347488
 31
0.0
  0
LINE
  5
37D
330
376
100
AcDbEntity
  8
0
 62
     2
100
AcDbLine
 10
4151.54100649704
 20
-2298.38355347488
 30
0.0
 11
4152.210879478118
 21
-2300.88355347488
 31
0.0
  0
LINE
  5
37E
330
376
100
AcDbEntity
  8
0
 62
     2
100
AcDbLine
 10
4151.54100649704
 20
-2298.38355347488
 30
0.0
 11
4150.871133515962
 21
-2300.88355347488
 31
0.0
  0
LINE
  5
37F
330
376
100
AcDbEntity
  8
0
 62
     2
100
AcDbLine
 10
4151.54100649704
 20
-2297.88355347488
 30
0.0
 11
4150.871133515962
 21
-2295.38355347488
 31
0.0
  0
LINE
  5
380
330
376
100
AcDbEntity
  8
0
 62
     2
100
AcDbLine
 10
4151.54100649704
 20
-2297.88355347488
 30
0.0
 11
4152.210879478118
 21
-2295.38355347488
 31
0.0
  0
MTEXT
  5
381
330
376
100
AcDbEntity
  8
0
 62
     3
100
AcDbMText
 10
4150.54100649704
 20
-2289.34797596601
 30
0.0
 40
3.5
 41
0.0
 71
     7
 72
     1
  1
0.5
  7
CONVERTER_4
 11
0.0
 21
1.0
 31
0.0
 73
     1
 44
1.0
1001
ACAD
1000
MTEXTBEGIN
1070
    73
1070
     1
1070
    44
1040
1.0
1070
    74
1070
     0
1000
MTEXTEND
  0
ENDBLK
  5
382
330
376
100
AcDbEntity
  8
0
100
AcDbBlockEnd
  0
BLOCK
  5
386
330
385
100
AcDbEntity
  8
0
100
AcDbBlockBegin
  2
*D23
 70
     1
 10
0.0
 20
0.0
 30
0.0
  3
*D23
  1

  0
LINE
  5
387
330
385
100
AcDbEntity
  8
0
  6
Continuous
 62
     2
100
AcDbLine
 10
4143.51839910904
 20
-2316.38355347488
 30
0.0
 11
4143.51839910904
 21
-2297.88355347488
 31
0.0
  0
LINE
  5
388
330
385
100
AcDbEntity
  8
0
  6
Continuous
 62
     2
100
AcDbLine
 10
4168.01839910904
 20
-2316.38355347488
 30
0.0
 11
4142.518399109039
 21
-2316.38355347488
 31
0.0
  0
LINE
  5
389
330
385
100
AcDbEntity
  8
0
  6
Continuous
 62
     2
100
AcDbLine
 10
4168.01839910904
 20
-2297.88355347488
 30
0.0
 11
4142.518399109039
 21
-2297.88355347488
 31
0.0
  0
LINE
  5
38A
330
385
100
AcDbEntity
  8
0
 62
     2
100
AcDbLine
 10
4143.51839910904
 20
-2316.38355347488
 30
0.0
 11
4142.848526127962
 21
-2313.88355347488
 31
0.0
  0
LINE
  5
38B
330
385
100
AcDbEntity
  8
0
 62
     2
100
AcDbLine
 10
4143.51839910904
 20
-2316.38355347488
 30
0.0
 11
4144.188272090118
 21
-2313.88355347488
 31
0.0
  0
LINE
  5
38C
330
385
100
AcDbEntity
  8
0
 62
     2
100
AcDbLine
 10
4143.51839910904
 20
-2297.88355347488
 30
0.0
 11
4144.188272090118
 21
-2300.38355347488
 31
0.0
  0
LINE
  5
38D
330
385
100
AcDbEntity
  8
0
 62
     2
100
AcDbLine
 10
4143.51839910904
 20
-2297.88355347488
 30
0.0
 11
4142.848526127962
 21
-2300.38355347488
 31
0.0
  0
MTEXT
  5
38E
330
385
100
AcDbEntity
  8
0
 62
     3
100
AcDbMText
 10
4142.518399109039
 20
-2310.25730347488
 30
0.0
 40
3.5
 41
0.0
 71
     7
 72
     1
  1
18.5
  7
CONVERTER_4
 11
0.0
 21
1.0
 31
0.0
 73
     1
 44
1.0
1001
ACAD
1000
MTEXTBEGIN
1070
    73
1070
     1
1070
    44
1040
1.0
1070
    74
1070
     0
1000
MTEXTEND
  0
ENDBLK
  5
38F
330
385
100
AcDbEntity
  8
0
100
AcDbBlockEnd
  0
BLOCK
  5
393
330
392
100
AcDbEntity
  8
0
100
AcDbBlockBegin
  2
*D24
 70
     1
 10
0.0
 20
0.0
 30
0.0
  3
*D24
  1

  0
LINE
  5
394
330
392
100
AcDbEntity
  8
0
  6
Continuous
 62
     2
100
AcDbLine
 10
4143.51839910904
 20
-2297.88355347488
 30
0.0
 11
4143.51839910904
 21
-2292.88355347488
 31
0.0
  0
LINE
  5
395
330
392
100
AcDbEntity
  8
0
  6
Continuous
 62
     2
100
AcDbLine
 10
4143.51839910904
 20
-2297.88355347488
 30
0.0
 11
4143.51839910904
 21
-2302.88355347488
 31
0.0
  0
LINE
  5
396
330
392
100
AcDbEntity
  8
0
  6
Continuous
 62
     2
100
AcDbLine
 10
4143.51839910904
 20
-2292.88355347488
 30
0.0
 11
4143.51839910904
 21
-2287.88355347488
 31
0.0
  0
LINE
  5
397
330
392
100
AcDbEntity
  8
0
  6
Continuous
 62
     2
100
AcDbLine
 10
4168.01839910904
 20
-2297.88355347488
 30
0.0
 11
4142.518399109039
 21
-2297.88355347488
 31
0.0
  0
LINE
  5
398
330
392
100
AcDbEntity
  8
0
  6
Continuous
 62
     2
100
AcDbLine
 10
4168.01839910904
 20
-2292.88355347488
 30
0.0
 11
4142.518399109039
 21
-2292.88355347488
 31
0.0
  0
LINE
  5
399
330
392
100
AcDbEntity
  8
0
 62
     2
100
AcDbLine
 10
4143.51839910904
 20
-2297.88355347488
 30
0.0
 11
4144.188272090118
 21
-2300.38355347488
 31
0.0
  0
LINE
  5
39A
330
392
100
AcDbEntity
  8
0
 62
     2
100
AcDbLine
 10
4143.51839910904
 20
-2297.88355347488
 30
0.0
 11
4142.848526127962
 21
-2300.38355347488
 31
0.0
  0
LINE
  5
39B
330
392
100
AcDbEntity
  8
0
 62
     2
100
AcDbLine
 10
4143.51839910904
 20
-2292.88355347488
 30
0.0
 11
4142.848526127962
 21
-2290.38355347488
 31
0.0
  0
LINE
  5
39C
330
392
100
AcDbEntity
  8
0
 62
     2
100
AcDbLine
 10
4143.51839910904
 20
-2292.88355347488
 30
0.0
 11
4144.188272090118
 21
-2290.38355347488
 31
0.0
  0
MTEXT
  5
39D
330
392
100
AcDbEntity
  8
0
 62
     3
100
AcDbMText
 10
4142.518399109039
 20
-2296.11855347488
 30
0.0
 40
3.5
 41
0.0
 71
     7
 72
     1
  1
5
  7
CONVERTER_4
 11
0.0
 21
1.0
 31
0.0
 73
     1
 44
1.0
1001
ACAD
1000
MTEXTBEGIN
1070
    73
1070
     1
1070
    44
1040
1.0
1070
    74
1070
     0
1000
MTEXTEND
  0
ENDBLK
  5
39E
330
392
100
AcDbEntity
  8
0
100
AcDbBlockEnd
  0
ENDSEC
  0
SECTION
  2
ENTITIES
  0
ARC
  5
267
330
A
100
AcDbEntity
  8
1
  6
Continuous
 62
     7
100
AcDbCircle
 10
3994.399876234751
 20
-2299.934515715242
 30
0.0
 40
0.5
100
AcDbArc
 50
-90.0
 51
0.0
  0
ARC
  5
266
330
A
100
AcDbEntity
  8
1
  6
Continuous
 62
     7
100
AcDbCircle
 10
3994.399876234751
 20
-2282.934515715242
 30
0.0
 40
0.5
100
AcDbArc
 50
0.0
 51
90.0
  0
ARC
  5
265
330
A
100
AcDbEntity
  8
1
  6
Continuous
 62
     7
100
AcDbCircle
 10
3976.399876234751
 20
-2282.934515715242
 30
0.0
 40
0.5
100
AcDbArc
 50
90.0
 51
180.0
  0
ARC
  5
264
330
A
100
AcDbEntity
  8
1
  6
Continuous
 62
     7
100
AcDbCircle
 10
3976.399876234751
 20
-2299.934515715242
 30
0.0
 40
0.5
100
AcDbArc
 50
180.0
 51
-90.0
  0
ARC
  5
25E
330
A
100
AcDbEntity
  8
1
  6
Continuous
 62
     7
100
AcDbCircle
 10
3949.022794941902
 20
-2283.434515715242
 30
0.0
 40
1.0
100
AcDbArc
 50
0.0
 51
90.0
  0
ARC
  5
25D
330
A
100
AcDbEntity
  8
1
  6
Continuous
 62
     7
100
AcDbCircle
 10
3949.222794941901
 20
-2299.934515715242
 30
0.0
 40
0.5
100
AcDbArc
 50
-90.0
 51
0.0
  0
ARC
  5
25B
330
A
100
AcDbEntity
  8
1
  6
Continuous
 62
     7
100
AcDbCircle
 10
3927.4227949419
 20
-2283.434515715242
 30
0.0
 40
1.0
100
AcDbArc
 50
90.0
 51
180.0
  0
ARC
  5
25A
330
A
100
AcDbEntity
  8
1
  6
Continuous
 62
     7
100
AcDbCircle
 10
3927.222794941901
 20
-2299.934515715242
 30
0.0
 40
0.5
100
AcDbArc
 50
180.0
 51
-90.0
  0
ARC
  5
247
330
A
100
AcDbEntity
  8
1
  6
Continuous
 62
     7
100
AcDbCircle
 10
3926.9227949419
 20
-2354.037020107491
 30
0.0
 40
0.5
100
AcDbArc
 50
90.0
 51
180.0
  0
ARC
  5
246
330
A
100
AcDbEntity
  8
1
  6
Continuous
 62
     7
100
AcDbCircle
 10
3949.522794941901
 20
-2354.037020107491
 30
0.0
 40
0.5
100
AcDbArc
 50
0.0
 51
90.0
  0
ARC
  5
245
330
A
100
AcDbEntity
  8
1
  6
Continuous
 62
     7
100
AcDbCircle
 10
3926.9227949419
 20
-2372.037020107491
 30
0.0
 40
0.5
100
AcDbArc
 50
180.0
 51
-90.0
  0
ARC
  5
244
330
A
100
AcDbEntity
  8
1
  6
Continuous
 62
     7
100
AcDbCircle
 10
3949.522794941901
 20
-2372.037020107491
 30
0.0
 40
0.5
100
AcDbArc
 50
-90.0
 51
0.0
  0
CIRCLE
  5
241
330
A
100
AcDbEntity
  8
1
  6
Continuous
 62
     7
100
AcDbCircle
 10
3938.2227949419
 20
-2363.037020107491
 30
0.0
 40
5.25
  0
CIRCLE
  5
240
330
A
100
AcDbEntity
  8
1
  6
Continuous
 62
     7
100
AcDbCircle
 10
3938.2227949419
 20
-2363.037020107491
 30
0.0
 40
5.5
  0
LINE
  5
1E3
330
A
100
AcDbEntity
  8
1
  6
Continuous
 62
     7
100
AcDbLine
 10
3979.899876234751
 20
-2282.434515715242
 30
0.0
 11
3994.399876234751
 21
-2282.434515715242
 31
0.0
  0
LINE
  5
1E1
330
A
100
AcDbEntity
  8
1
  6
Continuous
 62
     7
100
AcDbLine
 10
3977.899876234751
 20
-2282.434515715242
 30
0.0
 11
3979.899876234751
 21
-2282.434515715242
 31
0.0
  0
LINE
  5
1DF
330
A
100
AcDbEntity
  8
1
  6
Continuous
 62
     7
100
AcDbLine
 10
3994.899876234751
 20
-2297.434515715242
 30
0.0
 11
3994.899876234751
 21
-2299.934515715242
 31
0.0
  0
LINE
  5
1DE
330
A
100
AcDbEntity
  8
1
  6
Continuous
 62
     7
100
AcDbLine
 10
3975.899876234751
 20
-2297.434515715242
 30
0.0
 11
3975.899876234751
 21
-2299.934515715242
 31
0.0
  0
LINE
  5
1DC
330
A
100
AcDbEntity
  8
1
  6
Continuous
 62
     7
100
AcDbLine
 10
3994.899876234751
 20
-2282.934515715242
 30
0.0
 11
3994.899876234751
 21
-2297.434515715242
 31
0.0
  0
LINE
  5
1DB
330
A
100
AcDbEntity
  8
1
  6
Continuous
 62
     7
100
AcDbLine
 10
3975.899876234751
 20
-2282.934515715242
 30
0.0
 11
3975.899876234751
 21
-2297.434515715242
 31
0.0
  0
LINE
  5
1DA
330
A
100
AcDbEntity
  8
1
  6
Continuous
 62
     7
100
AcDbLine
 10
3990.899876234752
 20
-2300.434515715242
 30
0.0
 11
3994.399876234751
 21
-2300.434515715242
 31
0.0
  0
LINE
  5
1D9
330
A
100
AcDbEntity
  8
1
  6
Continuous
 62
     7
100
AcDbLine
 10
3976.399876234751
 20
-2300.434515715242
 30
0.0
 11
3979.899876234751
 21
-2300.434515715242
 31
0.0
  0
LINE
  5
1D8
330
A
100
AcDbEntity
  8
1
  6
Continuous
 62
     7
100
AcDbLine
 10
3976.399876234751
 20
-2282.434515715242
 30
0.0
 11
3977.899876234751
 21
-2282.434515715242
 31
0.0
  0
LINE
  5
1BF
330
A
100
AcDbEntity
  8
1
  6
Continuous
 62
     7
100
AcDbLine
 10
3985.399876234751
 20
-2300.434515715242
 30
0.0
 11
3990.899876234752
 21
-2300.434515715242
 31
0.0
  0
LINE
  5
1BC
330
A
100
AcDbEntity
  8
1
  6
Continuous
 62
     7
100
AcDbLine
 10
3979.899876234751
 20
-2300.434515715242
 30
0.0
 11
3985.399876234751
 21
-2300.434515715242
 31
0.0
  0
LINE
  5
1B6
330
A
100
AcDbEntity
  8
1
  6
DASH_CENTER
 62
     2
100
AcDbLine
 10
3985.399876234751
 20
-2274.934515715242
 30
0.0
 11
3985.399876234751
 21
-2303.434515715242
 31
0.0
  0
LINE
  5
1B5
330
A
100
AcDbEntity
  8
1
  6
Continuous
 62
     2
100
AcDbLine
 10
3987.858610234751
 20
-2282.434515715242
 30
0.0
 11
3987.858610234751
 21
-2278.393249715241
 31
0.0
  0
LINE
  5
1B4
330
A
100
AcDbEntity
  8
1
  6
Continuous
 62
     2
100
AcDbLine
 10
3982.941142234751
 20
-2282.434515715242
 30
0.0
 11
3982.941142234751
 21
-2278.393249715241
 31
0.0
  0
LINE
  5
1B3
330
A
100
AcDbEntity
  8
1
  6
Continuous
 62
     7
100
AcDbLine
 10
3982.399876234751
 20
-2282.434515715242
 30
0.0
 11
3982.399876234751
 21
-2278.934515715242
 31
0.0
  0
LINE
  5
1B2
330
A
100
AcDbEntity
  8
1
  6
Continuous
 62
     7
100
AcDbLine
 10
3988.399876234751
 20
-2278.934515715242
 30
0.0
 11
3988.399876234751
 21
-2282.434515715242
 31
0.0
  0
LINE
  5
1B1
330
A
100
AcDbEntity
  8
1
  6
Continuous
 62
     7
100
AcDbLine
 10
3986.399876234751
 20
-2276.934515715242
 30
0.0
 11
3988.399876234751
 21
-2278.934515715242
 31
0.0
  0
LINE
  5
1B0
330
A
100
AcDbEntity
  8
1
  6
Continuous
 62
     7
100
AcDbLine
 10
3984.399876234751
 20
-2276.934515715242
 30
0.0
 11
3982.399876234751
 21
-2278.934515715242
 31
0.0
  0
LINE
  5
1AF
330
A
100
AcDbEntity
  8
1
  6
Continuous
 62
     7
100
AcDbLine
 10
3982.399876234751
 20
-2278.934515715242
 30
0.0
 11
3988.399876234751
 21
-2278.934515715242
 31
0.0
  0
LINE
  5
1AE
330
A
100
AcDbEntity
  8
1
  6
Continuous
 62
     7
100
AcDbLine
 10
3984.399876234751
 20
-2276.934515715242
 30
0.0
 11
3986.399876234751
 21
-2276.934515715242
 31
0.0
  0
LINE
  5
1AD
330
A
100
AcDbEntity
  8
1
  6
Continuous
 62
     2
100
AcDbLine
 10
3940.6815289419
 20
-2282.434515715242
 30
0.0
 11
3940.6815289419
 21
-2278.393249715241
 31
0.0
  0
LINE
  5
1AC
330
A
100
AcDbEntity
  8
1
  6
Continuous
 62
     2
100
AcDbLine
 10
3935.7640609419
 20
-2282.434515715242
 30
0.0
 11
3935.7640609419
 21
-2278.393249715241
 31
0.0
  0
LINE
  5
1A9
330
A
100
AcDbEntity
  8
1
  6
Continuous
 62
     7
100
AcDbLine
 10
3941.2227949419
 20
-2282.434515715242
 30
0.0
 11
3943.222794941902
 21
-2282.434515715242
 31
0.0
  0
LINE
  5
1A8
330
A
100
AcDbEntity
  8
1
  6
Continuous
 62
     7
100
AcDbLine
 10
3935.2227949419
 20
-2282.434515715242
 30
0.0
 11
3938.2227949419
 21
-2282.434515715242
 31
0.0
  0
LINE
  5
1A4
330
A
100
AcDbEntity
  8
1
  6
Continuous
 62
     7
100
AcDbLine
 10
3935.2227949419
 20
-2282.434515715242
 30
0.0
 11
3935.2227949419
 21
-2278.934515715242
 31
0.0
  0
LINE
  5
19F
330
A
100
AcDbEntity
  8
1
  6
Continuous
 62
     7
100
AcDbLine
 10
3941.2227949419
 20
-2278.934515715242
 30
0.0
 11
3941.2227949419
 21
-2282.434515715242
 31
0.0
  0
LINE
  5
19E
330
A
100
AcDbEntity
  8
1
  6
Continuous
 62
     7
100
AcDbLine
 10
3939.2227949419
 20
-2276.934515715242
 30
0.0
 11
3941.2227949419
 21
-2278.934515715242
 31
0.0
  0
LINE
  5
19D
330
A
100
AcDbEntity
  8
1
  6
Continuous
 62
     7
100
AcDbLine
 10
3937.222794941901
 20
-2276.934515715242
 30
0.0
 11
3935.2227949419
 21
-2278.934515715242
 31
0.0
  0
LINE
  5
19C
330
A
100
AcDbEntity
  8
1
  6
Continuous
 62
     7
100
AcDbLine
 10
3935.2227949419
 20
-2278.934515715242
 30
0.0
 11
3941.2227949419
 21
-2278.934515715242
 31
0.0
  0
LINE
  5
19B
330
A
100
AcDbEntity
  8
1
  6
Continuous
 62
     7
100
AcDbLine
 10
3937.222794941901
 20
-2276.934515715242
 30
0.0
 11
3939.2227949419
 21
-2276.934515715242
 31
0.0
  0
LINE
  5
187
330
A
100
AcDbEntity
  8
1
  6
Continuous
 62
     7
100
AcDbLine
 10
3938.2227949419
 20
-2300.434515715242
 30
0.0
 11
3943.722794941901
 21
-2300.434515715242
 31
0.0
  0
LINE
  5
184
330
A
100
AcDbEntity
  8
1
  6
Continuous
 62
     7
100
AcDbLine
 10
3938.2227949419
 20
-2282.434515715242
 30
0.0
 11
3941.2227949419
 21
-2282.434515715242
 31
0.0
  0
LINE
  5
181
330
A
100
AcDbEntity
  8
1
  6
Continuous
 62
     7
100
AcDbLine
 10
3943.222794941902
 20
-2282.434515715242
 30
0.0
 11
3948.022794941902
 21
-2282.434515715242
 31
0.0
  0
LINE
  5
17F
330
A
100
AcDbEntity
  8
1
  6
Continuous
 62
     7
100
AcDbLine
 10
3949.722794941902
 20
-2297.434515715242
 30
0.0
 11
3950.022794941901
 21
-2297.434515715242
 31
0.0
  0
LINE
  5
17E
330
A
100
AcDbEntity
  8
1
  6
Continuous
 62
     7
100
AcDbLine
 10
3943.722794941901
 20
-2300.434515715242
 30
0.0
 11
3949.222794941901
 21
-2300.434515715242
 31
0.0
  0
LINE
  5
17D
330
A
100
AcDbEntity
  8
1
  6
Continuous
 62
     7
100
AcDbLine
 10
3949.722794941902
 20
-2299.934515715242
 30
0.0
 11
3949.722794941902
 21
-2297.434515715242
 31
0.0
  0
LINE
  5
17C
330
A
100
AcDbEntity
  8
1
  6
Continuous
 62
     7
100
AcDbLine
 10
3950.022794941901
 20
-2297.434515715242
 30
0.0
 11
3950.022794941901
 21
-2283.434515715242
 31
0.0
  0
LINE
  5
17B
330
A
100
AcDbEntity
  8
1
  6
Continuous
 62
     7
100
AcDbLine
 10
3948.022794941902
 20
-2282.434515715242
 30
0.0
 11
3949.022794941902
 21
-2282.434515715242
 31
0.0
  0
LINE
  5
17A
330
A
100
AcDbEntity
  8
1
  6
DASH_CENTER
 62
     2
100
AcDbLine
 10
3938.2227949419
 20
-2274.934515715242
 30
0.0
 11
3938.2227949419
 21
-2303.434515715242
 31
0.0
  0
LINE
  5
178
330
A
100
AcDbEntity
  8
1
  6
Continuous
 62
     7
100
AcDbLine
 10
3932.722794941901
 20
-2300.434515715242
 30
0.0
 11
3938.2227949419
 21
-2300.434515715242
 31
0.0
  0
LINE
  5
175
330
A
100
AcDbEntity
  8
1
  6
Continuous
 62
     7
100
AcDbLine
 10
3933.2227949419
 20
-2282.434515715242
 30
0.0
 11
3935.2227949419
 21
-2282.434515715242
 31
0.0
  0
LINE
  5
172
330
A
100
AcDbEntity
  8
1
  6
Continuous
 62
     7
100
AcDbLine
 10
3928.4227949419
 20
-2282.434515715242
 30
0.0
 11
3933.2227949419
 21
-2282.434515715242
 31
0.0
  0
LINE
  5
170
330
A
100
AcDbEntity
  8
1
  6
Continuous
 62
     7
100
AcDbLine
 10
3926.4227949419
 20
-2297.434515715242
 30
0.0
 11
3926.7227949419
 21
-2297.434515715242
 31
0.0
  0
LINE
  5
16F
330
A
100
AcDbEntity
  8
1
  6
Continuous
 62
     7
100
AcDbLine
 10
3927.222794941901
 20
-2300.434515715242
 30
0.0
 11
3932.722794941901
 21
-2300.434515715242
 31
0.0
  0
LINE
  5
16E
330
A
100
AcDbEntity
  8
1
  6
Continuous
 62
     7
100
AcDbLine
 10
3926.7227949419
 20
-2297.434515715242
 30
0.0
 11
3926.7227949419
 21
-2299.934515715242
 31
0.0
  0
LINE
  5
16D
330
A
100
AcDbEntity
  8
1
  6
Continuous
 62
     7
100
AcDbLine
 10
3926.4227949419
 20
-2283.434515715242
 30
0.0
 11
3926.4227949419
 21
-2297.434515715242
 31
0.0
  0
LINE
  5
16C
330
A
100
AcDbEntity
  8
1
  6
Continuous
 62
     7
100
AcDbLine
 10
3927.4227949419
 20
-2282.434515715242
 30
0.0
 11
3928.4227949419
 21
-2282.434515715242
 31
0.0
  0
LINE
  5
145
330
A
100
AcDbEntity
  8
1
  6
Continuous
 62
     7
100
AcDbLine
 10
3950.022794941901
 20
-2372.037020107491
 30
0.0
 11
3950.022794941901
 21
-2354.037020107491
 31
0.0
  0
LINE
  5
144
330
A
100
AcDbEntity
  8
1
  6
Continuous
 62
     7
100
AcDbLine
 10
3926.4227949419
 20
-2354.037020107491
 30
0.0
 11
3926.4227949419
 21
-2372.037020107491
 31
0.0
  0
LINE
  5
143
330
A
100
AcDbEntity
  8
1
  6
Continuous
 62
     7
100
AcDbLine
 10
3949.522794941901
 20
-2353.537020107491
 30
0.0
 11
3926.9227949419
 21
-2353.537020107491
 31
0.0
  0
LINE
  5
142
330
A
100
AcDbEntity
  8
1
  6
Continuous
 62
     7
100
AcDbLine
 10
3949.722794941902
 20
-2372.537020107491
 30
0.0
 11
3950.022794941901
 21
-2372.537020107491
 31
0.0
  0
LINE
  5
141
330
A
100
AcDbEntity
  8
1
  6
Continuous
 62
     7
100
AcDbLine
 10
3926.9227949419
 20
-2372.537020107491
 30
0.0
 11
3949.522794941901
 21
-2372.537020107491
 31
0.0
  0
LINE
  5
140
330
A
100
AcDbEntity
  8
1
  6
DASH_CENTER
 62
     2
100
AcDbLine
 10
3931.6227949419
 20
-2363.037020107491
 30
0.0
 11
3944.8227949419
 21
-2363.037020107491
 31
0.0
  0
LINE
  5
13F
330
A
100
AcDbEntity
  8
1
  6
DASH_CENTER
 62
     2
100
AcDbLine
 10
3938.2227949419
 20
-2369.63702010749
 30
0.0
 11
3938.2227949419
 21
-2356.43702010749
 31
0.0
  0
LINE
  5
13E
330
A
100
AcDbEntity
  8
1
  6
Continuous
 62
     7
100
AcDbLine
 10
3926.7227949419
 20
-2353.578762537995
 30
0.0
 11
3926.7227949419
 21
-2372.495277676986
 31
0.0
  0
LINE
  5
13D
330
A
100
AcDbEntity
  8
1
  6
Continuous
 62
     7
100
AcDbLine
 10
3949.722794941902
 20
-2353.578762537995
 30
0.0
 11
3949.722794941902
 21
-2372.495277676986
 31
0.0
  0
LINE
  5
13C
330
A
100
AcDbEntity
  8
1
  6
Continuous
 62
     7
100
AcDbLine
 10
3949.722794941902
 20
-2372.495277676986
 30
0.0
 11
3949.722794941902
 21
-2372.537020107491
 31
0.0
  0
INSERT
  5
2E
330
A
100
AcDbEntity
  8
1
100
AcDbBlockReference
  2
_______T______________6X10
 10
3934.726720860187
 20
-2366.533094189203
 30
0.0
  0
ENDSEC
  0
SECTION
  2
OBJECTS
  0
DICTIONARY
  5
19
330
0
100
AcDbDictionary
281
     1
  3
ACAD_CIP_PREVIOUS_PRODUCT_INFO
350
3FA
  3
ACAD_COLOR
350
3DC
  3
ACAD_GROUP
350
1A
  3
ACAD_LAYOUT
350
3F3
  3
ACAD_MATERIAL
350
3AA
  3
ACAD_MLEADERSTYLE
350
3F1
  3
ACAD_MLINESTYLE
350
1B
  3
ACAD_PLOTSETTINGS
350
3F4
  3
ACAD_PLOTSTYLENAME
350
3A8
  3
ACAD_SCALELIST
350
3DF
  3
ACAD_TABLESTYLE
350
3DD
  3
ACAD_VISUALSTYLE
350
3C3
  3
ACDB_RECOMPOSE_DATA
350
410
  3
AcDbVariableDictionary
350
405
  3
ASE_INDEX_DICTIONARY
350
402
  3
DWGPROPS
350
411
  0
DICTIONARY
  5
3FD
330
14
100
AcDbDictionary
280
     1
281
     1
  3
ADSK_XREC_LAYER_RECONCILED
360
3FE
  0
DICTIONARY
  5
3FF
330
24
100
AcDbDictionary
280
     1
281
     1
  3
ADSK_XREC_LAYER_RECONCILED
360
400
  0
DICTIONARY
  5
44A
330
134
100
AcDbDictionary
280
     1
281
     1
  3
ACAD_MTEXT_RT
360
44B
  0
DICTIONARY
  5
448
330
133
100
AcDbDictionary
280
     1
281
     1
  3
ACAD_MTEXT_RT
360
449
  0
DICTIONARY
  5
446
330
12F
100
AcDbDictionary
280
     1
281
     1
  3
ACAD_MTEXT_RT
360
447
  0
DICTIONARY
  5
444
330
12E
100
AcDbDictionary
280
     1
281
     1
  3
ACAD_MTEXT_RT
360
445
  0
DICTIONARY
  5
442
330
12D
100
AcDbDictionary
280
     1
281
     1
  3
ACAD_MTEXT_RT
360
443
  0
DICTIONARY
  5
440
330
12A
100
AcDbDictionary
280
     1
281
     1
  3
ACAD_MTEXT_RT
360
441
  0
DICTIONARY
  5
43E
330
129
100
AcDbDictionary
280
     1
281
     1
  3
ACAD_MTEXT_RT
360
43F
  0
DICTIONARY
  5
43C
330
128
100
AcDbDictionary
280
     1
281
     1
  3
ACAD_MTEXT_RT
360
43D
  0
DICTIONARY
  5
43A
330
127
100
AcDbDictionary
280
     1
281
     1
  3
ACAD_MTEXT_RT
360
43B
  0
DICTIONARY
  5
438
330
126
100
AcDbDictionary
280
     1
281
     1
  3
ACAD_MTEXT_RT
360
439
  0
DICTIONARY
  5
436
330
125
100
AcDbDictionary
280
     1
281
     1
  3
ACAD_MTEXT_RT
360
437
  0
DICTIONARY
  5
434
330
124
100
AcDbDictionary
280
     1
281
     1
  3
ACAD_MTEXT_RT
360
435
  0
DICTIONARY
  5
432
330
123
100
AcDbDictionary
280
     1
281
     1
  3
ACAD_MTEXT_RT
360
433
  0
DICTIONARY
  5
430
330
122
100
AcDbDictionary
280
     1
281
     1
  3
ACAD_MTEXT_RT
360
431
  0
DICTIONARY
  5
42E
330
121
100
AcDbDictionary
280
     1
281
     1
  3
ACAD_MTEXT_RT
360
42F
  0
DICTIONARY
  5
42C
330
120
100
AcDbDictionary
280
     1
281
     1
  3
ACAD_MTEXT_RT
360
42D
  0
DICTIONARY
  5
42A
330
11F
100
AcDbDictionary
280
     1
281
     1
  3
ACAD_MTEXT_RT
360
42B
  0
DICTIONARY
  5
428
330
11E
100
AcDbDictionary
280
     1
281
     1
  3
ACAD_MTEXT_RT
360
429
  0
DICTIONARY
  5
426
330
11D
100
AcDbDictionary
280
     1
281
     1
  3
ACAD_MTEXT_RT
360
427
  0
DICTIONARY
  5
424
330
11C
100
AcDbDictionary
280
     1
281
     1
  3
ACAD_MTEXT_RT
360
425
  0
DICTIONARY
  5
422
330
11B
100
AcDbDictionary
280
     1
281
     1
  3
ACAD_MTEXT_RT
360
423
  0
DICTIONARY
  5
420
330
118
100
AcDbDictionary
280
     1
281
     1
  3
ACAD_MTEXT_RT
360
421
  0
DICTIONARY
  5
41E
330
113
100
AcDbDictionary
280
     1
281
     1
  3
ACAD_MTEXT_RT
360
41F
  0
DICTIONARY
  5
41C
330
112
100
AcDbDictionary
280
     1
281
     1
  3
ACAD_MTEXT_RT
360
41D
  0
DICTIONARY
  5
41A
330
10E
100
AcDbDictionary
280
     1
281
     1
  3
ACAD_MTEXT_RT
360
41B
  0
DICTIONARY
  5
418
330
10D
100
AcDbDictionary
280
     1
281
     1
  3
ACAD_MTEXT_RT
360
419
  0
DICTIONARY
  5
416
330
10C
100
AcDbDictionary
280
     1
281
     1
  3
ACAD_MTEXT_RT
360
417
  0
DICTIONARY
  5
414
330
10B
100
AcDbDictionary
280
     1
281
     1
  3
ACAD_MTEXT_RT
360
415
  0
DICTIONARY
  5
412
330
10A
100
AcDbDictionary
280
     1
281
     1
  3
ACAD_MTEXT_RT
360
413
  0
DICTIONARY
  5
44C
330
2E8
100
AcDbDictionary
280
     1
281
     1
  3
ACAD_MTEXT_RT
360
44D
  0
XRECORD
  5
3FA
102
{ACAD_REACTORS
330
19
102
}
330
19
100
AcDbXrecord
280
     1
300
ACD
300
2012
300
ACD_F_S
  0
DICTIONARY
  5
3DC
102
{ACAD_REACTORS
330
19
102
}
330
19
100
AcDbDictionary
281
     1
  0
DICTIONARY
  5
1A
102
{ACAD_REACTORS
330
19
102
}
330
19
100
AcDbDictionary
281
     1
  0
DICTIONARY
  5
3F3
102
{ACAD_REACTORS
330
19
102
}
330
19
100
AcDbDictionary
281
     1
  3
Model
350
3F5
  3
レイアウト1
350
3F6
  0
DICTIONARY
  5
3AA
102
{ACAD_REACTORS
330
19
102
}
330
19
100
AcDbDictionary
281
     1
  3
ByBlock
350
3B3
  3
ByLayer
350
3AB
  3
Global
350
3BB
  0
DICTIONARY
  5
3F1
102
{ACAD_REACTORS
330
19
102
}
330
19
100
AcDbDictionary
281
     1
  3
Standard
350
3F2
  0
DICTIONARY
  5
1B
102
{ACAD_REACTORS
330
19
102
}
330
19
100
AcDbDictionary
281
     1
  3
STANDARD
350
1C
  0
DICTIONARY
  5
3F4
102
{ACAD_REACTORS
330
19
102
}
330
19
100
AcDbDictionary
281
     1
  0
ACDBDICTIONARYWDFLT
  5
3A8
102
{ACAD_REACTORS
330
19
102
}
330
19
100
AcDbDictionary
281
     1
  3
Normal
350
3A9
100
AcDbDictionaryWithDefault
340
3A9
  0
DICTIONARY
  5
3DF
102
{ACAD_REACTORS
330
19
102
}
330
19
100
AcDbDictionary
281
     1
  3
A0
350
3E0
  3
A1
350
3E1
  3
A2
350
3E2
  3
A3
350
3E3
  3
A4
350
3E4
  3
A5
350
3E5
  3
A6
350
3E6
  3
A7
350
3E7
  3
A8
350
3E8
  3
A9
350
3E9
  3
B0
350
3EA
  3
B1
350
3EB
  3
B2
350
3EC
  3
B3
350
3ED
  3
B4
350
3EE
  3
B5
350
3EF
  3
B6
350
3F0
  0
DICTIONARY
  5
3DD
102
{ACAD_REACTORS
330
19
102
}
330
19
100
AcDbDictionary
281
     1
  3
Standard
350
3DE
  0
DICTIONARY
  5
3C3
102
{ACAD_REACTORS
330
19
102
}
330
19
100
AcDbDictionary
281
     1
  3
2dWireframe
350
3C9
  3
Basic
350
3C8
  3
Brighten
350
3CF
  3
ColorChange
350
3D3
  3
Conceptual
350
3CC
  3
Dim
350
3CE
  3
EdgeColorOff
350
3DB
  3
Facepattern
350
3D2
  3
Flat
350
3C4
  3
FlatWithEdges
350
3C5
  3
Gouraud
350
3C6
  3
GouraudWithEdges
350
3C7
  3
Hidden
350
3CB
  3
JitterOff
350
3D9
  3
Linepattern
350
3D1
  3
OverhangOff
350
3DA
  3
Realistic
350
3CD
  3
Shaded
350
3D8
  3
Shaded with edges
350
3D7
  3
Shades of Gray
350
3D4
  3
Sketchy
350
3D5
  3
Thicken
350
3D0
  3
Wireframe
350
3CA
  3
X-Ray
350
3D6
  0
XRECORD
  5
410
102
{ACAD_REACTORS
330
19
102
}
330
19
100
AcDbXrecord
280
     1
 90
        1
330
3DE
  0
DICTIONARY
  5
405
102
{ACAD_REACTORS
330
19
102
}
330
19
100
AcDbDictionary
281
     1
  3
CANNOSCALE
350
408
  3
CMLEADERSTYLE
350
407
  3
CTABLESTYLE
350
406
  3
DIMASSOC
350
40B
  3
INDEXCTL
350
40A
  3
SORTENTS
350
409
  3
XCLIPFRAME
350
40C
  0
DICTIONARY
  5
402
102
{ACAD_REACTORS
330
19
102
}
330
19
100
AcDbDictionary
281
     1
  3
ASEBlockHierarchyIndexRecord
350
404
1001
DCO15
1040
1881998794.521
  0
XRECORD
  5
411
102
{ACAD_REACTORS
330
19
102
}
330
19
100
AcDbXrecord
280
     1
  1
DWGPROPS COOKIE
  2

  3

  4

  6

  7

  8
0035sekine
  9

300
=
301
=
302
=
303
=
304
=
305
=
306
=
307
=
308
=
309
=
 40
0.0015418981481481
 41
2305814.417110764
 42
2457585.605306956
  1

 90
        0
  0
XRECORD
  5
3FE
102
{ACAD_REACTORS
330
3FD
102
}
330
3FD
100
AcDbXrecord
280
     1
290
     1
  0
XRECORD
  5
400
102
{ACAD_REACTORS
330
3FF
102
}
330
3FF
100
AcDbXrecord
280
     1
290
     1
  0
XRECORD
  5
44B
102
{ACAD_REACTORS
330
44A
102
}
330
44A
100
AcDbXrecord
280
     1
 40
18901.0
  1
\U+201Af\U+201Aa\U+0090F
  0
XRECORD
  5
449
102
{ACAD_REACTORS
330
448
102
}
330
448
100
AcDbXrecord
280
     1
 40
45028.0
  1
\U+0192`\U+0192\U+2021\U+0192R\U+0090F
  0
XRECORD
  5
447
102
{ACAD_REACTORS
330
446
102
}
330
446
100
AcDbXrecord
280
     1
 40
324474.0
  1
\U+201AU\U+201AU\U+0192i\U+0192C\U+0192\U+008D\U+0192\U+201C\U+2022\U+00C0\U+008D\U+2021\U+008D\U+00DF
  0
XRECORD
  5
445
102
{ACAD_REACTORS
330
444
102
}
330
444
100
AcDbXrecord
280
     1
 40
165303.0
  1
\U+0081{\U+201A\U+00E0\U+201A\U+00E6\U+008F~\U+201A\U+00F9\U+201A\U+00D1
  0
XRECORD
  5
443
102
{ACAD_REACTORS
330
442
102
}
330
442
100
AcDbXrecord
280
     1
 40
19150.0
  1
\U+00B2{   \U+2018\U+00E4
  0
XRECORD
  5
441
102
{ACAD_REACTORS
330
440
102
}
330
440
100
AcDbXrecord
280
     1
 40
18800.0
  1
\U+2022i\P\U+00B2\U+00A5
  0
XRECORD
  5
43F
102
{ACAD_REACTORS
330
43E
102
}
330
43E
100
AcDbXrecord
280
     1
 40
18980.0
  1
\U+0090}\P\U+00B2\U+00A5
  0
XRECORD
  5
43D
102
{ACAD_REACTORS
330
43C
102
}
330
43C
100
AcDbXrecord
280
     1
 40
19134.0
  1
\U+0090}\P\U+201D\U+00E5
  0
XRECORD
  5
43B
102
{ACAD_REACTORS
330
43A
102
}
330
43A
100
AcDbXrecord
280
     1
 40
16741.0
  1
\U+2022i \U+201D\U+00E5
  0
XRECORD
  5
439
102
{ACAD_REACTORS
330
438
102
}
330
438
100
AcDbXrecord
280
     1
 40
25568.0
  1
\U+2022i        \U+00B2\U+00A5
  0
XRECORD
  5
437
102
{ACAD_REACTORS
330
436
102
}
330
436
100
AcDbXrecord
280
     1
 40
29091.0
  1
\U+008D\U+00DF   \U+017D\U+00A2
  0
XRECORD
  5
435
102
{ACAD_REACTORS
330
434
102
}
330
434
100
AcDbXrecord
280
     1
 40
13191.0
  1
\U+0090\U+201D %%d%%d
  0
XRECORD
  5
433
102
{ACAD_REACTORS
330
432
102
}
330
432
100
AcDbXrecord
280
     1
 40
53004.0
  1
\U+017Dd   \U+008F\U+00D0   \U+201A\U+00AF
  0
XRECORD
  5
431
102
{ACAD_REACTORS
330
430
102
}
330
430
100
AcDbXrecord
280
     1
 40
18923.0
  1
\U+2039L   \U+017D\U+00B2
  0
XRECORD
  5
42F
102
{ACAD_REACTORS
330
42E
102
}
330
42E
100
AcDbXrecord
280
     1
 40
17447.0
  1
\U+008F\U+00B0  \U+201DF
  0
XRECORD
  5
42D
102
{ACAD_REACTORS
330
42C
102
}
330
42C
100
AcDbXrecord
280
     1
 40
18174.0
  1
\U+0152\U+0081  \U+0090}
  0
XRECORD
  5
42B
102
{ACAD_REACTORS
330
42A
102
}
330
42A
100
AcDbXrecord
280
     1
 40
17643.0
  1
\U+2019S  \U+201C\U+00B2
  0
XRECORD
  5
429
102
{ACAD_REACTORS
330
428
102
}
330
428
100
AcDbXrecord
280
     1
 40
16619.0
  1
\U+017D\U+00D6\U+201Cx
  0
XRECORD
  5
427
102
{ACAD_REACTORS
330
426
102
}
330
426
100
AcDbXrecord
280
     1
 40
391180.0
  1
\U+008D\U+201A\U+2039\U+00C7\U+2039\U+00C1\U+2022\U+00B4\U+0160\U+201D\U+017D\U+00DB\U+2030\U+00FF\U+017D\U+00C5
  0
XRECORD
  5
425
102
{ACAD_REACTORS
330
424
102
}
330
424
100
AcDbXrecord
280
     1
 40
15843.0
  1
\U+00B2{\U+017D\U+00C5
  0
XRECORD
  5
423
102
{ACAD_REACTORS
330
422
102
}
330
422
100
AcDbXrecord
280
     1
 40
274718.0
  1
\U+201C\U+0152\U+2039\U+20AC\U+201Cs\U+2018\U+00F0\U+201C\U+0152\U+2039\U+00CC\U+201C*\U+2019J
  0
XRECORD
  5
421
102
{ACAD_REACTORS
330
420
102
}
330
420
100
AcDbXrecord
280
     1
 40
6388.0
  1
\U+0081\U+00CF
  0
XRECORD
  5
41F
102
{ACAD_REACTORS
330
41E
102
}
330
41E
100
AcDbXrecord
280
     1
 40
558521.0
  1
\U+201A\U+2021\U+201A\U+201E\U+201A\U+2020\U+201A\U+201E\U+0081|\U+201A\U+0081\U+201A\U+201E\U+201AU\U+0081|\U+201A`\U+201AO\U+201AV
  0
XRECORD
  5
41D
102
{ACAD_REACTORS
330
41C
102
}
330
41C
100
AcDbXrecord
280
     1
 40
23171.0
  1
\U+2018g%%d\U+00CF\U+0090}
  0
XRECORD
  5
41B
102
{ACAD_REACTORS
330
41A
102
}
330
41A
100
AcDbXrecord
280
     1
 40
18622.0
  1
\U+201AP\U+0081F\U+201AP
  0
XRECORD
  5
419
102
{ACAD_REACTORS
330
418
102
}
330
418
100
AcDbXrecord
280
     1
 40
16080.0
  1
\U+0160\U+00F8\U+008D^ 
  0
XRECORD
  5
417
102
{ACAD_REACTORS
330
416
102
}
330
416
100
AcDbXrecord
280
     1
 40
23804.0
  1
\U+2019\U+2020\U+201C\U+2021
  0
XRECORD
  5
415
102
{ACAD_REACTORS
330
414
102
}
330
414
100
AcDbXrecord
280
     1
 40
25044.0
  1
\U+02C6\U+00CF\U+008D\U+00E3
  0
XRECORD
  5
413
102
{ACAD_REACTORS
330
412
102
}
330
412
100
AcDbXrecord
280
     1
 40
103662.0
  1
\U+201A`\U+201Ae\U+201Ac\U+0081|\U+201AR\U+201AR\U+201AO
  0
XRECORD
  5
44D
102
{ACAD_REACTORS
330
44C
102
}
330
44C
100
AcDbXrecord
280
     1
 40
13118.0
  1
\U+0081i23.5\U+0081j
  0
LAYOUT
  5
3F5
102
{ACAD_XDICTIONARY
360
483
102
}
102
{ACAD_REACTORS
330
3F3
102
}
330
3F3
100
AcDbPlotSettings
  1

  2
\\asrv0030\DocuCentre 230 - 本社９階　開発部
  4

  6

 40
0.0
 41
0.0
 42
0.0
 43
0.0
 44
0.0
 45
0.0
 46
0.0
 47
0.0
 48
0.0
 49
0.0
140
0.0
141
0.0
142
1.0
143
1.0
 70
  1712
 72
     0
 73
     0
 74
     0
  7

 75
     0
147
1.0
148
0.0
149
0.0
100
AcDbLayout
  1
Model
 70
     1
 71
     0
 10
0.0
 20
0.0
 11
12.0
 21
9.0
 12
0.0
 22
0.0
 32
0.0
 14
0.0
 24
0.0
 34
0.0
 15
0.0
 25
0.0
 35
0.0
146
0.0
 13
0.0
 23
0.0
 33
0.0
 16
1.0
 26
0.0
 36
0.0
 17
0.0
 27
1.0
 37
0.0
 76
     0
330
A
331
15
  0
LAYOUT
  5
3F6
102
{ACAD_XDICTIONARY
360
485
102
}
102
{ACAD_REACTORS
330
3F3
102
}
330
3F3
100
AcDbPlotSettings
  1

  2
\\asrv0030\DocuCentre 230 - 本社９階　開発部
  4

  6

 40
0.0
 41
0.0
 42
0.0
 43
0.0
 44
0.0
 45
0.0
 46
0.0
 47
0.0
 48
0.0
 49
0.0
140
0.0
141
0.0
142
1.0
143
1.0
 70
   688
 72
     0
 73
     0
 74
     5
  7

 75
    16
147
1.0
148
0.0
149
0.0
100
AcDbLayout
  1
レイアウト1
 70
     0
 71
     1
 10
0.0
 20
0.0
 11
12.0
 21
9.0
 12
0.0
 22
0.0
 32
0.0
 14
1.000000000000000E+20
 24
1.000000000000000E+20
 34
1.000000000000000E+20
 15
-1.000000000000000E+20
 25
-1.000000000000000E+20
 35
-1.000000000000000E+20
146
0.0
 13
0.0
 23
0.0
 33
0.0
 16
1.0
 26
0.0
 36
0.0
 17
0.0
 27
1.0
 37
0.0
 76
     0
330
B
  0
MATERIAL
  5
3B3
102
{ACAD_XDICTIONARY
360
3B4
102
}
102
{ACAD_REACTORS
330
3AA
102
}
330
3AA
100
AcDbMaterial
  1
ByBlock
 72
     0
 43
0.0208333333333333
 43
0.0
 43
0.0
 43
0.0
 43
0.0
 43
0.0208333333333333
 43
0.0
 43
0.0
 43
0.0
 43
0.0
 43
1.0
 43
0.0
 43
0.0
 43
0.0
 43
0.0
 43
1.0
 77
     0
 47
0.0208333333333333
 47
0.0
 47
0.0
 47
0.0
 47
0.0
 47
0.0208333333333333
 47
0.0
 47
0.0
 47
0.0
 47
0.0
 47
1.0
 47
0.0
 47
0.0
 47
0.0
 47
0.0
 47
1.0
171
     0
 49
0.0208333333333333
 49
0.0
 49
0.0
 49
0.0
 49
0.0
 49
0.0208333333333333
 49
0.0
 49
0.0
 49
0.0
 49
0.0
 49
1.0
 49
0.0
 49
0.0
 49
0.0
 49
0.0
 49
1.0
175
     0
142
0.0208333333333333
142
0.0
142
0.0
142
0.0
142
0.0
142
0.0208333333333333
142
0.0
142
0.0
142
0.0
142
0.0
142
1.0
142
0.0
142
0.0
142
0.0
142
0.0
142
1.0
179
     0
144
0.0208333333333333
144
0.0
144
0.0
144
0.0
144
0.0
144
0.0208333333333333
144
0.0
144
0.0
144
0.0
144
0.0
144
1.0
144
0.0
144
0.0
144
0.0
144
0.0
144
1.0
147
0.0208333333333333
147
0.0
147
0.0
147
0.0
147
0.0
147
0.0208333333333333
147
0.0
147
0.0
147
0.0
147
0.0
147
1.0
147
0.0
147
0.0
147
0.0
147
0.0
147
1.0
  0
MATERIAL
  5
3AB
102
{ACAD_XDICTIONARY
360
3AC
102
}
102
{ACAD_REACTORS
330
3AA
102
}
330
3AA
100
AcDbMaterial
  1
ByLayer
 72
     0
 43
0.0208333333333333
 43
0.0
 43
0.0
 43
0.0
 43
0.0
 43
0.0208333333333333
 43
0.0
 43
0.0
 43
0.0
 43
0.0
 43
1.0
 43
0.0
 43
0.0
 43
0.0
 43
0.0
 43
1.0
 77
     0
 47
0.0208333333333333
 47
0.0
 47
0.0
 47
0.0
 47
0.0
 47
0.0208333333333333
 47
0.0
 47
0.0
 47
0.0
 47
0.0
 47
1.0
 47
0.0
 47
0.0
 47
0.0
 47
0.0
 47
1.0
171
     0
 49
0.0208333333333333
 49
0.0
 49
0.0
 49
0.0
 49
0.0
 49
0.0208333333333333
 49
0.0
 49
0.0
 49
0.0
 49
0.0
 49
1.0
 49
0.0
 49
0.0
 49
0.0
 49
0.0
 49
1.0
175
     0
142
0.0208333333333333
142
0.0
142
0.0
142
0.0
142
0.0
142
0.0208333333333333
142
0.0
142
0.0
142
0.0
142
0.0
142
1.0
142
0.0
142
0.0
142
0.0
142
0.0
142
1.0
179
     0
144
0.0208333333333333
144
0.0
144
0.0
144
0.0
144
0.0
144
0.0208333333333333
144
0.0
144
0.0
144
0.0
144
0.0
144
1.0
144
0.0
144
0.0
144
0.0
144
0.0
144
1.0
147
0.0208333333333333
147
0.0
147
0.0
147
0.0
147
0.0
147
0.0208333333333333
147
0.0
147
0.0
147
0.0
147
0.0
147
1.0
147
0.0
147
0.0
147
0.0
147
0.0
147
1.0
  0
MATERIAL
  5
3BB
102
{ACAD_XDICTIONARY
360
3BC
102
}
102
{ACAD_REACTORS
330
3AA
102
}
330
3AA
100
AcDbMaterial
  1
Global
 72
     0
 43
0.0208333333333333
 43
0.0
 43
0.0
 43
0.0
 43
0.0
 43
0.0208333333333333
 43
0.0
 43
0.0
 43
0.0
 43
0.0
 43
1.0
 43
0.0
 43
0.0
 43
0.0
 43
0.0
 43
1.0
 77
     0
 47
0.0208333333333333
 47
0.0
 47
0.0
 47
0.0
 47
0.0
 47
0.0208333333333333
 47
0.0
 47
0.0
 47
0.0
 47
0.0
 47
1.0
 47
0.0
 47
0.0
 47
0.0
 47
0.0
 47
1.0
171
     0
 49
0.0208333333333333
 49
0.0
 49
0.0
 49
0.0
 49
0.0
 49
0.0208333333333333
 49
0.0
 49
0.0
 49
0.0
 49
0.0
 49
1.0
 49
0.0
 49
0.0
 49
0.0
 49
0.0
 49
1.0
175
     0
142
0.0208333333333333
142
0.0
142
0.0
142
0.0
142
0.0
142
0.0208333333333333
142
0.0
142
0.0
142
0.0
142
0.0
142
1.0
142
0.0
142
0.0
142
0.0
142
0.0
142
1.0
179
     0
144
0.0208333333333333
144
0.0
144
0.0
144
0.0
144
0.0
144
0.0208333333333333
144
0.0
144
0.0
144
0.0
144
0.0
144
1.0
144
0.0
144
0.0
144
0.0
144
0.0
144
1.0
147
0.0208333333333333
147
0.0
147
0.0
147
0.0
147
0.0
147
0.0208333333333333
147
0.0
147
0.0
147
0.0
147
0.0
147
1.0
147
0.0
147
0.0
147
0.0
147
0.0
147
1.0
  0
MLEADERSTYLE
  5
3F2
102
{ACAD_REACTORS
330
3F1
102
}
330
3F1
100
AcDbMLeaderStyle
170
     2
171
     1
172
     0
 90
        2
 40
0.0
 41
0.0
173
     1
 91
-1056964608
340
11
 92
       -2
290
     1
 42
2.0
291
     1
 43
0.36
  3
Standard
 44
4.0
300

342
17
174
     1
178
     6
175
     1
176
     0
 93
-1056964608
 45
4.0
292
     0
297
     0
 46
4.0
 94
-1056964608
 47
1.0
 49
1.0
140
1.0
293
     1
141
0.0
294
     1
177
     0
142
1.0
295
     0
296
     0
143
0.125
1001
ACAD_MLEADERVER
1070
     2
  0
MLINESTYLE
  5
1C
102
{ACAD_REACTORS
330
1B
102
}
330
1B
100
AcDbMlineStyle
  2
STANDARD
 70
     0
  3

 62
     0
 51
90.0
 52
90.0
 71
     2
 49
0.5
 62
   256
  6
BYLAYER
 49
-0.5
 62
   256
  6
BYLAYER
  0
ACDBPLACEHOLDER
  5
3A9
102
{ACAD_REACTORS
330
3A8
102
}
330
3A8
  0
SCALE
  5
3E0
102
{ACAD_REACTORS
330
3DF
102
}
330
3DF
100
AcDbScale
 70
     0
300
1:1
140
1.0
141
1.0
290
     1
  0
SCALE
  5
3E1
102
{ACAD_REACTORS
330
3DF
102
}
330
3DF
100
AcDbScale
 70
     0
300
1:2
140
1.0
141
2.0
290
     0
  0
SCALE
  5
3E2
102
{ACAD_REACTORS
330
3DF
102
}
330
3DF
100
AcDbScale
 70
     0
300
1:4
140
1.0
141
4.0
290
     0
  0
SCALE
  5
3E3
102
{ACAD_REACTORS
330
3DF
102
}
330
3DF
100
AcDbScale
 70
     0
300
1:5
140
1.0
141
5.0
290
     0
  0
SCALE
  5
3E4
102
{ACAD_REACTORS
330
3DF
102
}
330
3DF
100
AcDbScale
 70
     0
300
1:8
140
1.0
141
8.0
290
     0
  0
SCALE
  5
3E5
102
{ACAD_REACTORS
330
3DF
102
}
330
3DF
100
AcDbScale
 70
     0
300
1:10
140
1.0
141
10.0
290
     0
  0
SCALE
  5
3E6
102
{ACAD_REACTORS
330
3DF
102
}
330
3DF
100
AcDbScale
 70
     0
300
1:16
140
1.0
141
16.0
290
     0
  0
SCALE
  5
3E7
102
{ACAD_REACTORS
330
3DF
102
}
330
3DF
100
AcDbScale
 70
     0
300
1:20
140
1.0
141
20.0
290
     0
  0
SCALE
  5
3E8
102
{ACAD_REACTORS
330
3DF
102
}
330
3DF
100
AcDbScale
 70
     0
300
1:30
140
1.0
141
30.0
290
     0
  0
SCALE
  5
3E9
102
{ACAD_REACTORS
330
3DF
102
}
330
3DF
100
AcDbScale
 70
     0
300
1:40
140
1.0
141
40.0
290
     0
  0
SCALE
  5
3EA
102
{ACAD_REACTORS
330
3DF
102
}
330
3DF
100
AcDbScale
 70
     0
300
1:50
140
1.0
141
50.0
290
     0
  0
SCALE
  5
3EB
102
{ACAD_REACTORS
330
3DF
102
}
330
3DF
100
AcDbScale
 70
     0
300
1:100
140
1.0
141
100.0
290
     0
  0
SCALE
  5
3EC
102
{ACAD_REACTORS
330
3DF
102
}
330
3DF
100
AcDbScale
 70
     0
300
2:1
140
2.0
141
1.0
290
     0
  0
SCALE
  5
3ED
102
{ACAD_REACTORS
330
3DF
102
}
330
3DF
100
AcDbScale
 70
     0
300
4:1
140
4.0
141
1.0
290
     0
  0
SCALE
  5
3EE
102
{ACAD_REACTORS
330
3DF
102
}
330
3DF
100
AcDbScale
 70
     0
300
8:1
140
8.0
141
1.0
290
     0
  0
SCALE
  5
3EF
102
{ACAD_REACTORS
330
3DF
102
}
330
3DF
100
AcDbScale
 70
     0
300
10:1
140
10.0
141
1.0
290
     0
  0
SCALE
  5
3F0
102
{ACAD_REACTORS
330
3DF
102
}
330
3DF
100
AcDbScale
 70
     0
300
100:1
140
100.0
141
1.0
290
     0
  0
TABLESTYLE
  5
3DE
102
{ACAD_XDICTIONARY
360
40E
102
}
102
{ACAD_REACTORS
330
3DD
102
}
330
3DD
100
AcDbTableStyle
  3
Standard
 70
     0
 71
     0
 40
1.5
 41
1.5
280
     0
281
     0
  7
STANDARD
140
4.5
170
     2
 62
     0
 63
     7
283
     0
274
    -2
284
     1
 64
     0
275
    -2
285
     1
 65
     0
276
    -2
286
     1
 66
     0
277
    -2
287
     1
 67
     0
278
    -2
288
     1
 68
     0
279
    -2
289
     1
 69
     0
  7
STANDARD
140
6.0
170
     5
 62
     0
 63
     7
283
     0
274
    -2
284
     1
 64
     0
275
    -2
285
     1
 65
     0
276
    -2
286
     1
 66
     0
277
    -2
287
     1
 67
     0
278
    -2
288
     1
 68
     0
279
    -2
289
     1
 69
     0
  7
STANDARD
140
4.5
170
     5
 62
     0
 63
     7
283
     0
274
    -2
284
     1
 64
     0
275
    -2
285
     1
 65
     0
276
    -2
286
     1
 66
     0
277
    -2
287
     1
 67
     0
278
    -2
288
     1
 68
     0
279
    -2
289
     1
 69
     0
  0
VISUALSTYLE
  5
3C9
102
{ACAD_XDICTIONARY
360
45B
102
}
102
{ACAD_REACTORS
330
3C3
102
}
330
3C3
100
AcDbVisualStyle
  2
2dWireframe
 70
     4
 71
     0
 72
     2
 73
     0
 90
        0
 40
-0.6
 41
-30.0
 62
     5
 63
     7
 74
     1
 91
        4
 64
     7
 65
   257
 75
     1
175
     1
 42
1.0
 92
        0
 66
   257
 43
1.0
 76
     1
 77
     6
 78
     2
 67
     7
 79
     5
170
     0
171
     0
290
     0
174
     0
 93
        1
 44
0.0
173
     0
291
     0
 45
0.0
1001
ACAD
1000
AcDbSavedByObjectVersion
1070
     0
  0
VISUALSTYLE
  5
3C8
102
{ACAD_XDICTIONARY
360
459
102
}
102
{ACAD_REACTORS
330
3C3
102
}
330
3C3
100
AcDbVisualStyle
  2
Basic
 70
     7
 71
     1
 72
     0
 73
     1
 90
        0
 40
-0.6
 41
-30.0
 62
     5
 63
     7
 74
     0
 91
        4
 64
     7
 65
   257
 75
     1
175
     1
 42
1.0
 92
        8
 66
     7
 43
1.0
 76
     1
 77
     6
 78
     2
 67
     7
 79
     5
170
     0
171
     0
290
     0
174
     0
 93
        1
 44
0.0
173
     0
291
     1
 45
0.0
1001
ACAD
1000
AcDbSavedByObjectVersion
1070
     0
  0
VISUALSTYLE
  5
3CF
102
{ACAD_XDICTIONARY
360
467
102
}
102
{ACAD_REACTORS
330
3C3
102
}
330
3C3
100
AcDbVisualStyle
  2
Brighten
 70
    12
 71
     2
 72
     2
 73
     0
 90
        0
 40
-0.6
 41
-30.0
 62
     5
 63
     7
 74
     1
 91
        4
 64
     7
 65
   257
 75
     1
175
     1
 42
1.0
 92
        8
 66
     7
 43
1.0
 76
     1
 77
     6
 78
     2
 67
     7
 79
     5
170
     0
171
     0
290
     0
174
     0
 93
        1
 44
50.0
173
     0
291
     1
 45
0.0
1001
ACAD
1000
AcDbSavedByObjectVersion
1070
     0
  0
VISUALSTYLE
  5
3D3
102
{ACAD_XDICTIONARY
360
46F
102
}
102
{ACAD_REACTORS
330
3C3
102
}
330
3C3
100
AcDbVisualStyle
  2
ColorChange
 70
    16
 71
     2
 72
     2
 73
     3
 90
        0
 40
-0.6
 41
-30.0
 62
     5
 63
     8
 74
     1
 91
        4
 64
     7
 65
   257
 75
     1
175
     1
 42
1.0
 92
        8
 66
     8
 43
1.0
 76
     1
 77
     6
 78
     2
 67
     7
 79
     5
170
     0
171
     0
290
     0
174
     0
 93
        1
 44
0.0
173
     0
291
     1
 45
0.0
1001
ACAD
1000
AcDbSavedByObjectVersion
1070
     0
  0
VISUALSTYLE
  5
3CC
102
{ACAD_XDICTIONARY
360
461
102
}
102
{ACAD_REACTORS
330
3C3
102
}
330
3C3
100
AcDbVisualStyle
  2
Conceptual
 70
     9
 71
     3
 72
     2
 73
     0
 90
        0
 40
-0.6
 41
-30.0
 62
     5
 63
     7
 74
     2
 91
        2
 64
     7
 65
   257
 75
     1
175
     1
 42
179.0
 92
        8
 66
     7
 43
1.0
 76
     1
 77
     6
 78
     2
 67
     7
 79
     3
170
     0
171
     0
290
     0
174
     0
 93
        1
 44
0.0
173
     0
291
     0
 45
0.0
1001
ACAD
1000
AcDbSavedByObjectVersion
1070
     0
  0
VISUALSTYLE
  5
3CE
102
{ACAD_XDICTIONARY
360
465
102
}
102
{ACAD_REACTORS
330
3C3
102
}
330
3C3
100
AcDbVisualStyle
  2
Dim
 70
    11
 71
     2
 72
     2
 73
     0
 90
        0
 40
-0.6
 41
-30.0
 62
     5
 63
     7
 74
     1
 91
        4
 64
     7
 65
   257
 75
     1
175
     1
 42
1.0
 92
        8
 66
     7
 43
1.0
 76
     1
 77
     6
 78
     2
 67
     7
 79
     5
170
     0
171
     0
290
     0
174
     0
 93
        1
 44
-50.0
173
     0
291
     1
 45
0.0
1001
ACAD
1000
AcDbSavedByObjectVersion
1070
     0
  0
VISUALSTYLE
  5
3DB
102
{ACAD_XDICTIONARY
360
47F
102
}
102
{ACAD_REACTORS
330
3C3
102
}
330
3C3
100
AcDbVisualStyle
  2
EdgeColorOff
 70
    22
 71
     2
 72
     2
 73
     0
 90
        0
 40
-0.6
 41
-30.0
 62
     5
 63
     7
 74
     1
 91
        4
 64
     7
 65
   257
 75
     1
175
     1
 42
1.0
 92
        8
 66
     7
 43
1.0
 76
     1
 77
     6
 78
     2
 67
     7
 79
     5
170
     0
171
     0
290
     0
174
     0
 93
        1
 44
0.0
173
     0
291
     1
 45
0.0
1001
ACAD
1000
AcDbSavedByObjectVersion
1070
     0
  0
VISUALSTYLE
  5
3D2
102
{ACAD_XDICTIONARY
360
46D
102
}
102
{ACAD_REACTORS
330
3C3
102
}
330
3C3
100
AcDbVisualStyle
  2
Facepattern
 70
    15
 71
     2
 72
     2
 73
     0
 90
        0
 40
-0.6
 41
-30.0
 62
     5
 63
     7
 74
     1
 91
        4
 64
     7
 65
   257
 75
     1
175
     1
 42
1.0
 92
        8
 66
     7
 43
1.0
 76
     1
 77
     6
 78
     2
 67
     7
 79
     5
170
     0
171
     0
290
     0
174
     0
 93
        1
 44
0.0
173
     0
291
     1
 45
0.0
1001
ACAD
1000
AcDbSavedByObjectVersion
1070
     0
  0
VISUALSTYLE
  5
3C4
102
{ACAD_XDICTIONARY
360
451
102
}
102
{ACAD_REACTORS
330
3C3
102
}
330
3C3
100
AcDbVisualStyle
  2
Flat
 70
     0
 71
     2
 72
     1
 73
     1
 90
        2
 40
-0.6
 41
30.0
 62
     5
 63
     7
 74
     0
 91
        0
 64
     7
 65
   257
 75
     1
175
     1
 42
1.0
 92
        8
 66
     7
 43
1.0
 76
     1
 77
     6
 78
     2
 67
     7
 79
     5
170
     0
171
     0
290
     0
174
     0
 93
       13
 44
0.0
173
     0
291
     1
 45
0.0
1001
ACAD
1000
AcDbSavedByObjectVersion
1070
     0
  0
VISUALSTYLE
  5
3C5
102
{ACAD_XDICTIONARY
360
453
102
}
102
{ACAD_REACTORS
330
3C3
102
}
330
3C3
100
AcDbVisualStyle
  2
FlatWithEdges
 70
     1
 71
     2
 72
     1
 73
     1
 90
        2
 40
-0.6
 41
30.0
 62
     5
 63
     7
 74
     1
 91
        0
 64
     7
 65
   257
 75
     1
175
     1
 42
1.0
 92
        0
 66
   257
 43
1.0
 76
     1
 77
     6
 78
     2
 67
     7
 79
     5
170
     0
171
     0
290
     0
174
     0
 93
       13
 44
0.0
173
     0
291
     1
 45
0.0
1001
ACAD
1000
AcDbSavedByObjectVersion
1070
     0
  0
VISUALSTYLE
  5
3C6
102
{ACAD_XDICTIONARY
360
455
102
}
102
{ACAD_REACTORS
330
3C3
102
}
330
3C3
100
AcDbVisualStyle
  2
Gouraud
 70
     2
 71
     2
 72
     2
 73
     1
 90
        2
 40
-0.6
 41
30.0
 62
     5
 63
     7
 74
     0
 91
        0
 64
     7
 65
   257
 75
     1
175
     1
 42
1.0
 92
        0
 66
     7
 43
1.0
 76
     1
 77
     6
 78
     2
 67
     7
 79
     5
170
     0
171
     0
290
     0
174
     0
 93
       13
 44
0.0
173
     0
291
     1
 45
0.0
1001
ACAD
1000
AcDbSavedByObjectVersion
1070
     0
  0
VISUALSTYLE
  5
3C7
102
{ACAD_XDICTIONARY
360
457
102
}
102
{ACAD_REACTORS
330
3C3
102
}
330
3C3
100
AcDbVisualStyle
  2
GouraudWithEdges
 70
     3
 71
     2
 72
     2
 73
     1
 90
        2
 40
-0.6
 41
30.0
 62
     5
 63
     7
 74
     1
 91
        0
 64
     7
 65
   257
 75
     1
175
     1
 42
1.0
 92
        0
 66
   257
 43
1.0
 76
     1
 77
     6
 78
     2
 67
     7
 79
     5
170
     0
171
     0
290
     0
174
     0
 93
       13
 44
0.0
173
     0
291
     1
 45
0.0
1001
ACAD
1000
AcDbSavedByObjectVersion
1070
     0
  0
VISUALSTYLE
  5
3CB
102
{ACAD_XDICTIONARY
360
45F
102
}
102
{ACAD_REACTORS
330
3C3
102
}
330
3C3
100
AcDbVisualStyle
  2
Hidden
 70
     6
 71
     1
 72
     2
 73
     2
 90
        0
 40
-0.6
 41
-30.0
 62
     5
 63
     7
 74
     2
 91
        2
 64
     7
 65
   257
 75
     2
175
     1
 42
40.0
 92
        0
 66
   257
 43
1.0
 76
     1
 77
     6
 78
     2
 67
     7
 79
     3
170
     0
171
     0
290
     0
174
     0
 93
        1
 44
0.0
173
     0
291
     0
 45
0.0
1001
ACAD
1000
AcDbSavedByObjectVersion
1070
     0
  0
VISUALSTYLE
  5
3D9
102
{ACAD_XDICTIONARY
360
47B
102
}
102
{ACAD_REACTORS
330
3C3
102
}
330
3C3
100
AcDbVisualStyle
  2
JitterOff
 70
    20
 71
     2
 72
     2
 73
     0
 90
        0
 40
-0.6
 41
-30.0
 62
     5
 63
     7
 74
     1
 91
        4
 64
     7
 65
   257
 75
     1
175
     1
 42
1.0
 92
       10
 66
     7
 43
1.0
 76
     1
 77
     6
 78
     2
 67
     7
 79
     5
170
     0
171
     0
290
     0
174
     0
 93
        1
 44
0.0
173
     0
291
     1
 45
0.0
1001
ACAD
1000
AcDbSavedByObjectVersion
1070
     0
  0
VISUALSTYLE
  5
3D1
102
{ACAD_XDICTIONARY
360
46B
102
}
102
{ACAD_REACTORS
330
3C3
102
}
330
3C3
100
AcDbVisualStyle
  2
Linepattern
 70
    14
 71
     2
 72
     2
 73
     0
 90
        0
 40
-0.6
 41
-30.0
 62
     5
 63
     7
 74
     1
 91
        4
 64
     7
 65
   257
 75
     7
175
     7
 42
1.0
 92
        8
 66
     7
 43
1.0
 76
     1
 77
     6
 78
     2
 67
     7
 79
     5
170
     0
171
     0
290
     0
174
     0
 93
        1
 44
0.0
173
     0
291
     1
 45
0.0
1001
ACAD
1000
AcDbSavedByObjectVersion
1070
     0
  0
VISUALSTYLE
  5
3DA
102
{ACAD_XDICTIONARY
360
47D
102
}
102
{ACAD_REACTORS
330
3C3
102
}
330
3C3
100
AcDbVisualStyle
  2
OverhangOff
 70
    21
 71
     2
 72
     2
 73
     0
 90
        0
 40
-0.6
 41
-30.0
 62
     5
 63
     7
 74
     1
 91
        4
 64
     7
 65
   257
 75
     1
175
     1
 42
1.0
 92
        9
 66
     7
 43
1.0
 76
     1
 77
     6
 78
     2
 67
     7
 79
     5
170
     0
171
     0
290
     0
174
     0
 93
        1
 44
0.0
173
     0
291
     1
 45
0.0
1001
ACAD
1000
AcDbSavedByObjectVersion
1070
     0
  0
VISUALSTYLE
  5
3CD
102
{ACAD_XDICTIONARY
360
463
102
}
102
{ACAD_REACTORS
330
3C3
102
}
330
3C3
100
AcDbVisualStyle
  2
Realistic
 70
     8
 71
     2
 72
     3
 73
     0
 90
        2
 40
-0.6
 41
30.0
 62
     5
 63
     7
 74
     0
 91
        0
 64
     7
 65
   257
 75
     1
175
     1
 42
1.0
 92
        8
 66
   257
 43
1.0
 76
     1
 77
     6
 78
     2
 67
     7
 79
     3
170
     0
171
     0
290
     0
174
     0
 93
       13
 44
0.0
173
     0
291
     0
 45
0.0
1001
ACAD
1000
AcDbSavedByObjectVersion
1070
     0
  0
VISUALSTYLE
  5
3D8
102
{ACAD_XDICTIONARY
360
479
102
}
102
{ACAD_REACTORS
330
3C3
102
}
330
3C3
100
AcDbVisualStyle
  2
Shaded
 70
    27
 71
     2
 72
     2
 73
     1
 90
        2
 40
-0.6
 41
30.0
 62
     5
 63
     7
 74
     0
 91
        4
 64
     7
 65
   257
 75
     1
175
     1
 42
1.0
 92
        8
 66
   257
 43
1.0
 76
     1
 77
     6
 78
     2
 67
     8
 79
     3
170
     0
171
     0
290
     0
174
     0
 93
        5
 44
0.0
173
     0
291
     0
 45
0.0
1001
ACAD
1000
AcDbSavedByObjectVersion
1070
     0
  0
VISUALSTYLE
  5
3D7
102
{ACAD_XDICTIONARY
360
477
102
}
102
{ACAD_REACTORS
330
3C3
102
}
330
3C3
100
AcDbVisualStyle
  2
Shaded with edges
 70
    26
 71
     2
 72
     2
 73
     1
 90
        2
 40
-0.6
 41
30.0
 62
     5
 63
     7
 74
     1
 91
       10
 64
     7
 65
   257
 75
     2
175
     1
 42
1.0
 92
        8
 66
   257
 43
1.0
 76
     1
 77
     6
 78
     2
 67
     7
 79
     3
170
     0
171
     0
290
     0
174
     0
 93
        5
 44
0.0
173
     0
291
     0
 45
0.0
1001
ACAD
1000
AcDbSavedByObjectVersion
1070
     0
  0
VISUALSTYLE
  5
3D4
102
{ACAD_XDICTIONARY
360
471
102
}
102
{ACAD_REACTORS
330
3C3
102
}
330
3C3
100
AcDbVisualStyle
  2
Shades of Gray
 70
    23
 71
     2
 72
     2
 73
     3
 90
        0
 40
-0.6
 41
-30.0
 62
     5
 63
     7
 74
     2
 91
        2
 64
     7
 65
     7
 75
     1
175
     1
 42
40.0
 92
        8
 66
     7
 43
1.0
 76
     1
 77
     6
 78
     2
 67
     7
 79
     3
170
     0
171
     0
290
     0
174
     0
 93
        1
 44
0.0
173
     0
291
     0
 45
0.0
1001
ACAD
1000
AcDbSavedByObjectVersion
1070
     0
  0
VISUALSTYLE
  5
3D5
102
{ACAD_XDICTIONARY
360
473
102
}
102
{ACAD_REACTORS
330
3C3
102
}
330
3C3
100
AcDbVisualStyle
  2
Sketchy
 70
    24
 71
     1
 72
     2
 73
     2
 90
        0
 40
-0.6
 41
-30.0
 62
     5
 63
     7
 74
     2
 91
        2
 64
     7
 65
     7
 75
     1
175
     1
 42
40.0
 92
       11
 66
     7
 43
1.0
 76
     1
 77
     6
 78
     2
 67
     7
 79
     6
170
     0
171
     0
290
     0
174
     0
 93
        1
 44
0.0
173
     0
291
     0
 45
0.0
1001
ACAD
1000
AcDbSavedByObjectVersion
1070
     0
  0
VISUALSTYLE
  5
3D0
102
{ACAD_XDICTIONARY
360
469
102
}
102
{ACAD_REACTORS
330
3C3
102
}
330
3C3
100
AcDbVisualStyle
  2
Thicken
 70
    13
 71
     2
 72
     2
 73
     0
 90
        0
 40
-0.6
 41
-30.0
 62
     5
 63
     7
 74
     1
 91
        4
 64
     7
 65
   257
 75
     1
175
     1
 42
1.0
 92
       12
 66
     7
 43
1.0
 76
     1
 77
     6
 78
     2
 67
     7
 79
     5
170
     0
171
     0
290
     0
174
     0
 93
        1
 44
0.0
173
     0
291
     1
 45
0.0
1001
ACAD
1000
AcDbSavedByObjectVersion
1070
     0
  0
VISUALSTYLE
  5
3CA
102
{ACAD_XDICTIONARY
360
45D
102
}
102
{ACAD_REACTORS
330
3C3
102
}
330
3C3
100
AcDbVisualStyle
  2
Wireframe
 70
     5
 71
     0
 72
     2
 73
     0
 90
        0
 40
-0.6
 41
-30.0
 62
     5
 63
     7
 74
     1
 91
        4
 64
     7
 65
   257
 75
     1
175
     1
 42
1.0
 92
        0
 66
   257
 43
1.0
 76
     1
 77
     6
 78
     2
 67
     7
 79
     3
170
     0
171
     0
290
     0
174
     0
 93
        1
 44
0.0
173
     0
291
     0
 45
0.0
1001
ACAD
1000
AcDbSavedByObjectVersion
1070
     0
  0
VISUALSTYLE
  5
3D6
102
{ACAD_XDICTIONARY
360
475
102
}
102
{ACAD_REACTORS
330
3C3
102
}
330
3C3
100
AcDbVisualStyle
  2
X-Ray
 70
    25
 71
     2
 72
     2
 73
     1
 90
        1
 40
0.5
 41
-30.0
 62
     5
 63
     7
 74
     1
 91
        0
 64
     7
 65
   257
 75
     1
175
     1
 42
1.0
 92
        8
 66
     7
 43
1.0
 76
     1
 77
     6
 78
     2
 67
     7
 79
     3
170
     0
171
     0
290
     0
174
     0
 93
       13
 44
0.0
173
     0
291
     0
 45
0.0
1001
ACAD
1000
AcDbSavedByObjectVersion
1070
     0
  0
DICTIONARYVAR
  5
408
102
{ACAD_REACTORS
330
405
102
}
330
405
100
DictionaryVariables
280
     0
  1
1:1
  0
DICTIONARYVAR
  5
407
102
{ACAD_REACTORS
330
405
102
}
330
405
100
DictionaryVariables
280
     0
  1
STANDARD
  0
DICTIONARYVAR
  5
406
102
{ACAD_REACTORS
330
405
102
}
330
405
100
DictionaryVariables
280
     0
  1
STANDARD
  0
DICTIONARYVAR
  5
40B
102
{ACAD_REACTORS
330
405
102
}
330
405
100
DictionaryVariables
280
     0
  1
1
  0
DICTIONARYVAR
  5
40A
102
{ACAD_REACTORS
330
405
102
}
330
405
100
DictionaryVariables
280
     0
  1
0
  0
DICTIONARYVAR
  5
409
102
{ACAD_REACTORS
330
405
102
}
330
405
100
DictionaryVariables
280
     0
  1
127
  0
DICTIONARYVAR
  5
40C
102
{ACAD_REACTORS
330
405
102
}
330
405
100
DictionaryVariables
280
     0
  1
2
  0
XRECORD
  5
404
102
{ACAD_REACTORS
330
402
102
}
330
402
100
AcDbXrecord
280
     1
330
2E
330
2B
  0
DICTIONARY
  5
483
330
3F5
100
AcDbDictionary
280
     1
281
     1
  3
ACAD_XREC_ROUNDTRIP
360
484
  0
DICTIONARY
  5
485
330
3F6
100
AcDbDictionary
280
     1
281
     1
  3
ACAD_XREC_ROUNDTRIP
360
486
  0
DICTIONARY
  5
3B4
330
3B3
100
AcDbDictionary
280
     1
281
     1
  3
ACAD_XREC_ROUNDTRIP
360
44F
  3
BUMPTILE
360
3B6
  3
DIFFUSETILE
360
3B5
  3
OPACITYTILE
360
3B9
  3
REFLECTIONTILE
360
3B8
  3
REFRACTIONTILE
360
3BA
  3
SPECULARTILE
360
3B7
  0
DICTIONARY
  5
3AC
330
3AB
100
AcDbDictionary
280
     1
281
     1
  3
ACAD_XREC_ROUNDTRIP
360
44E
  3
BUMPTILE
360
3AE
  3
DIFFUSETILE
360
3AD
  3
OPACITYTILE
360
3B1
  3
REFLECTIONTILE
360
3B0
  3
REFRACTIONTILE
360
3B2
  3
SPECULARTILE
360
3AF
  0
DICTIONARY
  5
3BC
330
3BB
100
AcDbDictionary
280
     1
281
     1
  3
ACAD_XREC_ROUNDTRIP
360
450
  3
BUMPTILE
360
3BE
  3
DIFFUSETILE
360
3BD
  3
OPACITYTILE
360
3C1
  3
REFLECTIONTILE
360
3C0
  3
REFRACTIONTILE
360
3C2
  3
SPECULARTILE
360
3BF
  0
DICTIONARY
  5
40E
330
3DE
100
AcDbDictionary
280
     1
281
     1
  3
ACAD_ROUNDTRIP_2008_TABLESTYLE_CELLSTYLEMAP
360
40F
  3
ACAD_XREC_ROUNDTRIP
360
481
  0
DICTIONARY
  5
45B
330
3C9
100
AcDbDictionary
280
     1
281
     1
  3
ACAD_XREC_ROUNDTRIP
360
45C
  0
DICTIONARY
  5
459
330
3C8
100
AcDbDictionary
280
     1
281
     1
  3
ACAD_XREC_ROUNDTRIP
360
45A
  0
DICTIONARY
  5
467
330
3CF
100
AcDbDictionary
280
     1
281
     1
  3
ACAD_XREC_ROUNDTRIP
360
468
  0
DICTIONARY
  5
46F
330
3D3
100
AcDbDictionary
280
     1
281
     1
  3
ACAD_XREC_ROUNDTRIP
360
470
  0
DICTIONARY
  5
461
330
3CC
100
AcDbDictionary
280
     1
281
     1
  3
ACAD_XREC_ROUNDTRIP
360
462
  0
DICTIONARY
  5
465
330
3CE
100
AcDbDictionary
280
     1
281
     1
  3
ACAD_XREC_ROUNDTRIP
360
466
  0
DICTIONARY
  5
47F
330
3DB
100
AcDbDictionary
280
     1
281
     1
  3
ACAD_XREC_ROUNDTRIP
360
480
  0
DICTIONARY
  5
46D
330
3D2
100
AcDbDictionary
280
     1
281
     1
  3
ACAD_XREC_ROUNDTRIP
360
46E
  0
DICTIONARY
  5
451
330
3C4
100
AcDbDictionary
280
     1
281
     1
  3
ACAD_XREC_ROUNDTRIP
360
452
  0
DICTIONARY
  5
453
330
3C5
100
AcDbDictionary
280
     1
281
     1
  3
ACAD_XREC_ROUNDTRIP
360
454
  0
DICTIONARY
  5
455
330
3C6
100
AcDbDictionary
280
     1
281
     1
  3
ACAD_XREC_ROUNDTRIP
360
456
  0
DICTIONARY
  5
457
330
3C7
100
AcDbDictionary
280
     1
281
     1
  3
ACAD_XREC_ROUNDTRIP
360
458
  0
DICTIONARY
  5
45F
330
3CB
100
AcDbDictionary
280
     1
281
     1
  3
ACAD_XREC_ROUNDTRIP
360
460
  0
DICTIONARY
  5
47B
330
3D9
100
AcDbDictionary
280
     1
281
     1
  3
ACAD_XREC_ROUNDTRIP
360
47C
  0
DICTIONARY
  5
46B
330
3D1
100
AcDbDictionary
280
     1
281
     1
  3
ACAD_XREC_ROUNDTRIP
360
46C
  0
DICTIONARY
  5
47D
330
3DA
100
AcDbDictionary
280
     1
281
     1
  3
ACAD_XREC_ROUNDTRIP
360
47E
  0
DICTIONARY
  5
463
330
3CD
100
AcDbDictionary
280
     1
281
     1
  3
ACAD_XREC_ROUNDTRIP
360
464
  0
DICTIONARY
  5
479
330
3D8
100
AcDbDictionary
280
     1
281
     1
  3
ACAD_XREC_ROUNDTRIP
360
47A
  0
DICTIONARY
  5
477
330
3D7
100
AcDbDictionary
280
     1
281
     1
  3
ACAD_XREC_ROUNDTRIP
360
478
  0
DICTIONARY
  5
471
330
3D4
100
AcDbDictionary
280
     1
281
     1
  3
ACAD_XREC_ROUNDTRIP
360
472
  0
DICTIONARY
  5
473
330
3D5
100
AcDbDictionary
280
     1
281
     1
  3
ACAD_XREC_ROUNDTRIP
360
474
  0
DICTIONARY
  5
469
330
3D0
100
AcDbDictionary
280
     1
281
     1
  3
ACAD_XREC_ROUNDTRIP
360
46A
  0
DICTIONARY
  5
45D
330
3CA
100
AcDbDictionary
280
     1
281
     1
  3
ACAD_XREC_ROUNDTRIP
360
45E
  0
DICTIONARY
  5
475
330
3D6
100
AcDbDictionary
280
     1
281
     1
  3
ACAD_XREC_ROUNDTRIP
360
476
  0
XRECORD
  5
484
102
{ACAD_REACTORS
330
483
102
}
330
483
100
AcDbXrecord
280
     1
102
SHADEPLOT
 70
     0
102
SHADEPLOTRESLEVEL
 70
     2
102
SHADEPLOTCUSTOMDPI
 70
   300
  0
XRECORD
  5
486
102
{ACAD_REACTORS
330
485
102
}
330
485
100
AcDbXrecord
280
     1
102
SHADEPLOT
 70
     0
102
SHADEPLOTRESLEVEL
 70
     2
102
SHADEPLOTCUSTOMDPI
 70
   300
  0
XRECORD
  5
44F
102
{ACAD_REACTORS
330
3B4
102
}
330
3B4
100
AcDbXrecord
280
     1
102
MATERIAL
148
0.0
149
0.0
149
0.0
 93
        0
 94
      127
282
     0
 72
     0
 77
     0
171
     0
175
     0
179
     0
273
     0
  0
XRECORD
  5
3B6
102
{ACAD_REACTORS
330
3B4
102
}
330
3B4
100
AcDbXrecord
280
     1
270
     1
271
     1
  0
XRECORD
  5
3B5
102
{ACAD_REACTORS
330
3B4
102
}
330
3B4
100
AcDbXrecord
280
     1
270
     1
271
     1
  0
XRECORD
  5
3B9
102
{ACAD_REACTORS
330
3B4
102
}
330
3B4
100
AcDbXrecord
280
     1
270
     1
271
     1
  0
XRECORD
  5
3B8
102
{ACAD_REACTORS
330
3B4
102
}
330
3B4
100
AcDbXrecord
280
     1
270
     1
271
     1
  0
XRECORD
  5
3BA
102
{ACAD_REACTORS
330
3B4
102
}
330
3B4
100
AcDbXrecord
280
     1
270
     1
271
     1
  0
XRECORD
  5
3B7
102
{ACAD_REACTORS
330
3B4
102
}
330
3B4
100
AcDbXrecord
280
     1
270
     1
271
     1
  0
XRECORD
  5
44E
102
{ACAD_REACTORS
330
3AC
102
}
330
3AC
100
AcDbXrecord
280
     1
102
MATERIAL
148
0.0
149
0.0
149
0.0
 93
        0
 94
      127
282
     0
 72
     0
 77
     0
171
     0
175
     0
179
     0
273
     0
  0
XRECORD
  5
3AE
102
{ACAD_REACTORS
330
3AC
102
}
330
3AC
100
AcDbXrecord
280
     1
270
     1
271
     1
  0
XRECORD
  5
3AD
102
{ACAD_REACTORS
330
3AC
102
}
330
3AC
100
AcDbXrecord
280
     1
270
     1
271
     1
  0
XRECORD
  5
3B1
102
{ACAD_REACTORS
330
3AC
102
}
330
3AC
100
AcDbXrecord
280
     1
270
     1
271
     1
  0
XRECORD
  5
3B0
102
{ACAD_REACTORS
330
3AC
102
}
330
3AC
100
AcDbXrecord
280
     1
270
     1
271
     1
  0
XRECORD
  5
3B2
102
{ACAD_REACTORS
330
3AC
102
}
330
3AC
100
AcDbXrecord
280
     1
270
     1
271
     1
  0
XRECORD
  5
3AF
102
{ACAD_REACTORS
330
3AC
102
}
330
3AC
100
AcDbXrecord
280
     1
270
     1
271
     1
  0
XRECORD
  5
450
102
{ACAD_REACTORS
330
3BC
102
}
330
3BC
100
AcDbXrecord
280
     1
102
MATERIAL
148
0.0
149
0.0
149
0.0
 93
        0
 94
      127
282
     0
 72
     0
 77
     0
171
     0
175
     0
179
     0
273
     0
  0
XRECORD
  5
3BE
102
{ACAD_REACTORS
330
3BC
102
}
330
3BC
100
AcDbXrecord
280
     1
270
     1
271
     1
  0
XRECORD
  5
3BD
102
{ACAD_REACTORS
330
3BC
102
}
330
3BC
100
AcDbXrecord
280
     1
270
     1
271
     1
  0
XRECORD
  5
3C1
102
{ACAD_REACTORS
330
3BC
102
}
330
3BC
100
AcDbXrecord
280
     1
270
     1
271
     1
  0
XRECORD
  5
3C0
102
{ACAD_REACTORS
330
3BC
102
}
330
3BC
100
AcDbXrecord
280
     1
270
     1
271
     1
  0
XRECORD
  5
3C2
102
{ACAD_REACTORS
330
3BC
102
}
330
3BC
100
AcDbXrecord
280
     1
270
     1
271
     1
  0
XRECORD
  5
3BF
102
{ACAD_REACTORS
330
3BC
102
}
330
3BC
100
AcDbXrecord
280
     1
270
     1
271
     1
  0
CELLSTYLEMAP
  5
40F
102
{ACAD_REACTORS
330
40E
102
}
330
40E
100
AcDbCellStyleMap
 90
        3
300
CELLSTYLE
  1
TABLEFORMAT_BEGIN
 90
        5
170
     1
 91
        0
 92
    32768
 62
   257
 93
        1
300
CONTENTFORMAT
  1
CONTENTFORMAT_BEGIN
 90
        0
 91
        0
 92
      512
 93
        0
300

 40
0.0
140
1.0
 94
        5
 62
     0
340
17
144
6.0
309
CONTENTFORMAT_END
171
     1
301
MARGIN
  1
CELLMARGIN_BEGIN
 40
1.5
 40
1.5
 40
1.5
 40
1.5
 40
4.5
 40
4.5
309
CELLMARGIN_END
 94
        6
 95
        1
302
GRIDFORMAT
  1
GRIDFORMAT_BEGIN
 90
        0
 91
        1
 62
     0
 92
       -2
340
0
 93
        0
 40
1.125
309
GRIDFORMAT_END
 95
        2
302
GRIDFORMAT
  1
GRIDFORMAT_BEGIN
 90
        0
 91
        1
 62
     0
 92
       -2
340
0
 93
        0
 40
1.125
309
GRIDFORMAT_END
 95
        4
302
GRIDFORMAT
  1
GRIDFORMAT_BEGIN
 90
        0
 91
        1
 62
     0
 92
       -2
340
0
 93
        0
 40
1.125
309
GRIDFORMAT_END
 95
        8
302
GRIDFORMAT
  1
GRIDFORMAT_BEGIN
 90
        0
 91
        1
 62
     0
 92
       -2
340
0
 93
        0
 40
1.125
309
GRIDFORMAT_END
 95
       16
302
GRIDFORMAT
  1
GRIDFORMAT_BEGIN
 90
        0
 91
        1
 62
     0
 92
       -2
340
0
 93
        0
 40
1.125
309
GRIDFORMAT_END
 95
       32
302
GRIDFORMAT
  1
GRIDFORMAT_BEGIN
 90
        0
 91
        1
 62
     0
 92
       -2
340
0
 93
        0
 40
1.125
309
GRIDFORMAT_END
309
TABLEFORMAT_END
  1
CELLSTYLE_BEGIN
 90
        1
 91
        1
300
_TITLE
309
CELLSTYLE_END
300
CELLSTYLE
  1
TABLEFORMAT_BEGIN
 90
        5
170
     1
 91
        0
 92
        0
 62
   257
 93
        1
300
CONTENTFORMAT
  1
CONTENTFORMAT_BEGIN
 90
        0
 91
        0
 92
      512
 93
        0
300

 40
0.0
140
1.0
 94
        5
 62
     0
340
17
144
4.5
309
CONTENTFORMAT_END
171
     1
301
MARGIN
  1
CELLMARGIN_BEGIN
 40
1.5
 40
1.5
 40
1.5
 40
1.5
 40
4.5
 40
4.5
309
CELLMARGIN_END
 94
        6
 95
        1
302
GRIDFORMAT
  1
GRIDFORMAT_BEGIN
 90
        0
 91
        1
 62
     0
 92
       -2
340
0
 93
        0
 40
1.125
309
GRIDFORMAT_END
 95
        2
302
GRIDFORMAT
  1
GRIDFORMAT_BEGIN
 90
        0
 91
        1
 62
     0
 92
       -2
340
0
 93
        0
 40
1.125
309
GRIDFORMAT_END
 95
        4
302
GRIDFORMAT
  1
GRIDFORMAT_BEGIN
 90
        0
 91
        1
 62
     0
 92
       -2
340
0
 93
        0
 40
1.125
309
GRIDFORMAT_END
 95
        8
302
GRIDFORMAT
  1
GRIDFORMAT_BEGIN
 90
        0
 91
        1
 62
     0
 92
       -2
340
0
 93
        0
 40
1.125
309
GRIDFORMAT_END
 95
       16
302
GRIDFORMAT
  1
GRIDFORMAT_BEGIN
 90
        0
 91
        1
 62
     0
 92
       -2
340
0
 93
        0
 40
1.125
309
GRIDFORMAT_END
 95
       32
302
GRIDFORMAT
  1
GRIDFORMAT_BEGIN
 90
        0
 91
        1
 62
     0
 92
       -2
340
0
 93
        0
 40
1.125
309
GRIDFORMAT_END
309
TABLEFORMAT_END
  1
CELLSTYLE_BEGIN
 90
        2
 91
        1
300
_HEADER
309
CELLSTYLE_END
300
CELLSTYLE
  1
TABLEFORMAT_BEGIN
 90
        5
170
     1
 91
        0
 92
        0
 62
   257
 93
        1
300
CONTENTFORMAT
  1
CONTENTFORMAT_BEGIN
 90
        0
 91
        0
 92
      512
 93
        0
300

 40
0.0
140
1.0
 94
        2
 62
     0
340
17
144
4.5
309
CONTENTFORMAT_END
171
     1
301
MARGIN
  1
CELLMARGIN_BEGIN
 40
1.5
 40
1.5
 40
1.5
 40
1.5
 40
4.5
 40
4.5
309
CELLMARGIN_END
 94
        6
 95
        1
302
GRIDFORMAT
  1
GRIDFORMAT_BEGIN
 90
        0
 91
        1
 62
     0
 92
       -2
340
0
 93
        0
 40
1.125
309
GRIDFORMAT_END
 95
        2
302
GRIDFORMAT
  1
GRIDFORMAT_BEGIN
 90
        0
 91
        1
 62
     0
 92
       -2
340
0
 93
        0
 40
1.125
309
GRIDFORMAT_END
 95
        4
302
GRIDFORMAT
  1
GRIDFORMAT_BEGIN
 90
        0
 91
        1
 62
     0
 92
       -2
340
0
 93
        0
 40
1.125
309
GRIDFORMAT_END
 95
        8
302
GRIDFORMAT
  1
GRIDFORMAT_BEGIN
 90
        0
 91
        1
 62
     0
 92
       -2
340
0
 93
        0
 40
1.125
309
GRIDFORMAT_END
 95
       16
302
GRIDFORMAT
  1
GRIDFORMAT_BEGIN
 90
        0
 91
        1
 62
     0
 92
       -2
340
0
 93
        0
 40
1.125
309
GRIDFORMAT_END
 95
       32
302
GRIDFORMAT
  1
GRIDFORMAT_BEGIN
 90
        0
 91
        1
 62
     0
 92
       -2
340
0
 93
        0
 40
1.125
309
GRIDFORMAT_END
309
TABLEFORMAT_END
  1
CELLSTYLE_BEGIN
 90
        3
 91
        2
300
_DATA
309
CELLSTYLE_END
  0
XRECORD
  5
481
102
{ACAD_REACTORS
330
40E
102
}
330
40E
100
AcDbXrecord
280
     1
102
ACAD_ROUNDTRIP_PRE2007_TABLESTYLE
 90
      512
 91
        0
  1

 92
      512
 93
        0
  2

 94
      512
 95
        0
  3

  0
XRECORD
  5
45C
102
{ACAD_REACTORS
330
45B
102
}
330
45B
100
AcDbXrecord
280
     1
102
RTVSPropertyOp0
 70
     1
102
RTVSPropertyOp1
 70
     1
102
RTVSPropertyOp2
 70
     1
102
RTVSPropertyOp3
 70
     1
102
RTVSPropertyOp4
 70
     1
102
RTVSPropertyOp5
 70
     1
102
RTVSPropertyOp6
 70
     1
102
RTVSPropertyOp7
 70
     1
102
RTVSPropertyOp8
 70
     1
102
RTVSPropertyOp9
 70
     1
102
RTVSPropertyOp10
 70
     1
102
RTVSPropertyOp11
 70
     1
102
RTVSPropertyOp12
 70
     1
102
RTVSPropertyOp13
 70
     1
102
RTVSPropertyOp14
 70
     1
102
RTVSPropertyOp15
 70
     1
102
RTVSPropertyOp16
 70
     1
102
RTVSPropertyOp17
 70
     1
102
RTVSPropertyOp18
 70
     1
102
RTVSPropertyOp19
 70
     1
102
RTVSPropertyOp20
 70
     1
102
RTVSPropertyOp21
 70
     1
102
RTVSPropertyOp22
 70
     1
102
RTVSPropertyOp23
 70
     1
102
RTVSPropertyOp24
 70
     1
102
RTVSPropertyOp25
 70
     1
102
RTVSPropertyOp26
 70
     1
102
RTVSPropertyOp27
 70
     1
102
RTVSPropertyOp28
 70
     1
102
RTVSPropertyOp29
 70
     1
102
RTVSPropertyOp30
 70
     1
102
RTVSPropertyOp31
 70
     1
102
RTVSPropertyOp32
 70
     1
  0
XRECORD
  5
45A
102
{ACAD_REACTORS
330
459
102
}
330
459
100
AcDbXrecord
280
     1
102
RTVSPropertyOp0
 70
     1
102
RTVSPropertyOp1
 70
     1
102
RTVSPropertyOp2
 70
     1
102
RTVSPropertyOp3
 70
     1
102
RTVSPropertyOp4
 70
     1
102
RTVSPropertyOp5
 70
     1
102
RTVSPropertyOp6
 70
     1
102
RTVSPropertyOp7
 70
     1
102
RTVSPropertyOp8
 70
     1
102
RTVSPropertyOp9
 70
     1
102
RTVSPropertyOp10
 70
     1
102
RTVSPropertyOp11
 70
     1
102
RTVSPropertyOp12
 70
     1
102
RTVSPropertyOp13
 70
     1
102
RTVSPropertyOp14
 70
     1
102
RTVSPropertyOp15
 70
     1
102
RTVSPropertyOp16
 70
     1
102
RTVSPropertyOp17
 70
     1
102
RTVSPropertyOp18
 70
     1
102
RTVSPropertyOp19
 70
     1
102
RTVSPropertyOp20
 70
     1
102
RTVSPropertyOp21
 70
     1
102
RTVSPropertyOp22
 70
     1
102
RTVSPropertyOp23
 70
     1
102
RTVSPropertyOp24
 70
     1
102
RTVSPropertyOp25
 70
     1
102
RTVSPropertyOp26
 70
     1
102
RTVSPropertyOp27
 70
     1
102
RTVSPropertyOp28
 70
     1
102
RTVSPropertyOp29
 70
     1
102
RTVSPropertyOp30
 70
     1
102
RTVSPropertyOp31
 70
     1
102
RTVSPropertyOp32
 70
     1
  0
XRECORD
  5
468
102
{ACAD_REACTORS
330
467
102
}
330
467
100
AcDbXrecord
280
     1
102
RTVSPropertyOp0
 70
     1
102
RTVSPropertyOp1
 70
     1
102
RTVSPropertyOp2
 70
     1
102
RTVSPropertyOp3
 70
     1
102
RTVSPropertyOp4
 70
     1
102
RTVSPropertyOp5
 70
     1
102
RTVSPropertyOp6
 70
     1
102
RTVSPropertyOp7
 70
     1
102
RTVSPropertyOp8
 70
     1
102
RTVSPropertyOp9
 70
     1
102
RTVSPropertyOp10
 70
     1
102
RTVSPropertyOp11
 70
     1
102
RTVSPropertyOp12
 70
     1
102
RTVSPropertyOp13
 70
     1
102
RTVSPropertyOp14
 70
     1
102
RTVSPropertyOp15
 70
     1
102
RTVSPropertyOp16
 70
     1
102
RTVSPropertyOp17
 70
     1
102
RTVSPropertyOp18
 70
     1
102
RTVSPropertyOp19
 70
     1
102
RTVSPropertyOp20
 70
     1
102
RTVSPropertyOp21
 70
     1
102
RTVSPropertyOp22
 70
     1
102
RTVSPropertyOp23
 70
     1
102
RTVSPropertyOp24
 70
     1
102
RTVSPropertyOp25
 70
     1
102
RTVSPropertyOp26
 70
     1
102
RTVSPropertyOp27
 70
     1
102
RTVSPropertyOp28
 70
     1
102
RTVSPropertyOp29
 70
     1
102
RTVSPropertyOp30
 70
     1
102
RTVSPropertyOp31
 70
     1
102
RTVSPropertyOp32
 70
     1
  0
XRECORD
  5
470
102
{ACAD_REACTORS
330
46F
102
}
330
46F
100
AcDbXrecord
280
     1
102
RTVSPropertyOp0
 70
     1
102
RTVSPropertyOp1
 70
     1
102
RTVSPropertyOp2
 70
     1
102
RTVSPropertyOp3
 70
     1
102
RTVSPropertyOp4
 70
     1
102
RTVSPropertyOp5
 70
     1
102
RTVSPropertyOp6
 70
     1
102
RTVSPropertyOp7
 70
     1
102
RTVSPropertyOp8
 70
     1
102
RTVSPropertyOp9
 70
     1
102
RTVSPropertyOp10
 70
     1
102
RTVSPropertyOp11
 70
     1
102
RTVSPropertyOp12
 70
     1
102
RTVSPropertyOp13
 70
     1
102
RTVSPropertyOp14
 70
     1
102
RTVSPropertyOp15
 70
     1
102
RTVSPropertyOp16
 70
     1
102
RTVSPropertyOp17
 70
     1
102
RTVSPropertyOp18
 70
     1
102
RTVSPropertyOp19
 70
     1
102
RTVSPropertyOp20
 70
     1
102
RTVSPropertyOp21
 70
     1
102
RTVSPropertyOp22
 70
     1
102
RTVSPropertyOp23
 70
     1
102
RTVSPropertyOp24
 70
     1
102
RTVSPropertyOp25
 70
     1
102
RTVSPropertyOp26
 70
     1
102
RTVSPropertyOp27
 70
     1
102
RTVSPropertyOp28
 70
     1
102
RTVSPropertyOp29
 70
     1
102
RTVSPropertyOp30
 70
     1
102
RTVSPropertyOp31
 70
     1
102
RTVSPropertyOp32
 70
     1
  0
XRECORD
  5
462
102
{ACAD_REACTORS
330
461
102
}
330
461
100
AcDbXrecord
280
     1
102
RTVSPropertyOp0
 70
     1
102
RTVSPropertyOp1
 70
     1
102
RTVSPropertyOp2
 70
     1
102
RTVSPropertyOp3
 70
     1
102
RTVSPropertyOp4
 70
     1
102
RTVSPropertyOp5
 70
     1
102
RTVSPropertyOp6
 70
     1
102
RTVSPropertyOp7
 70
     1
102
RTVSPropertyOp8
 70
     1
102
RTVSPropertyOp9
 70
     1
102
RTVSPropertyOp10
 70
     1
102
RTVSPropertyOp11
 70
     1
102
RTVSPropertyOp12
 70
     1
102
RTVSPropertyOp13
 70
     1
102
RTVSPropertyOp14
 70
     1
102
RTVSPropertyOp15
 70
     1
102
RTVSPropertyOp16
 70
     1
102
RTVSPropertyOp17
 70
     1
102
RTVSPropertyOp18
 70
     1
102
RTVSPropertyOp19
 70
     1
102
RTVSPropertyOp20
 70
     1
102
RTVSPropertyOp21
 70
     1
102
RTVSPropertyOp22
 70
     1
102
RTVSPropertyOp23
 70
     1
102
RTVSPropertyOp24
 70
     1
102
RTVSPropertyOp25
 70
     1
102
RTVSPropertyOp26
 70
     1
102
RTVSPropertyOp27
 70
     1
102
RTVSPropertyOp28
 70
     1
102
RTVSPropertyOp29
 70
     1
102
RTVSPropertyOp30
 70
     1
102
RTVSPropertyOp31
 70
     1
102
RTVSPropertyOp32
 70
     1
  0
XRECORD
  5
466
102
{ACAD_REACTORS
330
465
102
}
330
465
100
AcDbXrecord
280
     1
102
RTVSPropertyOp0
 70
     1
102
RTVSPropertyOp1
 70
     1
102
RTVSPropertyOp2
 70
     1
102
RTVSPropertyOp3
 70
     1
102
RTVSPropertyOp4
 70
     1
102
RTVSPropertyOp5
 70
     1
102
RTVSPropertyOp6
 70
     1
102
RTVSPropertyOp7
 70
     1
102
RTVSPropertyOp8
 70
     1
102
RTVSPropertyOp9
 70
     1
102
RTVSPropertyOp10
 70
     1
102
RTVSPropertyOp11
 70
     1
102
RTVSPropertyOp12
 70
     1
102
RTVSPropertyOp13
 70
     1
102
RTVSPropertyOp14
 70
     1
102
RTVSPropertyOp15
 70
     1
102
RTVSPropertyOp16
 70
     1
102
RTVSPropertyOp17
 70
     1
102
RTVSPropertyOp18
 70
     1
102
RTVSPropertyOp19
 70
     1
102
RTVSPropertyOp20
 70
     1
102
RTVSPropertyOp21
 70
     1
102
RTVSPropertyOp22
 70
     1
102
RTVSPropertyOp23
 70
     1
102
RTVSPropertyOp24
 70
     1
102
RTVSPropertyOp25
 70
     1
102
RTVSPropertyOp26
 70
     1
102
RTVSPropertyOp27
 70
     1
102
RTVSPropertyOp28
 70
     1
102
RTVSPropertyOp29
 70
     1
102
RTVSPropertyOp30
 70
     1
102
RTVSPropertyOp31
 70
     1
102
RTVSPropertyOp32
 70
     1
  0
XRECORD
  5
480
102
{ACAD_REACTORS
330
47F
102
}
330
47F
100
AcDbXrecord
280
     1
102
RTVSPropertyOp0
 70
     0
102
RTVSPropertyOp1
 70
     0
102
RTVSPropertyOp2
 70
     0
102
RTVSPropertyOp3
 70
     0
102
RTVSPropertyOp4
 70
     0
102
RTVSPropertyOp5
 70
     0
102
RTVSPropertyOp6
 70
     0
102
RTVSPropertyOp7
 70
     0
102
RTVSPropertyOp8
 70
     0
102
RTVSPropertyOp9
 70
     0
102
RTVSPropertyOp10
 70
     0
102
RTVSPropertyOp11
 70
     0
102
RTVSPropertyOp12
 70
     0
102
RTVSPropertyOp13
 70
     0
102
RTVSPropertyOp14
 70
     2
102
RTVSPropertyOp15
 70
     0
102
RTVSPropertyOp16
 70
     0
102
RTVSPropertyOp17
 70
     0
102
RTVSPropertyOp18
 70
     0
102
RTVSPropertyOp19
 70
     0
102
RTVSPropertyOp20
 70
     0
102
RTVSPropertyOp21
 70
     0
102
RTVSPropertyOp22
 70
     0
102
RTVSPropertyOp23
 70
     0
102
RTVSPropertyOp24
 70
     0
102
RTVSPropertyOp25
 70
     0
102
RTVSPropertyOp26
 70
     0
102
RTVSPropertyOp27
 70
     0
102
RTVSPropertyOp28
 70
     0
102
RTVSPropertyOp29
 70
     0
102
RTVSPropertyOp30
 70
     0
102
RTVSPropertyOp31
 70
     0
102
RTVSPropertyOp32
 70
     0
  0
XRECORD
  5
46E
102
{ACAD_REACTORS
330
46D
102
}
330
46D
100
AcDbXrecord
280
     1
102
RTVSPropertyOp0
 70
     1
102
RTVSPropertyOp1
 70
     1
102
RTVSPropertyOp2
 70
     1
102
RTVSPropertyOp3
 70
     1
102
RTVSPropertyOp4
 70
     1
102
RTVSPropertyOp5
 70
     1
102
RTVSPropertyOp6
 70
     1
102
RTVSPropertyOp7
 70
     1
102
RTVSPropertyOp8
 70
     1
102
RTVSPropertyOp9
 70
     1
102
RTVSPropertyOp10
 70
     1
102
RTVSPropertyOp11
 70
     1
102
RTVSPropertyOp12
 70
     1
102
RTVSPropertyOp13
 70
     1
102
RTVSPropertyOp14
 70
     1
102
RTVSPropertyOp15
 70
     1
102
RTVSPropertyOp16
 70
     1
102
RTVSPropertyOp17
 70
     1
102
RTVSPropertyOp18
 70
     1
102
RTVSPropertyOp19
 70
     1
102
RTVSPropertyOp20
 70
     1
102
RTVSPropertyOp21
 70
     1
102
RTVSPropertyOp22
 70
     1
102
RTVSPropertyOp23
 70
     1
102
RTVSPropertyOp24
 70
     1
102
RTVSPropertyOp25
 70
     1
102
RTVSPropertyOp26
 70
     1
102
RTVSPropertyOp27
 70
     1
102
RTVSPropertyOp28
 70
     1
102
RTVSPropertyOp29
 70
     1
102
RTVSPropertyOp30
 70
     1
102
RTVSPropertyOp31
 70
     1
102
RTVSPropertyOp32
 70
     1
  0
XRECORD
  5
452
102
{ACAD_REACTORS
330
451
102
}
330
451
100
AcDbXrecord
280
     1
102
RTVSPropertyOp0
 70
     1
102
RTVSPropertyOp1
 70
     1
102
RTVSPropertyOp2
 70
     1
102
RTVSPropertyOp3
 70
     1
102
RTVSPropertyOp4
 70
     1
102
RTVSPropertyOp5
 70
     1
102
RTVSPropertyOp6
 70
     1
102
RTVSPropertyOp7
 70
     1
102
RTVSPropertyOp8
 70
     1
102
RTVSPropertyOp9
 70
     1
102
RTVSPropertyOp10
 70
     1
102
RTVSPropertyOp11
 70
     1
102
RTVSPropertyOp12
 70
     1
102
RTVSPropertyOp13
 70
     1
102
RTVSPropertyOp14
 70
     1
102
RTVSPropertyOp15
 70
     1
102
RTVSPropertyOp16
 70
     1
102
RTVSPropertyOp17
 70
     1
102
RTVSPropertyOp18
 70
     1
102
RTVSPropertyOp19
 70
     1
102
RTVSPropertyOp20
 70
     1
102
RTVSPropertyOp21
 70
     1
102
RTVSPropertyOp22
 70
     1
102
RTVSPropertyOp23
 70
     1
102
RTVSPropertyOp24
 70
     1
102
RTVSPropertyOp25
 70
     1
102
RTVSPropertyOp26
 70
     1
102
RTVSPropertyOp27
 70
     1
102
RTVSPropertyOp28
 70
     1
102
RTVSPropertyOp29
 70
     1
102
RTVSPropertyOp30
 70
     1
102
RTVSPropertyOp31
 70
     1
102
RTVSPropertyOp32
 70
     1
  0
XRECORD
  5
454
102
{ACAD_REACTORS
330
453
102
}
330
453
100
AcDbXrecord
280
     1
102
RTVSPropertyOp0
 70
     1
102
RTVSPropertyOp1
 70
     1
102
RTVSPropertyOp2
 70
     1
102
RTVSPropertyOp3
 70
     1
102
RTVSPropertyOp4
 70
     1
102
RTVSPropertyOp5
 70
     1
102
RTVSPropertyOp6
 70
     1
102
RTVSPropertyOp7
 70
     1
102
RTVSPropertyOp8
 70
     1
102
RTVSPropertyOp9
 70
     1
102
RTVSPropertyOp10
 70
     1
102
RTVSPropertyOp11
 70
     1
102
RTVSPropertyOp12
 70
     1
102
RTVSPropertyOp13
 70
     1
102
RTVSPropertyOp14
 70
     1
102
RTVSPropertyOp15
 70
     1
102
RTVSPropertyOp16
 70
     1
102
RTVSPropertyOp17
 70
     1
102
RTVSPropertyOp18
 70
     1
102
RTVSPropertyOp19
 70
     1
102
RTVSPropertyOp20
 70
     1
102
RTVSPropertyOp21
 70
     1
102
RTVSPropertyOp22
 70
     1
102
RTVSPropertyOp23
 70
     1
102
RTVSPropertyOp24
 70
     1
102
RTVSPropertyOp25
 70
     1
102
RTVSPropertyOp26
 70
     1
102
RTVSPropertyOp27
 70
     1
102
RTVSPropertyOp28
 70
     1
102
RTVSPropertyOp29
 70
     1
102
RTVSPropertyOp30
 70
     1
102
RTVSPropertyOp31
 70
     1
102
RTVSPropertyOp32
 70
     1
  0
XRECORD
  5
456
102
{ACAD_REACTORS
330
455
102
}
330
455
100
AcDbXrecord
280
     1
102
RTVSPropertyOp0
 70
     1
102
RTVSPropertyOp1
 70
     1
102
RTVSPropertyOp2
 70
     1
102
RTVSPropertyOp3
 70
     1
102
RTVSPropertyOp4
 70
     1
102
RTVSPropertyOp5
 70
     1
102
RTVSPropertyOp6
 70
     1
102
RTVSPropertyOp7
 70
     1
102
RTVSPropertyOp8
 70
     1
102
RTVSPropertyOp9
 70
     1
102
RTVSPropertyOp10
 70
     1
102
RTVSPropertyOp11
 70
     1
102
RTVSPropertyOp12
 70
     1
102
RTVSPropertyOp13
 70
     1
102
RTVSPropertyOp14
 70
     1
102
RTVSPropertyOp15
 70
     1
102
RTVSPropertyOp16
 70
     1
102
RTVSPropertyOp17
 70
     1
102
RTVSPropertyOp18
 70
     1
102
RTVSPropertyOp19
 70
     1
102
RTVSPropertyOp20
 70
     1
102
RTVSPropertyOp21
 70
     1
102
RTVSPropertyOp22
 70
     1
102
RTVSPropertyOp23
 70
     1
102
RTVSPropertyOp24
 70
     1
102
RTVSPropertyOp25
 70
     1
102
RTVSPropertyOp26
 70
     1
102
RTVSPropertyOp27
 70
     1
102
RTVSPropertyOp28
 70
     1
102
RTVSPropertyOp29
 70
     1
102
RTVSPropertyOp30
 70
     1
102
RTVSPropertyOp31
 70
     1
102
RTVSPropertyOp32
 70
     1
  0
XRECORD
  5
458
102
{ACAD_REACTORS
330
457
102
}
330
457
100
AcDbXrecord
280
     1
102
RTVSPropertyOp0
 70
     1
102
RTVSPropertyOp1
 70
     1
102
RTVSPropertyOp2
 70
     1
102
RTVSPropertyOp3
 70
     1
102
RTVSPropertyOp4
 70
     1
102
RTVSPropertyOp5
 70
     1
102
RTVSPropertyOp6
 70
     1
102
RTVSPropertyOp7
 70
     1
102
RTVSPropertyOp8
 70
     1
102
RTVSPropertyOp9
 70
     1
102
RTVSPropertyOp10
 70
     1
102
RTVSPropertyOp11
 70
     1
102
RTVSPropertyOp12
 70
     1
102
RTVSPropertyOp13
 70
     1
102
RTVSPropertyOp14
 70
     1
102
RTVSPropertyOp15
 70
     1
102
RTVSPropertyOp16
 70
     1
102
RTVSPropertyOp17
 70
     1
102
RTVSPropertyOp18
 70
     1
102
RTVSPropertyOp19
 70
     1
102
RTVSPropertyOp20
 70
     1
102
RTVSPropertyOp21
 70
     1
102
RTVSPropertyOp22
 70
     1
102
RTVSPropertyOp23
 70
     1
102
RTVSPropertyOp24
 70
     1
102
RTVSPropertyOp25
 70
     1
102
RTVSPropertyOp26
 70
     1
102
RTVSPropertyOp27
 70
     1
102
RTVSPropertyOp28
 70
     1
102
RTVSPropertyOp29
 70
     1
102
RTVSPropertyOp30
 70
     1
102
RTVSPropertyOp31
 70
     1
102
RTVSPropertyOp32
 70
     1
  0
XRECORD
  5
460
102
{ACAD_REACTORS
330
45F
102
}
330
45F
100
AcDbXrecord
280
     1
102
RTVSPropertyOp0
 70
     1
102
RTVSPropertyOp1
 70
     1
102
RTVSPropertyOp2
 70
     1
102
RTVSPropertyOp3
 70
     1
102
RTVSPropertyOp4
 70
     1
102
RTVSPropertyOp5
 70
     1
102
RTVSPropertyOp6
 70
     1
102
RTVSPropertyOp7
 70
     1
102
RTVSPropertyOp8
 70
     1
102
RTVSPropertyOp9
 70
     1
102
RTVSPropertyOp10
 70
     1
102
RTVSPropertyOp11
 70
     1
102
RTVSPropertyOp12
 70
     1
102
RTVSPropertyOp13
 70
     1
102
RTVSPropertyOp14
 70
     1
102
RTVSPropertyOp15
 70
     1
102
RTVSPropertyOp16
 70
     1
102
RTVSPropertyOp17
 70
     1
102
RTVSPropertyOp18
 70
     1
102
RTVSPropertyOp19
 70
     1
102
RTVSPropertyOp20
 70
     1
102
RTVSPropertyOp21
 70
     1
102
RTVSPropertyOp22
 70
     1
102
RTVSPropertyOp23
 70
     1
102
RTVSPropertyOp24
 70
     1
102
RTVSPropertyOp25
 70
     1
102
RTVSPropertyOp26
 70
     1
102
RTVSPropertyOp27
 70
     1
102
RTVSPropertyOp28
 70
     1
102
RTVSPropertyOp29
 70
     1
102
RTVSPropertyOp30
 70
     1
102
RTVSPropertyOp31
 70
     1
102
RTVSPropertyOp32
 70
     1
  0
XRECORD
  5
47C
102
{ACAD_REACTORS
330
47B
102
}
330
47B
100
AcDbXrecord
280
     1
102
RTVSPropertyOp0
 70
     0
102
RTVSPropertyOp1
 70
     0
102
RTVSPropertyOp2
 70
     0
102
RTVSPropertyOp3
 70
     0
102
RTVSPropertyOp4
 70
     0
102
RTVSPropertyOp5
 70
     0
102
RTVSPropertyOp6
 70
     0
102
RTVSPropertyOp7
 70
     0
102
RTVSPropertyOp8
 70
     0
102
RTVSPropertyOp9
 70
     0
102
RTVSPropertyOp10
 70
     0
102
RTVSPropertyOp11
 70
     0
102
RTVSPropertyOp12
 70
     0
102
RTVSPropertyOp13
 70
     0
102
RTVSPropertyOp14
 70
     2
102
RTVSPropertyOp15
 70
     0
102
RTVSPropertyOp16
 70
     0
102
RTVSPropertyOp17
 70
     0
102
RTVSPropertyOp18
 70
     0
102
RTVSPropertyOp19
 70
     0
102
RTVSPropertyOp20
 70
     0
102
RTVSPropertyOp21
 70
     0
102
RTVSPropertyOp22
 70
     0
102
RTVSPropertyOp23
 70
     0
102
RTVSPropertyOp24
 70
     0
102
RTVSPropertyOp25
 70
     0
102
RTVSPropertyOp26
 70
     0
102
RTVSPropertyOp27
 70
     0
102
RTVSPropertyOp28
 70
     0
102
RTVSPropertyOp29
 70
     0
102
RTVSPropertyOp30
 70
     0
102
RTVSPropertyOp31
 70
     0
102
RTVSPropertyOp32
 70
     0
  0
XRECORD
  5
46C
102
{ACAD_REACTORS
330
46B
102
}
330
46B
100
AcDbXrecord
280
     1
102
RTVSPropertyOp0
 70
     1
102
RTVSPropertyOp1
 70
     1
102
RTVSPropertyOp2
 70
     1
102
RTVSPropertyOp3
 70
     1
102
RTVSPropertyOp4
 70
     1
102
RTVSPropertyOp5
 70
     1
102
RTVSPropertyOp6
 70
     1
102
RTVSPropertyOp7
 70
     1
102
RTVSPropertyOp8
 70
     1
102
RTVSPropertyOp9
 70
     1
102
RTVSPropertyOp10
 70
     1
102
RTVSPropertyOp11
 70
     1
102
RTVSPropertyOp12
 70
     1
102
RTVSPropertyOp13
 70
     1
102
RTVSPropertyOp14
 70
     1
102
RTVSPropertyOp15
 70
     1
102
RTVSPropertyOp16
 70
     1
102
RTVSPropertyOp17
 70
     1
102
RTVSPropertyOp18
 70
     1
102
RTVSPropertyOp19
 70
     1
102
RTVSPropertyOp20
 70
     1
102
RTVSPropertyOp21
 70
     1
102
RTVSPropertyOp22
 70
     1
102
RTVSPropertyOp23
 70
     1
102
RTVSPropertyOp24
 70
     1
102
RTVSPropertyOp25
 70
     1
102
RTVSPropertyOp26
 70
     1
102
RTVSPropertyOp27
 70
     1
102
RTVSPropertyOp28
 70
     1
102
RTVSPropertyOp29
 70
     1
102
RTVSPropertyOp30
 70
     1
102
RTVSPropertyOp31
 70
     1
102
RTVSPropertyOp32
 70
     1
  0
XRECORD
  5
47E
102
{ACAD_REACTORS
330
47D
102
}
330
47D
100
AcDbXrecord
280
     1
102
RTVSPropertyOp0
 70
     0
102
RTVSPropertyOp1
 70
     0
102
RTVSPropertyOp2
 70
     0
102
RTVSPropertyOp3
 70
     0
102
RTVSPropertyOp4
 70
     0
102
RTVSPropertyOp5
 70
     0
102
RTVSPropertyOp6
 70
     0
102
RTVSPropertyOp7
 70
     0
102
RTVSPropertyOp8
 70
     0
102
RTVSPropertyOp9
 70
     0
102
RTVSPropertyOp10
 70
     0
102
RTVSPropertyOp11
 70
     0
102
RTVSPropertyOp12
 70
     0
102
RTVSPropertyOp13
 70
     0
102
RTVSPropertyOp14
 70
     2
102
RTVSPropertyOp15
 70
     0
102
RTVSPropertyOp16
 70
     0
102
RTVSPropertyOp17
 70
     0
102
RTVSPropertyOp18
 70
     0
102
RTVSPropertyOp19
 70
     0
102
RTVSPropertyOp20
 70
     0
102
RTVSPropertyOp21
 70
     0
102
RTVSPropertyOp22
 70
     0
102
RTVSPropertyOp23
 70
     0
102
RTVSPropertyOp24
 70
     0
102
RTVSPropertyOp25
 70
     0
102
RTVSPropertyOp26
 70
     0
102
RTVSPropertyOp27
 70
     0
102
RTVSPropertyOp28
 70
     0
102
RTVSPropertyOp29
 70
     0
102
RTVSPropertyOp30
 70
     0
102
RTVSPropertyOp31
 70
     0
102
RTVSPropertyOp32
 70
     0
  0
XRECORD
  5
464
102
{ACAD_REACTORS
330
463
102
}
330
463
100
AcDbXrecord
280
     1
102
RTVSPropertyOp0
 70
     1
102
RTVSPropertyOp1
 70
     1
102
RTVSPropertyOp2
 70
     1
102
RTVSPropertyOp3
 70
     1
102
RTVSPropertyOp4
 70
     1
102
RTVSPropertyOp5
 70
     1
102
RTVSPropertyOp6
 70
     1
102
RTVSPropertyOp7
 70
     1
102
RTVSPropertyOp8
 70
     1
102
RTVSPropertyOp9
 70
     1
102
RTVSPropertyOp10
 70
     1
102
RTVSPropertyOp11
 70
     1
102
RTVSPropertyOp12
 70
     1
102
RTVSPropertyOp13
 70
     1
102
RTVSPropertyOp14
 70
     1
102
RTVSPropertyOp15
 70
     1
102
RTVSPropertyOp16
 70
     1
102
RTVSPropertyOp17
 70
     1
102
RTVSPropertyOp18
 70
     1
102
RTVSPropertyOp19
 70
     1
102
RTVSPropertyOp20
 70
     1
102
RTVSPropertyOp21
 70
     1
102
RTVSPropertyOp22
 70
     1
102
RTVSPropertyOp23
 70
     1
102
RTVSPropertyOp24
 70
     1
102
RTVSPropertyOp25
 70
     1
102
RTVSPropertyOp26
 70
     1
102
RTVSPropertyOp27
 70
     1
102
RTVSPropertyOp28
 70
     1
102
RTVSPropertyOp29
 70
     1
102
RTVSPropertyOp30
 70
     1
102
RTVSPropertyOp31
 70
     1
102
RTVSPropertyOp32
 70
     1
  0
XRECORD
  5
47A
102
{ACAD_REACTORS
330
479
102
}
330
479
100
AcDbXrecord
280
     1
102
RTVSPropertyOp0
 70
     1
102
RTVSPropertyOp1
 70
     1
102
RTVSPropertyOp2
 70
     1
102
RTVSPropertyOp3
 70
     1
102
RTVSPropertyOp4
 70
     1
102
RTVSPropertyOp5
 70
     1
102
RTVSPropertyOp6
 70
     1
102
RTVSPropertyOp7
 70
     1
102
RTVSPropertyOp8
 70
     1
102
RTVSPropertyOp9
 70
     1
102
RTVSPropertyOp10
 70
     1
102
RTVSPropertyOp11
 70
     1
102
RTVSPropertyOp12
 70
     1
102
RTVSPropertyOp13
 70
     1
102
RTVSPropertyOp14
 70
     1
102
RTVSPropertyOp15
 70
     1
102
RTVSPropertyOp16
 70
     1
102
RTVSPropertyOp17
 70
     1
102
RTVSPropertyOp18
 70
     1
102
RTVSPropertyOp19
 70
     1
102
RTVSPropertyOp20
 70
     1
102
RTVSPropertyOp21
 70
     1
102
RTVSPropertyOp22
 70
     1
102
RTVSPropertyOp23
 70
     1
102
RTVSPropertyOp24
 70
     1
102
RTVSPropertyOp25
 70
     1
102
RTVSPropertyOp26
 70
     1
102
RTVSPropertyOp27
 70
     1
102
RTVSPropertyOp28
 70
     1
102
RTVSPropertyOp29
 70
     1
102
RTVSPropertyOp30
 70
     1
102
RTVSPropertyOp31
 70
     1
102
RTVSPropertyOp32
 70
     1
  0
XRECORD
  5
478
102
{ACAD_REACTORS
330
477
102
}
330
477
100
AcDbXrecord
280
     1
102
RTVSPropertyOp0
 70
     1
102
RTVSPropertyOp1
 70
     1
102
RTVSPropertyOp2
 70
     1
102
RTVSPropertyOp3
 70
     1
102
RTVSPropertyOp4
 70
     1
102
RTVSPropertyOp5
 70
     1
102
RTVSPropertyOp6
 70
     1
102
RTVSPropertyOp7
 70
     1
102
RTVSPropertyOp8
 70
     1
102
RTVSPropertyOp9
 70
     1
102
RTVSPropertyOp10
 70
     1
102
RTVSPropertyOp11
 70
     1
102
RTVSPropertyOp12
 70
     1
102
RTVSPropertyOp13
 70
     1
102
RTVSPropertyOp14
 70
     1
102
RTVSPropertyOp15
 70
     1
102
RTVSPropertyOp16
 70
     1
102
RTVSPropertyOp17
 70
     1
102
RTVSPropertyOp18
 70
     1
102
RTVSPropertyOp19
 70
     1
102
RTVSPropertyOp20
 70
     1
102
RTVSPropertyOp21
 70
     1
102
RTVSPropertyOp22
 70
     1
102
RTVSPropertyOp23
 70
     1
102
RTVSPropertyOp24
 70
     1
102
RTVSPropertyOp25
 70
     1
102
RTVSPropertyOp26
 70
     1
102
RTVSPropertyOp27
 70
     1
102
RTVSPropertyOp28
 70
     1
102
RTVSPropertyOp29
 70
     1
102
RTVSPropertyOp30
 70
     1
102
RTVSPropertyOp31
 70
     1
102
RTVSPropertyOp32
 70
     1
  0
XRECORD
  5
472
102
{ACAD_REACTORS
330
471
102
}
330
471
100
AcDbXrecord
280
     1
102
RTVSPropertyOp0
 70
     1
102
RTVSPropertyOp1
 70
     1
102
RTVSPropertyOp2
 70
     1
102
RTVSPropertyOp3
 70
     1
102
RTVSPropertyOp4
 70
     1
102
RTVSPropertyOp5
 70
     1
102
RTVSPropertyOp6
 70
     1
102
RTVSPropertyOp7
 70
     1
102
RTVSPropertyOp8
 70
     1
102
RTVSPropertyOp9
 70
     1
102
RTVSPropertyOp10
 70
     1
102
RTVSPropertyOp11
 70
     1
102
RTVSPropertyOp12
 70
     1
102
RTVSPropertyOp13
 70
     1
102
RTVSPropertyOp14
 70
     1
102
RTVSPropertyOp15
 70
     1
102
RTVSPropertyOp16
 70
     1
102
RTVSPropertyOp17
 70
     1
102
RTVSPropertyOp18
 70
     1
102
RTVSPropertyOp19
 70
     1
102
RTVSPropertyOp20
 70
     1
102
RTVSPropertyOp21
 70
     1
102
RTVSPropertyOp22
 70
     1
102
RTVSPropertyOp23
 70
     1
102
RTVSPropertyOp24
 70
     1
102
RTVSPropertyOp25
 70
     1
102
RTVSPropertyOp26
 70
     1
102
RTVSPropertyOp27
 70
     1
102
RTVSPropertyOp28
 70
     1
102
RTVSPropertyOp29
 70
     1
102
RTVSPropertyOp30
 70
     1
102
RTVSPropertyOp31
 70
     1
102
RTVSPropertyOp32
 70
     1
  0
XRECORD
  5
474
102
{ACAD_REACTORS
330
473
102
}
330
473
100
AcDbXrecord
280
     1
102
RTVSPropertyOp0
 70
     1
102
RTVSPropertyOp1
 70
     1
102
RTVSPropertyOp2
 70
     1
102
RTVSPropertyOp3
 70
     1
102
RTVSPropertyOp4
 70
     1
102
RTVSPropertyOp5
 70
     1
102
RTVSPropertyOp6
 70
     1
102
RTVSPropertyOp7
 70
     1
102
RTVSPropertyOp8
 70
     1
102
RTVSPropertyOp9
 70
     1
102
RTVSPropertyOp10
 70
     1
102
RTVSPropertyOp11
 70
     1
102
RTVSPropertyOp12
 70
     1
102
RTVSPropertyOp13
 70
     1
102
RTVSPropertyOp14
 70
     1
102
RTVSPropertyOp15
 70
     1
102
RTVSPropertyOp16
 70
     1
102
RTVSPropertyOp17
 70
     1
102
RTVSPropertyOp18
 70
     1
102
RTVSPropertyOp19
 70
     1
102
RTVSPropertyOp20
 70
     1
102
RTVSPropertyOp21
 70
     1
102
RTVSPropertyOp22
 70
     1
102
RTVSPropertyOp23
 70
     1
102
RTVSPropertyOp24
 70
     1
102
RTVSPropertyOp25
 70
     1
102
RTVSPropertyOp26
 70
     1
102
RTVSPropertyOp27
 70
     1
102
RTVSPropertyOp28
 70
     1
102
RTVSPropertyOp29
 70
     1
102
RTVSPropertyOp30
 70
     1
102
RTVSPropertyOp31
 70
     1
102
RTVSPropertyOp32
 70
     1
  0
XRECORD
  5
46A
102
{ACAD_REACTORS
330
469
102
}
330
469
100
AcDbXrecord
280
     1
102
RTVSPropertyOp0
 70
     1
102
RTVSPropertyOp1
 70
     1
102
RTVSPropertyOp2
 70
     1
102
RTVSPropertyOp3
 70
     1
102
RTVSPropertyOp4
 70
     1
102
RTVSPropertyOp5
 70
     1
102
RTVSPropertyOp6
 70
     1
102
RTVSPropertyOp7
 70
     1
102
RTVSPropertyOp8
 70
     1
102
RTVSPropertyOp9
 70
     1
102
RTVSPropertyOp10
 70
     1
102
RTVSPropertyOp11
 70
     1
102
RTVSPropertyOp12
 70
     1
102
RTVSPropertyOp13
 70
     1
102
RTVSPropertyOp14
 70
     1
102
RTVSPropertyOp15
 70
     1
102
RTVSPropertyOp16
 70
     1
102
RTVSPropertyOp17
 70
     1
102
RTVSPropertyOp18
 70
     1
102
RTVSPropertyOp19
 70
     1
102
RTVSPropertyOp20
 70
     1
102
RTVSPropertyOp21
 70
     1
102
RTVSPropertyOp22
 70
     1
102
RTVSPropertyOp23
 70
     1
102
RTVSPropertyOp24
 70
     1
102
RTVSPropertyOp25
 70
     1
102
RTVSPropertyOp26
 70
     1
102
RTVSPropertyOp27
 70
     1
102
RTVSPropertyOp28
 70
     1
102
RTVSPropertyOp29
 70
     1
102
RTVSPropertyOp30
 70
     1
102
RTVSPropertyOp31
 70
     1
102
RTVSPropertyOp32
 70
     1
  0
XRECORD
  5
45E
102
{ACAD_REACTORS
330
45D
102
}
330
45D
100
AcDbXrecord
280
     1
102
RTVSPropertyOp0
 70
     1
102
RTVSPropertyOp1
 70
     1
102
RTVSPropertyOp2
 70
     1
102
RTVSPropertyOp3
 70
     1
102
RTVSPropertyOp4
 70
     1
102
RTVSPropertyOp5
 70
     1
102
RTVSPropertyOp6
 70
     1
102
RTVSPropertyOp7
 70
     1
102
RTVSPropertyOp8
 70
     1
102
RTVSPropertyOp9
 70
     1
102
RTVSPropertyOp10
 70
     1
102
RTVSPropertyOp11
 70
     1
102
RTVSPropertyOp12
 70
     1
102
RTVSPropertyOp13
 70
     1
102
RTVSPropertyOp14
 70
     1
102
RTVSPropertyOp15
 70
     1
102
RTVSPropertyOp16
 70
     1
102
RTVSPropertyOp17
 70
     1
102
RTVSPropertyOp18
 70
     1
102
RTVSPropertyOp19
 70
     1
102
RTVSPropertyOp20
 70
     1
102
RTVSPropertyOp21
 70
     1
102
RTVSPropertyOp22
 70
     1
102
RTVSPropertyOp23
 70
     1
102
RTVSPropertyOp24
 70
     1
102
RTVSPropertyOp25
 70
     1
102
RTVSPropertyOp26
 70
     1
102
RTVSPropertyOp27
 70
     1
102
RTVSPropertyOp28
 70
     1
102
RTVSPropertyOp29
 70
     1
102
RTVSPropertyOp30
 70
     1
102
RTVSPropertyOp31
 70
     1
102
RTVSPropertyOp32
 70
     1
  0
XRECORD
  5
476
102
{ACAD_REACTORS
330
475
102
}
330
475
100
AcDbXrecord
280
     1
102
RTVSPropertyOp0
 70
     1
102
RTVSPropertyOp1
 70
     1
102
RTVSPropertyOp2
 70
     1
102
RTVSPropertyOp3
 70
     1
102
RTVSPropertyOp4
 70
     1
102
RTVSPropertyOp5
 70
     1
102
RTVSPropertyOp6
 70
     1
102
RTVSPropertyOp7
 70
     1
102
RTVSPropertyOp8
 70
     1
102
RTVSPropertyOp9
 70
     1
102
RTVSPropertyOp10
 70
     1
102
RTVSPropertyOp11
 70
     1
102
RTVSPropertyOp12
 70
     1
102
RTVSPropertyOp13
 70
     1
102
RTVSPropertyOp14
 70
     1
102
RTVSPropertyOp15
 70
     1
102
RTVSPropertyOp16
 70
     1
102
RTVSPropertyOp17
 70
     1
102
RTVSPropertyOp18
 70
     1
102
RTVSPropertyOp19
 70
     1
102
RTVSPropertyOp20
 70
     1
102
RTVSPropertyOp21
 70
     1
102
RTVSPropertyOp22
 70
     1
102
RTVSPropertyOp23
 70
     1
102
RTVSPropertyOp24
 70
     1
102
RTVSPropertyOp25
 70
     1
102
RTVSPropertyOp26
 70
     1
102
RTVSPropertyOp27
 70
     1
102
RTVSPropertyOp28
 70
     1
102
RTVSPropertyOp29
 70
     1
102
RTVSPropertyOp30
 70
     1
102
RTVSPropertyOp31
 70
     1
102
RTVSPropertyOp32
 70
     1
  0
ENDSEC
  0
EOF
