  0
SECTION
  2
HEADER
  9
$ACADVER
  1
AC1015
  9
$ACADMAINTVER
 70
    20
  9
$DWGCODEPAGE
  3
ANSI_932
  9
$INSBASE
 10
0.0
 20
0.0
 30
0.0
  9
$EXTMIN
 10
-242.6854942972724
 20
-230.2937353348962
 30
-0.0000000349181948
  9
$EXTMAX
 10
-165.0643326312612
 20
-167.8946787584805
 30
0.0000000814935747
  9
$LIMMIN
 10
-340.0158992817687
 20
-304.4940201687149
  9
$LIMMAX
 10
-69.01589928176867
 20
-121.4940201687149
  9
$ORTHOMODE
 70
     0
  9
$REGENMODE
 70
     1
  9
$FILLMODE
 70
     1
  9
$QTEXTMODE
 70
     0
  9
$MIRRTEXT
 70
     0
  9
$LTSCALE
 40
1.0
  9
$ATTMODE
 70
     1
  9
$TEXTSIZE
 40
3.5
  9
$TRACEWID
 40
0.5
  9
$TEXTSTYLE
  7
STANDARD
  9
$CLAYER
  8
0
  9
$CELTYPE
  6
ByLayer
  9
$CECOLOR
 62
   256
  9
$CELTSCALE
 40
1.0
  9
$DISPSILH
 70
     0
  9
$DIMSCALE
 40
1.0
  9
$DIMASZ
 40
0.18
  9
$DIMEXO
 40
0.0625
  9
$DIMDLI
 40
0.38
  9
$DIMRND
 40
0.0
  9
$DIMDLE
 40
0.0
  9
$DIMEXE
 40
0.18
  9
$DIMTP
 40
0.0
  9
$DIMTM
 40
0.0
  9
$DIMTXT
 40
0.18
  9
$DIMCEN
 40
0.09
  9
$DIMTSZ
 40
0.0
  9
$DIMTOL
 70
     0
  9
$DIMLIM
 70
     0
  9
$DIMTIH
 70
     1
  9
$DIMTOH
 70
     1
  9
$DIMSE1
 70
     0
  9
$DIMSE2
 70
     0
  9
$DIMTAD
 70
     0
  9
$DIMZIN
 70
     0
  9
$DIMBLK
  1

  9
$DIMASO
 70
     1
  9
$DIMSHO
 70
     1
  9
$DIMPOST
  1

  9
$DIMAPOST
  1

  9
$DIMALT
 70
     0
  9
$DIMALTD
 70
     2
  9
$DIMALTF
 40
25.4
  9
$DIMLFAC
 40
1.0
  9
$DIMTOFL
 70
     0
  9
$DIMTVP
 40
0.0
  9
$DIMTIX
 70
     0
  9
$DIMSOXD
 70
     0
  9
$DIMSAH
 70
     0
  9
$DIMBLK1
  1

  9
$DIMBLK2
  1

  9
$DIMSTYLE
  2
Standard
  9
$DIMCLRD
 70
     0
  9
$DIMCLRE
 70
     0
  9
$DIMCLRT
 70
     0
  9
$DIMTFAC
 40
1.0
  9
$DIMGAP
 40
0.09
  9
$DIMJUST
 70
     0
  9
$DIMSD1
 70
     0
  9
$DIMSD2
 70
     0
  9
$DIMTOLJ
 70
     1
  9
$DIMTZIN
 70
     0
  9
$DIMALTZ
 70
     0
  9
$DIMALTTZ
 70
     0
  9
$DIMUPT
 70
     0
  9
$DIMDEC
 70
     4
  9
$DIMTDEC
 70
     4
  9
$DIMALTU
 70
     2
  9
$DIMALTTD
 70
     2
  9
$DIMTXSTY
  7
STANDARD
  9
$DIMAUNIT
 70
     0
  9
$DIMADEC
 70
     0
  9
$DIMALTRND
 40
0.0
  9
$DIMAZIN
 70
     0
  9
$DIMDSEP
 70
    46
  9
$DIMATFIT
 70
     3
  9
$DIMFRAC
 70
     0
  9
$DIMLDRBLK
  1

  9
$DIMLUNIT
 70
     2
  9
$DIMLWD
 70
    -2
  9
$DIMLWE
 70
    -2
  9
$DIMTMOVE
 70
     0
  9
$LUNITS
 70
     2
  9
$LUPREC
 70
     4
  9
$SKETCHINC
 40
0.1
  9
$FILLETRAD
 40
2.0
  9
$AUNITS
 70
     0
  9
$AUPREC
 70
     0
  9
$MENU
  1
ACAD
  9
$ELEVATION
 40
0.0
  9
$PELEVATION
 40
0.0
  9
$THICKNESS
 40
0.0
  9
$LIMCHECK
 70
     0
  9
$CHAMFERA
 40
0.0
  9
$CHAMFERB
 40
0.0
  9
$CHAMFERC
 40
0.0
  9
$CHAMFERD
 40
0.0
  9
$SKPOLY
 70
     0
  9
$TDCREATE
 40
2457585.605708750
  9
$TDUCREATE
 40
2457585.230708750
  9
$TDUPDATE
 40
2457585.607625336
  9
$TDUUPDATE
 40
2457585.232625335
  9
$TDINDWG
 40
0.0017661343
  9
$TDUSRTIMER
 40
0.0017661343
  9
$USRTIMER
 70
     1
  9
$ANGBASE
 50
0.0
  9
$ANGDIR
 70
     0
  9
$PDMODE
 70
     0
  9
$PDSIZE
 40
0.0
  9
$PLINEWID
 40
0.0
  9
$SPLFRAME
 70
     0
  9
$SPLINETYPE
 70
     6
  9
$SPLINESEGS
 70
     8
  9
$HANDSEED
  5
39B
  9
$SURFTAB1
 70
     6
  9
$SURFTAB2
 70
     6
  9
$SURFTYPE
 70
     6
  9
$SURFU
 70
     6
  9
$SURFV
 70
     6
  9
$UCSBASE
  2

  9
$UCSNAME
  2

  9
$UCSORG
 10
0.0
 20
0.0
 30
0.0
  9
$UCSXDIR
 10
1.0
 20
0.0
 30
0.0
  9
$UCSYDIR
 10
0.0
 20
1.0
 30
0.0
  9
$UCSORTHOREF
  2

  9
$UCSORTHOVIEW
 70
     0
  9
$UCSORGTOP
 10
0.0
 20
0.0
 30
0.0
  9
$UCSORGBOTTOM
 10
0.0
 20
0.0
 30
0.0
  9
$UCSORGLEFT
 10
0.0
 20
0.0
 30
0.0
  9
$UCSORGRIGHT
 10
0.0
 20
0.0
 30
0.0
  9
$UCSORGFRONT
 10
0.0
 20
0.0
 30
0.0
  9
$UCSORGBACK
 10
0.0
 20
0.0
 30
0.0
  9
$PUCSBASE
  2

  9
$PUCSNAME
  2

  9
$PUCSORG
 10
0.0
 20
0.0
 30
0.0
  9
$PUCSXDIR
 10
1.0
 20
0.0
 30
0.0
  9
$PUCSYDIR
 10
0.0
 20
1.0
 30
0.0
  9
$PUCSORTHOREF
  2

  9
$PUCSORTHOVIEW
 70
     0
  9
$PUCSORGTOP
 10
0.0
 20
0.0
 30
0.0
  9
$PUCSORGBOTTOM
 10
0.0
 20
0.0
 30
0.0
  9
$PUCSORGLEFT
 10
0.0
 20
0.0
 30
0.0
  9
$PUCSORGRIGHT
 10
0.0
 20
0.0
 30
0.0
  9
$PUCSORGFRONT
 10
0.0
 20
0.0
 30
0.0
  9
$PUCSORGBACK
 10
0.0
 20
0.0
 30
0.0
  9
$USERI1
 70
     0
  9
$USERI2
 70
     0
  9
$USERI3
 70
     0
  9
$USERI4
 70
     0
  9
$USERI5
 70
     0
  9
$USERR1
 40
0.0
  9
$USERR2
 40
0.0
  9
$USERR3
 40
0.0
  9
$USERR4
 40
0.0
  9
$USERR5
 40
0.0
  9
$WORLDVIEW
 70
     1
  9
$SHADEDGE
 70
     3
  9
$SHADEDIF
 70
    70
  9
$TILEMODE
 70
     1
  9
$MAXACTVP
 70
    64
  9
$PINSBASE
 10
0.0
 20
0.0
 30
0.0
  9
$PLIMCHECK
 70
     0
  9
$PEXTMIN
 10
1.000000000000000E+20
 20
1.000000000000000E+20
 30
1.000000000000000E+20
  9
$PEXTMAX
 10
-1.000000000000000E+20
 20
-1.000000000000000E+20
 30
-1.000000000000000E+20
  9
$PLIMMIN
 10
0.0
 20
0.0
  9
$PLIMMAX
 10
12.0
 20
9.0
  9
$UNITMODE
 70
     0
  9
$VISRETAIN
 70
     1
  9
$PLINEGEN
 70
     0
  9
$PSLTSCALE
 70
     1
  9
$TREEDEPTH
 70
  3020
  9
$CMLSTYLE
  2
Standard
  9
$CMLJUST
 70
     0
  9
$CMLSCALE
 40
1.0
  9
$PROXYGRAPHICS
 70
     1
  9
$MEASUREMENT
 70
     0
  9
$CELWEIGHT
370
    -1
  9
$ENDCAPS
280
     0
  9
$JOINSTYLE
280
     0
  9
$LWDISPLAY
290
     0
  9
$INSUNITS
 70
     0
  9
$HYPERLINKBASE
  1

  9
$STYLESHEET
  1

  9
$XEDIT
290
     1
  9
$CEPSNTYPE
380
     0
  9
$PSTYLEMODE
290
     1
  9
$FINGERPRINTGUID
  2
{D78994F6-3D3B-45DF-8759-C33B0DD7EB33}
  9
$VERSIONGUID
  2
{1171CEC8-ABBF-46A7-B8A8-8050C7F86F3D}
  9
$EXTNAMES
290
     1
  9
$PSVPSCALE
 40
0.0
  9
$OLESTARTUP
290
     0
  0
ENDSEC
  0
SECTION
  2
CLASSES
  0
CLASS
  1
ACDBDICTIONARYWDFLT
  2
AcDbDictionaryWithDefault
  3
ObjectDBX Classes
 90
        0
280
     0
281
     0
  0
CLASS
  1
MATERIAL
  2
AcDbMaterial
  3
ObjectDBX Classes
 90
     1153
280
     0
281
     0
  0
CLASS
  1
VISUALSTYLE
  2
AcDbVisualStyle
  3
ObjectDBX Classes
 90
     4095
280
     0
281
     0
  0
CLASS
  1
SCALE
  2
AcDbScale
  3
ObjectDBX Classes
 90
     1153
280
     0
281
     0
  0
CLASS
  1
TABLESTYLE
  2
AcDbTableStyle
  3
ObjectDBX Classes
 90
     4095
280
     0
281
     0
  0
CLASS
  1
MLEADERSTYLE
  2
AcDbMLeaderStyle
  3
ACDB_MLEADERSTYLE_CLASS
 90
     4095
280
     0
281
     0
  0
CLASS
  1
SORTENTSTABLE
  2
AcDbSortentsTable
  3
ObjectDBX Classes
 90
        0
280
     0
281
     0
  0
CLASS
  1
DICTIONARYVAR
  2
AcDbDictionaryVar
  3
ObjectDBX Classes
 90
        0
280
     0
281
     0
  0
CLASS
  1
CELLSTYLEMAP
  2
AcDbCellStyleMap
  3
ObjectDBX Classes
 90
     1152
280
     0
281
     0
  0
CLASS
  1
ACDBPLACEHOLDER
  2
AcDbPlaceHolder
  3
ObjectDBX Classes
 90
        0
280
     0
281
     0
  0
CLASS
  1
LAYOUT
  2
AcDbLayout
  3
ObjectDBX Classes
 90
        0
280
     0
281
     0
  0
ENDSEC
  0
SECTION
  2
TABLES
  0
TABLE
  2
VPORT
  5
8
330
0
100
AcDbSymbolTable
 70
     1
  0
VPORT
  5
80
330
8
100
AcDbSymbolTableRecord
100
AcDbViewportTableRecord
  2
*Active
 70
     0
 10
0.0
 20
0.0
 11
1.0
 21
1.0
 12
-220.9669763255062
 22
-179.0806872822216
 13
0.0
 23
0.0
 14
1.0
 24
1.0
 15
0.0
 25
0.0
 16
0.0
 26
0.0
 36
1.0
 17
0.0
 27
0.0
 37
0.0
 40
11.92217712676165
 41
2.023923444976076
 42
50.0
 43
0.0
 44
0.0
 50
0.0
 51
0.0
 71
     0
 72
   100
 73
     1
 74
     1
 75
     0
 76
     0
 77
     0
 78
     0
281
     0
 65
     1
110
0.0
120
0.0
130
0.0
111
1.0
121
0.0
131
0.0
112
0.0
122
1.0
132
0.0
 79
     0
146
0.0
1001
ACAD_NAV_VCDISPLAY
1070
     3
  0
ENDTAB
  0
TABLE
  2
LTYPE
  5
5
330
0
100
AcDbSymbolTable
 70
     9
  0
LTYPE
  5
5A
330
5
100
AcDbSymbolTableRecord
100
AcDbLinetypeTableRecord
  2
ByBlock
 70
     0
  3

 72
    65
 73
     0
 40
0.0
  0
LTYPE
  5
5B
330
5
100
AcDbSymbolTableRecord
100
AcDbLinetypeTableRecord
  2
ByLayer
 70
     0
  3

 72
    65
 73
     0
 40
0.0
  0
LTYPE
  5
5C
330
5
100
AcDbSymbolTableRecord
100
AcDbLinetypeTableRecord
  2
CONTINUOUS
 70
     0
  3
Solid line
 72
    65
 73
     0
 40
0.0
  0
LTYPE
  5
70
330
5
100
AcDbSymbolTableRecord
100
AcDbLinetypeTableRecord
  2
BORDER
 70
     0
  3
__ __ . __ __ .
 72
    65
 73
     6
 40
12.48026315789474
 49
3.565789473684211
 74
     0
 49
-1.782894736842106
 74
     0
 49
3.565789473684211
 74
     0
 49
-1.782894736842106
 74
     0
 49
0.0
 74
     0
 49
-1.782894736842106
 74
     0
  0
LTYPE
  5
71
330
5
100
AcDbSymbolTableRecord
100
AcDbLinetypeTableRecord
  2
CENTER
 70
     0
  3
____ _ ____ _
 72
    65
 73
     4
 40
14.26315789473684
 49
8.914473684210527
 74
     0
 49
-1.782894736842106
 74
     0
 49
1.782894736842106
 74
     0
 49
-1.782894736842106
 74
     0
  0
LTYPE
  5
72
330
5
100
AcDbSymbolTableRecord
100
AcDbLinetypeTableRecord
  2
DASHDOT
 70
     0
  3
__ . __ . __ .
 72
    65
 73
     4
 40
7.131578947368423
 49
3.565789473684211
 74
     0
 49
-1.782894736842106
 74
     0
 49
0.0
 74
     0
 49
-1.782894736842106
 74
     0
  0
LTYPE
  5
73
330
5
100
AcDbSymbolTableRecord
100
AcDbLinetypeTableRecord
  2
DASHED
 70
     0
  3
__ __ __ __ __
 72
    65
 73
     2
 40
5.348684210526315
 49
3.565789473684211
 74
     0
 49
-1.782894736842106
 74
     0
  0
LTYPE
  5
74
330
5
100
AcDbSymbolTableRecord
100
AcDbLinetypeTableRecord
  2
DIVIDE
 70
     0
  3
__ . . __ . . 
 72
    65
 73
     6
 40
8.914473684210527
 49
3.565789473684211
 74
     0
 49
-1.782894736842106
 74
     0
 49
0.0
 74
     0
 49
-1.782894736842106
 74
     0
 49
0.0
 74
     0
 49
-1.782894736842106
 74
     0
  0
LTYPE
  5
75
330
5
100
AcDbSymbolTableRecord
100
AcDbLinetypeTableRecord
  2
DOT
 70
     0
  3
..............
 72
    65
 73
     4
 40
3.565789473684211
 49
0.0
 74
     0
 49
-1.782894736842106
 74
     0
 49
0.0
 74
     0
 49
-1.782894736842106
 74
     0
  0
LTYPE
  5
76
330
5
100
AcDbSymbolTableRecord
100
AcDbLinetypeTableRecord
  2
HIDDEN
 70
     0
  3
_ _ _ _ _ _ _
 72
    65
 73
     2
 40
2.674342105263156
 49
1.782894736842106
 74
     0
 49
-0.8914473684210527
 74
     0
  0
LTYPE
  5
77
330
5
100
AcDbSymbolTableRecord
100
AcDbLinetypeTableRecord
  2
PHANTOM
 70
     0
  3
_____ _ _ _____ _ _ 
 72
    65
 73
     6
 40
17.82894736842106
 49
8.914473684210527
 74
     0
 49
-1.782894736842106
 74
     0
 49
1.782894736842106
 74
     0
 49
-1.782894736842106
 74
     0
 49
1.782894736842106
 74
     0
 49
-1.782894736842106
 74
     0
  0
ENDTAB
  0
TABLE
  2
LAYER
  5
2
330
0
100
AcDbSymbolTable
 70
     2
  0
LAYER
  5
54
102
{ACAD_XDICTIONARY
360
30E
102
}
330
2
100
AcDbSymbolTableRecord
100
AcDbLayerTableRecord
  2
0
 70
     0
 62
     7
  6
CONTINUOUS
370
    -3
390
F
  0
LAYER
  5
78
102
{ACAD_XDICTIONARY
360
310
102
}
330
2
100
AcDbSymbolTableRecord
100
AcDbLayerTableRecord
  2
1
 70
     0
 62
     7
  6
CONTINUOUS
370
    -3
390
F
  0
ENDTAB
  0
TABLE
  2
STYLE
  5
3
330
0
100
AcDbSymbolTable
 70
     5
  0
STYLE
  5
55
330
3
100
AcDbSymbolTableRecord
100
AcDbTextStyleTableRecord
  2
STANDARD
 70
     0
 40
0.0
 41
1.0
 50
0.0
 71
     0
 42
3.5
  3
txt
  4

  0
STYLE
  5
59
330
3
100
AcDbSymbolTableRecord
100
AcDbTextStyleTableRecord
  2
Annotative
 70
     0
 40
0.0
 41
1.0
 50
0.0
 71
     0
 42
0.2
  3
txt
  4

1001
AcadAnnotative
1000
AnnotativeData
1002
{
1070
     1
1070
     1
1002
}
  0
STYLE
  5
79
330
3
100
AcDbSymbolTableRecord
100
AcDbTextStyleTableRecord
  2
SIMPLEX
 70
     0
 40
0.0
 41
1.0
 50
0.0
 71
     0
 42
3.5
  3
simplex
  4

  0
STYLE
  5
7A
330
3
100
AcDbSymbolTableRecord
100
AcDbTextStyleTableRecord
  2
COMPLEX
 70
     0
 40
0.0
 41
1.0
 50
0.0
 71
     0
 42
3.5
  3
complex
  4

  0
STYLE
  5
7B
330
3
100
AcDbSymbolTableRecord
100
AcDbTextStyleTableRecord
  2
ITALIC
 70
     0
 40
0.0
 41
1.0
 50
0.0
 71
     0
 42
3.5
  3
italic
  4

  0
ENDTAB
  0
TABLE
  2
VIEW
  5
6
330
0
100
AcDbSymbolTable
 70
     0
  0
ENDTAB
  0
TABLE
  2
UCS
  5
7
330
0
100
AcDbSymbolTable
 70
     0
  0
ENDTAB
  0
TABLE
  2
APPID
  5
9
330
0
100
AcDbSymbolTable
 70
     5
  0
APPID
  5
56
330
9
100
AcDbSymbolTableRecord
100
AcDbRegAppTableRecord
  2
ACAD
 70
     0
  0
APPID
  5
5D
330
9
100
AcDbSymbolTableRecord
100
AcDbRegAppTableRecord
  2
AcadAnnotative
 70
     0
  0
APPID
  5
314
330
9
100
AcDbSymbolTableRecord
100
AcDbRegAppTableRecord
  2
DCO15
 70
     0
  0
APPID
  5
31E
330
9
100
AcDbSymbolTableRecord
100
AcDbRegAppTableRecord
  2
ACAD_NAV_VCDISPLAY
 70
     0
  0
APPID
  5
357
330
9
100
AcDbSymbolTableRecord
100
AcDbRegAppTableRecord
  2
ACAD_MLEADERVER
 70
     0
  0
ENDTAB
  0
TABLE
  2
DIMSTYLE
  5
A
330
0
100
AcDbSymbolTable
 70
     3
100
AcDbDimStyleTable
 71
     0
  0
DIMSTYLE
105
57
330
A
100
AcDbSymbolTableRecord
100
AcDbDimStyleTableRecord
  2
Standard
 70
     0
340
55
  0
DIMSTYLE
105
58
330
A
100
AcDbSymbolTableRecord
100
AcDbDimStyleTableRecord
  2
Annotative
 70
     0
340
55
1001
AcadAnnotative
1000
AnnotativeData
1002
{
1070
     1
1070
     1
1002
}
  0
DIMSTYLE
105
6F
330
A
100
AcDbSymbolTableRecord
100
AcDbDimStyleTableRecord
  2
DMST_1
 70
     0
 41
2.45
 42
1.0
 43
7.0
 44
1.0
 73
     0
 74
     0
 77
     1
 78
     9
140
3.5
141
0.0
176
     2
177
     2
178
     3
279
     2
340
55
  0
ENDTAB
  0
TABLE
  2
BLOCK_RECORD
  5
1
330
0
100
AcDbSymbolTable
 70
    12
  0
BLOCK_RECORD
  5
6B
102
{ACAD_XDICTIONARY
360
274
102
}
330
1
100
AcDbSymbolTableRecord
100
AcDbBlockTableRecord
  2
*Model_Space
340
6E
  0
BLOCK_RECORD
  5
67
330
1
100
AcDbSymbolTableRecord
100
AcDbBlockTableRecord
  2
*Paper_Space
340
6A
  0
BLOCK_RECORD
  5
81
330
1
100
AcDbSymbolTableRecord
100
AcDbBlockTableRecord
  2
_1
340
0
  0
BLOCK_RECORD
  5
C9
330
1
100
AcDbSymbolTableRecord
100
AcDbBlockTableRecord
  2
______
340
0
102
{BLKREFS
331
1C3
102
}
  0
BLOCK_RECORD
  5
1BE
330
1
100
AcDbSymbolTableRecord
100
AcDbBlockTableRecord
  2
FORMAT_A4
340
0
  0
BLOCK_RECORD
  5
1C5
330
1
100
AcDbSymbolTableRecord
100
AcDbBlockTableRecord
  2
_2
340
0
  0
BLOCK_RECORD
  5
1DE
330
1
100
AcDbSymbolTableRecord
100
AcDbBlockTableRecord
  2
_3
340
0
  0
BLOCK_RECORD
  5
1F4
330
1
100
AcDbSymbolTableRecord
100
AcDbBlockTableRecord
  2
*D5
340
0
  0
BLOCK_RECORD
  5
1FF
330
1
100
AcDbSymbolTableRecord
100
AcDbBlockTableRecord
  2
*D6
340
0
  0
BLOCK_RECORD
  5
20A
330
1
100
AcDbSymbolTableRecord
100
AcDbBlockTableRecord
  2
*D7
340
0
  0
BLOCK_RECORD
  5
215
330
1
100
AcDbSymbolTableRecord
100
AcDbBlockTableRecord
  2
*D8
340
0
  0
BLOCK_RECORD
  5
220
330
1
100
AcDbSymbolTableRecord
100
AcDbBlockTableRecord
  2
*D9
340
0
  0
BLOCK_RECORD
  5
22D
330
1
100
AcDbSymbolTableRecord
100
AcDbBlockTableRecord
  2
*D10
340
0
  0
BLOCK_RECORD
  5
238
330
1
100
AcDbSymbolTableRecord
100
AcDbBlockTableRecord
  2
*D11
340
0
  0
ENDTAB
  0
ENDSEC
  0
SECTION
  2
BLOCKS
  0
BLOCK
  5
6C
330
6B
100
AcDbEntity
  8
0
100
AcDbBlockBegin
  2
*Model_Space
 70
     0
 10
0.0
 20
0.0
 30
0.0
  3
*Model_Space
  1

  0
ENDBLK
  5
6D
330
6B
100
AcDbEntity
  8
0
100
AcDbBlockEnd
  0
BLOCK
  5
68
330
67
100
AcDbEntity
 67
     1
  8
0
100
AcDbBlockBegin
  2
*Paper_Space
 70
     0
 10
0.0
 20
0.0
 30
0.0
  3
*Paper_Space
  1

  0
ENDBLK
  5
69
330
67
100
AcDbEntity
 67
     1
  8
0
100
AcDbBlockEnd
  0
BLOCK
  5
82
330
81
100
AcDbEntity
  8
0
100
AcDbBlockBegin
  2
_1
 70
     0
 10
-220.670896432648
 20
-227.25
 30
0.0
  3
_1
  1

  0
LINE
  5
83
330
81
100
AcDbEntity
  8
1
 62
     7
100
AcDbLine
 10
-239.220538065039
 20
-183.25
 30
0.0
 11
-239.220538065039
 21
-174.75
 31
0.0
  0
LINE
  5
84
330
81
100
AcDbEntity
  8
1
 62
     7
100
AcDbLine
 10
-238.220538065039
 20
-184.25
 30
0.0
 11
-210.220538065039
 21
-184.25
 31
0.0
  0
LINE
  5
85
330
81
100
AcDbEntity
  8
1
 62
     7
100
AcDbLine
 10
-209.220538065039
 20
-174.75
 30
0.0
 11
-209.220538065039
 21
-183.25
 31
0.0
  0
LINE
  5
86
330
81
100
AcDbEntity
  8
1
 62
     7
100
AcDbLine
 10
-238.220538065039
 20
-173.75
 30
0.0
 11
-210.220538065039
 21
-173.75
 31
0.0
  0
LINE
  5
87
330
81
100
AcDbEntity
  8
1
  6
DASHDOT
 62
     2
100
AcDbLine
 10
-242.670896432648
 20
-179.0
 30
0.0
 11
-227.220538065039
 21
-179.0
 31
0.0
  0
LINE
  5
88
330
81
100
AcDbEntity
  8
1
 62
     7
100
AcDbLine
 10
-210.220538065039
 20
-187.25
 30
0.0
 11
-238.220538065039
 21
-187.25
 31
0.0
  0
LINE
  5
89
330
81
100
AcDbEntity
  8
1
 62
     7
100
AcDbLine
 10
-238.220538065039
 20
-170.75
 30
0.0
 11
-210.220538065039
 21
-170.75
 31
0.0
  0
LINE
  5
8A
330
81
100
AcDbEntity
  8
1
  6
DASHDOT
 62
     2
100
AcDbLine
 10
-224.220538065039
 20
-167.904698605103
 30
0.0
 11
-224.220538065039
 21
-189.982463391056
 31
0.0
  0
LINE
  5
8B
330
81
100
AcDbEntity
  8
1
  6
DASHDOT
 62
     2
100
AcDbLine
 10
-227.220538065039
 20
-179.0
 30
0.0
 11
-205.341759768088
 21
-179.0
 31
0.0
  0
LINE
  5
8C
330
81
100
AcDbEntity
  8
1
 62
     7
100
AcDbLine
 10
-238.720538065039
 20
-217.569052111733
 30
0.0
 11
-227.220538065039
 21
-217.569052111733
 31
0.0
  0
LINE
  5
8D
330
81
100
AcDbEntity
  8
1
 62
     7
100
AcDbLine
 10
-239.220538065039
 20
-228.069052111733
 30
0.0
 11
-239.220538065039
 21
-227.069052111733
 31
0.0
  0
LINE
  5
8E
330
81
100
AcDbEntity
  8
1
 62
     7
100
AcDbLine
 10
-238.720538065039
 20
-228.569052111733
 30
0.0
 11
-239.220538065039
 21
-228.069052111733
 31
0.0
  0
LINE
  5
8F
330
81
100
AcDbEntity
  8
1
 62
     7
100
AcDbLine
 10
-209.720538065039
 20
-228.569052111733
 30
0.0
 11
-209.220538065039
 21
-228.069052111733
 31
0.0
  0
LINE
  5
90
330
81
100
AcDbEntity
  8
1
 62
     7
100
AcDbLine
 10
-239.220538065039
 20
-218.069052111733
 30
0.0
 11
-238.720538065039
 21
-217.569052111733
 31
0.0
  0
LINE
  5
91
330
81
100
AcDbEntity
  8
1
 62
     7
100
AcDbLine
 10
-209.720538065039
 20
-217.569052111733
 30
0.0
 11
-209.220538065039
 21
-218.069052111733
 31
0.0
  0
LINE
  5
92
330
81
100
AcDbEntity
  8
1
  6
DASHDOT
 62
     2
100
AcDbLine
 10
-224.220538065039
 20
-215.924056853983
 30
0.0
 11
-224.220538065039
 21
-230.284454595385
 31
0.0
  0
LINE
  5
93
330
81
100
AcDbEntity
  8
1
  6
DOT
 62
     7
100
AcDbLine
 10
-227.220538065039
 20
-217.569052111733
 30
0.0
 11
-227.220538065039
 21
-227.069052111733
 31
0.0
  0
LINE
  5
94
330
81
100
AcDbEntity
  8
1
 62
     7
100
AcDbLine
 10
-227.220538065039
 20
-217.569052111733
 30
0.0
 11
-221.220538065039
 21
-217.569052111733
 31
0.0
  0
LINE
  5
95
330
81
100
AcDbEntity
  8
1
 62
     7
100
AcDbLine
 10
-209.720538065039
 20
-228.569052111733
 30
0.0
 11
-238.720538065039
 21
-228.569052111733
 31
0.0
  0
LINE
  5
96
330
81
100
AcDbEntity
  8
1
 62
     7
100
AcDbLine
 10
-221.220538065039
 20
-217.569052111733
 30
0.0
 11
-209.720538065039
 21
-217.569052111733
 31
0.0
  0
LINE
  5
97
330
81
100
AcDbEntity
  8
1
 62
     7
100
AcDbLine
 10
-181.0790608467979
 20
-220.069052111733
 30
0.0
 11
-179.0790608467979
 21
-220.069052111733
 31
0.0
  0
LINE
  5
98
330
81
100
AcDbEntity
  8
1
 62
     7
100
AcDbLine
 10
-178.5790608467979
 20
-219.569052111733
 30
0.0
 11
-178.5790608467979
 21
-218.069052111733
 31
0.0
  0
LINE
  5
99
330
81
100
AcDbEntity
  8
1
 62
     7
100
AcDbLine
 10
-178.0790608467979
 20
-217.569052111733
 30
0.0
 11
-168.579060846798
 21
-217.569052111733
 31
0.0
  0
LINE
  5
9A
330
81
100
AcDbEntity
  8
1
 62
     7
100
AcDbLine
 10
-168.079060846798
 20
-218.069052111733
 30
0.0
 11
-168.079060846798
 21
-219.569052111733
 31
0.0
  0
LINE
  5
9B
330
81
100
AcDbEntity
  8
1
 62
     7
100
AcDbLine
 10
-167.579060846798
 20
-220.069052111733
 30
0.0
 11
-165.579060846798
 21
-220.069052111733
 31
0.0
  0
LINE
  5
9C
330
81
100
AcDbEntity
  8
1
 62
     7
100
AcDbLine
 10
-165.079060846798
 20
-220.569052111733
 30
0.0
 11
-165.079060846798
 21
-228.069052111733
 31
0.0
  0
LINE
  5
9D
330
81
100
AcDbEntity
  8
1
 62
     7
100
AcDbLine
 10
-165.579060846798
 20
-228.569052111733
 30
0.0
 11
-168.329060846798
 21
-228.569052111733
 31
0.0
  0
LINE
  5
9E
330
81
100
AcDbEntity
  8
1
 62
     7
100
AcDbLine
 10
-181.5790608467979
 20
-228.069052111733
 30
0.0
 11
-181.5790608467979
 21
-220.569052111733
 31
0.0
  0
LINE
  5
9F
330
81
100
AcDbEntity
  8
1
  6
DASHDOT
 62
     2
100
AcDbLine
 10
-173.329060846798
 20
-215.924056853983
 30
0.0
 11
-173.329060846798
 21
-230.284454595385
 31
0.0
  0
LINE
  5
A0
330
81
100
AcDbEntity
  8
1
 62
     7
100
AcDbLine
 10
-209.220538065039
 20
-171.75
 30
0.0
 11
-209.220538065039
 21
-174.75
 31
0.0
  0
LINE
  5
A1
330
81
100
AcDbEntity
  8
1
 62
     7
100
AcDbLine
 10
-209.220538065039
 20
-183.25
 30
0.0
 11
-209.220538065039
 21
-186.25
 31
0.0
  0
LINE
  5
A2
330
81
100
AcDbEntity
  8
1
 62
     7
100
AcDbLine
 10
-239.220538065039
 20
-186.25
 30
0.0
 11
-239.220538065039
 21
-183.25
 31
0.0
  0
LINE
  5
A3
330
81
100
AcDbEntity
  8
1
 62
     7
100
AcDbLine
 10
-239.220538065039
 20
-174.75
 30
0.0
 11
-239.220538065039
 21
-171.75
 31
0.0
  0
LINE
  5
A4
330
81
100
AcDbEntity
  8
1
 62
     7
100
AcDbLine
 10
-178.329060846798
 20
-228.569052111733
 30
0.0
 11
-178.329060846798
 21
-227.069052111733
 31
0.0
  0
LINE
  5
A5
330
81
100
AcDbEntity
  8
1
 62
     7
100
AcDbLine
 10
-178.329060846798
 20
-228.569052111733
 30
0.0
 11
-181.0790608467979
 21
-228.569052111733
 31
0.0
  0
LINE
  5
A6
330
81
100
AcDbEntity
  8
1
 62
     7
100
AcDbLine
 10
-178.329060846798
 20
-227.069052111733
 30
0.0
 11
-168.329060846798
 21
-227.069052111733
 31
0.0
  0
LINE
  5
A7
330
81
100
AcDbEntity
  8
1
 62
     7
100
AcDbLine
 10
-168.329060846798
 20
-227.069052111733
 30
0.0
 11
-168.329060846798
 21
-228.569052111733
 31
0.0
  0
LINE
  5
A8
330
81
100
AcDbEntity
  8
1
 62
     7
100
AcDbLine
 10
-181.0790608467979
 20
-220.069052111733
 30
0.0
 11
-181.5790608467979
 21
-220.569052111733
 31
0.0
  0
LINE
  5
A9
330
81
100
AcDbEntity
  8
1
 62
     7
100
AcDbLine
 10
-178.0790608467979
 20
-217.569052111733
 30
0.0
 11
-178.5790608467979
 21
-218.069052111733
 31
0.0
  0
LINE
  5
AA
330
81
100
AcDbEntity
  8
1
 62
     7
100
AcDbLine
 10
-168.579060846798
 20
-217.569052111733
 30
0.0
 11
-168.079060846798
 21
-218.069052111733
 31
0.0
  0
LINE
  5
AB
330
81
100
AcDbEntity
  8
1
 62
     7
100
AcDbLine
 10
-165.579060846798
 20
-220.069052111733
 30
0.0
 11
-165.079060846798
 21
-220.569052111733
 31
0.0
  0
LINE
  5
AC
330
81
100
AcDbEntity
  8
1
 62
     7
100
AcDbLine
 10
-165.079060846798
 20
-228.069052111733
 30
0.0
 11
-165.579060846798
 21
-228.569052111733
 31
0.0
  0
LINE
  5
AD
330
81
100
AcDbEntity
  8
1
 62
     7
100
AcDbLine
 10
-181.5790608467979
 20
-228.069052111733
 30
0.0
 11
-181.0790608467979
 21
-228.569052111733
 31
0.0
  0
LINE
  5
AE
330
81
100
AcDbEntity
  8
1
 62
     7
100
AcDbLine
 10
-179.0790608467979
 20
-220.069052111733
 30
0.0
 11
-178.5790608467979
 21
-219.569052111733
 31
0.0
  0
LINE
  5
AF
330
81
100
AcDbEntity
  8
1
 62
     7
100
AcDbLine
 10
-168.079060846798
 20
-219.569052111733
 30
0.0
 11
-167.579060846798
 21
-220.069052111733
 31
0.0
  0
LINE
  5
B0
330
81
100
AcDbEntity
  8
1
 62
     7
100
AcDbLine
 10
-209.720538065039
 20
-220.069052111733
 30
0.0
 11
-209.220538065039
 21
-220.569052111733
 31
0.0
  0
LINE
  5
B1
330
81
100
AcDbEntity
  8
1
 62
     7
100
AcDbLine
 10
-209.220538065039
 20
-220.569052111733
 30
0.0
 11
-209.220538065039
 21
-227.069052111733
 31
0.0
  0
LINE
  5
B2
330
81
100
AcDbEntity
  8
1
 62
     7
100
AcDbLine
 10
-238.720538065039
 20
-220.069052111733
 30
0.0
 11
-239.220538065039
 21
-220.569052111733
 31
0.0
  0
LINE
  5
B3
330
81
100
AcDbEntity
  8
1
 62
     7
100
AcDbLine
 10
-238.720538065039
 20
-220.069052111733
 30
0.0
 11
-209.720538065039
 21
-220.069052111733
 31
0.0
  0
LINE
  5
B4
330
81
100
AcDbEntity
  8
1
 62
     7
100
AcDbLine
 10
-239.220538065039
 20
-218.069052111733
 30
0.0
 11
-209.220538065039
 21
-218.069052111733
 31
0.0
  0
LINE
  5
B5
330
81
100
AcDbEntity
  8
1
 62
     7
100
AcDbLine
 10
-239.220538065039
 20
-220.569052111733
 30
0.0
 11
-209.220538065039
 21
-220.569052111733
 31
0.0
  0
LINE
  5
B6
330
81
100
AcDbEntity
  8
1
 62
     7
100
AcDbLine
 10
-239.220538065039
 20
-228.069052111733
 30
0.0
 11
-209.220538065039
 21
-228.069052111733
 31
0.0
  0
LINE
  5
B7
330
81
100
AcDbEntity
  8
1
 62
     7
100
AcDbLine
 10
-209.220538065039
 20
-218.069052111733
 30
0.0
 11
-209.220538065039
 21
-220.569052111733
 31
0.0
  0
LINE
  5
B8
330
81
100
AcDbEntity
  8
1
 62
     7
100
AcDbLine
 10
-239.220538065039
 20
-220.569052111733
 30
0.0
 11
-239.220538065039
 21
-218.069052111733
 31
0.0
  0
LINE
  5
B9
330
81
100
AcDbEntity
  8
1
  6
DOT
 62
     7
100
AcDbLine
 10
-221.220538065039
 20
-227.069052111733
 30
0.0
 11
-221.220538065039
 21
-217.569052111733
 31
0.0
  0
LINE
  5
BA
330
81
100
AcDbEntity
  8
1
  6
DOT
 62
     7
100
AcDbLine
 10
-239.220538065039
 20
-227.069052111733
 30
0.0
 11
-209.220538065039
 21
-227.069052111733
 31
0.0
  0
LINE
  5
BB
330
81
100
AcDbEntity
  8
1
 62
     7
100
AcDbLine
 10
-239.220538065039
 20
-227.069052111733
 30
0.0
 11
-239.220538065039
 21
-220.569052111733
 31
0.0
  0
LINE
  5
BC
330
81
100
AcDbEntity
  8
1
 62
     7
100
AcDbLine
 10
-209.220538065039
 20
-227.069052111733
 30
0.0
 11
-209.220538065039
 21
-228.069052111733
 31
0.0
  0
LINE
  5
BD
330
81
100
AcDbEntity
  8
1
  6
DOT
 62
     7
100
AcDbLine
 10
-170.329060846798
 20
-227.069052111733
 30
0.0
 11
-170.329060846798
 21
-217.569052111733
 31
0.0
  0
LINE
  5
BE
330
81
100
AcDbEntity
  8
1
  6
DOT
 62
     7
100
AcDbLine
 10
-176.329060846798
 20
-217.569052111733
 30
0.0
 11
-176.329060846798
 21
-227.069052111733
 31
0.0
  0
CIRCLE
  5
BF
330
81
100
AcDbEntity
  8
1
 62
     7
100
AcDbCircle
 10
-224.220538065039
 20
-179.0
 30
0.0
 40
3.0
  0
ARC
  5
C0
330
81
100
AcDbEntity
  8
1
 62
     7
100
AcDbCircle
 10
-238.220538065039
 20
-186.25
 30
0.0
 40
1.0
100
AcDbArc
 50
180.0
 51
270.0
  0
ARC
  5
C1
330
81
100
AcDbEntity
  8
1
 62
     7
100
AcDbCircle
 10
-210.220538065039
 20
-186.25
 30
0.0
 40
1.0
100
AcDbArc
 50
270.0
 51
0.0
  0
ARC
  5
C2
330
81
100
AcDbEntity
  8
1
 62
     7
100
AcDbCircle
 10
-210.220538065039
 20
-171.75
 30
0.0
 40
1.0
100
AcDbArc
 50
0.0
 51
90.0
  0
ARC
  5
C3
330
81
100
AcDbEntity
  8
1
 62
     7
100
AcDbCircle
 10
-238.220538065039
 20
-171.75
 30
0.0
 40
1.0
100
AcDbArc
 50
90.0
 51
180.0
  0
ARC
  5
C4
330
81
100
AcDbEntity
  8
1
 62
     7
100
AcDbCircle
 10
-210.220538065039
 20
-174.75
 30
0.0
 40
1.0
100
AcDbArc
 50
0.0
 51
90.0
  0
ARC
  5
C5
330
81
100
AcDbEntity
  8
1
 62
     7
100
AcDbCircle
 10
-210.220538065039
 20
-183.25
 30
0.0
 40
1.0
100
AcDbArc
 50
270.0
 51
0.0
  0
ARC
  5
C6
330
81
100
AcDbEntity
  8
1
 62
     7
100
AcDbCircle
 10
-238.220538065039
 20
-183.25
 30
0.0
 40
1.0
100
AcDbArc
 50
180.0
 51
270.0
  0
ARC
  5
C7
330
81
100
AcDbEntity
  8
1
 62
     7
100
AcDbCircle
 10
-238.220538065039
 20
-174.75
 30
0.0
 40
1.0
100
AcDbArc
 50
90.0
 51
180.0
  0
ENDBLK
  5
C8
330
81
100
AcDbEntity
  8
0
100
AcDbBlockEnd
  0
BLOCK
  5
CA
330
C9
100
AcDbEntity
  8
0
100
AcDbBlockBegin
  2
______
 70
     0
 10
296.4491775564725
 20
-916.1428967835858
 30
0.0
  3
______
  1

  0
LINE
  5
CB
330
C9
100
AcDbEntity
  8
1
 62
     5
100
AcDbLine
 10
344.0292138474142
 20
-757.8694172270459
 30
0.0
 11
370.0292138474142
 21
-757.8694172270459
 31
0.0
  0
LINE
  5
CC
330
C9
100
AcDbEntity
  8
1
 62
     7
100
AcDbLine
 10
370.0292138474142
 20
-764.8694172270459
 30
0.0
 11
370.0292138474142
 21
-771.8694172270459
 31
0.0
  0
LINE
  5
CD
330
C9
100
AcDbEntity
  8
1
 62
     7
100
AcDbLine
 10
344.0292138474142
 20
-764.8694172270459
 30
0.0
 11
370.0292138474142
 21
-764.8694172270459
 31
0.0
  0
LINE
  5
CE
330
C9
100
AcDbEntity
  8
1
 62
     7
100
AcDbLine
 10
344.0292138474142
 20
-771.8694172270459
 30
0.0
 11
370.0292138474142
 21
-771.8694172270459
 31
0.0
  0
LINE
  5
CF
330
C9
100
AcDbEntity
  8
1
 62
     7
100
AcDbLine
 10
209.0292138474142
 20
-791.8694172270459
 30
0.0
 11
229.0292138474141
 21
-791.8694172270459
 31
0.0
  0
LINE
  5
D0
330
C9
100
AcDbEntity
  8
1
 62
     7
100
AcDbLine
 10
209.0292138474142
 20
-781.8694172270459
 30
0.0
 11
250.0292138474141
 21
-781.8694172270459
 31
0.0
  0
LINE
  5
D1
330
C9
100
AcDbEntity
  8
1
 62
     7
100
AcDbLine
 10
209.0292138474142
 20
-781.8694172270459
 30
0.0
 11
209.0292138474142
 21
-791.8694172270459
 31
0.0
  0
LINE
  5
D2
330
C9
100
AcDbEntity
  8
1
 62
     7
100
AcDbLine
 10
271.0292138474141
 20
-791.8694172270459
 30
0.0
 11
292.0292138474142
 21
-791.8694172270459
 31
0.0
  0
LINE
  5
D3
330
C9
100
AcDbEntity
  8
1
 62
     7
100
AcDbLine
 10
271.0292138474141
 20
-781.8694172270459
 30
0.0
 11
370.0292138474142
 21
-781.8694172270459
 31
0.0
  0
LINE
  5
D4
330
C9
100
AcDbEntity
  8
1
 62
     7
100
AcDbLine
 10
271.0292138474141
 20
-781.8694172270459
 30
0.0
 11
271.0292138474141
 21
-791.8694172270459
 31
0.0
  0
LINE
  5
D5
330
C9
100
AcDbEntity
  8
1
 62
     7
100
AcDbLine
 10
250.0292138474141
 20
-791.8694172270459
 30
0.0
 11
271.0292138474141
 21
-791.8694172270459
 31
0.0
  0
LINE
  5
D6
330
C9
100
AcDbEntity
  8
1
 62
     7
100
AcDbLine
 10
250.0292138474141
 20
-781.8694172270459
 30
0.0
 11
271.0292138474141
 21
-781.8694172270459
 31
0.0
  0
LINE
  5
D7
330
C9
100
AcDbEntity
  8
1
 62
     7
100
AcDbLine
 10
250.0292138474141
 20
-781.8694172270459
 30
0.0
 11
250.0292138474141
 21
-791.8694172270459
 31
0.0
  0
LINE
  5
D8
330
C9
100
AcDbEntity
  8
1
 62
     7
100
AcDbLine
 10
370.0292138474142
 20
-781.8694172270459
 30
0.0
 11
370.0292138474142
 21
-791.8694172270459
 31
0.0
  0
LINE
  5
D9
330
C9
100
AcDbEntity
  8
1
 62
     7
100
AcDbLine
 10
194.0292138474141
 20
-781.8694172270459
 30
0.0
 11
194.0292138474141
 21
-791.8694172270459
 31
0.0
  0
LINE
  5
DA
330
C9
100
AcDbEntity
  8
1
 62
     7
100
AcDbLine
 10
194.0292138474141
 20
-781.8694172270459
 30
0.0
 11
209.0292138474142
 21
-781.8694172270459
 31
0.0
  0
LINE
  5
DB
330
C9
100
AcDbEntity
  8
1
 62
     7
100
AcDbLine
 10
292.0292138474142
 20
-791.8694172270459
 30
0.0
 11
370.0292138474142
 21
-791.8694172270459
 31
0.0
  0
LINE
  5
DC
330
C9
100
AcDbEntity
  8
1
 62
     7
100
AcDbLine
 10
266.0292138474142
 20
-771.8694172270459
 30
0.0
 11
344.0292138474142
 21
-771.8694172270459
 31
0.0
  0
LINE
  5
DD
330
C9
100
AcDbEntity
  8
1
 62
     7
100
AcDbLine
 10
292.0292138474142
 20
-771.8694172270459
 30
0.0
 11
292.0292138474142
 21
-791.8694172270459
 31
0.0
  0
LINE
  5
DE
330
C9
100
AcDbEntity
  8
1
 62
     7
100
AcDbLine
 10
229.0292138474141
 20
-791.8694172270459
 30
0.0
 11
250.0292138474141
 21
-791.8694172270459
 31
0.0
  0
LINE
  5
DF
330
C9
100
AcDbEntity
  8
1
 62
     7
100
AcDbLine
 10
203.0292138474142
 20
-771.8694172270459
 30
0.0
 11
266.0292138474142
 21
-771.8694172270459
 31
0.0
  0
LINE
  5
E0
330
C9
100
AcDbEntity
  8
1
 62
     7
100
AcDbLine
 10
229.0292138474141
 20
-771.8694172270459
 30
0.0
 11
229.0292138474141
 21
-791.8694172270459
 31
0.0
  0
LINE
  5
E1
330
C9
100
AcDbEntity
  8
1
 62
     7
100
AcDbLine
 10
194.0292138474141
 20
-791.8694172270459
 30
0.0
 11
209.0292138474142
 21
-791.8694172270459
 31
0.0
  0
LINE
  5
E2
330
C9
100
AcDbEntity
  8
1
 62
     7
100
AcDbLine
 10
194.0292138474141
 20
-771.8694172270459
 30
0.0
 11
194.0292138474141
 21
-781.8694172270459
 31
0.0
  0
LINE
  5
E3
330
C9
100
AcDbEntity
  8
1
 62
     7
100
AcDbLine
 10
99.02921384741421
 20
-791.8694172270459
 30
0.0
 11
194.0292138474141
 21
-791.8694172270459
 31
0.0
  0
LINE
  5
E4
330
C9
100
AcDbEntity
  8
1
 62
     7
100
AcDbLine
 10
370.0292138474142
 20
-771.8694172270459
 30
0.0
 11
370.0292138474142
 21
-781.8694172270459
 31
0.0
  0
LINE
  5
E5
330
C9
100
AcDbEntity
  8
1
 62
     7
100
AcDbLine
 10
194.0292138474141
 20
-771.8694172270459
 30
0.0
 11
229.0292138474141
 21
-771.8694172270459
 31
0.0
  0
LINE
  5
E6
330
C9
100
AcDbEntity
  8
1
 62
     7
100
AcDbLine
 10
99.02921384741421
 20
-771.8694172270459
 30
0.0
 11
99.02921384741421
 21
-791.8694172270459
 31
0.0
  0
LINE
  5
E7
330
C9
100
AcDbEntity
  8
1
 62
     7
100
AcDbLine
 10
194.0292138474141
 20
-771.8694172270459
 30
0.0
 11
99.02921384741421
 21
-771.8694172270459
 31
0.0
  0
LINE
  5
E8
330
C9
100
AcDbEntity
  8
1
 62
     7
100
AcDbLine
 10
128.0584626468153
 20
-776.6785003933161
 30
0.0
 11
128.0584626468153
 21
-782.4368213016692
 31
0.0
  0
LINE
  5
E9
330
C9
100
AcDbEntity
  8
1
 62
     7
100
AcDbLine
 10
125.9859391511382
 20
-783.22138809283
 30
0.0
 11
127.7499826233216
 21
-776.6378882277766
 31
0.0
  0
LINE
  5
EA
330
C9
100
AcDbEntity
  8
1
 62
     7
100
AcDbLine
 10
123.711846376038
 20
-776.6079496368018
 30
0.0
 11
125.4839118694326
 21
-783.22138809283
 31
0.0
  0
LINE
  5
EB
330
C9
100
AcDbEntity
  8
1
 62
     7
100
AcDbLine
 10
123.4033663525152
 20
-782.5414302071565
 30
0.0
 11
123.4033663525152
 21
-776.6485618023413
 31
0.0
  0
LINE
  5
EC
330
C9
100
AcDbEntity
  8
1
 62
     7
100
AcDbLine
 10
125.9859391511382
 20
-783.22138809283
 30
0.0
 11
125.4839118694326
 21
-783.22138809283
 31
0.0
  0
LINE
  5
ED
330
C9
100
AcDbEntity
  8
1
 62
     7
100
AcDbLine
 10
127.587722572116
 20
-782.6983435653944
 30
0.0
 11
127.7969403830321
 21
-782.6983435653944
 31
0.0
  0
LINE
  5
EE
330
C9
100
AcDbEntity
  8
1
 62
     7
100
AcDbLine
 10
127.4831136666144
 20
-783.22138809283
 30
0.0
 11
127.4831136666144
 21
-782.8029524708816
 31
0.0
  0
LINE
  5
EF
330
C9
100
AcDbEntity
  8
1
 62
     7
100
AcDbLine
 10
130.4121630203408
 20
-783.22138809283
 30
0.0
 11
127.4831136666144
 21
-783.22138809283
 31
0.0
  0
LINE
  5
F0
330
C9
100
AcDbEntity
  8
1
 62
     7
100
AcDbLine
 10
130.4121630203408
 20
-782.8029524708816
 30
0.0
 11
130.4121630203408
 21
-783.22138809283
 31
0.0
  0
LINE
  5
F1
330
C9
100
AcDbEntity
  8
1
 62
     7
100
AcDbLine
 10
130.0983363038358
 20
-782.6983435653944
 30
0.0
 11
130.3075541148392
 21
-782.6983435653944
 31
0.0
  0
LINE
  5
F2
330
C9
100
AcDbEntity
  8
1
 62
     7
100
AcDbLine
 10
129.8368140401399
 20
-776.7879404052635
 30
0.0
 11
129.8368140401399
 21
-782.4368213016692
 31
0.0
  0
LINE
  5
F3
330
C9
100
AcDbEntity
  8
1
 62
     7
100
AcDbLine
 10
130.3075541148392
 20
-776.5264181415384
 30
0.0
 11
130.0983363038358
 21
-776.5264181415384
 31
0.0
  0
LINE
  5
F4
330
C9
100
AcDbEntity
  8
1
 62
     7
100
AcDbLine
 10
130.4121630203408
 20
-776.0033736140883
 30
0.0
 11
130.4121630203408
 21
-776.4218092360512
 31
0.0
  0
LINE
  5
F5
330
C9
100
AcDbEntity
  8
1
 62
     7
100
AcDbLine
 10
127.3785047611418
 20
-776.0033736140883
 30
0.0
 11
130.4121630203408
 21
-776.0033736140883
 31
0.0
  0
LINE
  5
F6
330
C9
100
AcDbEntity
  8
1
 62
     7
100
AcDbLine
 10
122.3572772976149
 20
-776.0033736140883
 30
0.0
 11
125.3909355568139
 21
-776.0033736140883
 31
0.0
  0
LINE
  5
F7
330
C9
100
AcDbEntity
  8
1
 62
     7
100
AcDbLine
 10
122.3572772976149
 20
-776.4218092360512
 30
0.0
 11
122.3572772976149
 21
-776.0033736140883
 31
0.0
  0
LINE
  5
F8
330
C9
100
AcDbEntity
  8
1
 62
     7
100
AcDbLine
 10
122.7234084668417
 20
-776.5264181415384
 30
0.0
 11
122.4618862031166
 21
-776.5264181415384
 31
0.0
  0
LINE
  5
F9
330
C9
100
AcDbEntity
  8
1
 62
     7
100
AcDbLine
 10
122.8803218251233
 20
-782.5414302071565
 30
0.0
 11
122.8803218251233
 21
-776.6833314997763
 31
0.0
  0
LINE
  5
FA
330
C9
100
AcDbEntity
  8
1
 62
     7
100
AcDbLine
 10
122.4618862031166
 20
-782.6983435653944
 30
0.0
 11
122.7234084668417
 21
-782.6983435653944
 31
0.0
  0
LINE
  5
FB
330
C9
100
AcDbEntity
  8
1
 62
     7
100
AcDbLine
 10
122.3572772976149
 20
-783.22138809283
 30
0.0
 11
122.3572772976149
 21
-782.8029524708816
 31
0.0
  0
LINE
  5
FC
330
C9
100
AcDbEntity
  8
1
 62
     7
100
AcDbLine
 10
123.8218019745218
 20
-783.22138809283
 30
0.0
 11
122.3572772976149
 21
-783.22138809283
 31
0.0
  0
LINE
  5
FD
330
C9
100
AcDbEntity
  8
1
 62
     7
100
AcDbLine
 10
123.8218019745218
 20
-782.8029524708816
 30
0.0
 11
123.8218019745218
 21
-783.22138809283
 31
0.0
  0
LINE
  5
FE
330
C9
100
AcDbEntity
  8
1
 62
     7
100
AcDbLine
 10
123.5602797107385
 20
-782.6983435653944
 30
0.0
 11
123.7171930690201
 21
-782.6983435653944
 31
0.0
  0
LINE
  5
FF
330
C9
100
AcDbEntity
  8
1
 62
     7
100
AcDbLine
 10
126.5362868242337
 20
-779.1465737457891
 30
0.0
 11
127.3785047611418
 21
-776.0033736140883
 31
0.0
  0
LINE
  5
100
330
C9
100
AcDbEntity
  8
1
 62
     7
100
AcDbLine
 10
125.3909355568139
 20
-776.0033736140883
 30
0.0
 11
126.2331534937221
 21
-779.1465737457891
 31
0.0
  0
LINE
  5
101
330
C9
100
AcDbEntity
  8
1
 62
     7
100
AcDbLine
 10
115.6859632268279
 20
-780.7589106833455
 30
0.0
 11
119.1625375497351
 21
-777.2823363604817
 31
0.0
  0
LINE
  5
102
330
C9
100
AcDbEntity
  8
1
 62
     7
100
AcDbLine
 10
120.3460522128407
 20
-778.4658510235873
 30
0.0
 11
116.8694778899335
 21
-781.9424253464362
 31
0.0
  0
LINE
  5
103
330
C9
100
AcDbEntity
  8
1
 62
     7
100
AcDbLine
 10
111.0072110521395
 20
-783.22138809283
 30
0.0
 11
109.4380774697311
 21
-783.22138809283
 31
0.0
  0
LINE
  5
104
330
C9
100
AcDbEntity
  8
1
 62
     7
100
AcDbLine
 10
109.4380774697311
 20
-783.22138809283
 30
0.0
 11
109.4380774697311
 21
-782.8029524708816
 31
0.0
  0
LINE
  5
105
330
C9
100
AcDbEntity
  8
1
 62
     7
100
AcDbLine
 10
109.5426863752327
 20
-782.6983435653944
 30
0.0
 11
109.7519041862361
 21
-782.6983435653944
 31
0.0
  0
LINE
  5
106
330
C9
100
AcDbEntity
  8
1
 62
     7
100
AcDbLine
 10
110.013426449932
 20
-782.4368213016692
 30
0.0
 11
110.013426449932
 21
-776.8925493107506
 31
0.0
  0
LINE
  5
107
330
C9
100
AcDbEntity
  8
1
 62
     7
100
AcDbLine
 10
109.6472952807344
 20
-776.5264181415384
 30
0.0
 11
109.4967909693332
 21
-776.5264181415384
 31
0.0
  0
LINE
  5
108
330
C9
100
AcDbEntity
  8
1
 62
     7
100
AcDbLine
 10
108.7983158374227
 20
-777.0388154706868
 30
0.0
 11
108.5891393664315
 21
-777.7033348667734
 31
0.0
  0
LINE
  5
109
330
C9
100
AcDbEntity
  8
1
 62
     7
100
AcDbLine
 10
108.0782983713398
 20
-777.6163578118992
 30
0.0
 11
108.1304661511349
 21
-776.0033736140883
 31
0.0
  0
LINE
  5
10A
330
C9
100
AcDbEntity
  8
1
 62
     7
100
AcDbLine
 10
108.1304661511349
 20
-776.0033736140883
 30
0.0
 11
111.0072110521395
 21
-776.0033736140883
 31
0.0
  0
LINE
  5
10B
330
C9
100
AcDbEntity
  8
1
 62
     7
100
AcDbLine
 10
112.5763446344317
 20
-783.22138809283
 30
0.0
 11
111.0072110521395
 21
-783.22138809283
 31
0.0
  0
LINE
  5
10C
330
C9
100
AcDbEntity
  8
1
 62
     7
100
AcDbLine
 10
112.5763446344317
 20
-782.8029524708816
 30
0.0
 11
112.5763446344317
 21
-783.22138809283
 31
0.0
  0
LINE
  5
10D
330
C9
100
AcDbEntity
  8
1
 62
     7
100
AcDbLine
 10
112.2625179179267
 20
-782.6983435653944
 30
0.0
 11
112.4717357289301
 21
-782.6983435653944
 31
0.0
  0
LINE
  5
10E
330
C9
100
AcDbEntity
  8
1
 62
     7
100
AcDbLine
 10
112.0009956542308
 20
-776.8925493107506
 30
0.0
 11
112.0009956542308
 21
-782.4368213016692
 31
0.0
  0
LINE
  5
10F
330
C9
100
AcDbEntity
  8
1
 62
     7
100
AcDbLine
 10
112.5176311348296
 20
-776.5264181415384
 30
0.0
 11
112.3671268234284
 21
-776.5264181415384
 31
0.0
  0
LINE
  5
110
330
C9
100
AcDbEntity
  8
1
 62
     7
100
AcDbLine
 10
113.4252827378186
 20
-777.7033348667734
 30
0.0
 11
113.2161062668274
 21
-777.0388154706868
 31
0.0
  0
LINE
  5
111
330
C9
100
AcDbEntity
  8
1
 62
     7
100
AcDbLine
 10
113.8839559530279
 20
-776.0033736140883
 30
0.0
 11
113.936123732823
 21
-777.6163578118992
 31
0.0
  0
LINE
  5
112
330
C9
100
AcDbEntity
  8
1
 62
     7
100
AcDbLine
 10
111.0072110521395
 20
-776.0033736140883
 30
0.0
 11
113.8839559530279
 21
-776.0033736140883
 31
0.0
  0
LINE
  5
113
330
C9
100
AcDbEntity
  8
1
 62
     7
100
AcDbLine
 10
105.2260420511266
 20
-779.8803305438902
 30
0.0
 11
104.5146025443355
 21
-777.5533167701192
 31
0.0
  0
LINE
  5
114
330
C9
100
AcDbEntity
  8
1
 62
     7
100
AcDbLine
 10
103.6531060467205
 20
-780.0831209281585
 30
0.0
 11
105.0759850603317
 21
-780.0831209281585
 31
0.0
  0
LINE
  5
115
330
C9
100
AcDbEntity
  8
1
 62
     7
100
AcDbLine
 10
104.2144885628331
 20
-777.5533167701192
 30
0.0
 11
103.5030490559257
 21
-779.8803305438902
 31
0.0
  0
LINE
  5
116
330
C9
100
AcDbEntity
  8
1
 62
     7
100
AcDbLine
 10
103.2138475931388
 20
-782.8029524708816
 30
0.0
 11
103.2138475931388
 21
-783.22138809283
 31
0.0
  0
LINE
  5
117
330
C9
100
AcDbEntity
  8
1
 62
     7
100
AcDbLine
 10
102.8535522477141
 20
-782.6983435653944
 30
0.0
 11
103.1092386876371
 21
-782.6983435653944
 31
0.0
  0
LINE
  5
118
330
C9
100
AcDbEntity
  8
1
 62
     7
100
AcDbLine
 10
103.2471918403135
 20
-780.7172017878018
 30
0.0
 11
102.7034952569193
 21
-782.4955531811117
 31
0.0
  0
LINE
  5
119
330
C9
100
AcDbEntity
  8
1
 62
     7
100
AcDbLine
 10
105.2931390170379
 20
-780.6061654556088
 30
0.0
 11
103.397248831021
 21
-780.6061654556088
 31
0.0
  0
LINE
  5
11A
330
C9
100
AcDbEntity
  8
1
 62
     7
100
AcDbLine
 10
106.0049294360179
 20
-782.4279563863654
 30
0.0
 11
105.4932150046188
 21
-780.7542138985278
 31
0.0
  0
LINE
  5
11B
330
C9
100
AcDbEntity
  8
1
 62
     7
100
AcDbLine
 10
105.5152435139135
 20
-782.6983435653944
 30
0.0
 11
105.8048534483205
 21
-782.6983435653944
 31
0.0
  0
LINE
  5
11C
330
C9
100
AcDbEntity
  8
1
 62
     7
100
AcDbLine
 10
105.4106346084409
 20
-783.22138809283
 30
0.0
 11
105.4106346084409
 21
-782.8029524708816
 31
0.0
  0
LINE
  5
11D
330
C9
100
AcDbEntity
  8
1
 62
     7
100
AcDbLine
 10
108.5489017731416
 20
-783.22138809283
 30
0.0
 11
105.4106346084409
 21
-783.22138809283
 31
0.0
  0
LINE
  5
11E
330
C9
100
AcDbEntity
  8
1
 62
     7
100
AcDbLine
 10
108.5489017731416
 20
-782.8029524708816
 30
0.0
 11
108.5489017731416
 21
-783.22138809283
 31
0.0
  0
LINE
  5
11F
330
C9
100
AcDbEntity
  8
1
 62
     7
100
AcDbLine
 10
108.0860244450414
 20
-782.6983435653944
 30
0.0
 11
108.4442928676399
 21
-782.6983435653944
 31
0.0
  0
LINE
  5
120
330
C9
100
AcDbEntity
  8
1
 62
     7
100
AcDbLine
 10
105.8456504240421
 20
-776.0033736140883
 30
0.0
 11
107.8359294604416
 21
-782.5132830117342
 31
0.0
  0
LINE
  5
121
330
C9
100
AcDbEntity
  8
1
 62
     7
100
AcDbLine
 10
104.1414103895331
 20
-776.0033736140883
 30
0.0
 11
105.8456504240421
 21
-776.0033736140883
 31
0.0
  0
LINE
  5
122
330
C9
100
AcDbEntity
  8
1
 62
     7
100
AcDbLine
 10
102.1511313531337
 20
-782.5132830117342
 30
0.0
 11
104.1414103895331
 21
-776.0033736140883
 31
0.0
  0
LINE
  5
123
330
C9
100
AcDbEntity
  8
1
 62
     7
100
AcDbLine
 10
101.6447140108176
 20
-782.6983435653944
 30
0.0
 11
101.9010363685338
 21
-782.6983435653944
 31
0.0
  0
LINE
  5
124
330
C9
100
AcDbEntity
  8
1
 62
     7
100
AcDbLine
 10
101.5401051053159
 20
-783.22138809283
 30
0.0
 11
101.5401051053159
 21
-782.8029524708816
 31
0.0
  0
LINE
  5
125
330
C9
100
AcDbEntity
  8
1
 62
     7
100
AcDbLine
 10
103.2138475931388
 20
-783.22138809283
 30
0.0
 11
101.5401051053159
 21
-783.22138809283
 31
0.0
  0
LINE
  5
126
330
C9
100
AcDbEntity
  8
1
 62
     5
100
AcDbLine
 10
209.0292138474142
 20
-757.8694172270459
 30
0.0
 11
259.0292138474142
 21
-757.8694172270459
 31
0.0
  0
LINE
  5
127
330
C9
100
AcDbEntity
  8
1
 62
     5
100
AcDbLine
 10
209.0292138474142
 20
-757.8694172270459
 30
0.0
 11
209.0292138474142
 21
-764.8694172270459
 31
0.0
  0
LINE
  5
128
330
C9
100
AcDbEntity
  8
1
 62
     5
100
AcDbLine
 10
259.0292138474142
 20
-757.8694172270459
 30
0.0
 11
289.0292138474142
 21
-757.8694172270459
 31
0.0
  0
LINE
  5
129
330
C9
100
AcDbEntity
  8
1
 62
     5
100
AcDbLine
 10
259.0292138474142
 20
-757.8694172270459
 30
0.0
 11
259.0292138474142
 21
-764.8694172270459
 31
0.0
  0
LINE
  5
12A
330
C9
100
AcDbEntity
  8
1
 62
     5
100
AcDbLine
 10
289.0292138474142
 20
-757.8694172270459
 30
0.0
 11
304.0292138474141
 21
-757.8694172270459
 31
0.0
  0
LINE
  5
12B
330
C9
100
AcDbEntity
  8
1
 62
     5
100
AcDbLine
 10
289.0292138474142
 20
-757.8694172270459
 30
0.0
 11
289.0292138474142
 21
-764.8694172270459
 31
0.0
  0
LINE
  5
12C
330
C9
100
AcDbEntity
  8
1
 62
     5
100
AcDbLine
 10
304.0292138474141
 20
-757.8694172270459
 30
0.0
 11
344.0292138474142
 21
-757.8694172270459
 31
0.0
  0
LINE
  5
12D
330
C9
100
AcDbEntity
  8
1
 62
     5
100
AcDbLine
 10
304.0292138474141
 20
-757.8694172270459
 30
0.0
 11
304.0292138474141
 21
-764.8694172270459
 31
0.0
  0
LINE
  5
12E
330
C9
100
AcDbEntity
  8
1
 62
     5
100
AcDbLine
 10
344.0292138474142
 20
-757.8694172270459
 30
0.0
 11
344.0292138474142
 21
-764.8694172270459
 31
0.0
  0
LINE
  5
12F
330
C9
100
AcDbEntity
  8
1
 62
     5
100
AcDbLine
 10
194.0292138474141
 20
-757.8694172270459
 30
0.0
 11
209.0292138474142
 21
-757.8694172270459
 31
0.0
  0
LINE
  5
130
330
C9
100
AcDbEntity
  8
1
 62
     5
100
AcDbLine
 10
194.0292138474141
 20
-764.8694172270459
 30
0.0
 11
194.0292138474141
 21
-757.8694172270459
 31
0.0
  0
LINE
  5
131
330
C9
100
AcDbEntity
  8
1
 62
     7
100
AcDbLine
 10
209.0292138474142
 20
-764.8694172270459
 30
0.0
 11
194.0292138474141
 21
-764.8694172270459
 31
0.0
  0
LINE
  5
132
330
C9
100
AcDbEntity
  8
1
 62
     7
100
AcDbLine
 10
209.0292138474142
 20
-764.8694172270459
 30
0.0
 11
209.0292138474142
 21
-771.8694172270459
 31
0.0
  0
LINE
  5
133
330
C9
100
AcDbEntity
  8
1
 62
     7
100
AcDbLine
 10
259.0292138474142
 20
-764.8694172270459
 30
0.0
 11
209.0292138474142
 21
-764.8694172270459
 31
0.0
  0
LINE
  5
134
330
C9
100
AcDbEntity
  8
1
 62
     7
100
AcDbLine
 10
259.0292138474142
 20
-764.8694172270459
 30
0.0
 11
259.0292138474142
 21
-771.8694172270459
 31
0.0
  0
LINE
  5
135
330
C9
100
AcDbEntity
  8
1
 62
     7
100
AcDbLine
 10
289.0292138474142
 20
-764.8694172270459
 30
0.0
 11
259.0292138474142
 21
-764.8694172270459
 31
0.0
  0
LINE
  5
136
330
C9
100
AcDbEntity
  8
1
 62
     7
100
AcDbLine
 10
289.0292138474142
 20
-764.8694172270459
 30
0.0
 11
289.0292138474142
 21
-771.8694172270459
 31
0.0
  0
LINE
  5
137
330
C9
100
AcDbEntity
  8
1
 62
     7
100
AcDbLine
 10
304.0292138474141
 20
-764.8694172270459
 30
0.0
 11
289.0292138474142
 21
-764.8694172270459
 31
0.0
  0
LINE
  5
138
330
C9
100
AcDbEntity
  8
1
 62
     7
100
AcDbLine
 10
304.0292138474141
 20
-764.8694172270459
 30
0.0
 11
304.0292138474141
 21
-771.8694172270459
 31
0.0
  0
LINE
  5
139
330
C9
100
AcDbEntity
  8
1
 62
     7
100
AcDbLine
 10
344.0292138474142
 20
-764.8694172270459
 30
0.0
 11
304.0292138474141
 21
-764.8694172270459
 31
0.0
  0
LINE
  5
13A
330
C9
100
AcDbEntity
  8
1
 62
     7
100
AcDbLine
 10
344.0292138474142
 20
-764.8694172270459
 30
0.0
 11
344.0292138474142
 21
-771.8694172270459
 31
0.0
  0
LINE
  5
13B
330
C9
100
AcDbEntity
  8
1
 62
     7
100
AcDbLine
 10
194.0292138474141
 20
-764.8694172270459
 30
0.0
 11
194.0292138474141
 21
-771.8694172270459
 31
0.0
  0
LINE
  5
13C
330
C9
100
AcDbEntity
  8
1
 62
     5
100
AcDbLine
 10
344.0292138474142
 20
-750.8694172270459
 30
0.0
 11
370.0292138474142
 21
-750.8694172270459
 31
0.0
  0
LINE
  5
13D
330
C9
100
AcDbEntity
  8
1
 62
     5
100
AcDbLine
 10
209.0292138474142
 20
-750.8694172270459
 30
0.0
 11
259.0292138474142
 21
-750.8694172270459
 31
0.0
  0
LINE
  5
13E
330
C9
100
AcDbEntity
  8
1
 62
     5
100
AcDbLine
 10
259.0292138474142
 20
-750.8694172270459
 30
0.0
 11
289.0292138474142
 21
-750.8694172270459
 31
0.0
  0
LINE
  5
13F
330
C9
100
AcDbEntity
  8
1
 62
     5
100
AcDbLine
 10
289.0292138474142
 20
-750.8694172270459
 30
0.0
 11
304.0292138474141
 21
-750.8694172270459
 31
0.0
  0
LINE
  5
140
330
C9
100
AcDbEntity
  8
1
 62
     5
100
AcDbLine
 10
304.0292138474141
 20
-750.8694172270459
 30
0.0
 11
344.0292138474142
 21
-750.8694172270459
 31
0.0
  0
LINE
  5
141
330
C9
100
AcDbEntity
  8
1
 62
     5
100
AcDbLine
 10
194.0292138474141
 20
-750.8694172270459
 30
0.0
 11
209.0292138474142
 21
-750.8694172270459
 31
0.0
  0
LINE
  5
142
330
C9
100
AcDbEntity
  8
1
 62
     5
100
AcDbLine
 10
344.0292138474142
 20
-743.8694172270459
 30
0.0
 11
370.0292138474142
 21
-743.8694172270459
 31
0.0
  0
LINE
  5
143
330
C9
100
AcDbEntity
  8
1
 62
     5
100
AcDbLine
 10
209.0292138474142
 20
-743.8694172270459
 30
0.0
 11
259.0292138474142
 21
-743.8694172270459
 31
0.0
  0
LINE
  5
144
330
C9
100
AcDbEntity
  8
1
 62
     5
100
AcDbLine
 10
259.0292138474142
 20
-743.8694172270459
 30
0.0
 11
289.0292138474142
 21
-743.8694172270459
 31
0.0
  0
LINE
  5
145
330
C9
100
AcDbEntity
  8
1
 62
     5
100
AcDbLine
 10
289.0292138474142
 20
-743.8694172270459
 30
0.0
 11
304.0292138474141
 21
-743.8694172270459
 31
0.0
  0
LINE
  5
146
330
C9
100
AcDbEntity
  8
1
 62
     5
100
AcDbLine
 10
304.0292138474141
 20
-743.8694172270459
 30
0.0
 11
344.0292138474142
 21
-743.8694172270459
 31
0.0
  0
LINE
  5
147
330
C9
100
AcDbEntity
  8
1
 62
     5
100
AcDbLine
 10
194.0292138474141
 20
-743.8694172270459
 30
0.0
 11
209.0292138474142
 21
-743.8694172270459
 31
0.0
  0
LINE
  5
148
330
C9
100
AcDbEntity
  8
1
 62
     5
100
AcDbLine
 10
344.0292138474142
 20
-750.8694172270459
 30
0.0
 11
344.0292138474142
 21
-757.8694172270459
 31
0.0
  0
LINE
  5
149
330
C9
100
AcDbEntity
  8
1
 62
     5
100
AcDbLine
 10
344.0292138474142
 20
-743.8694172270459
 30
0.0
 11
344.0292138474142
 21
-750.8694172270459
 31
0.0
  0
LINE
  5
14A
330
C9
100
AcDbEntity
  8
1
 62
     5
100
AcDbLine
 10
304.0292138474141
 20
-750.8694172270459
 30
0.0
 11
304.0292138474141
 21
-757.8694172270459
 31
0.0
  0
LINE
  5
14B
330
C9
100
AcDbEntity
  8
1
 62
     5
100
AcDbLine
 10
304.0292138474141
 20
-743.8694172270459
 30
0.0
 11
304.0292138474141
 21
-750.8694172270459
 31
0.0
  0
LINE
  5
14C
330
C9
100
AcDbEntity
  8
1
 62
     5
100
AcDbLine
 10
289.0292138474142
 20
-750.8694172270459
 30
0.0
 11
289.0292138474142
 21
-757.8694172270459
 31
0.0
  0
LINE
  5
14D
330
C9
100
AcDbEntity
  8
1
 62
     5
100
AcDbLine
 10
289.0292138474142
 20
-743.8694172270459
 30
0.0
 11
289.0292138474142
 21
-750.8694172270459
 31
0.0
  0
LINE
  5
14E
330
C9
100
AcDbEntity
  8
1
 62
     5
100
AcDbLine
 10
259.0292138474142
 20
-750.8694172270459
 30
0.0
 11
259.0292138474142
 21
-757.8694172270459
 31
0.0
  0
LINE
  5
14F
330
C9
100
AcDbEntity
  8
1
 62
     5
100
AcDbLine
 10
259.0292138474142
 20
-743.8694172270459
 30
0.0
 11
259.0292138474142
 21
-750.8694172270459
 31
0.0
  0
LINE
  5
150
330
C9
100
AcDbEntity
  8
1
 62
     5
100
AcDbLine
 10
209.0292138474142
 20
-750.8694172270459
 30
0.0
 11
209.0292138474142
 21
-757.8694172270459
 31
0.0
  0
LINE
  5
151
330
C9
100
AcDbEntity
  8
1
 62
     5
100
AcDbLine
 10
209.0292138474142
 20
-743.8694172270459
 30
0.0
 11
209.0292138474142
 21
-750.8694172270459
 31
0.0
  0
LINE
  5
152
330
C9
100
AcDbEntity
  8
1
 62
     5
100
AcDbLine
 10
194.0292138474141
 20
-757.8694172270459
 30
0.0
 11
194.0292138474141
 21
-750.8694172270459
 31
0.0
  0
LINE
  5
153
330
C9
100
AcDbEntity
  8
1
 62
     5
100
AcDbLine
 10
194.0292138474141
 20
-750.8694172270459
 30
0.0
 11
194.0292138474141
 21
-743.8694172270459
 31
0.0
  0
LINE
  5
154
330
C9
100
AcDbEntity
  8
1
 62
     5
100
AcDbLine
 10
344.0292138474142
 20
-736.8694172270457
 30
0.0
 11
370.0292138474142
 21
-736.8694172270457
 31
0.0
  0
LINE
  5
155
330
C9
100
AcDbEntity
  8
1
 62
     5
100
AcDbLine
 10
209.0292138474142
 20
-736.8694172270457
 30
0.0
 11
259.0292138474142
 21
-736.8694172270457
 31
0.0
  0
LINE
  5
156
330
C9
100
AcDbEntity
  8
1
 62
     5
100
AcDbLine
 10
259.0292138474142
 20
-736.8694172270457
 30
0.0
 11
289.0292138474142
 21
-736.8694172270457
 31
0.0
  0
LINE
  5
157
330
C9
100
AcDbEntity
  8
1
 62
     5
100
AcDbLine
 10
289.0292138474142
 20
-736.8694172270457
 30
0.0
 11
304.0292138474141
 21
-736.8694172270457
 31
0.0
  0
LINE
  5
158
330
C9
100
AcDbEntity
  8
1
 62
     5
100
AcDbLine
 10
304.0292138474141
 20
-736.8694172270457
 30
0.0
 11
344.0292138474142
 21
-736.8694172270457
 31
0.0
  0
LINE
  5
159
330
C9
100
AcDbEntity
  8
1
 62
     5
100
AcDbLine
 10
194.0292138474141
 20
-736.8694172270457
 30
0.0
 11
209.0292138474142
 21
-736.8694172270457
 31
0.0
  0
LINE
  5
15A
330
C9
100
AcDbEntity
  8
1
 62
     5
100
AcDbLine
 10
344.0292138474142
 20
-736.8694172270457
 30
0.0
 11
344.0292138474142
 21
-743.8694172270459
 31
0.0
  0
LINE
  5
15B
330
C9
100
AcDbEntity
  8
1
 62
     5
100
AcDbLine
 10
304.0292138474141
 20
-736.8694172270457
 30
0.0
 11
304.0292138474141
 21
-743.8694172270459
 31
0.0
  0
LINE
  5
15C
330
C9
100
AcDbEntity
  8
1
 62
     5
100
AcDbLine
 10
289.0292138474142
 20
-736.8694172270457
 30
0.0
 11
289.0292138474142
 21
-743.8694172270459
 31
0.0
  0
LINE
  5
15D
330
C9
100
AcDbEntity
  8
1
 62
     5
100
AcDbLine
 10
259.0292138474142
 20
-736.8694172270457
 30
0.0
 11
259.0292138474142
 21
-743.8694172270459
 31
0.0
  0
LINE
  5
15E
330
C9
100
AcDbEntity
  8
1
 62
     5
100
AcDbLine
 10
209.0292138474142
 20
-736.8694172270457
 30
0.0
 11
209.0292138474142
 21
-743.8694172270459
 31
0.0
  0
LINE
  5
15F
330
C9
100
AcDbEntity
  8
1
 62
     5
100
AcDbLine
 10
194.0292138474141
 20
-743.8694172270459
 30
0.0
 11
194.0292138474141
 21
-736.8694172270457
 31
0.0
  0
ARC
  5
160
330
C9
100
AcDbEntity
  8
1
 62
     7
100
AcDbCircle
 10
116.2777205584243
 20
-781.3506680148982
 30
0.0
 40
0.8368712439465195
100
AcDbArc
 50
135.0000000021114
 51
314.9999999985938
  0
ARC
  5
161
330
C9
100
AcDbEntity
  8
1
 62
     7
100
AcDbCircle
 10
119.7542948813316
 20
-777.8740936920347
 30
0.0
 40
0.8368712438847808
100
AcDbArc
 50
314.9999999978845
 51
135.0000000021155
  0
ARC
  5
162
330
C9
100
AcDbEntity
  8
1
 62
     7
100
AcDbCircle
 10
108.3396839621382
 20
-777.6248116491748
 30
0.0
 40
0.2615222637591529
100
AcDbArc
 50
178.1475627150694
 51
342.5271147305372
  0
ARC
  5
163
330
C9
100
AcDbEntity
  8
1
 62
     7
100
AcDbCircle
 10
113.6747381420246
 20
-777.6248116491748
 30
0.0
 40
0.2615222636595284
100
AcDbArc
 50
197.4728852752063
 51
1.852437284930494
  0
CIRCLE
  5
164
330
C9
100
AcDbEntity
  8
1
 62
     7
100
AcDbCircle
 10
118.0160077198198
 20
-779.6123808534592
 30
0.0
 40
3.8182250504032
  0
ARC
  5
165
330
C9
100
AcDbEntity
  8
1
 62
     7
100
AcDbCircle
 10
130.0983363038358
 20
-782.4368213016692
 30
0.0
 40
0.2615222636958947
100
AcDbArc
 50
180.0
 51
270.0
  0
ARC
  5
166
330
C9
100
AcDbEntity
  8
1
 62
     7
100
AcDbCircle
 10
127.7969403830321
 20
-782.4368213016692
 30
0.0
 40
0.2615222637250554
100
AcDbArc
 50
270.0
 51
0.0
  0
ARC
  5
167
330
C9
100
AcDbEntity
  8
1
 62
     7
100
AcDbCircle
 10
130.0983363038358
 20
-776.7879404052635
 30
0.0
 40
0.2615222637250554
100
AcDbArc
 50
90.0
 51
180.0
  0
ARC
  5
168
330
C9
100
AcDbEntity
  8
1
 62
     7
100
AcDbCircle
 10
127.9015492885337
 20
-776.6785003933161
 30
0.0
 40
0.1569133582815852
100
AcDbArc
 50
0.0
 51
165.0000000012059
  0
ARC
  5
169
330
C9
100
AcDbEntity
  8
1
 62
     7
100
AcDbCircle
 10
126.3847201589342
 20
-779.1059615802492
 30
0.0
 40
0.1569133582373931
100
AcDbArc
 50
194.9999999987941
 51
345.0000000094654
  0
ARC
  5
16A
330
C9
100
AcDbEntity
  8
1
 62
     7
100
AcDbCircle
 10
123.5602797107385
 20
-776.6485618023413
 30
0.0
 40
0.1569133583218119
100
AcDbArc
 50
14.9999999905346
 51
180.0
  0
ARC
  5
16B
330
C9
100
AcDbEntity
  8
1
 62
     7
100
AcDbCircle
 10
123.5602797107385
 20
-782.5414302071565
 30
0.0
 40
0.1569133582232922
100
AcDbArc
 50
180.0
 51
270.0
  0
ARC
  5
16C
330
C9
100
AcDbEntity
  8
1
 62
     7
100
AcDbCircle
 10
122.7234084668417
 20
-782.5414302071565
 30
0.0
 40
0.1569133582379436
100
AcDbArc
 50
270.0
 51
0.0
  0
ARC
  5
16D
330
C9
100
AcDbEntity
  8
1
 62
     7
100
AcDbCircle
 10
122.7234084668417
 20
-776.6833314997763
 30
0.0
 40
0.1569133582815994
100
AcDbArc
 50
0.0
 51
90.0
  0
ARC
  5
16E
330
C9
100
AcDbEntity
  8
1
 62
     7
100
AcDbCircle
 10
123.7171930690201
 20
-782.8029524708816
 30
0.0
 40
0.1046089055017063
100
AcDbArc
 50
0.0
 51
90.0
  0
ARC
  5
16F
330
C9
100
AcDbEntity
  8
1
 62
     7
100
AcDbCircle
 10
122.4618862031166
 20
-782.8029524708816
 30
0.0
 40
0.1046089054871118
100
AcDbArc
 50
90.0
 51
180.0
  0
ARC
  5
170
330
C9
100
AcDbEntity
  8
1
 62
     7
100
AcDbCircle
 10
127.587722572116
 20
-782.8029524708816
 30
0.0
 40
0.1046089054871118
100
AcDbArc
 50
90.0
 51
180.0
  0
ARC
  5
171
330
C9
100
AcDbEntity
  8
1
 62
     7
100
AcDbCircle
 10
130.3075541148392
 20
-782.8029524708816
 30
0.0
 40
0.1046089055016068
100
AcDbArc
 50
0.0
 51
90.0
  0
ARC
  5
172
330
C9
100
AcDbEntity
  8
1
 62
     7
100
AcDbCircle
 10
130.3075541148392
 20
-776.4218092360512
 30
0.0
 40
0.1046089054871118
100
AcDbArc
 50
270.0
 51
0.0
  0
ARC
  5
173
330
C9
100
AcDbEntity
  8
1
 62
     7
100
AcDbCircle
 10
122.4618862031166
 20
-776.4218092360512
 30
0.0
 40
0.1046089055017063
100
AcDbArc
 50
180.0
 51
270.0
  0
ARC
  5
174
330
C9
100
AcDbEntity
  8
1
 62
     7
100
AcDbCircle
 10
109.5426863752327
 20
-782.8029524708816
 30
0.0
 40
0.1046089054871118
100
AcDbArc
 50
90.0
 51
180.0
  0
ARC
  5
175
330
C9
100
AcDbEntity
  8
1
 62
     7
100
AcDbCircle
 10
112.4717357289301
 20
-782.8029524708816
 30
0.0
 40
0.1046089055016068
100
AcDbArc
 50
0.0
 51
90.0
  0
ARC
  5
176
330
C9
100
AcDbEntity
  8
1
 62
     7
100
AcDbCircle
 10
112.2625179179267
 20
-782.4368213016692
 30
0.0
 40
0.2615222636958947
100
AcDbArc
 50
180.0
 51
270.0
  0
ARC
  5
177
330
C9
100
AcDbEntity
  8
1
 62
     7
100
AcDbCircle
 10
109.7519041862361
 20
-782.4368213016692
 30
0.0
 40
0.2615222637250554
100
AcDbArc
 50
270.0
 51
0.0
  0
ARC
  5
178
330
C9
100
AcDbEntity
  8
1
 62
     7
100
AcDbCircle
 10
109.4967909693332
 20
-777.2586804799628
 30
0.0
 40
0.7322623384243343
100
AcDbArc
 50
90.0
 51
162.5271147279355
  0
ARC
  5
179
330
C9
100
AcDbEntity
  8
1
 62
     7
100
AcDbCircle
 10
112.5176311348296
 20
-777.2586804799628
 30
0.0
 40
0.732262338457508
100
AcDbArc
 50
17.47288527001361
 51
90.0
  0
ARC
  5
17A
330
C9
100
AcDbEntity
  8
1
 62
     7
100
AcDbCircle
 10
112.3671268234284
 20
-776.8925493107506
 30
0.0
 40
0.3661311692121672
100
AcDbArc
 50
90.0
 51
180.0
  0
ARC
  5
17B
330
C9
100
AcDbEntity
  8
1
 62
     7
100
AcDbCircle
 10
109.6472952807344
 20
-776.8925493107506
 30
0.0
 40
0.366131169197601
100
AcDbArc
 50
0.0
 51
90.0
  0
ARC
  5
17C
330
C9
100
AcDbEntity
  8
1
 62
     7
100
AcDbCircle
 10
108.4442928676399
 20
-782.8029524708816
 30
0.0
 40
0.1046089055016921
100
AcDbArc
 50
0.0
 51
90.0
  0
ARC
  5
17D
330
C9
100
AcDbEntity
  8
1
 62
     7
100
AcDbCircle
 10
105.5152435139135
 20
-782.8029524708816
 30
0.0
 40
0.1046089054871118
100
AcDbArc
 50
90.0
 51
180.0
  0
ARC
  5
17E
330
C9
100
AcDbEntity
  8
1
 62
     7
100
AcDbCircle
 10
103.1092386876371
 20
-782.8029524708816
 30
0.0
 40
0.1046089055016921
100
AcDbArc
 50
0.0
 51
90.0
  0
ARC
  5
17F
330
C9
100
AcDbEntity
  8
1
 62
     7
100
AcDbCircle
 10
101.6447140108176
 20
-782.8029524708816
 30
0.0
 40
0.1046089054871118
100
AcDbArc
 50
90.0
 51
180.0
  0
ARC
  5
180
330
C9
100
AcDbEntity
  8
1
 62
     7
100
AcDbCircle
 10
108.0860244450414
 20
-782.4368213016692
 30
0.0
 40
0.2615222637329808
100
AcDbArc
 50
196.9999999987043
 51
270.0
  0
ARC
  5
181
330
C9
100
AcDbEntity
  8
1
 62
     7
100
AcDbCircle
 10
101.9010363685338
 20
-782.4368213016692
 30
0.0
 40
0.2615222637250554
100
AcDbArc
 50
270.0
 51
343.0000000013031
  0
ARC
  5
182
330
C9
100
AcDbEntity
  8
1
 62
     7
100
AcDbCircle
 10
105.8048534483205
 20
-782.4891257544058
 30
0.0
 40
0.2092178109887755
100
AcDbArc
 50
270.0
 51
16.99999999424907
  0
ARC
  5
183
330
C9
100
AcDbEntity
  8
1
 62
     7
100
AcDbCircle
 10
105.2931390170379
 20
-780.8153832665827
 30
0.0
 40
0.2092178108926226
100
AcDbArc
 50
17.00000000738806
 51
90.0
  0
ARC
  5
184
330
C9
100
AcDbEntity
  8
1
 62
     7
100
AcDbCircle
 10
102.8535522477141
 20
-782.5414302071565
 30
0.0
 40
0.1569133582748943
100
AcDbArc
 50
163.0000000029923
 51
270.0
  0
ARC
  5
185
330
C9
100
AcDbEntity
  8
1
 62
     7
100
AcDbCircle
 10
103.397248831021
 20
-780.7630788138464
 30
0.0
 40
0.1569133582379436
100
AcDbArc
 50
90.0
 51
162.9999999936711
  0
ARC
  5
186
330
C9
100
AcDbEntity
  8
1
 62
     7
100
AcDbCircle
 10
105.0759850603317
 20
-779.9262075699353
 30
0.0
 40
0.1569133582233917
100
AcDbArc
 50
270.0
 51
16.99999999699861
  0
ARC
  5
187
330
C9
100
AcDbEntity
  8
1
 62
     7
100
AcDbCircle
 10
103.6531060467205
 20
-779.9262075699353
 30
0.0
 40
0.1569133582748807
100
AcDbArc
 50
163.0000000029908
 51
270.0
  0
ARC
  5
188
330
C9
100
AcDbEntity
  8
1
 62
     7
100
AcDbCircle
 10
104.3645455535407
 20
-777.5991937961642
 30
0.0
 40
0.1569133582748943
100
AcDbArc
 50
16.99999999700772
 51
162.9999999936817
  0
TEXT
  5
189
330
C9
100
AcDbEntity
  8
1
 62
     4
100
AcDbText
 10
350.7180972950264
 20
-770.1061459243917
 30
0.0
 40
4.0
  1
記  事
 41
0.9
 72
     1
 11
356.7180972950264
 21
-768.1061459243917
 31
0.0
100
AcDbText
 73
     2
  0
TEXT
  5
18A
330
C9
100
AcDbEntity
  8
1
 62
     4
100
AcDbText
 10
195.607775156237
 20
-775.0384372329115
 30
0.0
 40
2.5
  1
日付
 41
0.9
 72
     1
 11
197.107775156237
 21
-773.7884372329115
 31
0.0
100
AcDbText
 73
     2
  0
TEXT
  5
18B
330
C9
100
AcDbEntity
  8
1
 62
     4
100
AcDbText
 10
230.2737065375222
 20
-774.963402749401
 30
0.0
 40
2.5
  1
品名
 41
0.9
 72
     1
 11
231.7737065375222
 21
-773.7134027494009
 31
0.0
100
AcDbText
 73
     2
  0
TEXT
  5
18C
330
C9
100
AcDbEntity
  8
1
 62
     4
100
AcDbText
 10
293.7089563645386
 20
-775.3294459306176
 30
0.0
 40
2.5
  1
図名
 41
0.9
 72
     1
 11
295.2089563645386
 21
-774.0794459306177
 31
0.0
100
AcDbText
 73
     2
  0
TEXT
  5
18D
330
C9
100
AcDbEntity
  8
1
 62
     4
100
AcDbText
 10
293.7930629245202
 20
-784.9730028495521
 30
0.0
 40
2.5
  1
図番
 41
0.9
 72
     1
 11
295.2930629245202
 21
-783.7230028495521
 31
0.0
100
AcDbText
 73
     2
  0
TEXT
  5
18E
330
C9
100
AcDbEntity
  8
1
 62
     4
100
AcDbText
 10
272.6823163561312
 20
-784.9730028495521
 30
0.0
 40
2.5
  1
担当
 41
0.9
 72
     1
 11
274.1823163561312
 21
-783.7230028495521
 31
0.0
100
AcDbText
 73
     2
  0
TEXT
  5
18F
330
C9
100
AcDbEntity
  8
1
 62
     4
100
AcDbText
 10
251.5834998542231
 20
-784.9730028495521
 30
0.0
 40
2.5
  1
検図
 41
0.9
 72
     1
 11
253.0834998542232
 21
-783.7230028495521
 31
0.0
100
AcDbText
 73
     2
  0
TEXT
  5
190
330
C9
100
AcDbEntity
  8
1
 62
     4
100
AcDbText
 10
228.2338030913343
 20
-784.9730028495521
 30
0.0
 40
2.5
  1
?%d認
 41
0.9
 72
     1
 11
231.9838030913343
 21
-783.7230028495521
 31
0.0
100
AcDbText
 73
     2
  0
TEXT
  5
191
330
C9
100
AcDbEntity
  8
1
 62
     4
100
AcDbText
 10
210.404575304241
 20
-784.9279821594516
 30
0.0
 40
2.5
  1
尺度
 41
0.9
 72
     1
 11
211.904575304241
 21
-783.6779821594516
 31
0.0
100
AcDbText
 73
     2
  0
TEXT
  5
192
330
C9
100
AcDbEntity
  8
1
 62
     4
100
AcDbText
 10
144.6779236448252
 20
-782.9562247042757
 30
0.0
 40
2.0
  1
110
 41
0.9
 72
     1
 11
146.3279236448252
 21
-781.9562247042758
 31
0.0
100
AcDbText
 73
     2
  0
TEXT
  5
193
330
C9
100
AcDbEntity
  8
1
 62
     4
100
AcDbText
 10
143.2643111952037
 20
-788.0604174850868
 30
0.0
 40
2.0
  1
TEL
 41
0.7200000000000001
  7
COMPLEX
 72
     1
 11
145.150025480918
 21
-787.0604174850869
 31
0.0
100
AcDbText
 73
     2
  0
TEXT
  5
194
330
C9
100
AcDbEntity
  8
1
 62
     4
100
AcDbText
 10
141.6165026604394
 20
-783.2686817897317
 30
0.0
 40
2.5
  1
〒
 41
0.9
 72
     1
 11
142.1790026604394
 21
-782.0186817897317
 31
0.0
100
AcDbText
 73
     2
  0
TEXT
  5
195
330
C9
100
AcDbEntity
  8
1
 62
     4
100
AcDbText
 10
149.7154185343265
 20
-788.0803554959691
 30
0.0
 40
2.0
  1
03 (3876) 0600
 41
0.9
 72
     1
 11
160.8154185343265
 21
-787.0803554959691
 31
0.0
100
AcDbText
 73
     2
  0
TEXT
  5
196
330
C9
100
AcDbEntity
  8
1
 62
     4
100
AcDbText
 10
175.1411167753241
 20
-782.9031103794821
 30
0.0
 40
2.0
  1
1-27-4
 41
0.9
 72
     1
 11
179.9411167753241
 21
-781.9031103794821
 31
0.0
100
AcDbText
 73
     2
  0
TEXT
  5
197
330
C9
100
AcDbEntity
  8
1
 62
     4
100
AcDbText
 10
156.5400704571184
 20
-783.1715280899059
 30
0.0
 40
2.5
  1
東京都台東区入谷
 41
0.9
 72
     1
 11
163.6650704571184
 21
-781.9215280899059
 31
0.0
100
AcDbText
 73
     2
  0
TEXT
  5
198
330
C9
100
AcDbEntity
  8
1
 62
     4
100
AcDbText
 10
141.5209031613333
 20
-778.8018364239085
 30
0.0
 40
3.0
  1
本社
 41
0.9
 72
     1
 11
143.3209031613333
 21
-777.3018364239085
 31
0.0
100
AcDbText
 73
     2
  0
TEXT
  5
199
330
C9
100
AcDbEntity
  8
1
 62
     4
100
AcDbText
 10
104.5541286770218
 20
-789.4630469375095
 30
0.0
 40
4.0
  1
高橋金物株式会社
 41
0.9
 72
     1
 11
115.9541286770218
 21
-787.4630469375095
 31
0.0
100
AcDbText
 73
     2
  0
TEXT
  5
19A
330
C9
100
AcDbEntity
  8
1
 62
     4
100
AcDbText
 10
309.3292138474142
 20
-770.3694172270459
 30
0.0
 40
4.0
  1
仕   上   げ
 41
0.9
 72
     1
 11
324.0292138474142
 21
-768.3694172270459
 31
0.0
100
AcDbText
 73
     2
  0
TEXT
  5
19B
330
C9
100
AcDbEntity
  8
1
 62
     4
100
AcDbText
 10
292.3292138474142
 20
-770.3694172270459
 30
0.0
 40
4.0
  1
数 量
 41
0.9
 72
     1
 11
296.5292138474142
 21
-768.3694172270459
 31
0.0
100
AcDbText
 73
     2
  0
TEXT
  5
19C
330
C9
100
AcDbEntity
  8
1
 62
     4
100
AcDbText
 10
266.2292138474141
 20
-770.3694172270459
 30
0.0
 40
4.0
  1
坑   質
 41
0.9
 72
     1
 11
274.0292138474142
 21
-768.3694172270459
 31
0.0
100
AcDbText
 73
     2
  0
TEXT
  5
19D
330
C9
100
AcDbEntity
  8
1
 62
     4
100
AcDbText
 10
217.2292138474142
 20
-770.3694172270459
 30
0.0
 40
4.0
  1
品        名
 41
0.9
 72
     1
 11
234.0292138474142
 21
-768.3694172270459
 31
0.0
100
AcDbText
 73
     2
  0
TEXT
  5
19E
330
C9
100
AcDbEntity
  8
1
 62
     4
100
AcDbText
 10
197.3292138474142
 20
-770.3694172270459
 30
0.0
 40
4.0
  1
品 番
 41
0.9
 72
     1
 11
201.5292138474142
 21
-768.3694172270459
 31
0.0
100
AcDbText
 73
     2
  0
TEXT
  5
19F
330
C9
100
AcDbEntity
  8
1
 62
     3
100
AcDbText
 10
200.6167138474141
 20
-779.3694172270459
 30
0.0
 40
5.0
  1
1999/01/26
 41
0.63
 72
     1
 11
214.5292138474141
 21
-776.8694172270459
 31
0.0
100
AcDbText
 73
     2
  0
TEXT
  5
1A0
330
C9
100
AcDbEntity
  8
1
 62
     3
100
AcDbText
 10
216.0892138474141
 20
-790.3694172270459
 30
0.0
 40
7.0
  1
1:1
 41
0.6300000000000001
 72
     1
 11
219.0292138474141
 21
-786.8694172270459
 31
0.0
100
AcDbText
 73
     2
  0
TEXT
  5
1A1
330
C9
100
AcDbEntity
  8
1
 62
     3
100
AcDbText
 10
235.0292138474141
 20
-780.3694172270459
 30
0.0
 40
7.0
  1
AFD-320
 41
0.6300000000000001
 11
235.0292138474141
 21
-776.8694172270459
 31
0.0
100
AcDbText
 73
     2
  0
TEXT
  5
1A2
330
C9
100
AcDbEntity
  8
1
 62
     3
100
AcDbText
 10
298.0292138474141
 20
-780.3694172270459
 30
0.0
 40
7.0
  1
組立図
 41
0.6300000000000001
 11
298.0292138474141
 21
-776.8694172270459
 31
0.0
100
AcDbText
 73
     2
  0
TEXT
  5
1A3
330
C9
100
AcDbEntity
  8
1
 62
     3
100
AcDbText
 10
298.0292138474141
 20
-790.3694172270459
 30
0.0
 40
7.0
  1
GDFD-AD6-A06
 41
0.6300000000000001
 11
298.0292138474141
 21
-786.8694172270459
 31
0.0
100
AcDbText
 73
     2
  0
TEXT
  5
1A4
330
C9
100
AcDbEntity
  8
1
 62
     3
100
AcDbText
 10
281.5892138474142
 20
-790.3694172270459
 30
0.0
 40
7.0
  1
飯島
 41
0.6300000000000001
 72
     1
 11
284.5292138474142
 21
-786.8694172270459
 31
0.0
100
AcDbText
 73
     2
  0
TEXT
  5
1A5
330
C9
100
AcDbEntity
  8
1
 62
     3
100
AcDbText
 10
260.5892138474142
 20
-790.3694172270459
 30
0.0
 40
7.0
  1
中島
 41
0.6300000000000001
 72
     1
 11
263.5292138474142
 21
-786.8694172270459
 31
0.0
100
AcDbText
 73
     2
  0
TEXT
  5
1A6
330
C9
100
AcDbEntity
  8
1
 62
     3
100
AcDbText
 10
239.5892138474142
 20
-790.3694172270459
 30
0.0
 40
7.0
  1
逢坂
 41
0.6300000000000001
 72
     1
 11
242.5292138474142
 21
-786.8694172270459
 31
0.0
100
AcDbText
 73
     2
  0
TEXT
  5
1A7
330
C9
100
AcDbEntity
  8
1
 62
     3
100
AcDbText
 10
296.0042138474142
 20
-763.8694172270458
 30
0.0
 40
5.0
  1
1
 41
0.63
 72
     1
 11
296.5292138474142
 21
-761.3694172270458
 31
0.0
100
AcDbText
 73
     2
  0
TEXT
  5
1A8
330
C9
100
AcDbEntity
  8
1
 62
     3
100
AcDbText
 10
262.0292138474141
 20
-763.8694172270458
 30
0.0
 40
5.0
  1
6ナイロン
 41
0.63
 11
262.0292138474141
 21
-761.3694172270458
 31
0.0
100
AcDbText
 73
     2
  0
TEXT
  5
1A9
330
C9
100
AcDbEntity
  8
1
 62
     3
100
AcDbText
 10
307.0292138474142
 20
-763.8694172270458
 30
0.0
 40
5.0
  1
チョコ色
 41
0.63
 11
307.0292138474142
 21
-761.3694172270458
 31
0.0
100
AcDbText
 73
     2
  0
TEXT
  5
1AA
330
C9
100
AcDbEntity
  8
1
 62
     3
100
AcDbText
 10
201.0042138474141
 20
-763.8694172270458
 30
0.0
 40
5.0
  1
1
 41
0.63
 72
     1
 11
201.5292138474142
 21
-761.3694172270458
 31
0.0
100
AcDbText
 73
     2
  0
TEXT
  5
1AB
330
C9
100
AcDbEntity
  8
1
 62
     3
100
AcDbText
 10
212.0292138474141
 20
-763.8694172270458
 30
0.0
 40
5.0
  1
外ブロック
 41
0.63
 11
212.0292138474141
 21
-761.3694172270458
 31
0.0
100
AcDbText
 73
     2
  0
TEXT
  5
1AC
330
C9
100
AcDbEntity
  8
1
 62
     3
100
AcDbText
 10
296.0042138474142
 20
-756.8694172270459
 30
0.0
 40
5.0
  1
1
 41
0.63
 72
     1
 11
296.5292138474142
 21
-754.3694172270459
 31
0.0
100
AcDbText
 73
     2
  0
TEXT
  5
1AD
330
C9
100
AcDbEntity
  8
1
 62
     3
100
AcDbText
 10
262.0292138474141
 20
-756.8694172270459
 30
0.0
 40
5.0
  1
6ナイロン
 41
0.63
 11
262.0292138474141
 21
-754.3694172270459
 31
0.0
100
AcDbText
 73
     2
  0
TEXT
  5
1AE
330
C9
100
AcDbEntity
  8
1
 62
     3
100
AcDbText
 10
307.0292138474142
 20
-756.8694172270459
 30
0.0
 40
5.0
  1
チョコ色
 41
0.63
 11
307.0292138474142
 21
-754.3694172270459
 31
0.0
100
AcDbText
 73
     2
  0
TEXT
  5
1AF
330
C9
100
AcDbEntity
  8
1
 62
     3
100
AcDbText
 10
200.4792138474142
 20
-756.8694172270459
 30
0.0
 40
5.0
  1
2
 41
0.63
 72
     1
 11
201.5292138474142
 21
-754.3694172270459
 31
0.0
100
AcDbText
 73
     2
  0
TEXT
  5
1B0
330
C9
100
AcDbEntity
  8
1
 62
     3
100
AcDbText
 10
296.0042138474142
 20
-749.8694172270459
 30
0.0
 40
5.0
  1
1
 41
0.63
 72
     1
 11
296.5292138474142
 21
-747.3694172270459
 31
0.0
100
AcDbText
 73
     2
  0
TEXT
  5
1B1
330
C9
100
AcDbEntity
  8
1
 62
     3
100
AcDbText
 10
262.0292138474141
 20
-749.8694172270459
 30
0.0
 40
5.0
  1
SWCH10R
 41
0.63
 11
262.0292138474141
 21
-747.3694172270459
 31
0.0
100
AcDbText
 73
     2
  0
TEXT
  5
1B2
330
C9
100
AcDbEntity
  8
1
 62
     3
100
AcDbText
 10
307.0292138474142
 20
-749.8694172270459
 30
0.0
 40
5.0
  1
クロメート処理
 41
0.63
 11
307.0292138474142
 21
-747.3694172270459
 31
0.0
100
AcDbText
 73
     2
  0
TEXT
  5
1B3
330
C9
100
AcDbEntity
  8
1
 62
     3
100
AcDbText
 10
200.4792138474142
 20
-749.8694172270459
 30
0.0
 40
5.0
  1
3
 41
0.63
 72
     1
 11
201.5292138474142
 21
-747.3694172270459
 31
0.0
100
AcDbText
 73
     2
  0
TEXT
  5
1B4
330
C9
100
AcDbEntity
  8
1
 62
     3
100
AcDbText
 10
212.0292138474141
 20
-749.8694172270459
 30
0.0
 40
5.0
  1
上下調整ねじ
 41
0.63
 11
212.0292138474141
 21
-747.3694172270459
 31
0.0
100
AcDbText
 73
     2
  0
TEXT
  5
1B5
330
C9
100
AcDbEntity
  8
1
 62
     3
100
AcDbText
 10
212.0292138474141
 20
-756.8694172270459
 30
0.0
 40
5.0
  1
内ブロック
 41
0.63
 11
212.0292138474141
 21
-754.3694172270459
 31
0.0
100
AcDbText
 73
     2
  0
TEXT
  5
1B6
330
C9
100
AcDbEntity
  8
1
 62
     3
100
AcDbText
 10
345.0292138474142
 20
-749.8694172270459
 30
0.0
 40
5.0
  1
十字穴 No.2
 41
0.63
 11
345.0292138474142
 21
-747.3694172270459
 31
0.0
100
AcDbText
 73
     2
  0
TEXT
  5
1B7
330
C9
100
AcDbEntity
  8
1
 62
     3
100
AcDbText
 10
296.0042138474142
 20
-742.8694172270459
 30
0.0
 40
5.0
  1
1
 41
0.63
 72
     1
 11
296.5292138474142
 21
-740.3694172270459
 31
0.0
100
AcDbText
 73
     2
  0
TEXT
  5
1B8
330
C9
100
AcDbEntity
  8
1
 62
     3
100
AcDbText
 10
262.0292138474141
 20
-742.8694172270459
 30
0.0
 40
5.0
  1
SUS304
 41
0.63
 11
262.0292138474141
 21
-740.3694172270459
 31
0.0
100
AcDbText
 73
     2
  0
TEXT
  5
1B9
330
C9
100
AcDbEntity
  8
1
 62
     3
100
AcDbText
 10
307.0292138474142
 20
-742.8694172270459
 30
0.0
 40
5.0
  1
ユニクロ
 41
0.63
 11
307.0292138474142
 21
-740.3694172270459
 31
0.0
100
AcDbText
 73
     2
  0
TEXT
  5
1BA
330
C9
100
AcDbEntity
  8
1
 62
     3
100
AcDbText
 10
200.4792138474142
 20
-742.8694172270459
 30
0.0
 40
5.0
  1
4
 41
0.63
 72
     1
 11
201.5292138474142
 21
-740.3694172270459
 31
0.0
100
AcDbText
 73
     2
  0
TEXT
  5
1BB
330
C9
100
AcDbEntity
  8
1
 62
     3
100
AcDbText
 10
212.0292138474141
 20
-742.8694172270459
 30
0.0
 40
5.0
  1
平ワッシャー
 41
0.63
 11
212.0292138474141
 21
-740.3694172270459
 31
0.0
100
AcDbText
 73
     2
  0
TEXT
  5
1BC
330
C9
100
AcDbEntity
  8
1
 62
     3
100
AcDbText
 10
344.0292138474142
 20
-742.8694172270459
 30
0.0
 40
5.0
  1
\U+03C62.6\U+00D7\U+03C67\U+00D7ｔ0.5
 41
0.45
 11
344.0292138474142
 21
-740.3694172270459
 31
0.0
100
AcDbText
 73
     2
  0
ENDBLK
  5
1BD
330
C9
100
AcDbEntity
  8
0
100
AcDbBlockEnd
  0
BLOCK
  5
1BF
330
1BE
100
AcDbEntity
  8
0
100
AcDbBlockBegin
  2
FORMAT_A4
 70
     0
 10
878.090226258366
 20
-974.7507941166619
 30
0.0
  3
FORMAT_A4
  1

  0
LINE
  5
1C0
330
1BE
100
AcDbEntity
  8
1
 62
     7
100
AcDbLine
 10
99.02921384741432
 20
-771.8694172270459
 30
0.0
 11
99.02921384741432
 21
-608.8694172270459
 31
0.0
  0
LINE
  5
1C1
330
1BE
100
AcDbEntity
  8
1
 62
     7
100
AcDbLine
 10
99.02921384741432
 20
-608.8694172270459
 30
0.0
 11
370.0292138474142
 21
-608.8694172270459
 31
0.0
  0
LINE
  5
1C2
330
1BE
100
AcDbEntity
  8
1
 62
     7
100
AcDbLine
 10
370.0292138474142
 20
-608.8694172270459
 30
0.0
 11
370.0292138474142
 21
-764.8694172270459
 31
0.0
  0
INSERT
  5
1C3
330
1BE
100
AcDbEntity
  8
0
100
AcDbBlockReference
  2
______
 10
296.4491775564725
 20
-916.1428967835858
 30
0.0
  0
ENDBLK
  5
1C4
330
1BE
100
AcDbEntity
  8
0
100
AcDbBlockEnd
  0
BLOCK
  5
1C6
330
1C5
100
AcDbEntity
  8
0
100
AcDbBlockBegin
  2
_2
 70
     0
 10
-231.720538065039
 20
-242.981431383147
 30
0.0
  3
_2
  1

  0
LINE
  5
1C7
330
1C5
100
AcDbEntity
  8
1
  6
DOT
 62
     7
100
AcDbLine
 10
-230.720538065039
 20
-223.069052111733
 30
0.0
 11
-217.720538065039
 21
-223.069052111733
 31
0.0
  0
LINE
  5
1C8
330
1C5
100
AcDbEntity
  8
1
 62
     7
100
AcDbLine
 10
-216.720538065039
 20
-229.069052111733
 30
0.0
 11
-231.720538065039
 21
-229.069052111733
 31
0.0
  0
LINE
  5
1C9
330
1C5
100
AcDbEntity
  8
1
 62
     7
100
AcDbLine
 10
-231.720538065039
 20
-229.069052111733
 30
0.0
 11
-231.720538065039
 21
-228.569052111733
 31
0.0
  0
LINE
  5
1CA
330
1C5
100
AcDbEntity
  8
1
  6
DOT
 62
     7
100
AcDbLine
 10
-166.579060846798
 20
-224.069052111733
 30
0.0
 11
-166.579060846798
 21
-228.569052111733
 31
0.0
  0
LINE
  5
1CB
330
1C5
100
AcDbEntity
  8
1
 62
     7
100
AcDbLine
 10
-166.579060846798
 20
-229.069052111733
 30
0.0
 11
-168.329060846798
 21
-229.069052111733
 31
0.0
  0
LINE
  5
1CC
330
1C5
100
AcDbEntity
  8
1
 62
     7
100
AcDbLine
 10
-180.0790608467979
 20
-229.069052111733
 30
0.0
 11
-180.0790608467979
 21
-228.569052111733
 31
0.0
  0
LINE
  5
1CD
330
1C5
100
AcDbEntity
  8
1
 62
     7
100
AcDbLine
 10
-178.329060846798
 20
-229.069052111733
 30
0.0
 11
-178.329060846798
 21
-228.569052111733
 31
0.0
  0
LINE
  5
1CE
330
1C5
100
AcDbEntity
  8
1
 62
     7
100
AcDbLine
 10
-178.329060846798
 20
-229.069052111733
 30
0.0
 11
-180.0790608467979
 21
-229.069052111733
 31
0.0
  0
LINE
  5
1CF
330
1C5
100
AcDbEntity
  8
1
  6
DOT
 62
     7
100
AcDbLine
 10
-168.329060846798
 20
-227.569052111733
 30
0.0
 11
-168.329060846798
 21
-228.569052111733
 31
0.0
  0
LINE
  5
1D0
330
1C5
100
AcDbEntity
  8
1
 62
     7
100
AcDbLine
 10
-178.329060846798
 20
-227.569052111733
 30
0.0
 11
-168.329060846798
 21
-227.569052111733
 31
0.0
  0
LINE
  5
1D1
330
1C5
100
AcDbEntity
  8
1
  6
DOT
 62
     7
100
AcDbLine
 10
-179.0790608467979
 20
-223.069052111733
 30
0.0
 11
-167.579060846798
 21
-223.069052111733
 31
0.0
  0
LINE
  5
1D2
330
1C5
100
AcDbEntity
  8
1
  6
DOT
 62
     7
100
AcDbLine
 10
-167.579060846798
 20
-223.069052111733
 30
0.0
 11
-166.579060846798
 21
-224.069052111733
 31
0.0
  0
LINE
  5
1D3
330
1C5
100
AcDbEntity
  8
1
  6
DOT
 62
     7
100
AcDbLine
 10
-179.0790608467979
 20
-223.069052111733
 30
0.0
 11
-180.0790608467979
 21
-224.069052111733
 31
0.0
  0
LINE
  5
1D4
330
1C5
100
AcDbEntity
  8
1
  6
DOT
 62
     7
100
AcDbLine
 10
-216.720538065039
 20
-224.069052111733
 30
0.0
 11
-216.720538065039
 21
-228.569052111733
 31
0.0
  0
LINE
  5
1D5
330
1C5
100
AcDbEntity
  8
1
  6
DOT
 62
     7
100
AcDbLine
 10
-180.0790608467979
 20
-228.569052111733
 30
0.0
 11
-180.0790608467979
 21
-224.069052111733
 31
0.0
  0
LINE
  5
1D6
330
1C5
100
AcDbEntity
  8
1
  6
DOT
 62
     7
100
AcDbLine
 10
-178.329060846798
 20
-228.569052111733
 30
0.0
 11
-178.329060846798
 21
-227.569052111733
 31
0.0
  0
LINE
  5
1D7
330
1C5
100
AcDbEntity
  8
1
 62
     7
100
AcDbLine
 10
-168.329060846798
 20
-228.569052111733
 30
0.0
 11
-168.329060846798
 21
-229.069052111733
 31
0.0
  0
LINE
  5
1D8
330
1C5
100
AcDbEntity
  8
1
 62
     7
100
AcDbLine
 10
-166.579060846798
 20
-228.569052111733
 30
0.0
 11
-166.579060846798
 21
-229.069052111733
 31
0.0
  0
LINE
  5
1D9
330
1C5
100
AcDbEntity
  8
1
 62
     7
100
AcDbLine
 10
-216.720538065039
 20
-228.569052111733
 30
0.0
 11
-216.720538065039
 21
-229.069052111733
 31
0.0
  0
LINE
  5
1DA
330
1C5
100
AcDbEntity
  8
1
  6
DOT
 62
     7
100
AcDbLine
 10
-231.720538065039
 20
-228.569052111733
 30
0.0
 11
-231.720538065039
 21
-224.069052111733
 31
0.0
  0
LINE
  5
1DB
330
1C5
100
AcDbEntity
  8
1
  6
DOT
 62
     7
100
AcDbLine
 10
-217.720538065039
 20
-223.069052111733
 30
0.0
 11
-216.720538065039
 21
-224.069052111733
 31
0.0
  0
LINE
  5
1DC
330
1C5
100
AcDbEntity
  8
1
  6
DOT
 62
     7
100
AcDbLine
 10
-230.720538065039
 20
-223.069052111733
 30
0.0
 11
-231.720538065039
 21
-224.069052111733
 31
0.0
  0
ENDBLK
  5
1DD
330
1C5
100
AcDbEntity
  8
0
100
AcDbBlockEnd
  0
BLOCK
  5
1DF
330
1DE
100
AcDbEntity
  8
0
100
AcDbBlockBegin
  2
_3
 70
     0
 10
-227.220538065039
 20
-220.616384371645
 30
0.0
  3
_3
  1

  0
LINE
  5
1E0
330
1DE
100
AcDbEntity
  8
1
 62
     7
100
AcDbLine
 10
-224.680538065039
 20
-176.6999999999998
 30
0.0
 11
-223.760538065039
 21
-176.6999999999998
 31
0.0
  0
LINE
  5
1E1
330
1DE
100
AcDbEntity
  8
1
 62
     7
100
AcDbLine
 10
-223.760538065039
 20
-176.6999999999998
 30
0.0
 11
-223.4538713983722
 21
-178.2333333333334
 31
0.0
  0
LINE
  5
1E2
330
1DE
100
AcDbEntity
  8
1
 62
     7
100
AcDbLine
 10
-223.4538713983722
 20
-178.2333333333334
 30
0.0
 11
-221.9205380650389
 21
-178.54
 31
0.0
  0
LINE
  5
1E3
330
1DE
100
AcDbEntity
  8
1
 62
     7
100
AcDbLine
 10
-221.9205380650389
 20
-178.54
 30
0.0
 11
-221.9205380650389
 21
-179.4599999999998
 31
0.0
  0
LINE
  5
1E4
330
1DE
100
AcDbEntity
  8
1
 62
     7
100
AcDbLine
 10
-221.9205380650389
 20
-179.4599999999998
 30
0.0
 11
-223.4538713983722
 21
-179.7666666666667
 31
0.0
  0
LINE
  5
1E5
330
1DE
100
AcDbEntity
  8
1
 62
     7
100
AcDbLine
 10
-223.4538713983722
 20
-179.7666666666667
 30
0.0
 11
-223.760538065039
 21
-181.3
 31
0.0
  0
LINE
  5
1E6
330
1DE
100
AcDbEntity
  8
1
 62
     7
100
AcDbLine
 10
-223.760538065039
 20
-181.3
 30
0.0
 11
-224.680538065039
 21
-181.3
 31
0.0
  0
LINE
  5
1E7
330
1DE
100
AcDbEntity
  8
1
 62
     7
100
AcDbLine
 10
-224.680538065039
 20
-181.3
 30
0.0
 11
-224.9872047317057
 21
-179.7666666666667
 31
0.0
  0
LINE
  5
1E8
330
1DE
100
AcDbEntity
  8
1
 62
     7
100
AcDbLine
 10
-224.9872047317057
 20
-179.7666666666667
 30
0.0
 11
-226.520538065039
 21
-179.4599999999998
 31
0.0
  0
LINE
  5
1E9
330
1DE
100
AcDbEntity
  8
1
 62
     7
100
AcDbLine
 10
-226.520538065039
 20
-179.4599999999998
 30
0.0
 11
-226.520538065039
 21
-178.54
 31
0.0
  0
LINE
  5
1EA
330
1DE
100
AcDbEntity
  8
1
 62
     7
100
AcDbLine
 10
-226.520538065039
 20
-178.54
 30
0.0
 11
-224.9872047317057
 21
-178.2333333333334
 31
0.0
  0
LINE
  5
1EB
330
1DE
100
AcDbEntity
  8
1
 62
     7
100
AcDbLine
 10
-224.9872047317057
 20
-178.2333333333334
 30
0.0
 11
-224.680538065039
 21
-176.6999999999998
 31
0.0
  0
LINE
  5
1EC
330
1DE
100
AcDbEntity
  8
1
 62
     7
100
AcDbLine
 10
-176.329060846798
 20
-217.569052111733
 30
0.0
 11
-175.8290608467979
 21
-217.069052111733
 31
0.0
  0
LINE
  5
1ED
330
1DE
100
AcDbEntity
  8
1
 62
     7
100
AcDbLine
 10
-170.829060846798
 20
-217.069052111733
 30
0.0
 11
-170.329060846798
 21
-217.569052111733
 31
0.0
  0
LINE
  5
1EE
330
1DE
100
AcDbEntity
  8
1
 62
     7
100
AcDbLine
 10
-170.829060846798
 20
-217.069052111733
 30
0.0
 11
-175.8290608467979
 21
-217.069052111733
 31
0.0
  0
LINE
  5
1EF
330
1DE
100
AcDbEntity
  8
1
 62
     7
100
AcDbLine
 10
-227.220538065039
 20
-217.569052111733
 30
0.0
 11
-226.720538065039
 21
-217.069052111733
 31
0.0
  0
LINE
  5
1F0
330
1DE
100
AcDbEntity
  8
1
 62
     7
100
AcDbLine
 10
-221.720538065039
 20
-217.069052111733
 30
0.0
 11
-221.220538065039
 21
-217.569052111733
 31
0.0
  0
LINE
  5
1F1
330
1DE
100
AcDbEntity
  8
1
 62
     7
100
AcDbLine
 10
-221.720538065039
 20
-217.069052111733
 30
0.0
 11
-226.720538065039
 21
-217.069052111733
 31
0.0
  0
CIRCLE
  5
1F2
330
1DE
100
AcDbEntity
  8
1
 62
     7
100
AcDbCircle
 10
-224.220538065039
 20
-179.0
 30
0.0
 40
3.0
  0
ENDBLK
  5
1F3
330
1DE
100
AcDbEntity
  8
0
100
AcDbBlockEnd
  0
BLOCK
  5
1F5
330
1F4
100
AcDbEntity
  8
1
100
AcDbBlockBegin
  2
*D5
 70
     1
 10
0.0
 20
0.0
 30
0.0
  3
*D5
  1

  0
LINE
  5
1F6
330
1F4
100
AcDbEntity
  8
1
 62
     2
100
AcDbLine
 10
-239.220538065039
 20
-197.561760940013
 30
0.0
 11
-209.220538065039
 21
-197.561760940013
 31
0.0
  0
LINE
  5
1F7
330
1F4
100
AcDbEntity
  8
1
 62
     2
100
AcDbLine
 10
-239.220538065039
 20
-187.25
 30
0.0
 11
-239.220538065039
 21
-198.561760940013
 31
0.0
  0
LINE
  5
1F8
330
1F4
100
AcDbEntity
  8
1
 62
     2
100
AcDbLine
 10
-209.220538065039
 20
-187.25
 30
0.0
 11
-209.220538065039
 21
-198.561760940013
 31
0.0
  0
LINE
  5
1F9
330
1F4
100
AcDbEntity
  8
1
 62
     2
100
AcDbLine
 10
-239.220538065039
 20
-197.561760940013
 30
0.0
 11
-236.770538065039
 21
-196.900260940013
 31
0.0
  0
LINE
  5
1FA
330
1F4
100
AcDbEntity
  8
1
 62
     2
100
AcDbLine
 10
-239.220538065039
 20
-197.561760940013
 30
0.0
 11
-236.770538065039
 21
-198.223260940013
 31
0.0
  0
LINE
  5
1FB
330
1F4
100
AcDbEntity
  8
1
 62
     2
100
AcDbLine
 10
-209.220538065039
 20
-197.561760940013
 30
0.0
 11
-211.670538065039
 21
-198.223260940013
 31
0.0
  0
LINE
  5
1FC
330
1F4
100
AcDbEntity
  8
1
 62
     2
100
AcDbLine
 10
-209.220538065039
 20
-197.561760940013
 30
0.0
 11
-211.670538065039
 21
-196.900260940013
 31
0.0
  0
TEXT
  5
1FD
330
1F4
100
AcDbEntity
  8
1
 62
     3
100
AcDbText
 10
-226.058038065039
 20
-196.561760940013
 30
0.0
 40
3.5
  1
30
 41
0.63
  7
SIMPLEX
100
AcDbText
  0
ENDBLK
  5
1FE
330
1F4
100
AcDbEntity
  8
0
100
AcDbBlockEnd
  0
BLOCK
  5
200
330
1FF
100
AcDbEntity
  8
1
100
AcDbBlockBegin
  2
*D6
 70
     1
 10
0.0
 20
0.0
 30
0.0
  3
*D6
  1

  0
LINE
  5
201
330
1FF
100
AcDbEntity
  8
1
 62
     2
100
AcDbLine
 10
-198.89427209254
 20
-184.25
 30
0.0
 11
-198.89427209254
 21
-173.75
 31
0.0
  0
LINE
  5
202
330
1FF
100
AcDbEntity
  8
1
 62
     2
100
AcDbLine
 10
-209.220538065039
 20
-184.25
 30
0.0
 11
-197.89427209254
 21
-184.25
 31
0.0
  0
LINE
  5
203
330
1FF
100
AcDbEntity
  8
1
 62
     2
100
AcDbLine
 10
-209.220538065039
 20
-173.75
 30
0.0
 11
-197.89427209254
 21
-173.75
 31
0.0
  0
LINE
  5
204
330
1FF
100
AcDbEntity
  8
1
 62
     2
100
AcDbLine
 10
-198.89427209254
 20
-173.75
 30
0.0
 11
-198.23277209254
 21
-176.2
 31
0.0
  0
LINE
  5
205
330
1FF
100
AcDbEntity
  8
1
 62
     2
100
AcDbLine
 10
-198.89427209254
 20
-173.75
 30
0.0
 11
-199.5557720925399
 21
-176.2
 31
0.0
  0
LINE
  5
206
330
1FF
100
AcDbEntity
  8
1
 62
     2
100
AcDbLine
 10
-198.89427209254
 20
-184.25
 30
0.0
 11
-199.5557720925399
 21
-181.8
 31
0.0
  0
LINE
  5
207
330
1FF
100
AcDbEntity
  8
1
 62
     2
100
AcDbLine
 10
-198.89427209254
 20
-184.25
 30
0.0
 11
-198.23277209254
 21
-181.8
 31
0.0
  0
TEXT
  5
208
330
1FF
100
AcDbEntity
  8
1
 62
     3
100
AcDbText
 10
-199.8942720925399
 20
-182.00125
 30
0.0
 40
3.5
  1
10.5
 50
90.0
 41
0.63
  7
SIMPLEX
100
AcDbText
  0
ENDBLK
  5
209
330
1FF
100
AcDbEntity
  8
0
100
AcDbBlockEnd
  0
BLOCK
  5
20B
330
20A
100
AcDbEntity
  8
1
100
AcDbBlockBegin
  2
*D7
 70
     1
 10
0.0
 20
0.0
 30
0.0
  3
*D7
  1

  0
LINE
  5
20C
330
20A
100
AcDbEntity
  8
1
 62
     2
100
AcDbLine
 10
-192.192159512859
 20
-187.25
 30
0.0
 11
-192.192159512859
 21
-170.75
 31
0.0
  0
LINE
  5
20D
330
20A
100
AcDbEntity
  8
1
 62
     2
100
AcDbLine
 10
-209.220538065039
 20
-187.25
 30
0.0
 11
-191.192159512859
 21
-187.25
 31
0.0
  0
LINE
  5
20E
330
20A
100
AcDbEntity
  8
1
 62
     2
100
AcDbLine
 10
-209.220538065039
 20
-170.75
 30
0.0
 11
-191.192159512859
 21
-170.75
 31
0.0
  0
LINE
  5
20F
330
20A
100
AcDbEntity
  8
1
 62
     2
100
AcDbLine
 10
-192.192159512859
 20
-170.75
 30
0.0
 11
-191.530659512859
 21
-173.2
 31
0.0
  0
LINE
  5
210
330
20A
100
AcDbEntity
  8
1
 62
     2
100
AcDbLine
 10
-192.192159512859
 20
-170.75
 30
0.0
 11
-192.853659512859
 21
-173.2
 31
0.0
  0
LINE
  5
211
330
20A
100
AcDbEntity
  8
1
 62
     2
100
AcDbLine
 10
-192.192159512859
 20
-187.25
 30
0.0
 11
-192.853659512859
 21
-184.8
 31
0.0
  0
LINE
  5
212
330
20A
100
AcDbEntity
  8
1
 62
     2
100
AcDbLine
 10
-192.192159512859
 20
-187.25
 30
0.0
 11
-191.530659512859
 21
-184.8
 31
0.0
  0
TEXT
  5
213
330
20A
100
AcDbEntity
  8
1
 62
     3
100
AcDbText
 10
-193.192159512859
 20
-182.00125
 30
0.0
 40
3.5
  1
16.5
 50
90.0
 41
0.63
  7
SIMPLEX
100
AcDbText
  0
ENDBLK
  5
214
330
20A
100
AcDbEntity
  8
0
100
AcDbBlockEnd
  0
BLOCK
  5
216
330
215
100
AcDbEntity
  8
1
100
AcDbBlockBegin
  2
*D8
 70
     1
 10
0.0
 20
0.0
 30
0.0
  3
*D8
  1

  0
LINE
  5
217
330
215
100
AcDbEntity
  8
1
 62
     2
100
AcDbLine
 10
-189.308000051764
 20
-228.569052111733
 30
0.0
 11
-189.308000051764
 21
-220.069052111733
 31
0.0
  0
LINE
  5
218
330
215
100
AcDbEntity
  8
1
 62
     2
100
AcDbLine
 10
-181.0790608467979
 20
-228.569052111733
 30
0.0
 11
-190.308000051764
 21
-228.569052111733
 31
0.0
  0
LINE
  5
219
330
215
100
AcDbEntity
  8
1
 62
     2
100
AcDbLine
 10
-182.0790608467979
 20
-220.069052111733
 30
0.0
 11
-190.308000051764
 21
-220.069052111733
 31
0.0
  0
LINE
  5
21A
330
215
100
AcDbEntity
  8
1
 62
     2
100
AcDbLine
 10
-189.308000051764
 20
-220.069052111733
 30
0.0
 11
-188.646500051764
 21
-222.519052111733
 31
0.0
  0
LINE
  5
21B
330
215
100
AcDbEntity
  8
1
 62
     2
100
AcDbLine
 10
-189.308000051764
 20
-220.069052111733
 30
0.0
 11
-189.969500051764
 21
-222.519052111733
 31
0.0
  0
LINE
  5
21C
330
215
100
AcDbEntity
  8
1
 62
     2
100
AcDbLine
 10
-189.308000051764
 20
-228.569052111733
 30
0.0
 11
-189.969500051764
 21
-226.119052111733
 31
0.0
  0
LINE
  5
21D
330
215
100
AcDbEntity
  8
1
 62
     2
100
AcDbLine
 10
-189.308000051764
 20
-228.569052111733
 30
0.0
 11
-188.646500051764
 21
-226.119052111733
 31
0.0
  0
TEXT
  5
21E
330
215
100
AcDbEntity
  8
1
 62
     3
100
AcDbText
 10
-190.308000051764
 20
-226.707802111733
 30
0.0
 40
3.5
  1
8.5
 50
90.0
 41
0.63
  7
SIMPLEX
100
AcDbText
  0
ENDBLK
  5
21F
330
215
100
AcDbEntity
  8
0
100
AcDbBlockEnd
  0
BLOCK
  5
221
330
220
100
AcDbEntity
  8
1
100
AcDbBlockBegin
  2
*D9
 70
     1
 10
0.0
 20
0.0
 30
0.0
  3
*D9
  1

  0
LINE
  5
222
330
220
100
AcDbEntity
  8
1
 62
     2
100
AcDbLine
 10
-189.308000051764
 20
-224.969052111733
 30
0.0
 11
-189.308000051764
 21
-220.069052111733
 31
0.0
  0
LINE
  5
223
330
220
100
AcDbEntity
  8
1
 62
     2
100
AcDbLine
 10
-189.308000051764
 20
-220.069052111733
 30
0.0
 11
-189.308000051764
 21
-217.569052111733
 31
0.0
  0
LINE
  5
224
330
220
100
AcDbEntity
  8
1
 62
     2
100
AcDbLine
 10
-189.308000051764
 20
-217.569052111733
 30
0.0
 11
-189.308000051764
 21
-211.538394009003
 31
0.0
  0
LINE
  5
225
330
220
100
AcDbEntity
  8
1
 62
     2
100
AcDbLine
 10
-182.0790608467979
 20
-220.069052111733
 30
0.0
 11
-190.308000051764
 21
-220.069052111733
 31
0.0
  0
LINE
  5
226
330
220
100
AcDbEntity
  8
1
 62
     2
100
AcDbLine
 10
-179.0790608467979
 20
-217.569052111733
 30
0.0
 11
-190.308000051764
 21
-217.569052111733
 31
0.0
  0
LINE
  5
227
330
220
100
AcDbEntity
  8
1
 62
     2
100
AcDbLine
 10
-189.308000051764
 20
-220.069052111733
 30
0.0
 11
-188.646500051764
 21
-222.519052111733
 31
0.0
  0
LINE
  5
228
330
220
100
AcDbEntity
  8
1
 62
     2
100
AcDbLine
 10
-189.308000051764
 20
-220.069052111733
 30
0.0
 11
-189.969500051764
 21
-222.519052111733
 31
0.0
  0
LINE
  5
229
330
220
100
AcDbEntity
  8
1
 62
     2
100
AcDbLine
 10
-189.308000051764
 20
-217.569052111733
 30
0.0
 11
-189.969500051764
 21
-215.119052111733
 31
0.0
  0
LINE
  5
22A
330
220
100
AcDbEntity
  8
1
 62
     2
100
AcDbLine
 10
-189.308000051764
 20
-217.569052111733
 30
0.0
 11
-188.646500051764
 21
-215.119052111733
 31
0.0
  0
TEXT
  5
22B
330
220
100
AcDbEntity
  8
1
 62
     3
100
AcDbText
 10
-190.308000051764
 20
-216.070894009003
 30
0.0
 40
3.5
  1
2.5
 50
90.0
 41
0.63
  7
SIMPLEX
100
AcDbText
  0
ENDBLK
  5
22C
330
220
100
AcDbEntity
  8
0
100
AcDbBlockEnd
  0
BLOCK
  5
22E
330
22D
100
AcDbEntity
  8
1
100
AcDbBlockBegin
  2
*D10
 70
     1
 10
0.0
 20
0.0
 30
0.0
  3
*D10
  1

  0
LINE
  5
22F
330
22D
100
AcDbEntity
  8
1
 62
     2
100
AcDbLine
 10
-231.720538065039
 20
-237.186102495908
 30
0.0
 11
-216.720538065039
 21
-237.186102495908
 31
0.0
  0
LINE
  5
230
330
22D
100
AcDbEntity
  8
1
 62
     2
100
AcDbLine
 10
-231.720538065039
 20
-230.069052111733
 30
0.0
 11
-231.720538065039
 21
-238.186102495908
 31
0.0
  0
LINE
  5
231
330
22D
100
AcDbEntity
  8
1
 62
     2
100
AcDbLine
 10
-216.720538065039
 20
-230.069052111733
 30
0.0
 11
-216.720538065039
 21
-238.186102495908
 31
0.0
  0
LINE
  5
232
330
22D
100
AcDbEntity
  8
1
 62
     2
100
AcDbLine
 10
-231.720538065039
 20
-237.186102495908
 30
0.0
 11
-229.270538065039
 21
-236.524602495908
 31
0.0
  0
LINE
  5
233
330
22D
100
AcDbEntity
  8
1
 62
     2
100
AcDbLine
 10
-231.720538065039
 20
-237.186102495908
 30
0.0
 11
-229.270538065039
 21
-237.847602495908
 31
0.0
  0
LINE
  5
234
330
22D
100
AcDbEntity
  8
1
 62
     2
100
AcDbLine
 10
-216.720538065039
 20
-237.186102495908
 30
0.0
 11
-219.170538065039
 21
-237.847602495908
 31
0.0
  0
LINE
  5
235
330
22D
100
AcDbEntity
  8
1
 62
     2
100
AcDbLine
 10
-216.720538065039
 20
-237.186102495908
 30
0.0
 11
-219.170538065039
 21
-236.524602495908
 31
0.0
  0
TEXT
  5
236
330
22D
100
AcDbEntity
  8
1
 62
     3
100
AcDbText
 10
-225.690538065039
 20
-236.186102495908
 30
0.0
 40
3.5
  1
15
 41
0.63
  7
SIMPLEX
100
AcDbText
  0
ENDBLK
  5
237
330
22D
100
AcDbEntity
  8
0
100
AcDbBlockEnd
  0
BLOCK
  5
239
330
238
100
AcDbEntity
  8
1
100
AcDbBlockBegin
  2
*D11
 70
     1
 10
0.0
 20
0.0
 30
0.0
  3
*D11
  1

  0
LINE
  5
23A
330
238
100
AcDbEntity
  8
1
 62
     2
100
AcDbLine
 10
-195.321312995008
 20
-229.069052111733
 30
0.0
 11
-195.321312995008
 21
-217.069052111733
 31
0.0
  0
LINE
  5
23B
330
238
100
AcDbEntity
  8
1
 62
     2
100
AcDbLine
 10
-181.0790608467979
 20
-229.069052111733
 30
0.0
 11
-196.321312995008
 21
-229.069052111733
 31
0.0
  0
LINE
  5
23C
330
238
100
AcDbEntity
  8
1
 62
     2
100
AcDbLine
 10
-176.8290608467979
 20
-217.069052111733
 30
0.0
 11
-196.321312995008
 21
-217.069052111733
 31
0.0
  0
LINE
  5
23D
330
238
100
AcDbEntity
  8
1
 62
     2
100
AcDbLine
 10
-195.321312995008
 20
-217.069052111733
 30
0.0
 11
-194.659812995008
 21
-219.519052111733
 31
0.0
  0
LINE
  5
23E
330
238
100
AcDbEntity
  8
1
 62
     2
100
AcDbLine
 10
-195.321312995008
 20
-217.069052111733
 30
0.0
 11
-195.982812995008
 21
-219.519052111733
 31
0.0
  0
LINE
  5
23F
330
238
100
AcDbEntity
  8
1
 62
     2
100
AcDbLine
 10
-195.321312995008
 20
-229.069052111733
 30
0.0
 11
-195.982812995008
 21
-226.619052111733
 31
0.0
  0
LINE
  5
240
330
238
100
AcDbEntity
  8
1
 62
     2
100
AcDbLine
 10
-195.321312995008
 20
-229.069052111733
 30
0.0
 11
-194.659812995008
 21
-226.619052111733
 31
0.0
  0
TEXT
  5
241
330
238
100
AcDbEntity
  8
1
 62
     3
100
AcDbText
 10
-196.321312995008
 20
-224.539052111733
 30
0.0
 40
3.5
  1
12
 50
90.0
 41
0.63
  7
SIMPLEX
100
AcDbText
  0
ENDBLK
  5
242
330
238
100
AcDbEntity
  8
0
100
AcDbBlockEnd
  0
ENDSEC
  0
SECTION
  2
ENTITIES
  0
LINE
  5
25F
330
6B
100
AcDbEntity
  8
1
 62
     7
100
AcDbLine
 10
-216.720538065039
 20
-229.069052111733
 30
0.0
 11
-231.720538065039
 21
-229.069052111733
 31
0.0
  0
LINE
  5
260
330
6B
100
AcDbEntity
  8
1
 62
     7
100
AcDbLine
 10
-231.720538065039
 20
-229.069052111733
 30
0.0
 11
-231.720538065039
 21
-228.569052111733
 31
0.0
  0
LINE
  5
262
330
6B
100
AcDbEntity
  8
1
 62
     7
100
AcDbLine
 10
-166.579060846798
 20
-229.069052111733
 30
0.0
 11
-168.329060846798
 21
-229.069052111733
 31
0.0
  0
LINE
  5
263
330
6B
100
AcDbEntity
  8
1
 62
     7
100
AcDbLine
 10
-180.0790608467979
 20
-229.069052111733
 30
0.0
 11
-180.0790608467979
 21
-228.569052111733
 31
0.0
  0
LINE
  5
264
330
6B
100
AcDbEntity
  8
1
 62
     7
100
AcDbLine
 10
-178.329060846798
 20
-229.069052111733
 30
0.0
 11
-178.329060846798
 21
-228.569052111733
 31
0.0
  0
LINE
  5
265
330
6B
100
AcDbEntity
  8
1
 62
     7
100
AcDbLine
 10
-178.329060846798
 20
-229.069052111733
 30
0.0
 11
-180.0790608467979
 21
-229.069052111733
 31
0.0
  0
LINE
  5
266
330
6B
100
AcDbEntity
  8
1
  6
DOT
 62
     7
100
AcDbLine
 10
-168.329060846798
 20
-227.569052111733
 30
0.0
 11
-168.329060846798
 21
-228.569052111733
 31
0.0
  0
LINE
  5
267
330
6B
100
AcDbEntity
  8
1
 62
     7
100
AcDbLine
 10
-178.329060846798
 20
-227.569052111733
 30
0.0
 11
-168.329060846798
 21
-227.569052111733
 31
0.0
  0
LINE
  5
26D
330
6B
100
AcDbEntity
  8
1
  6
DOT
 62
     7
100
AcDbLine
 10
-178.329060846798
 20
-228.569052111733
 30
0.0
 11
-178.329060846798
 21
-227.569052111733
 31
0.0
  0
LINE
  5
26E
330
6B
100
AcDbEntity
  8
1
 62
     7
100
AcDbLine
 10
-168.329060846798
 20
-228.569052111733
 30
0.0
 11
-168.329060846798
 21
-229.069052111733
 31
0.0
  0
LINE
  5
26F
330
6B
100
AcDbEntity
  8
1
 62
     7
100
AcDbLine
 10
-166.579060846798
 20
-228.569052111733
 30
0.0
 11
-166.579060846798
 21
-229.069052111733
 31
0.0
  0
LINE
  5
270
330
6B
100
AcDbEntity
  8
1
 62
     7
100
AcDbLine
 10
-216.720538065039
 20
-228.569052111733
 30
0.0
 11
-216.720538065039
 21
-229.069052111733
 31
0.0
  0
LINE
  5
276
330
6B
100
AcDbEntity
  8
1
 62
     7
100
AcDbLine
 10
-224.680538065039
 20
-176.6999999999998
 30
0.0
 11
-223.760538065039
 21
-176.6999999999998
 31
0.0
  0
LINE
  5
277
330
6B
100
AcDbEntity
  8
1
 62
     7
100
AcDbLine
 10
-223.760538065039
 20
-176.6999999999998
 30
0.0
 11
-223.4538713983722
 21
-178.2333333333334
 31
0.0
  0
LINE
  5
278
330
6B
100
AcDbEntity
  8
1
 62
     7
100
AcDbLine
 10
-223.4538713983722
 20
-178.2333333333334
 30
0.0
 11
-221.9205380650389
 21
-178.54
 31
0.0
  0
LINE
  5
279
330
6B
100
AcDbEntity
  8
1
 62
     7
100
AcDbLine
 10
-221.9205380650389
 20
-178.54
 30
0.0
 11
-221.9205380650389
 21
-179.4599999999998
 31
0.0
  0
LINE
  5
27A
330
6B
100
AcDbEntity
  8
1
 62
     7
100
AcDbLine
 10
-221.9205380650389
 20
-179.4599999999998
 30
0.0
 11
-223.4538713983722
 21
-179.7666666666667
 31
0.0
  0
LINE
  5
27B
330
6B
100
AcDbEntity
  8
1
 62
     7
100
AcDbLine
 10
-223.4538713983722
 20
-179.7666666666667
 30
0.0
 11
-223.760538065039
 21
-181.3
 31
0.0
  0
LINE
  5
27C
330
6B
100
AcDbEntity
  8
1
 62
     7
100
AcDbLine
 10
-223.760538065039
 20
-181.3
 30
0.0
 11
-224.680538065039
 21
-181.3
 31
0.0
  0
LINE
  5
27D
330
6B
100
AcDbEntity
  8
1
 62
     7
100
AcDbLine
 10
-224.680538065039
 20
-181.3
 30
0.0
 11
-224.9872047317057
 21
-179.7666666666667
 31
0.0
  0
LINE
  5
27E
330
6B
100
AcDbEntity
  8
1
 62
     7
100
AcDbLine
 10
-224.9872047317057
 20
-179.7666666666667
 30
0.0
 11
-226.520538065039
 21
-179.4599999999998
 31
0.0
  0
LINE
  5
27F
330
6B
100
AcDbEntity
  8
1
 62
     7
100
AcDbLine
 10
-226.520538065039
 20
-179.4599999999998
 30
0.0
 11
-226.520538065039
 21
-178.54
 31
0.0
  0
LINE
  5
280
330
6B
100
AcDbEntity
  8
1
 62
     7
100
AcDbLine
 10
-226.520538065039
 20
-178.54
 30
0.0
 11
-224.9872047317057
 21
-178.2333333333334
 31
0.0
  0
LINE
  5
281
330
6B
100
AcDbEntity
  8
1
 62
     7
100
AcDbLine
 10
-224.9872047317057
 20
-178.2333333333334
 30
0.0
 11
-224.680538065039
 21
-176.6999999999998
 31
0.0
  0
LINE
  5
282
330
6B
100
AcDbEntity
  8
1
 62
     7
100
AcDbLine
 10
-176.329060846798
 20
-217.569052111733
 30
0.0
 11
-175.8290608467979
 21
-217.069052111733
 31
0.0
  0
LINE
  5
283
330
6B
100
AcDbEntity
  8
1
 62
     7
100
AcDbLine
 10
-170.829060846798
 20
-217.069052111733
 30
0.0
 11
-170.329060846798
 21
-217.569052111733
 31
0.0
  0
LINE
  5
284
330
6B
100
AcDbEntity
  8
1
 62
     7
100
AcDbLine
 10
-170.829060846798
 20
-217.069052111733
 30
0.0
 11
-175.8290608467979
 21
-217.069052111733
 31
0.0
  0
LINE
  5
285
330
6B
100
AcDbEntity
  8
1
 62
     7
100
AcDbLine
 10
-227.220538065039
 20
-217.569052111733
 30
0.0
 11
-226.720538065039
 21
-217.069052111733
 31
0.0
  0
LINE
  5
286
330
6B
100
AcDbEntity
  8
1
 62
     7
100
AcDbLine
 10
-221.720538065039
 20
-217.069052111733
 30
0.0
 11
-221.220538065039
 21
-217.569052111733
 31
0.0
  0
LINE
  5
287
330
6B
100
AcDbEntity
  8
1
 62
     7
100
AcDbLine
 10
-221.720538065039
 20
-217.069052111733
 30
0.0
 11
-226.720538065039
 21
-217.069052111733
 31
0.0
  0
CIRCLE
  5
288
330
6B
100
AcDbEntity
  8
1
 62
     7
100
AcDbCircle
 10
-224.220538065039
 20
-179.0
 30
0.0
 40
3.0
  0
LINE
  5
289
330
6B
100
AcDbEntity
  8
1
 62
     7
100
AcDbLine
 10
-239.220538065039
 20
-183.25
 30
0.0
 11
-239.220538065039
 21
-174.75
 31
0.0
  0
LINE
  5
28A
330
6B
100
AcDbEntity
  8
1
 62
     7
100
AcDbLine
 10
-238.220538065039
 20
-184.25
 30
0.0
 11
-210.220538065039
 21
-184.25
 31
0.0
  0
LINE
  5
28B
330
6B
100
AcDbEntity
  8
1
 62
     7
100
AcDbLine
 10
-209.220538065039
 20
-174.75
 30
0.0
 11
-209.220538065039
 21
-183.25
 31
0.0
  0
LINE
  5
28C
330
6B
100
AcDbEntity
  8
1
 62
     7
100
AcDbLine
 10
-238.220538065039
 20
-173.75
 30
0.0
 11
-210.220538065039
 21
-173.75
 31
0.0
  0
LINE
  5
28D
330
6B
100
AcDbEntity
  8
1
  6
DASHDOT
 62
     2
100
AcDbLine
 10
-242.670896432648
 20
-179.0
 30
0.0
 11
-227.220538065039
 21
-179.0
 31
0.0
  0
LINE
  5
28E
330
6B
100
AcDbEntity
  8
1
 62
     7
100
AcDbLine
 10
-210.220538065039
 20
-187.25
 30
0.0
 11
-238.220538065039
 21
-187.25
 31
0.0
  0
LINE
  5
28F
330
6B
100
AcDbEntity
  8
1
 62
     7
100
AcDbLine
 10
-238.220538065039
 20
-170.75
 30
0.0
 11
-210.220538065039
 21
-170.75
 31
0.0
  0
LINE
  5
290
330
6B
100
AcDbEntity
  8
1
  6
DASHDOT
 62
     2
100
AcDbLine
 10
-224.220538065039
 20
-167.904698605103
 30
0.0
 11
-224.220538065039
 21
-189.982463391056
 31
0.0
  0
LINE
  5
291
330
6B
100
AcDbEntity
  8
1
  6
DASHDOT
 62
     2
100
AcDbLine
 10
-227.220538065039
 20
-179.0
 30
0.0
 11
-205.341759768088
 21
-179.0
 31
0.0
  0
LINE
  5
292
330
6B
100
AcDbEntity
  8
1
 62
     7
100
AcDbLine
 10
-238.720538065039
 20
-217.569052111733
 30
0.0
 11
-227.220538065039
 21
-217.569052111733
 31
0.0
  0
LINE
  5
293
330
6B
100
AcDbEntity
  8
1
 62
     7
100
AcDbLine
 10
-239.220538065039
 20
-228.069052111733
 30
0.0
 11
-239.220538065039
 21
-227.069052111733
 31
0.0
  0
LINE
  5
294
330
6B
100
AcDbEntity
  8
1
 62
     7
100
AcDbLine
 10
-238.720538065039
 20
-228.569052111733
 30
0.0
 11
-239.220538065039
 21
-228.069052111733
 31
0.0
  0
LINE
  5
295
330
6B
100
AcDbEntity
  8
1
 62
     7
100
AcDbLine
 10
-209.720538065039
 20
-228.569052111733
 30
0.0
 11
-209.220538065039
 21
-228.069052111733
 31
0.0
  0
LINE
  5
296
330
6B
100
AcDbEntity
  8
1
 62
     7
100
AcDbLine
 10
-239.220538065039
 20
-218.069052111733
 30
0.0
 11
-238.720538065039
 21
-217.569052111733
 31
0.0
  0
LINE
  5
297
330
6B
100
AcDbEntity
  8
1
 62
     7
100
AcDbLine
 10
-209.720538065039
 20
-217.569052111733
 30
0.0
 11
-209.220538065039
 21
-218.069052111733
 31
0.0
  0
LINE
  5
298
330
6B
100
AcDbEntity
  8
1
  6
DASHDOT
 62
     2
100
AcDbLine
 10
-224.220538065039
 20
-215.924056853983
 30
0.0
 11
-224.220538065039
 21
-230.284454595385
 31
0.0
  0
LINE
  5
29A
330
6B
100
AcDbEntity
  8
1
 62
     7
100
AcDbLine
 10
-227.220538065039
 20
-217.569052111733
 30
0.0
 11
-221.220538065039
 21
-217.569052111733
 31
0.0
  0
LINE
  5
29B
330
6B
100
AcDbEntity
  8
1
 62
     7
100
AcDbLine
 10
-209.720538065039
 20
-228.569052111733
 30
0.0
 11
-238.720538065039
 21
-228.569052111733
 31
0.0
  0
LINE
  5
29C
330
6B
100
AcDbEntity
  8
1
 62
     7
100
AcDbLine
 10
-221.220538065039
 20
-217.569052111733
 30
0.0
 11
-209.720538065039
 21
-217.569052111733
 31
0.0
  0
LINE
  5
29D
330
6B
100
AcDbEntity
  8
1
 62
     7
100
AcDbLine
 10
-181.0790608467979
 20
-220.069052111733
 30
0.0
 11
-179.0790608467979
 21
-220.069052111733
 31
0.0
  0
LINE
  5
29E
330
6B
100
AcDbEntity
  8
1
 62
     7
100
AcDbLine
 10
-178.5790608467979
 20
-219.569052111733
 30
0.0
 11
-178.5790608467979
 21
-218.069052111733
 31
0.0
  0
LINE
  5
29F
330
6B
100
AcDbEntity
  8
1
 62
     7
100
AcDbLine
 10
-178.0790608467979
 20
-217.569052111733
 30
0.0
 11
-168.579060846798
 21
-217.569052111733
 31
0.0
  0
LINE
  5
2A0
330
6B
100
AcDbEntity
  8
1
 62
     7
100
AcDbLine
 10
-168.079060846798
 20
-218.069052111733
 30
0.0
 11
-168.079060846798
 21
-219.569052111733
 31
0.0
  0
LINE
  5
2A1
330
6B
100
AcDbEntity
  8
1
 62
     7
100
AcDbLine
 10
-167.579060846798
 20
-220.069052111733
 30
0.0
 11
-165.579060846798
 21
-220.069052111733
 31
0.0
  0
LINE
  5
2A2
330
6B
100
AcDbEntity
  8
1
 62
     7
100
AcDbLine
 10
-165.079060846798
 20
-220.569052111733
 30
0.0
 11
-165.079060846798
 21
-228.069052111733
 31
0.0
  0
LINE
  5
2A3
330
6B
100
AcDbEntity
  8
1
 62
     7
100
AcDbLine
 10
-165.579060846798
 20
-228.569052111733
 30
0.0
 11
-168.329060846798
 21
-228.569052111733
 31
0.0
  0
LINE
  5
2A4
330
6B
100
AcDbEntity
  8
1
 62
     7
100
AcDbLine
 10
-181.5790608467979
 20
-228.069052111733
 30
0.0
 11
-181.5790608467979
 21
-220.569052111733
 31
0.0
  0
LINE
  5
2A5
330
6B
100
AcDbEntity
  8
1
  6
DASHDOT
 62
     2
100
AcDbLine
 10
-173.329060846798
 20
-215.924056853983
 30
0.0
 11
-173.329060846798
 21
-230.284454595385
 31
0.0
  0
LINE
  5
2A6
330
6B
100
AcDbEntity
  8
1
 62
     7
100
AcDbLine
 10
-209.220538065039
 20
-171.75
 30
0.0
 11
-209.220538065039
 21
-174.75
 31
0.0
  0
LINE
  5
2A7
330
6B
100
AcDbEntity
  8
1
 62
     7
100
AcDbLine
 10
-209.220538065039
 20
-183.25
 30
0.0
 11
-209.220538065039
 21
-186.25
 31
0.0
  0
LINE
  5
2A8
330
6B
100
AcDbEntity
  8
1
 62
     7
100
AcDbLine
 10
-239.220538065039
 20
-186.25
 30
0.0
 11
-239.220538065039
 21
-183.25
 31
0.0
  0
LINE
  5
2A9
330
6B
100
AcDbEntity
  8
1
 62
     7
100
AcDbLine
 10
-239.220538065039
 20
-174.75
 30
0.0
 11
-239.220538065039
 21
-171.75
 31
0.0
  0
LINE
  5
2AA
330
6B
100
AcDbEntity
  8
1
 62
     7
100
AcDbLine
 10
-178.329060846798
 20
-228.569052111733
 30
0.0
 11
-178.329060846798
 21
-227.069052111733
 31
0.0
  0
LINE
  5
2AB
330
6B
100
AcDbEntity
  8
1
 62
     7
100
AcDbLine
 10
-178.329060846798
 20
-228.569052111733
 30
0.0
 11
-181.0790608467979
 21
-228.569052111733
 31
0.0
  0
LINE
  5
2AC
330
6B
100
AcDbEntity
  8
1
 62
     7
100
AcDbLine
 10
-178.329060846798
 20
-227.069052111733
 30
0.0
 11
-168.329060846798
 21
-227.069052111733
 31
0.0
  0
LINE
  5
2AD
330
6B
100
AcDbEntity
  8
1
 62
     7
100
AcDbLine
 10
-168.329060846798
 20
-227.069052111733
 30
0.0
 11
-168.329060846798
 21
-228.569052111733
 31
0.0
  0
LINE
  5
2AE
330
6B
100
AcDbEntity
  8
1
 62
     7
100
AcDbLine
 10
-181.0790608467979
 20
-220.069052111733
 30
0.0
 11
-181.5790608467979
 21
-220.569052111733
 31
0.0
  0
LINE
  5
2AF
330
6B
100
AcDbEntity
  8
1
 62
     7
100
AcDbLine
 10
-178.0790608467979
 20
-217.569052111733
 30
0.0
 11
-178.5790608467979
 21
-218.069052111733
 31
0.0
  0
LINE
  5
2B0
330
6B
100
AcDbEntity
  8
1
 62
     7
100
AcDbLine
 10
-168.579060846798
 20
-217.569052111733
 30
0.0
 11
-168.079060846798
 21
-218.069052111733
 31
0.0
  0
LINE
  5
2B1
330
6B
100
AcDbEntity
  8
1
 62
     7
100
AcDbLine
 10
-165.579060846798
 20
-220.069052111733
 30
0.0
 11
-165.079060846798
 21
-220.569052111733
 31
0.0
  0
LINE
  5
2B2
330
6B
100
AcDbEntity
  8
1
 62
     7
100
AcDbLine
 10
-165.079060846798
 20
-228.069052111733
 30
0.0
 11
-165.579060846798
 21
-228.569052111733
 31
0.0
  0
LINE
  5
2B3
330
6B
100
AcDbEntity
  8
1
 62
     7
100
AcDbLine
 10
-181.5790608467979
 20
-228.069052111733
 30
0.0
 11
-181.0790608467979
 21
-228.569052111733
 31
0.0
  0
LINE
  5
2B4
330
6B
100
AcDbEntity
  8
1
 62
     7
100
AcDbLine
 10
-179.0790608467979
 20
-220.069052111733
 30
0.0
 11
-178.5790608467979
 21
-219.569052111733
 31
0.0
  0
LINE
  5
2B5
330
6B
100
AcDbEntity
  8
1
 62
     7
100
AcDbLine
 10
-168.079060846798
 20
-219.569052111733
 30
0.0
 11
-167.579060846798
 21
-220.069052111733
 31
0.0
  0
LINE
  5
2B6
330
6B
100
AcDbEntity
  8
1
 62
     7
100
AcDbLine
 10
-209.720538065039
 20
-220.069052111733
 30
0.0
 11
-209.220538065039
 21
-220.569052111733
 31
0.0
  0
LINE
  5
2B7
330
6B
100
AcDbEntity
  8
1
 62
     7
100
AcDbLine
 10
-209.220538065039
 20
-220.569052111733
 30
0.0
 11
-209.220538065039
 21
-227.069052111733
 31
0.0
  0
LINE
  5
2B8
330
6B
100
AcDbEntity
  8
1
 62
     7
100
AcDbLine
 10
-238.720538065039
 20
-220.069052111733
 30
0.0
 11
-239.220538065039
 21
-220.569052111733
 31
0.0
  0
LINE
  5
2B9
330
6B
100
AcDbEntity
  8
1
 62
     7
100
AcDbLine
 10
-238.720538065039
 20
-220.069052111733
 30
0.0
 11
-209.720538065039
 21
-220.069052111733
 31
0.0
  0
LINE
  5
2BA
330
6B
100
AcDbEntity
  8
1
 62
     7
100
AcDbLine
 10
-239.220538065039
 20
-218.069052111733
 30
0.0
 11
-209.220538065039
 21
-218.069052111733
 31
0.0
  0
LINE
  5
2BB
330
6B
100
AcDbEntity
  8
1
 62
     7
100
AcDbLine
 10
-239.220538065039
 20
-220.569052111733
 30
0.0
 11
-209.220538065039
 21
-220.569052111733
 31
0.0
  0
LINE
  5
2BC
330
6B
100
AcDbEntity
  8
1
 62
     7
100
AcDbLine
 10
-239.220538065039
 20
-228.069052111733
 30
0.0
 11
-209.220538065039
 21
-228.069052111733
 31
0.0
  0
LINE
  5
2BD
330
6B
100
AcDbEntity
  8
1
 62
     7
100
AcDbLine
 10
-209.220538065039
 20
-218.069052111733
 30
0.0
 11
-209.220538065039
 21
-220.569052111733
 31
0.0
  0
LINE
  5
2BE
330
6B
100
AcDbEntity
  8
1
 62
     7
100
AcDbLine
 10
-239.220538065039
 20
-220.569052111733
 30
0.0
 11
-239.220538065039
 21
-218.069052111733
 31
0.0
  0
LINE
  5
2C1
330
6B
100
AcDbEntity
  8
1
 62
     7
100
AcDbLine
 10
-239.220538065039
 20
-227.069052111733
 30
0.0
 11
-239.220538065039
 21
-220.569052111733
 31
0.0
  0
LINE
  5
2C2
330
6B
100
AcDbEntity
  8
1
 62
     7
100
AcDbLine
 10
-209.220538065039
 20
-227.069052111733
 30
0.0
 11
-209.220538065039
 21
-228.069052111733
 31
0.0
  0
CIRCLE
  5
2C5
330
6B
100
AcDbEntity
  8
1
 62
     7
100
AcDbCircle
 10
-224.220538065039
 20
-179.0
 30
0.0
 40
3.0
  0
ARC
  5
2C6
330
6B
100
AcDbEntity
  8
1
 62
     7
100
AcDbCircle
 10
-238.220538065039
 20
-186.25
 30
0.0
 40
1.0
100
AcDbArc
 50
180.0
 51
270.0
  0
ARC
  5
2C7
330
6B
100
AcDbEntity
  8
1
 62
     7
100
AcDbCircle
 10
-210.220538065039
 20
-186.25
 30
0.0
 40
1.0
100
AcDbArc
 50
270.0
 51
0.0
  0
ARC
  5
2C8
330
6B
100
AcDbEntity
  8
1
 62
     7
100
AcDbCircle
 10
-210.220538065039
 20
-171.75
 30
0.0
 40
1.0
100
AcDbArc
 50
0.0
 51
90.0
  0
ARC
  5
2C9
330
6B
100
AcDbEntity
  8
1
 62
     7
100
AcDbCircle
 10
-238.220538065039
 20
-171.75
 30
0.0
 40
1.0
100
AcDbArc
 50
90.0
 51
180.0
  0
ARC
  5
2CA
330
6B
100
AcDbEntity
  8
1
 62
     7
100
AcDbCircle
 10
-210.220538065039
 20
-174.75
 30
0.0
 40
1.0
100
AcDbArc
 50
0.0
 51
90.0
  0
ARC
  5
2CB
330
6B
100
AcDbEntity
  8
1
 62
     7
100
AcDbCircle
 10
-210.220538065039
 20
-183.25
 30
0.0
 40
1.0
100
AcDbArc
 50
270.0
 51
0.0
  0
ARC
  5
2CC
330
6B
100
AcDbEntity
  8
1
 62
     7
100
AcDbCircle
 10
-238.220538065039
 20
-183.25
 30
0.0
 40
1.0
100
AcDbArc
 50
180.0
 51
270.0
  0
ARC
  5
2CD
330
6B
100
AcDbEntity
  8
1
 62
     7
100
AcDbCircle
 10
-238.220538065039
 20
-174.75
 30
0.0
 40
1.0
100
AcDbArc
 50
90.0
 51
180.0
  0
ENDSEC
  0
SECTION
  2
OBJECTS
  0
DICTIONARY
  5
C
330
0
100
AcDbDictionary
281
     1
  3
ACAD_CIP_PREVIOUS_PRODUCT_INFO
350
25D
  3
ACAD_COLOR
350
62
  3
ACAD_GROUP
350
D
  3
ACAD_LAYOUT
350
61
  3
ACAD_MATERIAL
350
10
  3
ACAD_MLEADERSTYLE
350
65
  3
ACAD_MLINESTYLE
350
5E
  3
ACAD_PLOTSETTINGS
350
60
  3
ACAD_PLOTSTYLENAME
350
E
  3
ACAD_SCALELIST
350
42
  3
ACAD_TABLESTYLE
350
63
  3
ACAD_VISUALSTYLE
350
29
  3
ACDB_RECOMPOSE_DATA
350
364
  3
AcDbVariableDictionary
350
316
  3
ASE_INDEX_DICTIONARY
350
313
  3
DWGPROPS
350
365
  0
DICTIONARY
  5
30E
330
54
100
AcDbDictionary
280
     1
281
     1
  3
ADSK_XREC_LAYER_RECONCILED
360
30F
  0
DICTIONARY
  5
310
330
78
100
AcDbDictionary
280
     1
281
     1
  3
ADSK_XREC_LAYER_RECONCILED
360
311
  0
DICTIONARY
  5
274
330
6B
100
AcDbDictionary
280
     1
281
     1
  3
ACAD_SORTENTS
360
275
  0
XRECORD
  5
25D
102
{ACAD_REACTORS
330
C
102
}
330
C
100
AcDbXrecord
280
     1
300
ACD
300
2012
300
ACD_F_S
  0
DICTIONARY
  5
62
102
{ACAD_REACTORS
330
C
102
}
330
C
100
AcDbDictionary
281
     1
  0
DICTIONARY
  5
D
102
{ACAD_REACTORS
330
C
102
}
330
C
100
AcDbDictionary
281
     1
  0
DICTIONARY
  5
61
102
{ACAD_REACTORS
330
C
102
}
330
C
100
AcDbDictionary
281
     1
  3
Model
350
6E
  3
レイアウト1
350
6A
  0
DICTIONARY
  5
10
102
{ACAD_REACTORS
330
C
102
}
330
C
100
AcDbDictionary
281
     1
  3
ByBlock
350
19
  3
ByLayer
350
11
  3
Global
350
21
  0
DICTIONARY
  5
65
102
{ACAD_REACTORS
330
C
102
}
330
C
100
AcDbDictionary
281
     1
  3
Standard
350
66
  0
DICTIONARY
  5
5E
102
{ACAD_REACTORS
330
C
102
}
330
C
100
AcDbDictionary
281
     1
  3
Standard
350
5F
  0
DICTIONARY
  5
60
102
{ACAD_REACTORS
330
C
102
}
330
C
100
AcDbDictionary
281
     1
  0
ACDBDICTIONARYWDFLT
  5
E
102
{ACAD_REACTORS
330
C
102
}
330
C
100
AcDbDictionary
281
     1
  3
Normal
350
F
100
AcDbDictionaryWithDefault
340
F
  0
DICTIONARY
  5
42
102
{ACAD_REACTORS
330
C
102
}
330
C
100
AcDbDictionary
281
     1
  3
A0
350
43
  3
A1
350
44
  3
A2
350
45
  3
A3
350
46
  3
A4
350
47
  3
A5
350
48
  3
A6
350
49
  3
A7
350
4A
  3
A8
350
4B
  3
A9
350
4C
  3
B0
350
4D
  3
B1
350
4E
  3
B2
350
4F
  3
B3
350
50
  3
B4
350
51
  3
B5
350
52
  3
B6
350
53
  0
DICTIONARY
  5
63
102
{ACAD_REACTORS
330
C
102
}
330
C
100
AcDbDictionary
281
     1
  3
Standard
350
64
  0
DICTIONARY
  5
29
102
{ACAD_REACTORS
330
C
102
}
330
C
100
AcDbDictionary
281
     1
  3
2dWireframe
350
2F
  3
Basic
350
2E
  3
Brighten
350
35
  3
ColorChange
350
39
  3
Conceptual
350
32
  3
Dim
350
34
  3
EdgeColorOff
350
41
  3
Facepattern
350
38
  3
Flat
350
2A
  3
FlatWithEdges
350
2B
  3
Gouraud
350
2C
  3
GouraudWithEdges
350
2D
  3
Hidden
350
31
  3
JitterOff
350
3F
  3
Linepattern
350
37
  3
OverhangOff
350
40
  3
Realistic
350
33
  3
Shaded
350
3E
  3
Shaded with edges
350
3D
  3
Shades of Gray
350
3A
  3
Sketchy
350
3B
  3
Thicken
350
36
  3
Wireframe
350
30
  3
X-Ray
350
3C
  0
XRECORD
  5
364
102
{ACAD_REACTORS
330
C
102
}
330
C
100
AcDbXrecord
280
     1
 90
        1
330
64
  0
DICTIONARY
  5
316
102
{ACAD_REACTORS
330
C
102
}
330
C
100
AcDbDictionary
281
     1
  3
CANNOSCALE
350
319
  3
CMLEADERSTYLE
350
318
  3
CTABLESTYLE
350
317
  3
DIMASSOC
350
31C
  3
INDEXCTL
350
31B
  3
SORTENTS
350
31A
  3
XCLIPFRAME
350
362
  0
DICTIONARY
  5
313
102
{ACAD_REACTORS
330
C
102
}
330
C
100
AcDbDictionary
281
     1
  3
ASEBlockHierarchyIndexRecord
350
315
1001
DCO15
1040
1881998994.829
  0
XRECORD
  5
365
102
{ACAD_REACTORS
330
C
102
}
330
C
100
AcDbXrecord
280
     1
  1
DWGPROPS COOKIE
  2

  3

  4

  6

  7

  8
0035sekine
  9

300
=
301
=
302
=
303
=
304
=
305
=
306
=
307
=
308
=
309
=
 40
0.0017654050925926
 41
2457585.60570875
 42
2457585.607625336
  1

 90
        0
  0
XRECORD
  5
30F
102
{ACAD_REACTORS
330
30E
102
}
330
30E
100
AcDbXrecord
280
     1
290
     1
  0
XRECORD
  5
311
102
{ACAD_REACTORS
330
310
102
}
330
310
100
AcDbXrecord
280
     1
290
     1
  0
SORTENTSTABLE
  5
275
102
{ACAD_REACTORS
330
274
102
}
330
274
100
AcDbSortentsTable
330
6B
331
2B5
  5
2C6
331
281
  5
300
331
2B8
  5
2C9
331
28D
  5
29E
331
277
  5
2F6
331
265
  5
2E6
331
29C
  5
2AD
331
2A8
  5
2B9
331
2B4
  5
2C5
331
280
  5
2FF
331
28C
  5
29D
331
276
  5
2F5
331
264
  5
2E5
331
29B
  5
2AC
331
2A7
  5
2B8
331
2B3
  5
2C4
331
27F
  5
2FE
331
2C2
  5
2D3
331
28B
  5
29C
331
297
  5
2A8
331
263
  5
2E4
331
29A
  5
2AB
331
26F
  5
2F0
331
2A6
  5
2B7
331
2B2
  5
2C3
331
27E
  5
2FD
331
28A
  5
29B
331
2C1
  5
2D2
331
296
  5
2A7
331
2CD
  5
2DE
331
262
  5
2E3
331
26E
  5
2EF
331
2A5
  5
2B6
331
2B1
  5
2C2
331
27D
  5
2FC
331
289
  5
29A
331
295
  5
2A6
331
2CC
  5
2DD
331
298
  5
2A9
331
26D
  5
2EE
331
2A4
  5
2B5
331
2B0
  5
2C1
331
27C
  5
2FB
331
288
  5
307
331
294
  5
2A5
331
2CB
  5
2DC
331
260
  5
2E1
331
2A3
  5
2B4
331
2AF
  5
2C0
331
27B
  5
2FA
331
287
  5
306
331
2BE
  5
2CF
331
293
  5
2A4
331
2CA
  5
2DB
331
25F
  5
2E0
331
2A2
  5
2B3
331
2AE
  5
2BF
331
27A
  5
2F9
331
286
  5
305
331
2BD
  5
2CE
331
292
  5
2A3
331
270
  5
2F1
331
2C9
  5
2DA
331
2A1
  5
2B2
331
2AD
  5
2BE
331
279
  5
2F8
331
285
  5
304
331
2BC
  5
2CD
331
291
  5
2A2
331
2C8
  5
2D9
331
2A0
  5
2B1
331
2AC
  5
2BD
331
278
  5
2F7
331
284
  5
303
331
2BB
  5
2CC
331
290
  5
2A1
331
2C7
  5
2D8
331
29F
  5
2B0
331
2AB
  5
2BC
331
2B7
  5
2C8
331
283
  5
302
331
2BA
  5
2CB
331
28F
  5
2A0
331
2C6
  5
2D7
331
29E
  5
2AF
331
267
  5
2E8
331
2AA
  5
2BB
331
2B6
  5
2C7
331
282
  5
301
331
2B9
  5
2CA
331
28E
  5
29F
331
2C5
  5
2D6
331
266
  5
2E7
331
29D
  5
2AE
331
2A9
  5
2BA
  0
LAYOUT
  5
6E
102
{ACAD_XDICTIONARY
360
399
102
}
102
{ACAD_REACTORS
330
61
102
}
330
61
100
AcDbPlotSettings
  1

  2
\\asrv0030\DocuCentre 230 - 本社９階　開発部
  4

  6

 40
0.0
 41
0.0
 42
0.0
 43
0.0
 44
0.0
 45
0.0
 46
0.0
 47
0.0
 48
0.0
 49
0.0
140
0.0
141
0.0
142
1.0
143
1.0
 70
  1712
 72
     0
 73
     0
 74
     0
  7

 75
     0
147
1.0
148
0.0
149
0.0
100
AcDbLayout
  1
Model
 70
     1
 71
     0
 10
0.0
 20
0.0
 11
12.0
 21
9.0
 12
0.0
 22
0.0
 32
0.0
 14
0.0
 24
0.0
 34
0.0
 15
0.0
 25
0.0
 35
0.0
146
0.0
 13
0.0
 23
0.0
 33
0.0
 16
1.0
 26
0.0
 36
0.0
 17
0.0
 27
1.0
 37
0.0
 76
     0
330
6B
331
80
  0
LAYOUT
  5
6A
102
{ACAD_XDICTIONARY
360
397
102
}
102
{ACAD_REACTORS
330
61
102
}
330
61
100
AcDbPlotSettings
  1

  2
\\asrv0030\DocuCentre 230 - 本社９階　開発部
  4

  6

 40
0.0
 41
0.0
 42
0.0
 43
0.0
 44
0.0
 45
0.0
 46
0.0
 47
0.0
 48
0.0
 49
0.0
140
0.0
141
0.0
142
1.0
143
1.0
 70
   688
 72
     0
 73
     0
 74
     5
  7

 75
    16
147
1.0
148
0.0
149
0.0
100
AcDbLayout
  1
レイアウト1
 70
     1
 71
     1
 10
0.0
 20
0.0
 11
12.0
 21
9.0
 12
0.0
 22
0.0
 32
0.0
 14
1.000000000000000E+20
 24
1.000000000000000E+20
 34
1.000000000000000E+20
 15
-1.000000000000000E+20
 25
-1.000000000000000E+20
 35
-1.000000000000000E+20
146
0.0
 13
0.0
 23
0.0
 33
0.0
 16
1.0
 26
0.0
 36
0.0
 17
0.0
 27
1.0
 37
0.0
 76
     0
330
67
  0
MATERIAL
  5
19
102
{ACAD_XDICTIONARY
360
1A
102
}
102
{ACAD_REACTORS
330
10
102
}
330
10
100
AcDbMaterial
  1
ByBlock
 72
     0
 43
0.0208333333333333
 43
0.0
 43
0.0
 43
0.0
 43
0.0
 43
0.0208333333333333
 43
0.0
 43
0.0
 43
0.0
 43
0.0
 43
1.0
 43
0.0
 43
0.0
 43
0.0
 43
0.0
 43
1.0
 77
     0
 47
0.0208333333333333
 47
0.0
 47
0.0
 47
0.0
 47
0.0
 47
0.0208333333333333
 47
0.0
 47
0.0
 47
0.0
 47
0.0
 47
1.0
 47
0.0
 47
0.0
 47
0.0
 47
0.0
 47
1.0
171
     0
 49
0.0208333333333333
 49
0.0
 49
0.0
 49
0.0
 49
0.0
 49
0.0208333333333333
 49
0.0
 49
0.0
 49
0.0
 49
0.0
 49
1.0
 49
0.0
 49
0.0
 49
0.0
 49
0.0
 49
1.0
175
     0
142
0.0208333333333333
142
0.0
142
0.0
142
0.0
142
0.0
142
0.0208333333333333
142
0.0
142
0.0
142
0.0
142
0.0
142
1.0
142
0.0
142
0.0
142
0.0
142
0.0
142
1.0
179
     0
144
0.0208333333333333
144
0.0
144
0.0
144
0.0
144
0.0
144
0.0208333333333333
144
0.0
144
0.0
144
0.0
144
0.0
144
1.0
144
0.0
144
0.0
144
0.0
144
0.0
144
1.0
147
0.0208333333333333
147
0.0
147
0.0
147
0.0
147
0.0
147
0.0208333333333333
147
0.0
147
0.0
147
0.0
147
0.0
147
1.0
147
0.0
147
0.0
147
0.0
147
0.0
147
1.0
  0
MATERIAL
  5
11
102
{ACAD_XDICTIONARY
360
12
102
}
102
{ACAD_REACTORS
330
10
102
}
330
10
100
AcDbMaterial
  1
ByLayer
 72
     0
 43
0.0208333333333333
 43
0.0
 43
0.0
 43
0.0
 43
0.0
 43
0.0208333333333333
 43
0.0
 43
0.0
 43
0.0
 43
0.0
 43
1.0
 43
0.0
 43
0.0
 43
0.0
 43
0.0
 43
1.0
 77
     0
 47
0.0208333333333333
 47
0.0
 47
0.0
 47
0.0
 47
0.0
 47
0.0208333333333333
 47
0.0
 47
0.0
 47
0.0
 47
0.0
 47
1.0
 47
0.0
 47
0.0
 47
0.0
 47
0.0
 47
1.0
171
     0
 49
0.0208333333333333
 49
0.0
 49
0.0
 49
0.0
 49
0.0
 49
0.0208333333333333
 49
0.0
 49
0.0
 49
0.0
 49
0.0
 49
1.0
 49
0.0
 49
0.0
 49
0.0
 49
0.0
 49
1.0
175
     0
142
0.0208333333333333
142
0.0
142
0.0
142
0.0
142
0.0
142
0.0208333333333333
142
0.0
142
0.0
142
0.0
142
0.0
142
1.0
142
0.0
142
0.0
142
0.0
142
0.0
142
1.0
179
     0
144
0.0208333333333333
144
0.0
144
0.0
144
0.0
144
0.0
144
0.0208333333333333
144
0.0
144
0.0
144
0.0
144
0.0
144
1.0
144
0.0
144
0.0
144
0.0
144
0.0
144
1.0
147
0.0208333333333333
147
0.0
147
0.0
147
0.0
147
0.0
147
0.0208333333333333
147
0.0
147
0.0
147
0.0
147
0.0
147
1.0
147
0.0
147
0.0
147
0.0
147
0.0
147
1.0
  0
MATERIAL
  5
21
102
{ACAD_XDICTIONARY
360
22
102
}
102
{ACAD_REACTORS
330
10
102
}
330
10
100
AcDbMaterial
  1
Global
 72
     0
 43
0.0208333333333333
 43
0.0
 43
0.0
 43
0.0
 43
0.0
 43
0.0208333333333333
 43
0.0
 43
0.0
 43
0.0
 43
0.0
 43
1.0
 43
0.0
 43
0.0
 43
0.0
 43
0.0
 43
1.0
 77
     0
 47
0.0208333333333333
 47
0.0
 47
0.0
 47
0.0
 47
0.0
 47
0.0208333333333333
 47
0.0
 47
0.0
 47
0.0
 47
0.0
 47
1.0
 47
0.0
 47
0.0
 47
0.0
 47
0.0
 47
1.0
171
     0
 49
0.0208333333333333
 49
0.0
 49
0.0
 49
0.0
 49
0.0
 49
0.0208333333333333
 49
0.0
 49
0.0
 49
0.0
 49
0.0
 49
1.0
 49
0.0
 49
0.0
 49
0.0
 49
0.0
 49
1.0
175
     0
142
0.0208333333333333
142
0.0
142
0.0
142
0.0
142
0.0
142
0.0208333333333333
142
0.0
142
0.0
142
0.0
142
0.0
142
1.0
142
0.0
142
0.0
142
0.0
142
0.0
142
1.0
179
     0
144
0.0208333333333333
144
0.0
144
0.0
144
0.0
144
0.0
144
0.0208333333333333
144
0.0
144
0.0
144
0.0
144
0.0
144
1.0
144
0.0
144
0.0
144
0.0
144
0.0
144
1.0
147
0.0208333333333333
147
0.0
147
0.0
147
0.0
147
0.0
147
0.0208333333333333
147
0.0
147
0.0
147
0.0
147
0.0
147
1.0
147
0.0
147
0.0
147
0.0
147
0.0
147
1.0
  0
MLEADERSTYLE
  5
66
102
{ACAD_REACTORS
330
65
102
}
330
65
100
AcDbMLeaderStyle
170
     2
171
     1
172
     0
 90
        2
 40
0.0
 41
0.0
173
     1
 91
-1056964608
340
5A
 92
       -2
290
     1
 42
0.09
291
     1
 43
0.36
  3
Standard
 44
0.18
300

342
55
174
     1
178
     6
175
     1
176
     0
 93
-1056964608
 45
0.18
292
     0
297
     0
 46
0.18
 94
-1056964608
 47
1.0
 49
1.0
140
1.0
293
     1
141
0.0
294
     1
177
     0
142
1.0
295
     0
296
     0
143
0.125
1001
ACAD_MLEADERVER
1070
     2
  0
MLINESTYLE
  5
5F
102
{ACAD_REACTORS
330
5E
102
}
330
5E
100
AcDbMlineStyle
  2
STANDARD
 70
     0
  3

 62
   256
 51
90.0
 52
90.0
 71
     2
 49
0.5
 62
   256
  6
BYLAYER
 49
-0.5
 62
   256
  6
BYLAYER
  0
ACDBPLACEHOLDER
  5
F
102
{ACAD_REACTORS
330
E
102
}
330
E
  0
SCALE
  5
43
102
{ACAD_REACTORS
330
42
102
}
330
42
100
AcDbScale
 70
     0
300
1:1
140
1.0
141
1.0
290
     1
  0
SCALE
  5
44
102
{ACAD_REACTORS
330
42
102
}
330
42
100
AcDbScale
 70
     0
300
1/128" = 1'-0"
140
0.0078125
141
12.0
290
     0
  0
SCALE
  5
45
102
{ACAD_REACTORS
330
42
102
}
330
42
100
AcDbScale
 70
     0
300
1/64" = 1'-0"
140
0.015625
141
12.0
290
     0
  0
SCALE
  5
46
102
{ACAD_REACTORS
330
42
102
}
330
42
100
AcDbScale
 70
     0
300
1/32" = 1'-0"
140
0.03125
141
12.0
290
     0
  0
SCALE
  5
47
102
{ACAD_REACTORS
330
42
102
}
330
42
100
AcDbScale
 70
     0
300
1/16" = 1'-0"
140
0.0625
141
12.0
290
     0
  0
SCALE
  5
48
102
{ACAD_REACTORS
330
42
102
}
330
42
100
AcDbScale
 70
     0
300
3/32" = 1'-0"
140
0.09375
141
12.0
290
     0
  0
SCALE
  5
49
102
{ACAD_REACTORS
330
42
102
}
330
42
100
AcDbScale
 70
     0
300
1/8" = 1'-0"
140
0.125
141
12.0
290
     0
  0
SCALE
  5
4A
102
{ACAD_REACTORS
330
42
102
}
330
42
100
AcDbScale
 70
     0
300
3/16" = 1'-0"
140
0.1875
141
12.0
290
     0
  0
SCALE
  5
4B
102
{ACAD_REACTORS
330
42
102
}
330
42
100
AcDbScale
 70
     0
300
1/4" = 1'-0"
140
0.25
141
12.0
290
     0
  0
SCALE
  5
4C
102
{ACAD_REACTORS
330
42
102
}
330
42
100
AcDbScale
 70
     0
300
3/8" = 1'-0"
140
0.375
141
12.0
290
     0
  0
SCALE
  5
4D
102
{ACAD_REACTORS
330
42
102
}
330
42
100
AcDbScale
 70
     0
300
1/2" = 1'-0"
140
0.5
141
12.0
290
     0
  0
SCALE
  5
4E
102
{ACAD_REACTORS
330
42
102
}
330
42
100
AcDbScale
 70
     0
300
3/4" = 1'-0"
140
0.75
141
12.0
290
     0
  0
SCALE
  5
4F
102
{ACAD_REACTORS
330
42
102
}
330
42
100
AcDbScale
 70
     0
300
1" = 1'-0"
140
1.0
141
12.0
290
     0
  0
SCALE
  5
50
102
{ACAD_REACTORS
330
42
102
}
330
42
100
AcDbScale
 70
     0
300
1-1/2" = 1'-0"
140
1.5
141
12.0
290
     0
  0
SCALE
  5
51
102
{ACAD_REACTORS
330
42
102
}
330
42
100
AcDbScale
 70
     0
300
3" = 1'-0"
140
3.0
141
12.0
290
     0
  0
SCALE
  5
52
102
{ACAD_REACTORS
330
42
102
}
330
42
100
AcDbScale
 70
     0
300
6" = 1'-0"
140
6.0
141
12.0
290
     0
  0
SCALE
  5
53
102
{ACAD_REACTORS
330
42
102
}
330
42
100
AcDbScale
 70
     0
300
1'-0" = 1'-0"
140
12.0
141
12.0
290
     0
  0
TABLESTYLE
  5
64
102
{ACAD_XDICTIONARY
360
31F
102
}
102
{ACAD_REACTORS
330
63
102
}
330
63
100
AcDbTableStyle
  3
Standard
 70
     0
 71
     0
 40
0.06
 41
0.06
280
     0
281
     0
  7
STANDARD
140
0.18
170
     2
 62
     0
 63
     7
283
     0
274
    -2
284
     1
 64
     0
275
    -2
285
     1
 65
     0
276
    -2
286
     1
 66
     0
277
    -2
287
     1
 67
     0
278
    -2
288
     1
 68
     0
279
    -2
289
     1
 69
     0
  7
STANDARD
140
0.25
170
     5
 62
     0
 63
     7
283
     0
274
    -2
284
     1
 64
     0
275
    -2
285
     1
 65
     0
276
    -2
286
     1
 66
     0
277
    -2
287
     1
 67
     0
278
    -2
288
     1
 68
     0
279
    -2
289
     1
 69
     0
  7
STANDARD
140
0.18
170
     5
 62
     0
 63
     7
283
     0
274
    -2
284
     1
 64
     0
275
    -2
285
     1
 65
     0
276
    -2
286
     1
 66
     0
277
    -2
287
     1
 67
     0
278
    -2
288
     1
 68
     0
279
    -2
289
     1
 69
     0
  0
VISUALSTYLE
  5
2F
102
{ACAD_XDICTIONARY
360
370
102
}
102
{ACAD_REACTORS
330
29
102
}
330
29
100
AcDbVisualStyle
  2

 70
     4
 71
     0
 72
     2
 73
     0
 90
        0
 40
-0.6
 41
-30.0
 62
     5
 63
     7
 74
     1
 91
        4
 64
     7
 65
   257
 75
     1
175
     1
 42
1.0
 92
        0
 66
   257
 43
1.0
 76
     1
 77
     6
 78
     2
 67
     7
 79
     5
170
     0
171
     0
290
     0
174
     0
 93
        1
 44
0.0
173
     0
291
     0
 45
0.0
1001
ACAD
1000
AcDbSavedByObjectVersion
1070
     0
  0
VISUALSTYLE
  5
2E
102
{ACAD_XDICTIONARY
360
36E
102
}
102
{ACAD_REACTORS
330
29
102
}
330
29
100
AcDbVisualStyle
  2

 70
     7
 71
     1
 72
     0
 73
     1
 90
        0
 40
-0.6
 41
-30.0
 62
     5
 63
     7
 74
     0
 91
        4
 64
     7
 65
   257
 75
     1
175
     1
 42
1.0
 92
        8
 66
     7
 43
1.0
 76
     1
 77
     6
 78
     2
 67
     7
 79
     5
170
     0
171
     0
290
     0
174
     0
 93
        1
 44
0.0
173
     0
291
     1
 45
0.0
1001
ACAD
1000
AcDbSavedByObjectVersion
1070
     0
  0
VISUALSTYLE
  5
35
102
{ACAD_XDICTIONARY
360
37C
102
}
102
{ACAD_REACTORS
330
29
102
}
330
29
100
AcDbVisualStyle
  2

 70
    12
 71
     2
 72
     2
 73
     0
 90
        0
 40
-0.6
 41
-30.0
 62
     5
 63
     7
 74
     1
 91
        4
 64
     7
 65
   257
 75
     1
175
     1
 42
1.0
 92
        8
 66
     7
 43
1.0
 76
     1
 77
     6
 78
     2
 67
     7
 79
     5
170
     0
171
     0
290
     0
174
     0
 93
        1
 44
50.0
173
     0
291
     1
 45
0.0
1001
ACAD
1000
AcDbSavedByObjectVersion
1070
     0
  0
VISUALSTYLE
  5
39
102
{ACAD_XDICTIONARY
360
384
102
}
102
{ACAD_REACTORS
330
29
102
}
330
29
100
AcDbVisualStyle
  2

 70
    16
 71
     2
 72
     2
 73
     3
 90
        0
 40
-0.6
 41
-30.0
 62
     5
 63
     8
 74
     1
 91
        4
 64
     7
 65
   257
 75
     1
175
     1
 42
1.0
 92
        8
 66
     8
 43
1.0
 76
     1
 77
     6
 78
     2
 67
     7
 79
     5
170
     0
171
     0
290
     0
174
     0
 93
        1
 44
0.0
173
     0
291
     1
 45
0.0
1001
ACAD
1000
AcDbSavedByObjectVersion
1070
     0
  0
VISUALSTYLE
  5
32
102
{ACAD_XDICTIONARY
360
376
102
}
102
{ACAD_REACTORS
330
29
102
}
330
29
100
AcDbVisualStyle
  2

 70
     9
 71
     3
 72
     2
 73
     0
 90
        0
 40
-0.6
 41
-30.0
 62
     5
 63
     7
 74
     2
 91
        2
 64
     7
 65
   257
 75
     1
175
     1
 42
179.0
 92
        8
 66
     7
 43
1.0
 76
     1
 77
     6
 78
     2
 67
     7
 79
     3
170
     0
171
     0
290
     0
174
     0
 93
        1
 44
0.0
173
     0
291
     0
 45
0.0
1001
ACAD
1000
AcDbSavedByObjectVersion
1070
     0
  0
VISUALSTYLE
  5
34
102
{ACAD_XDICTIONARY
360
37A
102
}
102
{ACAD_REACTORS
330
29
102
}
330
29
100
AcDbVisualStyle
  2

 70
    11
 71
     2
 72
     2
 73
     0
 90
        0
 40
-0.6
 41
-30.0
 62
     5
 63
     7
 74
     1
 91
        4
 64
     7
 65
   257
 75
     1
175
     1
 42
1.0
 92
        8
 66
     7
 43
1.0
 76
     1
 77
     6
 78
     2
 67
     7
 79
     5
170
     0
171
     0
290
     0
174
     0
 93
        1
 44
-50.0
173
     0
291
     1
 45
0.0
1001
ACAD
1000
AcDbSavedByObjectVersion
1070
     0
  0
VISUALSTYLE
  5
41
102
{ACAD_XDICTIONARY
360
394
102
}
102
{ACAD_REACTORS
330
29
102
}
330
29
100
AcDbVisualStyle
  2

 70
    22
 71
     2
 72
     2
 73
     0
 90
        0
 40
-0.6
 41
-30.0
 62
     5
 63
     7
 74
     1
 91
        4
 64
     7
 65
   257
 75
     1
175
     1
 42
1.0
 92
        8
 66
     7
 43
1.0
 76
     1
 77
     6
 78
     2
 67
     7
 79
     5
170
     0
171
     0
290
     0
174
     0
 93
        1
 44
0.0
173
     0
291
     1
 45
0.0
1001
ACAD
1000
AcDbSavedByObjectVersion
1070
     0
  0
VISUALSTYLE
  5
38
102
{ACAD_XDICTIONARY
360
382
102
}
102
{ACAD_REACTORS
330
29
102
}
330
29
100
AcDbVisualStyle
  2

 70
    15
 71
     2
 72
     2
 73
     0
 90
        0
 40
-0.6
 41
-30.0
 62
     5
 63
     7
 74
     1
 91
        4
 64
     7
 65
   257
 75
     1
175
     1
 42
1.0
 92
        8
 66
     7
 43
1.0
 76
     1
 77
     6
 78
     2
 67
     7
 79
     5
170
     0
171
     0
290
     0
174
     0
 93
        1
 44
0.0
173
     0
291
     1
 45
0.0
1001
ACAD
1000
AcDbSavedByObjectVersion
1070
     0
  0
VISUALSTYLE
  5
2A
102
{ACAD_XDICTIONARY
360
366
102
}
102
{ACAD_REACTORS
330
29
102
}
330
29
100
AcDbVisualStyle
  2

 70
     0
 71
     2
 72
     1
 73
     1
 90
        2
 40
-0.6
 41
30.0
 62
     5
 63
     7
 74
     0
 91
        0
 64
     7
 65
   257
 75
     1
175
     1
 42
1.0
 92
        8
 66
     7
 43
1.0
 76
     1
 77
     6
 78
     2
 67
     7
 79
     5
170
     0
171
     0
290
     0
174
     0
 93
       13
 44
0.0
173
     0
291
     1
 45
0.0
1001
ACAD
1000
AcDbSavedByObjectVersion
1070
     0
  0
VISUALSTYLE
  5
2B
102
{ACAD_XDICTIONARY
360
368
102
}
102
{ACAD_REACTORS
330
29
102
}
330
29
100
AcDbVisualStyle
  2

 70
     1
 71
     2
 72
     1
 73
     1
 90
        2
 40
-0.6
 41
30.0
 62
     5
 63
     7
 74
     1
 91
        0
 64
     7
 65
   257
 75
     1
175
     1
 42
1.0
 92
        0
 66
   257
 43
1.0
 76
     1
 77
     6
 78
     2
 67
     7
 79
     5
170
     0
171
     0
290
     0
174
     0
 93
       13
 44
0.0
173
     0
291
     1
 45
0.0
1001
ACAD
1000
AcDbSavedByObjectVersion
1070
     0
  0
VISUALSTYLE
  5
2C
102
{ACAD_XDICTIONARY
360
36A
102
}
102
{ACAD_REACTORS
330
29
102
}
330
29
100
AcDbVisualStyle
  2

 70
     2
 71
     2
 72
     2
 73
     1
 90
        2
 40
-0.6
 41
30.0
 62
     5
 63
     7
 74
     0
 91
        0
 64
     7
 65
   257
 75
     1
175
     1
 42
1.0
 92
        0
 66
     7
 43
1.0
 76
     1
 77
     6
 78
     2
 67
     7
 79
     5
170
     0
171
     0
290
     0
174
     0
 93
       13
 44
0.0
173
     0
291
     1
 45
0.0
1001
ACAD
1000
AcDbSavedByObjectVersion
1070
     0
  0
VISUALSTYLE
  5
2D
102
{ACAD_XDICTIONARY
360
36C
102
}
102
{ACAD_REACTORS
330
29
102
}
330
29
100
AcDbVisualStyle
  2

 70
     3
 71
     2
 72
     2
 73
     1
 90
        2
 40
-0.6
 41
30.0
 62
     5
 63
     7
 74
     1
 91
        0
 64
     7
 65
   257
 75
     1
175
     1
 42
1.0
 92
        0
 66
   257
 43
1.0
 76
     1
 77
     6
 78
     2
 67
     7
 79
     5
170
     0
171
     0
290
     0
174
     0
 93
       13
 44
0.0
173
     0
291
     1
 45
0.0
1001
ACAD
1000
AcDbSavedByObjectVersion
1070
     0
  0
VISUALSTYLE
  5
31
102
{ACAD_XDICTIONARY
360
374
102
}
102
{ACAD_REACTORS
330
29
102
}
330
29
100
AcDbVisualStyle
  2

 70
     6
 71
     1
 72
     2
 73
     2
 90
        0
 40
-0.6
 41
-30.0
 62
     5
 63
     7
 74
     2
 91
        2
 64
     7
 65
   257
 75
     2
175
     1
 42
40.0
 92
        0
 66
   257
 43
1.0
 76
     1
 77
     6
 78
     2
 67
     7
 79
     3
170
     0
171
     0
290
     0
174
     0
 93
        1
 44
0.0
173
     0
291
     0
 45
0.0
1001
ACAD
1000
AcDbSavedByObjectVersion
1070
     0
  0
VISUALSTYLE
  5
3F
102
{ACAD_XDICTIONARY
360
390
102
}
102
{ACAD_REACTORS
330
29
102
}
330
29
100
AcDbVisualStyle
  2

 70
    20
 71
     2
 72
     2
 73
     0
 90
        0
 40
-0.6
 41
-30.0
 62
     5
 63
     7
 74
     1
 91
        4
 64
     7
 65
   257
 75
     1
175
     1
 42
1.0
 92
       10
 66
     7
 43
1.0
 76
     1
 77
     6
 78
     2
 67
     7
 79
     5
170
     0
171
     0
290
     0
174
     0
 93
        1
 44
0.0
173
     0
291
     1
 45
0.0
1001
ACAD
1000
AcDbSavedByObjectVersion
1070
     0
  0
VISUALSTYLE
  5
37
102
{ACAD_XDICTIONARY
360
380
102
}
102
{ACAD_REACTORS
330
29
102
}
330
29
100
AcDbVisualStyle
  2

 70
    14
 71
     2
 72
     2
 73
     0
 90
        0
 40
-0.6
 41
-30.0
 62
     5
 63
     7
 74
     1
 91
        4
 64
     7
 65
   257
 75
     7
175
     7
 42
1.0
 92
        8
 66
     7
 43
1.0
 76
     1
 77
     6
 78
     2
 67
     7
 79
     5
170
     0
171
     0
290
     0
174
     0
 93
        1
 44
0.0
173
     0
291
     1
 45
0.0
1001
ACAD
1000
AcDbSavedByObjectVersion
1070
     0
  0
VISUALSTYLE
  5
40
102
{ACAD_XDICTIONARY
360
392
102
}
102
{ACAD_REACTORS
330
29
102
}
330
29
100
AcDbVisualStyle
  2

 70
    21
 71
     2
 72
     2
 73
     0
 90
        0
 40
-0.6
 41
-30.0
 62
     5
 63
     7
 74
     1
 91
        4
 64
     7
 65
   257
 75
     1
175
     1
 42
1.0
 92
        9
 66
     7
 43
1.0
 76
     1
 77
     6
 78
     2
 67
     7
 79
     5
170
     0
171
     0
290
     0
174
     0
 93
        1
 44
0.0
173
     0
291
     1
 45
0.0
1001
ACAD
1000
AcDbSavedByObjectVersion
1070
     0
  0
VISUALSTYLE
  5
33
102
{ACAD_XDICTIONARY
360
378
102
}
102
{ACAD_REACTORS
330
29
102
}
330
29
100
AcDbVisualStyle
  2

 70
     8
 71
     2
 72
     3
 73
     0
 90
        2
 40
-0.6
 41
30.0
 62
     5
 63
     7
 74
     0
 91
        0
 64
     7
 65
   257
 75
     1
175
     1
 42
1.0
 92
        8
 66
   257
 43
1.0
 76
     1
 77
     6
 78
     2
 67
     7
 79
     3
170
     0
171
     0
290
     0
174
     0
 93
       13
 44
0.0
173
     0
291
     0
 45
0.0
1001
ACAD
1000
AcDbSavedByObjectVersion
1070
     0
  0
VISUALSTYLE
  5
3E
102
{ACAD_XDICTIONARY
360
38E
102
}
102
{ACAD_REACTORS
330
29
102
}
330
29
100
AcDbVisualStyle
  2

 70
    27
 71
     2
 72
     2
 73
     1
 90
        2
 40
-0.6
 41
30.0
 62
     5
 63
     7
 74
     0
 91
        4
 64
     7
 65
   257
 75
     1
175
     1
 42
1.0
 92
        8
 66
   257
 43
1.0
 76
     1
 77
     6
 78
     2
 67
     8
 79
     3
170
     0
171
     0
290
     0
174
     0
 93
        5
 44
0.0
173
     0
291
     0
 45
0.0
1001
ACAD
1000
AcDbSavedByObjectVersion
1070
     0
  0
VISUALSTYLE
  5
3D
102
{ACAD_XDICTIONARY
360
38C
102
}
102
{ACAD_REACTORS
330
29
102
}
330
29
100
AcDbVisualStyle
  2

 70
    26
 71
     2
 72
     2
 73
     1
 90
        2
 40
-0.6
 41
30.0
 62
     5
 63
     7
 74
     1
 91
       10
 64
     7
 65
   257
 75
     2
175
     1
 42
1.0
 92
        8
 66
   257
 43
1.0
 76
     1
 77
     6
 78
     2
 67
     7
 79
     3
170
     0
171
     0
290
     0
174
     0
 93
        5
 44
0.0
173
     0
291
     0
 45
0.0
1001
ACAD
1000
AcDbSavedByObjectVersion
1070
     0
  0
VISUALSTYLE
  5
3A
102
{ACAD_XDICTIONARY
360
386
102
}
102
{ACAD_REACTORS
330
29
102
}
330
29
100
AcDbVisualStyle
  2

 70
    23
 71
     2
 72
     2
 73
     3
 90
        0
 40
-0.6
 41
-30.0
 62
     5
 63
     7
 74
     2
 91
        2
 64
     7
 65
     7
 75
     1
175
     1
 42
40.0
 92
        8
 66
     7
 43
1.0
 76
     1
 77
     6
 78
     2
 67
     7
 79
     3
170
     0
171
     0
290
     0
174
     0
 93
        1
 44
0.0
173
     0
291
     0
 45
0.0
1001
ACAD
1000
AcDbSavedByObjectVersion
1070
     0
  0
VISUALSTYLE
  5
3B
102
{ACAD_XDICTIONARY
360
388
102
}
102
{ACAD_REACTORS
330
29
102
}
330
29
100
AcDbVisualStyle
  2

 70
    24
 71
     1
 72
     2
 73
     2
 90
        0
 40
-0.6
 41
-30.0
 62
     5
 63
     7
 74
     2
 91
        2
 64
     7
 65
     7
 75
     1
175
     1
 42
40.0
 92
       11
 66
     7
 43
1.0
 76
     1
 77
     6
 78
     2
 67
     7
 79
     6
170
     0
171
     0
290
     0
174
     0
 93
        1
 44
0.0
173
     0
291
     0
 45
0.0
1001
ACAD
1000
AcDbSavedByObjectVersion
1070
     0
  0
VISUALSTYLE
  5
36
102
{ACAD_XDICTIONARY
360
37E
102
}
102
{ACAD_REACTORS
330
29
102
}
330
29
100
AcDbVisualStyle
  2

 70
    13
 71
     2
 72
     2
 73
     0
 90
        0
 40
-0.6
 41
-30.0
 62
     5
 63
     7
 74
     1
 91
        4
 64
     7
 65
   257
 75
     1
175
     1
 42
1.0
 92
       12
 66
     7
 43
1.0
 76
     1
 77
     6
 78
     2
 67
     7
 79
     5
170
     0
171
     0
290
     0
174
     0
 93
        1
 44
0.0
173
     0
291
     1
 45
0.0
1001
ACAD
1000
AcDbSavedByObjectVersion
1070
     0
  0
VISUALSTYLE
  5
30
102
{ACAD_XDICTIONARY
360
372
102
}
102
{ACAD_REACTORS
330
29
102
}
330
29
100
AcDbVisualStyle
  2

 70
     5
 71
     0
 72
     2
 73
     0
 90
        0
 40
-0.6
 41
-30.0
 62
     5
 63
     7
 74
     1
 91
        4
 64
     7
 65
   257
 75
     1
175
     1
 42
1.0
 92
        0
 66
   257
 43
1.0
 76
     1
 77
     6
 78
     2
 67
     7
 79
     3
170
     0
171
     0
290
     0
174
     0
 93
        1
 44
0.0
173
     0
291
     0
 45
0.0
1001
ACAD
1000
AcDbSavedByObjectVersion
1070
     0
  0
VISUALSTYLE
  5
3C
102
{ACAD_XDICTIONARY
360
38A
102
}
102
{ACAD_REACTORS
330
29
102
}
330
29
100
AcDbVisualStyle
  2

 70
    25
 71
     2
 72
     2
 73
     1
 90
        1
 40
0.5
 41
-30.0
 62
     5
 63
     7
 74
     1
 91
        0
 64
     7
 65
   257
 75
     1
175
     1
 42
1.0
 92
        8
 66
     7
 43
1.0
 76
     1
 77
     6
 78
     2
 67
     7
 79
     3
170
     0
171
     0
290
     0
174
     0
 93
       13
 44
0.0
173
     0
291
     0
 45
0.0
1001
ACAD
1000
AcDbSavedByObjectVersion
1070
     0
  0
DICTIONARYVAR
  5
319
102
{ACAD_REACTORS
330
316
102
}
330
316
100
DictionaryVariables
280
     0
  1
1:1
  0
DICTIONARYVAR
  5
318
102
{ACAD_REACTORS
330
316
102
}
330
316
100
DictionaryVariables
280
     0
  1
STANDARD
  0
DICTIONARYVAR
  5
317
102
{ACAD_REACTORS
330
316
102
}
330
316
100
DictionaryVariables
280
     0
  1
STANDARD
  0
DICTIONARYVAR
  5
31C
102
{ACAD_REACTORS
330
316
102
}
330
316
100
DictionaryVariables
280
     0
  1
1
  0
DICTIONARYVAR
  5
31B
102
{ACAD_REACTORS
330
316
102
}
330
316
100
DictionaryVariables
280
     0
  1
0
  0
DICTIONARYVAR
  5
31A
102
{ACAD_REACTORS
330
316
102
}
330
316
100
DictionaryVariables
280
     0
  1
127
  0
DICTIONARYVAR
  5
362
102
{ACAD_REACTORS
330
316
102
}
330
316
100
DictionaryVariables
280
     0
  1
2
  0
XRECORD
  5
315
102
{ACAD_REACTORS
330
313
102
}
330
313
100
AcDbXrecord
280
     1
330
1C3
  0
DICTIONARY
  5
399
330
6E
100
AcDbDictionary
280
     1
281
     1
  3
ACAD_XREC_ROUNDTRIP
360
39A
  0
DICTIONARY
  5
397
330
6A
100
AcDbDictionary
280
     1
281
     1
  3
ACAD_XREC_ROUNDTRIP
360
398
  0
DICTIONARY
  5
1A
330
19
100
AcDbDictionary
280
     1
281
     1
  3
ACAD_XREC_ROUNDTRIP
360
324
  3
BUMPTILE
360
1C
  3
DIFFUSETILE
360
1B
  3
OPACITYTILE
360
1F
  3
REFLECTIONTILE
360
1E
  3
REFRACTIONTILE
360
20
  3
SPECULARTILE
360
1D
  0
DICTIONARY
  5
12
330
11
100
AcDbDictionary
280
     1
281
     1
  3
ACAD_XREC_ROUNDTRIP
360
323
  3
BUMPTILE
360
14
  3
DIFFUSETILE
360
13
  3
OPACITYTILE
360
17
  3
REFLECTIONTILE
360
16
  3
REFRACTIONTILE
360
18
  3
SPECULARTILE
360
15
  0
DICTIONARY
  5
22
330
21
100
AcDbDictionary
280
     1
281
     1
  3
ACAD_XREC_ROUNDTRIP
360
325
  3
BUMPTILE
360
24
  3
DIFFUSETILE
360
23
  3
OPACITYTILE
360
27
  3
REFLECTIONTILE
360
26
  3
REFRACTIONTILE
360
28
  3
SPECULARTILE
360
25
  0
DICTIONARY
  5
31F
330
64
100
AcDbDictionary
280
     1
281
     1
  3
ACAD_ROUNDTRIP_2008_TABLESTYLE_CELLSTYLEMAP
360
363
  3
ACAD_XREC_ROUNDTRIP
360
396
  0
DICTIONARY
  5
370
330
2F
100
AcDbDictionary
280
     1
281
     1
  3
ACAD_XREC_ROUNDTRIP
360
371
  0
DICTIONARY
  5
36E
330
2E
100
AcDbDictionary
280
     1
281
     1
  3
ACAD_XREC_ROUNDTRIP
360
36F
  0
DICTIONARY
  5
37C
330
35
100
AcDbDictionary
280
     1
281
     1
  3
ACAD_XREC_ROUNDTRIP
360
37D
  0
DICTIONARY
  5
384
330
39
100
AcDbDictionary
280
     1
281
     1
  3
ACAD_XREC_ROUNDTRIP
360
385
  0
DICTIONARY
  5
376
330
32
100
AcDbDictionary
280
     1
281
     1
  3
ACAD_XREC_ROUNDTRIP
360
377
  0
DICTIONARY
  5
37A
330
34
100
AcDbDictionary
280
     1
281
     1
  3
ACAD_XREC_ROUNDTRIP
360
37B
  0
DICTIONARY
  5
394
330
41
100
AcDbDictionary
280
     1
281
     1
  3
ACAD_XREC_ROUNDTRIP
360
395
  0
DICTIONARY
  5
382
330
38
100
AcDbDictionary
280
     1
281
     1
  3
ACAD_XREC_ROUNDTRIP
360
383
  0
DICTIONARY
  5
366
330
2A
100
AcDbDictionary
280
     1
281
     1
  3
ACAD_XREC_ROUNDTRIP
360
367
  0
DICTIONARY
  5
368
330
2B
100
AcDbDictionary
280
     1
281
     1
  3
ACAD_XREC_ROUNDTRIP
360
369
  0
DICTIONARY
  5
36A
330
2C
100
AcDbDictionary
280
     1
281
     1
  3
ACAD_XREC_ROUNDTRIP
360
36B
  0
DICTIONARY
  5
36C
330
2D
100
AcDbDictionary
280
     1
281
     1
  3
ACAD_XREC_ROUNDTRIP
360
36D
  0
DICTIONARY
  5
374
330
31
100
AcDbDictionary
280
     1
281
     1
  3
ACAD_XREC_ROUNDTRIP
360
375
  0
DICTIONARY
  5
390
330
3F
100
AcDbDictionary
280
     1
281
     1
  3
ACAD_XREC_ROUNDTRIP
360
391
  0
DICTIONARY
  5
380
330
37
100
AcDbDictionary
280
     1
281
     1
  3
ACAD_XREC_ROUNDTRIP
360
381
  0
DICTIONARY
  5
392
330
40
100
AcDbDictionary
280
     1
281
     1
  3
ACAD_XREC_ROUNDTRIP
360
393
  0
DICTIONARY
  5
378
330
33
100
AcDbDictionary
280
     1
281
     1
  3
ACAD_XREC_ROUNDTRIP
360
379
  0
DICTIONARY
  5
38E
330
3E
100
AcDbDictionary
280
     1
281
     1
  3
ACAD_XREC_ROUNDTRIP
360
38F
  0
DICTIONARY
  5
38C
330
3D
100
AcDbDictionary
280
     1
281
     1
  3
ACAD_XREC_ROUNDTRIP
360
38D
  0
DICTIONARY
  5
386
330
3A
100
AcDbDictionary
280
     1
281
     1
  3
ACAD_XREC_ROUNDTRIP
360
387
  0
DICTIONARY
  5
388
330
3B
100
AcDbDictionary
280
     1
281
     1
  3
ACAD_XREC_ROUNDTRIP
360
389
  0
DICTIONARY
  5
37E
330
36
100
AcDbDictionary
280
     1
281
     1
  3
ACAD_XREC_ROUNDTRIP
360
37F
  0
DICTIONARY
  5
372
330
30
100
AcDbDictionary
280
     1
281
     1
  3
ACAD_XREC_ROUNDTRIP
360
373
  0
DICTIONARY
  5
38A
330
3C
100
AcDbDictionary
280
     1
281
     1
  3
ACAD_XREC_ROUNDTRIP
360
38B
  0
XRECORD
  5
39A
102
{ACAD_REACTORS
330
399
102
}
330
399
100
AcDbXrecord
280
     1
102
SHADEPLOT
 70
     0
102
SHADEPLOTRESLEVEL
 70
     2
102
SHADEPLOTCUSTOMDPI
 70
   300
  0
XRECORD
  5
398
102
{ACAD_REACTORS
330
397
102
}
330
397
100
AcDbXrecord
280
     1
102
SHADEPLOT
 70
     0
102
SHADEPLOTRESLEVEL
 70
     2
102
SHADEPLOTCUSTOMDPI
 70
   300
  0
XRECORD
  5
324
102
{ACAD_REACTORS
330
1A
102
}
330
1A
100
AcDbXrecord
280
     1
102
MATERIAL
148
0.0
149
0.0
149
0.0
 93
        0
 94
      127
282
     0
 72
     0
 77
     0
171
     0
175
     0
179
     0
273
     0
  0
XRECORD
  5
1C
102
{ACAD_REACTORS
330
1A
102
}
330
1A
100
AcDbXrecord
280
     1
270
     1
271
     1
  0
XRECORD
  5
1B
102
{ACAD_REACTORS
330
1A
102
}
330
1A
100
AcDbXrecord
280
     1
270
     1
271
     1
  0
XRECORD
  5
1F
102
{ACAD_REACTORS
330
1A
102
}
330
1A
100
AcDbXrecord
280
     1
270
     1
271
     1
  0
XRECORD
  5
1E
102
{ACAD_REACTORS
330
1A
102
}
330
1A
100
AcDbXrecord
280
     1
270
     1
271
     1
  0
XRECORD
  5
20
102
{ACAD_REACTORS
330
1A
102
}
330
1A
100
AcDbXrecord
280
     1
270
     1
271
     1
  0
XRECORD
  5
1D
102
{ACAD_REACTORS
330
1A
102
}
330
1A
100
AcDbXrecord
280
     1
270
     1
271
     1
  0
XRECORD
  5
323
102
{ACAD_REACTORS
330
12
102
}
330
12
100
AcDbXrecord
280
     1
102
MATERIAL
148
0.0
149
0.0
149
0.0
 93
        0
 94
      127
282
     0
 72
     0
 77
     0
171
     0
175
     0
179
     0
273
     0
  0
XRECORD
  5
14
102
{ACAD_REACTORS
330
12
102
}
330
12
100
AcDbXrecord
280
     1
270
     1
271
     1
  0
XRECORD
  5
13
102
{ACAD_REACTORS
330
12
102
}
330
12
100
AcDbXrecord
280
     1
270
     1
271
     1
  0
XRECORD
  5
17
102
{ACAD_REACTORS
330
12
102
}
330
12
100
AcDbXrecord
280
     1
270
     1
271
     1
  0
XRECORD
  5
16
102
{ACAD_REACTORS
330
12
102
}
330
12
100
AcDbXrecord
280
     1
270
     1
271
     1
  0
XRECORD
  5
18
102
{ACAD_REACTORS
330
12
102
}
330
12
100
AcDbXrecord
280
     1
270
     1
271
     1
  0
XRECORD
  5
15
102
{ACAD_REACTORS
330
12
102
}
330
12
100
AcDbXrecord
280
     1
270
     1
271
     1
  0
XRECORD
  5
325
102
{ACAD_REACTORS
330
22
102
}
330
22
100
AcDbXrecord
280
     1
102
MATERIAL
148
0.0
149
0.0
149
0.0
 93
        0
 94
      127
282
     0
 72
     0
 77
     0
171
     0
175
     0
179
     0
273
     0
  0
XRECORD
  5
24
102
{ACAD_REACTORS
330
22
102
}
330
22
100
AcDbXrecord
280
     1
270
     1
271
     1
  0
XRECORD
  5
23
102
{ACAD_REACTORS
330
22
102
}
330
22
100
AcDbXrecord
280
     1
270
     1
271
     1
  0
XRECORD
  5
27
102
{ACAD_REACTORS
330
22
102
}
330
22
100
AcDbXrecord
280
     1
270
     1
271
     1
  0
XRECORD
  5
26
102
{ACAD_REACTORS
330
22
102
}
330
22
100
AcDbXrecord
280
     1
270
     1
271
     1
  0
XRECORD
  5
28
102
{ACAD_REACTORS
330
22
102
}
330
22
100
AcDbXrecord
280
     1
270
     1
271
     1
  0
XRECORD
  5
25
102
{ACAD_REACTORS
330
22
102
}
330
22
100
AcDbXrecord
280
     1
270
     1
271
     1
  0
CELLSTYLEMAP
  5
363
102
{ACAD_REACTORS
330
31F
102
}
330
31F
100
AcDbCellStyleMap
 90
        3
300
CELLSTYLE
  1
TABLEFORMAT_BEGIN
 90
        5
170
     1
 91
        0
 92
    32768
 62
   257
 93
        1
300
CONTENTFORMAT
  1
CONTENTFORMAT_BEGIN
 90
        0
 91
        0
 92
      512
 93
        0
300

 40
0.0
140
1.0
 94
        5
 62
     0
340
55
144
0.25
309
CONTENTFORMAT_END
171
     1
301
MARGIN
  1
CELLMARGIN_BEGIN
 40
0.06
 40
0.06
 40
0.06
 40
0.06
 40
0.18
 40
0.18
309
CELLMARGIN_END
 94
        6
 95
        1
302
GRIDFORMAT
  1
GRIDFORMAT_BEGIN
 90
        0
 91
        1
 62
     0
 92
       -2
340
0
 93
        0
 40
0.045
309
GRIDFORMAT_END
 95
        2
302
GRIDFORMAT
  1
GRIDFORMAT_BEGIN
 90
        0
 91
        1
 62
     0
 92
       -2
340
0
 93
        0
 40
0.045
309
GRIDFORMAT_END
 95
        4
302
GRIDFORMAT
  1
GRIDFORMAT_BEGIN
 90
        0
 91
        1
 62
     0
 92
       -2
340
0
 93
        0
 40
0.045
309
GRIDFORMAT_END
 95
        8
302
GRIDFORMAT
  1
GRIDFORMAT_BEGIN
 90
        0
 91
        1
 62
     0
 92
       -2
340
0
 93
        0
 40
0.045
309
GRIDFORMAT_END
 95
       16
302
GRIDFORMAT
  1
GRIDFORMAT_BEGIN
 90
        0
 91
        1
 62
     0
 92
       -2
340
0
 93
        0
 40
0.045
309
GRIDFORMAT_END
 95
       32
302
GRIDFORMAT
  1
GRIDFORMAT_BEGIN
 90
        0
 91
        1
 62
     0
 92
       -2
340
0
 93
        0
 40
0.045
309
GRIDFORMAT_END
309
TABLEFORMAT_END
  1
CELLSTYLE_BEGIN
 90
        1
 91
        1
300
_TITLE
309
CELLSTYLE_END
300
CELLSTYLE
  1
TABLEFORMAT_BEGIN
 90
        5
170
     1
 91
        0
 92
        0
 62
   257
 93
        1
300
CONTENTFORMAT
  1
CONTENTFORMAT_BEGIN
 90
        0
 91
        0
 92
      512
 93
        0
300

 40
0.0
140
1.0
 94
        5
 62
     0
340
55
144
0.18
309
CONTENTFORMAT_END
171
     1
301
MARGIN
  1
CELLMARGIN_BEGIN
 40
0.06
 40
0.06
 40
0.06
 40
0.06
 40
0.18
 40
0.18
309
CELLMARGIN_END
 94
        6
 95
        1
302
GRIDFORMAT
  1
GRIDFORMAT_BEGIN
 90
        0
 91
        1
 62
     0
 92
       -2
340
0
 93
        0
 40
0.045
309
GRIDFORMAT_END
 95
        2
302
GRIDFORMAT
  1
GRIDFORMAT_BEGIN
 90
        0
 91
        1
 62
     0
 92
       -2
340
0
 93
        0
 40
0.045
309
GRIDFORMAT_END
 95
        4
302
GRIDFORMAT
  1
GRIDFORMAT_BEGIN
 90
        0
 91
        1
 62
     0
 92
       -2
340
0
 93
        0
 40
0.045
309
GRIDFORMAT_END
 95
        8
302
GRIDFORMAT
  1
GRIDFORMAT_BEGIN
 90
        0
 91
        1
 62
     0
 92
       -2
340
0
 93
        0
 40
0.045
309
GRIDFORMAT_END
 95
       16
302
GRIDFORMAT
  1
GRIDFORMAT_BEGIN
 90
        0
 91
        1
 62
     0
 92
       -2
340
0
 93
        0
 40
0.045
309
GRIDFORMAT_END
 95
       32
302
GRIDFORMAT
  1
GRIDFORMAT_BEGIN
 90
        0
 91
        1
 62
     0
 92
       -2
340
0
 93
        0
 40
0.045
309
GRIDFORMAT_END
309
TABLEFORMAT_END
  1
CELLSTYLE_BEGIN
 90
        2
 91
        1
300
_HEADER
309
CELLSTYLE_END
300
CELLSTYLE
  1
TABLEFORMAT_BEGIN
 90
        5
170
     1
 91
        0
 92
        0
 62
   257
 93
        1
300
CONTENTFORMAT
  1
CONTENTFORMAT_BEGIN
 90
        0
 91
        0
 92
      512
 93
        0
300

 40
0.0
140
1.0
 94
        2
 62
     0
340
55
144
0.18
309
CONTENTFORMAT_END
171
     1
301
MARGIN
  1
CELLMARGIN_BEGIN
 40
0.06
 40
0.06
 40
0.06
 40
0.06
 40
0.18
 40
0.18
309
CELLMARGIN_END
 94
        6
 95
        1
302
GRIDFORMAT
  1
GRIDFORMAT_BEGIN
 90
        0
 91
        1
 62
     0
 92
       -2
340
0
 93
        0
 40
0.045
309
GRIDFORMAT_END
 95
        2
302
GRIDFORMAT
  1
GRIDFORMAT_BEGIN
 90
        0
 91
        1
 62
     0
 92
       -2
340
0
 93
        0
 40
0.045
309
GRIDFORMAT_END
 95
        4
302
GRIDFORMAT
  1
GRIDFORMAT_BEGIN
 90
        0
 91
        1
 62
     0
 92
       -2
340
0
 93
        0
 40
0.045
309
GRIDFORMAT_END
 95
        8
302
GRIDFORMAT
  1
GRIDFORMAT_BEGIN
 90
        0
 91
        1
 62
     0
 92
       -2
340
0
 93
        0
 40
0.045
309
GRIDFORMAT_END
 95
       16
302
GRIDFORMAT
  1
GRIDFORMAT_BEGIN
 90
        0
 91
        1
 62
     0
 92
       -2
340
0
 93
        0
 40
0.045
309
GRIDFORMAT_END
 95
       32
302
GRIDFORMAT
  1
GRIDFORMAT_BEGIN
 90
        0
 91
        1
 62
     0
 92
       -2
340
0
 93
        0
 40
0.045
309
GRIDFORMAT_END
309
TABLEFORMAT_END
  1
CELLSTYLE_BEGIN
 90
        3
 91
        2
300
_DATA
309
CELLSTYLE_END
  0
XRECORD
  5
396
102
{ACAD_REACTORS
330
31F
102
}
330
31F
100
AcDbXrecord
280
     1
102
ACAD_ROUNDTRIP_PRE2007_TABLESTYLE
 90
      512
 91
        0
  1

 92
      512
 93
        0
  2

 94
      512
 95
        0
  3

  0
XRECORD
  5
371
102
{ACAD_REACTORS
330
370
102
}
330
370
100
AcDbXrecord
280
     1
102
RTVSPropertyOp0
 70
     1
102
RTVSPropertyOp1
 70
     1
102
RTVSPropertyOp2
 70
     1
102
RTVSPropertyOp3
 70
     1
102
RTVSPropertyOp4
 70
     1
102
RTVSPropertyOp5
 70
     1
102
RTVSPropertyOp6
 70
     1
102
RTVSPropertyOp7
 70
     1
102
RTVSPropertyOp8
 70
     1
102
RTVSPropertyOp9
 70
     1
102
RTVSPropertyOp10
 70
     1
102
RTVSPropertyOp11
 70
     1
102
RTVSPropertyOp12
 70
     1
102
RTVSPropertyOp13
 70
     1
102
RTVSPropertyOp14
 70
     1
102
RTVSPropertyOp15
 70
     1
102
RTVSPropertyOp16
 70
     1
102
RTVSPropertyOp17
 70
     1
102
RTVSPropertyOp18
 70
     1
102
RTVSPropertyOp19
 70
     1
102
RTVSPropertyOp20
 70
     1
102
RTVSPropertyOp21
 70
     1
102
RTVSPropertyOp22
 70
     1
102
RTVSPropertyOp23
 70
     1
102
RTVSPropertyOp24
 70
     1
102
RTVSPropertyOp25
 70
     1
102
RTVSPropertyOp26
 70
     1
102
RTVSPropertyOp27
 70
     1
102
RTVSPropertyOp28
 70
     1
102
RTVSPropertyOp29
 70
     1
102
RTVSPropertyOp30
 70
     1
102
RTVSPropertyOp31
 70
     1
102
RTVSPropertyOp32
 70
     1
  0
XRECORD
  5
36F
102
{ACAD_REACTORS
330
36E
102
}
330
36E
100
AcDbXrecord
280
     1
102
RTVSPropertyOp0
 70
     1
102
RTVSPropertyOp1
 70
     1
102
RTVSPropertyOp2
 70
     1
102
RTVSPropertyOp3
 70
     1
102
RTVSPropertyOp4
 70
     1
102
RTVSPropertyOp5
 70
     1
102
RTVSPropertyOp6
 70
     1
102
RTVSPropertyOp7
 70
     1
102
RTVSPropertyOp8
 70
     1
102
RTVSPropertyOp9
 70
     1
102
RTVSPropertyOp10
 70
     1
102
RTVSPropertyOp11
 70
     1
102
RTVSPropertyOp12
 70
     1
102
RTVSPropertyOp13
 70
     1
102
RTVSPropertyOp14
 70
     1
102
RTVSPropertyOp15
 70
     1
102
RTVSPropertyOp16
 70
     1
102
RTVSPropertyOp17
 70
     1
102
RTVSPropertyOp18
 70
     1
102
RTVSPropertyOp19
 70
     1
102
RTVSPropertyOp20
 70
     1
102
RTVSPropertyOp21
 70
     1
102
RTVSPropertyOp22
 70
     1
102
RTVSPropertyOp23
 70
     1
102
RTVSPropertyOp24
 70
     1
102
RTVSPropertyOp25
 70
     1
102
RTVSPropertyOp26
 70
     1
102
RTVSPropertyOp27
 70
     1
102
RTVSPropertyOp28
 70
     1
102
RTVSPropertyOp29
 70
     1
102
RTVSPropertyOp30
 70
     1
102
RTVSPropertyOp31
 70
     1
102
RTVSPropertyOp32
 70
     1
  0
XRECORD
  5
37D
102
{ACAD_REACTORS
330
37C
102
}
330
37C
100
AcDbXrecord
280
     1
102
RTVSPropertyOp0
 70
     1
102
RTVSPropertyOp1
 70
     1
102
RTVSPropertyOp2
 70
     1
102
RTVSPropertyOp3
 70
     1
102
RTVSPropertyOp4
 70
     1
102
RTVSPropertyOp5
 70
     1
102
RTVSPropertyOp6
 70
     1
102
RTVSPropertyOp7
 70
     1
102
RTVSPropertyOp8
 70
     1
102
RTVSPropertyOp9
 70
     1
102
RTVSPropertyOp10
 70
     1
102
RTVSPropertyOp11
 70
     1
102
RTVSPropertyOp12
 70
     1
102
RTVSPropertyOp13
 70
     1
102
RTVSPropertyOp14
 70
     1
102
RTVSPropertyOp15
 70
     1
102
RTVSPropertyOp16
 70
     1
102
RTVSPropertyOp17
 70
     1
102
RTVSPropertyOp18
 70
     1
102
RTVSPropertyOp19
 70
     1
102
RTVSPropertyOp20
 70
     1
102
RTVSPropertyOp21
 70
     1
102
RTVSPropertyOp22
 70
     1
102
RTVSPropertyOp23
 70
     1
102
RTVSPropertyOp24
 70
     1
102
RTVSPropertyOp25
 70
     1
102
RTVSPropertyOp26
 70
     1
102
RTVSPropertyOp27
 70
     1
102
RTVSPropertyOp28
 70
     1
102
RTVSPropertyOp29
 70
     1
102
RTVSPropertyOp30
 70
     1
102
RTVSPropertyOp31
 70
     1
102
RTVSPropertyOp32
 70
     1
  0
XRECORD
  5
385
102
{ACAD_REACTORS
330
384
102
}
330
384
100
AcDbXrecord
280
     1
102
RTVSPropertyOp0
 70
     1
102
RTVSPropertyOp1
 70
     1
102
RTVSPropertyOp2
 70
     1
102
RTVSPropertyOp3
 70
     1
102
RTVSPropertyOp4
 70
     1
102
RTVSPropertyOp5
 70
     1
102
RTVSPropertyOp6
 70
     1
102
RTVSPropertyOp7
 70
     1
102
RTVSPropertyOp8
 70
     1
102
RTVSPropertyOp9
 70
     1
102
RTVSPropertyOp10
 70
     1
102
RTVSPropertyOp11
 70
     1
102
RTVSPropertyOp12
 70
     1
102
RTVSPropertyOp13
 70
     1
102
RTVSPropertyOp14
 70
     1
102
RTVSPropertyOp15
 70
     1
102
RTVSPropertyOp16
 70
     1
102
RTVSPropertyOp17
 70
     1
102
RTVSPropertyOp18
 70
     1
102
RTVSPropertyOp19
 70
     1
102
RTVSPropertyOp20
 70
     1
102
RTVSPropertyOp21
 70
     1
102
RTVSPropertyOp22
 70
     1
102
RTVSPropertyOp23
 70
     1
102
RTVSPropertyOp24
 70
     1
102
RTVSPropertyOp25
 70
     1
102
RTVSPropertyOp26
 70
     1
102
RTVSPropertyOp27
 70
     1
102
RTVSPropertyOp28
 70
     1
102
RTVSPropertyOp29
 70
     1
102
RTVSPropertyOp30
 70
     1
102
RTVSPropertyOp31
 70
     1
102
RTVSPropertyOp32
 70
     1
  0
XRECORD
  5
377
102
{ACAD_REACTORS
330
376
102
}
330
376
100
AcDbXrecord
280
     1
102
RTVSPropertyOp0
 70
     1
102
RTVSPropertyOp1
 70
     1
102
RTVSPropertyOp2
 70
     1
102
RTVSPropertyOp3
 70
     1
102
RTVSPropertyOp4
 70
     1
102
RTVSPropertyOp5
 70
     1
102
RTVSPropertyOp6
 70
     1
102
RTVSPropertyOp7
 70
     1
102
RTVSPropertyOp8
 70
     1
102
RTVSPropertyOp9
 70
     1
102
RTVSPropertyOp10
 70
     1
102
RTVSPropertyOp11
 70
     1
102
RTVSPropertyOp12
 70
     1
102
RTVSPropertyOp13
 70
     1
102
RTVSPropertyOp14
 70
     1
102
RTVSPropertyOp15
 70
     1
102
RTVSPropertyOp16
 70
     1
102
RTVSPropertyOp17
 70
     1
102
RTVSPropertyOp18
 70
     1
102
RTVSPropertyOp19
 70
     1
102
RTVSPropertyOp20
 70
     1
102
RTVSPropertyOp21
 70
     1
102
RTVSPropertyOp22
 70
     1
102
RTVSPropertyOp23
 70
     1
102
RTVSPropertyOp24
 70
     1
102
RTVSPropertyOp25
 70
     1
102
RTVSPropertyOp26
 70
     1
102
RTVSPropertyOp27
 70
     1
102
RTVSPropertyOp28
 70
     1
102
RTVSPropertyOp29
 70
     1
102
RTVSPropertyOp30
 70
     1
102
RTVSPropertyOp31
 70
     1
102
RTVSPropertyOp32
 70
     1
  0
XRECORD
  5
37B
102
{ACAD_REACTORS
330
37A
102
}
330
37A
100
AcDbXrecord
280
     1
102
RTVSPropertyOp0
 70
     1
102
RTVSPropertyOp1
 70
     1
102
RTVSPropertyOp2
 70
     1
102
RTVSPropertyOp3
 70
     1
102
RTVSPropertyOp4
 70
     1
102
RTVSPropertyOp5
 70
     1
102
RTVSPropertyOp6
 70
     1
102
RTVSPropertyOp7
 70
     1
102
RTVSPropertyOp8
 70
     1
102
RTVSPropertyOp9
 70
     1
102
RTVSPropertyOp10
 70
     1
102
RTVSPropertyOp11
 70
     1
102
RTVSPropertyOp12
 70
     1
102
RTVSPropertyOp13
 70
     1
102
RTVSPropertyOp14
 70
     1
102
RTVSPropertyOp15
 70
     1
102
RTVSPropertyOp16
 70
     1
102
RTVSPropertyOp17
 70
     1
102
RTVSPropertyOp18
 70
     1
102
RTVSPropertyOp19
 70
     1
102
RTVSPropertyOp20
 70
     1
102
RTVSPropertyOp21
 70
     1
102
RTVSPropertyOp22
 70
     1
102
RTVSPropertyOp23
 70
     1
102
RTVSPropertyOp24
 70
     1
102
RTVSPropertyOp25
 70
     1
102
RTVSPropertyOp26
 70
     1
102
RTVSPropertyOp27
 70
     1
102
RTVSPropertyOp28
 70
     1
102
RTVSPropertyOp29
 70
     1
102
RTVSPropertyOp30
 70
     1
102
RTVSPropertyOp31
 70
     1
102
RTVSPropertyOp32
 70
     1
  0
XRECORD
  5
395
102
{ACAD_REACTORS
330
394
102
}
330
394
100
AcDbXrecord
280
     1
102
RTVSPropertyOp0
 70
     0
102
RTVSPropertyOp1
 70
     0
102
RTVSPropertyOp2
 70
     0
102
RTVSPropertyOp3
 70
     0
102
RTVSPropertyOp4
 70
     0
102
RTVSPropertyOp5
 70
     0
102
RTVSPropertyOp6
 70
     0
102
RTVSPropertyOp7
 70
     0
102
RTVSPropertyOp8
 70
     0
102
RTVSPropertyOp9
 70
     0
102
RTVSPropertyOp10
 70
     0
102
RTVSPropertyOp11
 70
     0
102
RTVSPropertyOp12
 70
     0
102
RTVSPropertyOp13
 70
     0
102
RTVSPropertyOp14
 70
     2
102
RTVSPropertyOp15
 70
     0
102
RTVSPropertyOp16
 70
     0
102
RTVSPropertyOp17
 70
     0
102
RTVSPropertyOp18
 70
     0
102
RTVSPropertyOp19
 70
     0
102
RTVSPropertyOp20
 70
     0
102
RTVSPropertyOp21
 70
     0
102
RTVSPropertyOp22
 70
     0
102
RTVSPropertyOp23
 70
     0
102
RTVSPropertyOp24
 70
     0
102
RTVSPropertyOp25
 70
     0
102
RTVSPropertyOp26
 70
     0
102
RTVSPropertyOp27
 70
     0
102
RTVSPropertyOp28
 70
     0
102
RTVSPropertyOp29
 70
     0
102
RTVSPropertyOp30
 70
     0
102
RTVSPropertyOp31
 70
     0
102
RTVSPropertyOp32
 70
     0
  0
XRECORD
  5
383
102
{ACAD_REACTORS
330
382
102
}
330
382
100
AcDbXrecord
280
     1
102
RTVSPropertyOp0
 70
     1
102
RTVSPropertyOp1
 70
     1
102
RTVSPropertyOp2
 70
     1
102
RTVSPropertyOp3
 70
     1
102
RTVSPropertyOp4
 70
     1
102
RTVSPropertyOp5
 70
     1
102
RTVSPropertyOp6
 70
     1
102
RTVSPropertyOp7
 70
     1
102
RTVSPropertyOp8
 70
     1
102
RTVSPropertyOp9
 70
     1
102
RTVSPropertyOp10
 70
     1
102
RTVSPropertyOp11
 70
     1
102
RTVSPropertyOp12
 70
     1
102
RTVSPropertyOp13
 70
     1
102
RTVSPropertyOp14
 70
     1
102
RTVSPropertyOp15
 70
     1
102
RTVSPropertyOp16
 70
     1
102
RTVSPropertyOp17
 70
     1
102
RTVSPropertyOp18
 70
     1
102
RTVSPropertyOp19
 70
     1
102
RTVSPropertyOp20
 70
     1
102
RTVSPropertyOp21
 70
     1
102
RTVSPropertyOp22
 70
     1
102
RTVSPropertyOp23
 70
     1
102
RTVSPropertyOp24
 70
     1
102
RTVSPropertyOp25
 70
     1
102
RTVSPropertyOp26
 70
     1
102
RTVSPropertyOp27
 70
     1
102
RTVSPropertyOp28
 70
     1
102
RTVSPropertyOp29
 70
     1
102
RTVSPropertyOp30
 70
     1
102
RTVSPropertyOp31
 70
     1
102
RTVSPropertyOp32
 70
     1
  0
XRECORD
  5
367
102
{ACAD_REACTORS
330
366
102
}
330
366
100
AcDbXrecord
280
     1
102
RTVSPropertyOp0
 70
     1
102
RTVSPropertyOp1
 70
     1
102
RTVSPropertyOp2
 70
     1
102
RTVSPropertyOp3
 70
     1
102
RTVSPropertyOp4
 70
     1
102
RTVSPropertyOp5
 70
     1
102
RTVSPropertyOp6
 70
     1
102
RTVSPropertyOp7
 70
     1
102
RTVSPropertyOp8
 70
     1
102
RTVSPropertyOp9
 70
     1
102
RTVSPropertyOp10
 70
     1
102
RTVSPropertyOp11
 70
     1
102
RTVSPropertyOp12
 70
     1
102
RTVSPropertyOp13
 70
     1
102
RTVSPropertyOp14
 70
     1
102
RTVSPropertyOp15
 70
     1
102
RTVSPropertyOp16
 70
     1
102
RTVSPropertyOp17
 70
     1
102
RTVSPropertyOp18
 70
     1
102
RTVSPropertyOp19
 70
     1
102
RTVSPropertyOp20
 70
     1
102
RTVSPropertyOp21
 70
     1
102
RTVSPropertyOp22
 70
     1
102
RTVSPropertyOp23
 70
     1
102
RTVSPropertyOp24
 70
     1
102
RTVSPropertyOp25
 70
     1
102
RTVSPropertyOp26
 70
     1
102
RTVSPropertyOp27
 70
     1
102
RTVSPropertyOp28
 70
     1
102
RTVSPropertyOp29
 70
     1
102
RTVSPropertyOp30
 70
     1
102
RTVSPropertyOp31
 70
     1
102
RTVSPropertyOp32
 70
     1
  0
XRECORD
  5
369
102
{ACAD_REACTORS
330
368
102
}
330
368
100
AcDbXrecord
280
     1
102
RTVSPropertyOp0
 70
     1
102
RTVSPropertyOp1
 70
     1
102
RTVSPropertyOp2
 70
     1
102
RTVSPropertyOp3
 70
     1
102
RTVSPropertyOp4
 70
     1
102
RTVSPropertyOp5
 70
     1
102
RTVSPropertyOp6
 70
     1
102
RTVSPropertyOp7
 70
     1
102
RTVSPropertyOp8
 70
     1
102
RTVSPropertyOp9
 70
     1
102
RTVSPropertyOp10
 70
     1
102
RTVSPropertyOp11
 70
     1
102
RTVSPropertyOp12
 70
     1
102
RTVSPropertyOp13
 70
     1
102
RTVSPropertyOp14
 70
     1
102
RTVSPropertyOp15
 70
     1
102
RTVSPropertyOp16
 70
     1
102
RTVSPropertyOp17
 70
     1
102
RTVSPropertyOp18
 70
     1
102
RTVSPropertyOp19
 70
     1
102
RTVSPropertyOp20
 70
     1
102
RTVSPropertyOp21
 70
     1
102
RTVSPropertyOp22
 70
     1
102
RTVSPropertyOp23
 70
     1
102
RTVSPropertyOp24
 70
     1
102
RTVSPropertyOp25
 70
     1
102
RTVSPropertyOp26
 70
     1
102
RTVSPropertyOp27
 70
     1
102
RTVSPropertyOp28
 70
     1
102
RTVSPropertyOp29
 70
     1
102
RTVSPropertyOp30
 70
     1
102
RTVSPropertyOp31
 70
     1
102
RTVSPropertyOp32
 70
     1
  0
XRECORD
  5
36B
102
{ACAD_REACTORS
330
36A
102
}
330
36A
100
AcDbXrecord
280
     1
102
RTVSPropertyOp0
 70
     1
102
RTVSPropertyOp1
 70
     1
102
RTVSPropertyOp2
 70
     1
102
RTVSPropertyOp3
 70
     1
102
RTVSPropertyOp4
 70
     1
102
RTVSPropertyOp5
 70
     1
102
RTVSPropertyOp6
 70
     1
102
RTVSPropertyOp7
 70
     1
102
RTVSPropertyOp8
 70
     1
102
RTVSPropertyOp9
 70
     1
102
RTVSPropertyOp10
 70
     1
102
RTVSPropertyOp11
 70
     1
102
RTVSPropertyOp12
 70
     1
102
RTVSPropertyOp13
 70
     1
102
RTVSPropertyOp14
 70
     1
102
RTVSPropertyOp15
 70
     1
102
RTVSPropertyOp16
 70
     1
102
RTVSPropertyOp17
 70
     1
102
RTVSPropertyOp18
 70
     1
102
RTVSPropertyOp19
 70
     1
102
RTVSPropertyOp20
 70
     1
102
RTVSPropertyOp21
 70
     1
102
RTVSPropertyOp22
 70
     1
102
RTVSPropertyOp23
 70
     1
102
RTVSPropertyOp24
 70
     1
102
RTVSPropertyOp25
 70
     1
102
RTVSPropertyOp26
 70
     1
102
RTVSPropertyOp27
 70
     1
102
RTVSPropertyOp28
 70
     1
102
RTVSPropertyOp29
 70
     1
102
RTVSPropertyOp30
 70
     1
102
RTVSPropertyOp31
 70
     1
102
RTVSPropertyOp32
 70
     1
  0
XRECORD
  5
36D
102
{ACAD_REACTORS
330
36C
102
}
330
36C
100
AcDbXrecord
280
     1
102
RTVSPropertyOp0
 70
     1
102
RTVSPropertyOp1
 70
     1
102
RTVSPropertyOp2
 70
     1
102
RTVSPropertyOp3
 70
     1
102
RTVSPropertyOp4
 70
     1
102
RTVSPropertyOp5
 70
     1
102
RTVSPropertyOp6
 70
     1
102
RTVSPropertyOp7
 70
     1
102
RTVSPropertyOp8
 70
     1
102
RTVSPropertyOp9
 70
     1
102
RTVSPropertyOp10
 70
     1
102
RTVSPropertyOp11
 70
     1
102
RTVSPropertyOp12
 70
     1
102
RTVSPropertyOp13
 70
     1
102
RTVSPropertyOp14
 70
     1
102
RTVSPropertyOp15
 70
     1
102
RTVSPropertyOp16
 70
     1
102
RTVSPropertyOp17
 70
     1
102
RTVSPropertyOp18
 70
     1
102
RTVSPropertyOp19
 70
     1
102
RTVSPropertyOp20
 70
     1
102
RTVSPropertyOp21
 70
     1
102
RTVSPropertyOp22
 70
     1
102
RTVSPropertyOp23
 70
     1
102
RTVSPropertyOp24
 70
     1
102
RTVSPropertyOp25
 70
     1
102
RTVSPropertyOp26
 70
     1
102
RTVSPropertyOp27
 70
     1
102
RTVSPropertyOp28
 70
     1
102
RTVSPropertyOp29
 70
     1
102
RTVSPropertyOp30
 70
     1
102
RTVSPropertyOp31
 70
     1
102
RTVSPropertyOp32
 70
     1
  0
XRECORD
  5
375
102
{ACAD_REACTORS
330
374
102
}
330
374
100
AcDbXrecord
280
     1
102
RTVSPropertyOp0
 70
     1
102
RTVSPropertyOp1
 70
     1
102
RTVSPropertyOp2
 70
     1
102
RTVSPropertyOp3
 70
     1
102
RTVSPropertyOp4
 70
     1
102
RTVSPropertyOp5
 70
     1
102
RTVSPropertyOp6
 70
     1
102
RTVSPropertyOp7
 70
     1
102
RTVSPropertyOp8
 70
     1
102
RTVSPropertyOp9
 70
     1
102
RTVSPropertyOp10
 70
     1
102
RTVSPropertyOp11
 70
     1
102
RTVSPropertyOp12
 70
     1
102
RTVSPropertyOp13
 70
     1
102
RTVSPropertyOp14
 70
     1
102
RTVSPropertyOp15
 70
     1
102
RTVSPropertyOp16
 70
     1
102
RTVSPropertyOp17
 70
     1
102
RTVSPropertyOp18
 70
     1
102
RTVSPropertyOp19
 70
     1
102
RTVSPropertyOp20
 70
     1
102
RTVSPropertyOp21
 70
     1
102
RTVSPropertyOp22
 70
     1
102
RTVSPropertyOp23
 70
     1
102
RTVSPropertyOp24
 70
     1
102
RTVSPropertyOp25
 70
     1
102
RTVSPropertyOp26
 70
     1
102
RTVSPropertyOp27
 70
     1
102
RTVSPropertyOp28
 70
     1
102
RTVSPropertyOp29
 70
     1
102
RTVSPropertyOp30
 70
     1
102
RTVSPropertyOp31
 70
     1
102
RTVSPropertyOp32
 70
     1
  0
XRECORD
  5
391
102
{ACAD_REACTORS
330
390
102
}
330
390
100
AcDbXrecord
280
     1
102
RTVSPropertyOp0
 70
     0
102
RTVSPropertyOp1
 70
     0
102
RTVSPropertyOp2
 70
     0
102
RTVSPropertyOp3
 70
     0
102
RTVSPropertyOp4
 70
     0
102
RTVSPropertyOp5
 70
     0
102
RTVSPropertyOp6
 70
     0
102
RTVSPropertyOp7
 70
     0
102
RTVSPropertyOp8
 70
     0
102
RTVSPropertyOp9
 70
     0
102
RTVSPropertyOp10
 70
     0
102
RTVSPropertyOp11
 70
     0
102
RTVSPropertyOp12
 70
     0
102
RTVSPropertyOp13
 70
     0
102
RTVSPropertyOp14
 70
     2
102
RTVSPropertyOp15
 70
     0
102
RTVSPropertyOp16
 70
     0
102
RTVSPropertyOp17
 70
     0
102
RTVSPropertyOp18
 70
     0
102
RTVSPropertyOp19
 70
     0
102
RTVSPropertyOp20
 70
     0
102
RTVSPropertyOp21
 70
     0
102
RTVSPropertyOp22
 70
     0
102
RTVSPropertyOp23
 70
     0
102
RTVSPropertyOp24
 70
     0
102
RTVSPropertyOp25
 70
     0
102
RTVSPropertyOp26
 70
     0
102
RTVSPropertyOp27
 70
     0
102
RTVSPropertyOp28
 70
     0
102
RTVSPropertyOp29
 70
     0
102
RTVSPropertyOp30
 70
     0
102
RTVSPropertyOp31
 70
     0
102
RTVSPropertyOp32
 70
     0
  0
XRECORD
  5
381
102
{ACAD_REACTORS
330
380
102
}
330
380
100
AcDbXrecord
280
     1
102
RTVSPropertyOp0
 70
     1
102
RTVSPropertyOp1
 70
     1
102
RTVSPropertyOp2
 70
     1
102
RTVSPropertyOp3
 70
     1
102
RTVSPropertyOp4
 70
     1
102
RTVSPropertyOp5
 70
     1
102
RTVSPropertyOp6
 70
     1
102
RTVSPropertyOp7
 70
     1
102
RTVSPropertyOp8
 70
     1
102
RTVSPropertyOp9
 70
     1
102
RTVSPropertyOp10
 70
     1
102
RTVSPropertyOp11
 70
     1
102
RTVSPropertyOp12
 70
     1
102
RTVSPropertyOp13
 70
     1
102
RTVSPropertyOp14
 70
     1
102
RTVSPropertyOp15
 70
     1
102
RTVSPropertyOp16
 70
     1
102
RTVSPropertyOp17
 70
     1
102
RTVSPropertyOp18
 70
     1
102
RTVSPropertyOp19
 70
     1
102
RTVSPropertyOp20
 70
     1
102
RTVSPropertyOp21
 70
     1
102
RTVSPropertyOp22
 70
     1
102
RTVSPropertyOp23
 70
     1
102
RTVSPropertyOp24
 70
     1
102
RTVSPropertyOp25
 70
     1
102
RTVSPropertyOp26
 70
     1
102
RTVSPropertyOp27
 70
     1
102
RTVSPropertyOp28
 70
     1
102
RTVSPropertyOp29
 70
     1
102
RTVSPropertyOp30
 70
     1
102
RTVSPropertyOp31
 70
     1
102
RTVSPropertyOp32
 70
     1
  0
XRECORD
  5
393
102
{ACAD_REACTORS
330
392
102
}
330
392
100
AcDbXrecord
280
     1
102
RTVSPropertyOp0
 70
     0
102
RTVSPropertyOp1
 70
     0
102
RTVSPropertyOp2
 70
     0
102
RTVSPropertyOp3
 70
     0
102
RTVSPropertyOp4
 70
     0
102
RTVSPropertyOp5
 70
     0
102
RTVSPropertyOp6
 70
     0
102
RTVSPropertyOp7
 70
     0
102
RTVSPropertyOp8
 70
     0
102
RTVSPropertyOp9
 70
     0
102
RTVSPropertyOp10
 70
     0
102
RTVSPropertyOp11
 70
     0
102
RTVSPropertyOp12
 70
     0
102
RTVSPropertyOp13
 70
     0
102
RTVSPropertyOp14
 70
     2
102
RTVSPropertyOp15
 70
     0
102
RTVSPropertyOp16
 70
     0
102
RTVSPropertyOp17
 70
     0
102
RTVSPropertyOp18
 70
     0
102
RTVSPropertyOp19
 70
     0
102
RTVSPropertyOp20
 70
     0
102
RTVSPropertyOp21
 70
     0
102
RTVSPropertyOp22
 70
     0
102
RTVSPropertyOp23
 70
     0
102
RTVSPropertyOp24
 70
     0
102
RTVSPropertyOp25
 70
     0
102
RTVSPropertyOp26
 70
     0
102
RTVSPropertyOp27
 70
     0
102
RTVSPropertyOp28
 70
     0
102
RTVSPropertyOp29
 70
     0
102
RTVSPropertyOp30
 70
     0
102
RTVSPropertyOp31
 70
     0
102
RTVSPropertyOp32
 70
     0
  0
XRECORD
  5
379
102
{ACAD_REACTORS
330
378
102
}
330
378
100
AcDbXrecord
280
     1
102
RTVSPropertyOp0
 70
     1
102
RTVSPropertyOp1
 70
     1
102
RTVSPropertyOp2
 70
     1
102
RTVSPropertyOp3
 70
     1
102
RTVSPropertyOp4
 70
     1
102
RTVSPropertyOp5
 70
     1
102
RTVSPropertyOp6
 70
     1
102
RTVSPropertyOp7
 70
     1
102
RTVSPropertyOp8
 70
     1
102
RTVSPropertyOp9
 70
     1
102
RTVSPropertyOp10
 70
     1
102
RTVSPropertyOp11
 70
     1
102
RTVSPropertyOp12
 70
     1
102
RTVSPropertyOp13
 70
     1
102
RTVSPropertyOp14
 70
     1
102
RTVSPropertyOp15
 70
     1
102
RTVSPropertyOp16
 70
     1
102
RTVSPropertyOp17
 70
     1
102
RTVSPropertyOp18
 70
     1
102
RTVSPropertyOp19
 70
     1
102
RTVSPropertyOp20
 70
     1
102
RTVSPropertyOp21
 70
     1
102
RTVSPropertyOp22
 70
     1
102
RTVSPropertyOp23
 70
     1
102
RTVSPropertyOp24
 70
     1
102
RTVSPropertyOp25
 70
     1
102
RTVSPropertyOp26
 70
     1
102
RTVSPropertyOp27
 70
     1
102
RTVSPropertyOp28
 70
     1
102
RTVSPropertyOp29
 70
     1
102
RTVSPropertyOp30
 70
     1
102
RTVSPropertyOp31
 70
     1
102
RTVSPropertyOp32
 70
     1
  0
XRECORD
  5
38F
102
{ACAD_REACTORS
330
38E
102
}
330
38E
100
AcDbXrecord
280
     1
102
RTVSPropertyOp0
 70
     1
102
RTVSPropertyOp1
 70
     1
102
RTVSPropertyOp2
 70
     1
102
RTVSPropertyOp3
 70
     1
102
RTVSPropertyOp4
 70
     1
102
RTVSPropertyOp5
 70
     1
102
RTVSPropertyOp6
 70
     1
102
RTVSPropertyOp7
 70
     1
102
RTVSPropertyOp8
 70
     1
102
RTVSPropertyOp9
 70
     1
102
RTVSPropertyOp10
 70
     1
102
RTVSPropertyOp11
 70
     1
102
RTVSPropertyOp12
 70
     1
102
RTVSPropertyOp13
 70
     1
102
RTVSPropertyOp14
 70
     1
102
RTVSPropertyOp15
 70
     1
102
RTVSPropertyOp16
 70
     1
102
RTVSPropertyOp17
 70
     1
102
RTVSPropertyOp18
 70
     1
102
RTVSPropertyOp19
 70
     1
102
RTVSPropertyOp20
 70
     1
102
RTVSPropertyOp21
 70
     1
102
RTVSPropertyOp22
 70
     1
102
RTVSPropertyOp23
 70
     1
102
RTVSPropertyOp24
 70
     1
102
RTVSPropertyOp25
 70
     1
102
RTVSPropertyOp26
 70
     1
102
RTVSPropertyOp27
 70
     1
102
RTVSPropertyOp28
 70
     1
102
RTVSPropertyOp29
 70
     1
102
RTVSPropertyOp30
 70
     1
102
RTVSPropertyOp31
 70
     1
102
RTVSPropertyOp32
 70
     1
  0
XRECORD
  5
38D
102
{ACAD_REACTORS
330
38C
102
}
330
38C
100
AcDbXrecord
280
     1
102
RTVSPropertyOp0
 70
     1
102
RTVSPropertyOp1
 70
     1
102
RTVSPropertyOp2
 70
     1
102
RTVSPropertyOp3
 70
     1
102
RTVSPropertyOp4
 70
     1
102
RTVSPropertyOp5
 70
     1
102
RTVSPropertyOp6
 70
     1
102
RTVSPropertyOp7
 70
     1
102
RTVSPropertyOp8
 70
     1
102
RTVSPropertyOp9
 70
     1
102
RTVSPropertyOp10
 70
     1
102
RTVSPropertyOp11
 70
     1
102
RTVSPropertyOp12
 70
     1
102
RTVSPropertyOp13
 70
     1
102
RTVSPropertyOp14
 70
     1
102
RTVSPropertyOp15
 70
     1
102
RTVSPropertyOp16
 70
     1
102
RTVSPropertyOp17
 70
     1
102
RTVSPropertyOp18
 70
     1
102
RTVSPropertyOp19
 70
     1
102
RTVSPropertyOp20
 70
     1
102
RTVSPropertyOp21
 70
     1
102
RTVSPropertyOp22
 70
     1
102
RTVSPropertyOp23
 70
     1
102
RTVSPropertyOp24
 70
     1
102
RTVSPropertyOp25
 70
     1
102
RTVSPropertyOp26
 70
     1
102
RTVSPropertyOp27
 70
     1
102
RTVSPropertyOp28
 70
     1
102
RTVSPropertyOp29
 70
     1
102
RTVSPropertyOp30
 70
     1
102
RTVSPropertyOp31
 70
     1
102
RTVSPropertyOp32
 70
     1
  0
XRECORD
  5
387
102
{ACAD_REACTORS
330
386
102
}
330
386
100
AcDbXrecord
280
     1
102
RTVSPropertyOp0
 70
     1
102
RTVSPropertyOp1
 70
     1
102
RTVSPropertyOp2
 70
     1
102
RTVSPropertyOp3
 70
     1
102
RTVSPropertyOp4
 70
     1
102
RTVSPropertyOp5
 70
     1
102
RTVSPropertyOp6
 70
     1
102
RTVSPropertyOp7
 70
     1
102
RTVSPropertyOp8
 70
     1
102
RTVSPropertyOp9
 70
     1
102
RTVSPropertyOp10
 70
     1
102
RTVSPropertyOp11
 70
     1
102
RTVSPropertyOp12
 70
     1
102
RTVSPropertyOp13
 70
     1
102
RTVSPropertyOp14
 70
     1
102
RTVSPropertyOp15
 70
     1
102
RTVSPropertyOp16
 70
     1
102
RTVSPropertyOp17
 70
     1
102
RTVSPropertyOp18
 70
     1
102
RTVSPropertyOp19
 70
     1
102
RTVSPropertyOp20
 70
     1
102
RTVSPropertyOp21
 70
     1
102
RTVSPropertyOp22
 70
     1
102
RTVSPropertyOp23
 70
     1
102
RTVSPropertyOp24
 70
     1
102
RTVSPropertyOp25
 70
     1
102
RTVSPropertyOp26
 70
     1
102
RTVSPropertyOp27
 70
     1
102
RTVSPropertyOp28
 70
     1
102
RTVSPropertyOp29
 70
     1
102
RTVSPropertyOp30
 70
     1
102
RTVSPropertyOp31
 70
     1
102
RTVSPropertyOp32
 70
     1
  0
XRECORD
  5
389
102
{ACAD_REACTORS
330
388
102
}
330
388
100
AcDbXrecord
280
     1
102
RTVSPropertyOp0
 70
     1
102
RTVSPropertyOp1
 70
     1
102
RTVSPropertyOp2
 70
     1
102
RTVSPropertyOp3
 70
     1
102
RTVSPropertyOp4
 70
     1
102
RTVSPropertyOp5
 70
     1
102
RTVSPropertyOp6
 70
     1
102
RTVSPropertyOp7
 70
     1
102
RTVSPropertyOp8
 70
     1
102
RTVSPropertyOp9
 70
     1
102
RTVSPropertyOp10
 70
     1
102
RTVSPropertyOp11
 70
     1
102
RTVSPropertyOp12
 70
     1
102
RTVSPropertyOp13
 70
     1
102
RTVSPropertyOp14
 70
     1
102
RTVSPropertyOp15
 70
     1
102
RTVSPropertyOp16
 70
     1
102
RTVSPropertyOp17
 70
     1
102
RTVSPropertyOp18
 70
     1
102
RTVSPropertyOp19
 70
     1
102
RTVSPropertyOp20
 70
     1
102
RTVSPropertyOp21
 70
     1
102
RTVSPropertyOp22
 70
     1
102
RTVSPropertyOp23
 70
     1
102
RTVSPropertyOp24
 70
     1
102
RTVSPropertyOp25
 70
     1
102
RTVSPropertyOp26
 70
     1
102
RTVSPropertyOp27
 70
     1
102
RTVSPropertyOp28
 70
     1
102
RTVSPropertyOp29
 70
     1
102
RTVSPropertyOp30
 70
     1
102
RTVSPropertyOp31
 70
     1
102
RTVSPropertyOp32
 70
     1
  0
XRECORD
  5
37F
102
{ACAD_REACTORS
330
37E
102
}
330
37E
100
AcDbXrecord
280
     1
102
RTVSPropertyOp0
 70
     1
102
RTVSPropertyOp1
 70
     1
102
RTVSPropertyOp2
 70
     1
102
RTVSPropertyOp3
 70
     1
102
RTVSPropertyOp4
 70
     1
102
RTVSPropertyOp5
 70
     1
102
RTVSPropertyOp6
 70
     1
102
RTVSPropertyOp7
 70
     1
102
RTVSPropertyOp8
 70
     1
102
RTVSPropertyOp9
 70
     1
102
RTVSPropertyOp10
 70
     1
102
RTVSPropertyOp11
 70
     1
102
RTVSPropertyOp12
 70
     1
102
RTVSPropertyOp13
 70
     1
102
RTVSPropertyOp14
 70
     1
102
RTVSPropertyOp15
 70
     1
102
RTVSPropertyOp16
 70
     1
102
RTVSPropertyOp17
 70
     1
102
RTVSPropertyOp18
 70
     1
102
RTVSPropertyOp19
 70
     1
102
RTVSPropertyOp20
 70
     1
102
RTVSPropertyOp21
 70
     1
102
RTVSPropertyOp22
 70
     1
102
RTVSPropertyOp23
 70
     1
102
RTVSPropertyOp24
 70
     1
102
RTVSPropertyOp25
 70
     1
102
RTVSPropertyOp26
 70
     1
102
RTVSPropertyOp27
 70
     1
102
RTVSPropertyOp28
 70
     1
102
RTVSPropertyOp29
 70
     1
102
RTVSPropertyOp30
 70
     1
102
RTVSPropertyOp31
 70
     1
102
RTVSPropertyOp32
 70
     1
  0
XRECORD
  5
373
102
{ACAD_REACTORS
330
372
102
}
330
372
100
AcDbXrecord
280
     1
102
RTVSPropertyOp0
 70
     1
102
RTVSPropertyOp1
 70
     1
102
RTVSPropertyOp2
 70
     1
102
RTVSPropertyOp3
 70
     1
102
RTVSPropertyOp4
 70
     1
102
RTVSPropertyOp5
 70
     1
102
RTVSPropertyOp6
 70
     1
102
RTVSPropertyOp7
 70
     1
102
RTVSPropertyOp8
 70
     1
102
RTVSPropertyOp9
 70
     1
102
RTVSPropertyOp10
 70
     1
102
RTVSPropertyOp11
 70
     1
102
RTVSPropertyOp12
 70
     1
102
RTVSPropertyOp13
 70
     1
102
RTVSPropertyOp14
 70
     1
102
RTVSPropertyOp15
 70
     1
102
RTVSPropertyOp16
 70
     1
102
RTVSPropertyOp17
 70
     1
102
RTVSPropertyOp18
 70
     1
102
RTVSPropertyOp19
 70
     1
102
RTVSPropertyOp20
 70
     1
102
RTVSPropertyOp21
 70
     1
102
RTVSPropertyOp22
 70
     1
102
RTVSPropertyOp23
 70
     1
102
RTVSPropertyOp24
 70
     1
102
RTVSPropertyOp25
 70
     1
102
RTVSPropertyOp26
 70
     1
102
RTVSPropertyOp27
 70
     1
102
RTVSPropertyOp28
 70
     1
102
RTVSPropertyOp29
 70
     1
102
RTVSPropertyOp30
 70
     1
102
RTVSPropertyOp31
 70
     1
102
RTVSPropertyOp32
 70
     1
  0
XRECORD
  5
38B
102
{ACAD_REACTORS
330
38A
102
}
330
38A
100
AcDbXrecord
280
     1
102
RTVSPropertyOp0
 70
     1
102
RTVSPropertyOp1
 70
     1
102
RTVSPropertyOp2
 70
     1
102
RTVSPropertyOp3
 70
     1
102
RTVSPropertyOp4
 70
     1
102
RTVSPropertyOp5
 70
     1
102
RTVSPropertyOp6
 70
     1
102
RTVSPropertyOp7
 70
     1
102
RTVSPropertyOp8
 70
     1
102
RTVSPropertyOp9
 70
     1
102
RTVSPropertyOp10
 70
     1
102
RTVSPropertyOp11
 70
     1
102
RTVSPropertyOp12
 70
     1
102
RTVSPropertyOp13
 70
     1
102
RTVSPropertyOp14
 70
     1
102
RTVSPropertyOp15
 70
     1
102
RTVSPropertyOp16
 70
     1
102
RTVSPropertyOp17
 70
     1
102
RTVSPropertyOp18
 70
     1
102
RTVSPropertyOp19
 70
     1
102
RTVSPropertyOp20
 70
     1
102
RTVSPropertyOp21
 70
     1
102
RTVSPropertyOp22
 70
     1
102
RTVSPropertyOp23
 70
     1
102
RTVSPropertyOp24
 70
     1
102
RTVSPropertyOp25
 70
     1
102
RTVSPropertyOp26
 70
     1
102
RTVSPropertyOp27
 70
     1
102
RTVSPropertyOp28
 70
     1
102
RTVSPropertyOp29
 70
     1
102
RTVSPropertyOp30
 70
     1
102
RTVSPropertyOp31
 70
     1
102
RTVSPropertyOp32
 70
     1
  0
ENDSEC
  0
EOF
