  0
SECTION
  2
HEADER
  9
$ACADVER
  1
AC1015
  9
$ACADMAINTVER
 70
    20
  9
$DWGCODEPAGE
  3
ANSI_932
  9
$INSBASE
 10
0.0
 20
0.0
 30
0.0
  9
$EXTMIN
 10
99.70577505986398
 20
39.31878253048683
 30
0.0
  9
$EXTMAX
 10
309.705775059864
 20
336.3187825304868
 30
0.0
  9
$LIMMIN
 10
99.71911279122537
 20
39.30286153382088
  9
$LIMMAX
 10
309.6924404279441
 20
336.3346913678053
  9
$ORTHOMODE
 70
     0
  9
$REGENMODE
 70
     1
  9
$FILLMODE
 70
     1
  9
$QTEXTMODE
 70
     0
  9
$MIRRTEXT
 70
     0
  9
$LTSCALE
 40
1.0
  9
$ATTMODE
 70
     1
  9
$TEXTSIZE
 40
3.0
  9
$TRACEWID
 40
1.0
  9
$TEXTSTYLE
  7
ATOM
  9
$CLAYER
  8
text
  9
$CELTYPE
  6
ByLayer
  9
$CECOLOR
 62
   256
  9
$CELTSCALE
 40
1.0
  9
$DISPSILH
 70
     0
  9
$DIMSCALE
 40
0.0
  9
$DIMASZ
 40
2.0
  9
$DIMEXO
 40
2.0
  9
$DIMDLI
 40
7.0
  9
$DIMRND
 40
0.0
  9
$DIMDLE
 40
0.0
  9
$DIMEXE
 40
1.0
  9
$DIMTP
 40
0.1
  9
$DIMTM
 40
0.1
  9
$DIMTXT
 40
3.0
  9
$DIMCEN
 40
-2.5
  9
$DIMTSZ
 40
0.0
  9
$DIMTOL
 70
     0
  9
$DIMLIM
 70
     0
  9
$DIMTIH
 70
     0
  9
$DIMTOH
 70
     0
  9
$DIMSE1
 70
     0
  9
$DIMSE2
 70
     0
  9
$DIMTAD
 70
     1
  9
$DIMZIN
 70
     8
  9
$DIMBLK
  1
Open30
  9
$DIMASO
 70
     1
  9
$DIMSHO
 70
     1
  9
$DIMPOST
  1

  9
$DIMAPOST
  1

  9
$DIMALT
 70
     0
  9
$DIMALTD
 70
     3
  9
$DIMALTF
 40
0.03937007874016
  9
$DIMLFAC
 40
1.0
  9
$DIMTOFL
 70
     1
  9
$DIMTVP
 40
0.0
  9
$DIMTIX
 70
     0
  9
$DIMSOXD
 70
     0
  9
$DIMSAH
 70
     0
  9
$DIMBLK1
  1

  9
$DIMBLK2
  1

  9
$DIMSTYLE
  2
ATOM
  9
$DIMCLRD
 70
     0
  9
$DIMCLRE
 70
     0
  9
$DIMCLRT
 70
     3
  9
$DIMTFAC
 40
0.4999999999999998
  9
$DIMGAP
 40
0.625
  9
$DIMJUST
 70
     0
  9
$DIMSD1
 70
     0
  9
$DIMSD2
 70
     0
  9
$DIMTOLJ
 70
     0
  9
$DIMTZIN
 70
     8
  9
$DIMALTZ
 70
     0
  9
$DIMALTTZ
 70
     0
  9
$DIMUPT
 70
     0
  9
$DIMDEC
 70
     2
  9
$DIMTDEC
 70
     2
  9
$DIMALTU
 70
     2
  9
$DIMALTTD
 70
     3
  9
$DIMTXSTY
  7
ATOM
  9
$DIMAUNIT
 70
     0
  9
$DIMADEC
 70
     0
  9
$DIMALTRND
 40
0.0
  9
$DIMAZIN
 70
     0
  9
$DIMDSEP
 70
    46
  9
$DIMATFIT
 70
     0
  9
$DIMFRAC
 70
     2
  9
$DIMLDRBLK
  1
Open30
  9
$DIMLUNIT
 70
     2
  9
$DIMLWD
 70
    -2
  9
$DIMLWE
 70
    -2
  9
$DIMTMOVE
 70
     1
  9
$LUNITS
 70
     2
  9
$LUPREC
 70
     4
  9
$SKETCHINC
 40
1.0
  9
$FILLETRAD
 40
0.0
  9
$AUNITS
 70
     0
  9
$AUPREC
 70
     0
  9
$MENU
  1
.
  9
$ELEVATION
 40
0.0
  9
$PELEVATION
 40
0.0
  9
$THICKNESS
 40
0.0
  9
$LIMCHECK
 70
     0
  9
$CHAMFERA
 40
0.0
  9
$CHAMFERB
 40
0.0
  9
$CHAMFERC
 40
0.0
  9
$CHAMFERD
 40
0.0
  9
$SKPOLY
 70
     0
  9
$TDCREATE
 40
2455756.392186331
  9
$TDUCREATE
 40
2455756.017186331
  9
$TDUPDATE
 40
2457584.408898842
  9
$TDUUPDATE
 40
2457584.033898843
  9
$TDINDWG
 40
0.0010161806
  9
$TDUSRTIMER
 40
0.0010160069
  9
$USRTIMER
 70
     1
  9
$ANGBASE
 50
0.0
  9
$ANGDIR
 70
     0
  9
$PDMODE
 70
     0
  9
$PDSIZE
 40
0.0
  9
$PLINEWID
 40
0.0
  9
$SPLFRAME
 70
     0
  9
$SPLINETYPE
 70
     6
  9
$SPLINESEGS
 70
     8
  9
$HANDSEED
  5
5DB
  9
$SURFTAB1
 70
     6
  9
$SURFTAB2
 70
     6
  9
$SURFTYPE
 70
     6
  9
$SURFU
 70
     6
  9
$SURFV
 70
     6
  9
$UCSBASE
  2

  9
$UCSNAME
  2

  9
$UCSORG
 10
0.0
 20
0.0
 30
0.0
  9
$UCSXDIR
 10
1.0
 20
0.0
 30
0.0
  9
$UCSYDIR
 10
0.0
 20
1.0
 30
0.0
  9
$UCSORTHOREF
  2

  9
$UCSORTHOVIEW
 70
     0
  9
$UCSORGTOP
 10
0.0
 20
0.0
 30
0.0
  9
$UCSORGBOTTOM
 10
0.0
 20
0.0
 30
0.0
  9
$UCSORGLEFT
 10
0.0
 20
0.0
 30
0.0
  9
$UCSORGRIGHT
 10
0.0
 20
0.0
 30
0.0
  9
$UCSORGFRONT
 10
0.0
 20
0.0
 30
0.0
  9
$UCSORGBACK
 10
0.0
 20
0.0
 30
0.0
  9
$PUCSBASE
  2

  9
$PUCSNAME
  2

  9
$PUCSORG
 10
0.0
 20
0.0
 30
0.0
  9
$PUCSXDIR
 10
1.0
 20
0.0
 30
0.0
  9
$PUCSYDIR
 10
0.0
 20
1.0
 30
0.0
  9
$PUCSORTHOREF
  2

  9
$PUCSORTHOVIEW
 70
     0
  9
$PUCSORGTOP
 10
0.0
 20
0.0
 30
0.0
  9
$PUCSORGBOTTOM
 10
0.0
 20
0.0
 30
0.0
  9
$PUCSORGLEFT
 10
0.0
 20
0.0
 30
0.0
  9
$PUCSORGRIGHT
 10
0.0
 20
0.0
 30
0.0
  9
$PUCSORGFRONT
 10
0.0
 20
0.0
 30
0.0
  9
$PUCSORGBACK
 10
0.0
 20
0.0
 30
0.0
  9
$USERI1
 70
     0
  9
$USERI2
 70
     0
  9
$USERI3
 70
     0
  9
$USERI4
 70
     0
  9
$USERI5
 70
     0
  9
$USERR1
 40
0.0
  9
$USERR2
 40
0.0
  9
$USERR3
 40
0.0
  9
$USERR4
 40
0.0
  9
$USERR5
 40
0.0
  9
$WORLDVIEW
 70
     1
  9
$SHADEDGE
 70
     3
  9
$SHADEDIF
 70
    70
  9
$TILEMODE
 70
     1
  9
$MAXACTVP
 70
    64
  9
$PINSBASE
 10
0.0
 20
0.0
 30
0.0
  9
$PLIMCHECK
 70
     0
  9
$PEXTMIN
 10
1.000000000000000E+20
 20
1.000000000000000E+20
 30
1.000000000000000E+20
  9
$PEXTMAX
 10
-1.000000000000000E+20
 20
-1.000000000000000E+20
 30
-1.000000000000000E+20
  9
$PLIMMIN
 10
0.0
 20
0.0
  9
$PLIMMAX
 10
12.0
 20
9.0
  9
$UNITMODE
 70
     0
  9
$VISRETAIN
 70
     1
  9
$PLINEGEN
 70
     0
  9
$PSLTSCALE
 70
     1
  9
$TREEDEPTH
 70
  3020
  9
$CMLSTYLE
  2
Standard
  9
$CMLJUST
 70
     0
  9
$CMLSCALE
 40
10.0
  9
$PROXYGRAPHICS
 70
     1
  9
$MEASUREMENT
 70
     1
  9
$CELWEIGHT
370
    -1
  9
$ENDCAPS
280
     0
  9
$JOINSTYLE
280
     0
  9
$LWDISPLAY
290
     0
  9
$INSUNITS
 70
     4
  9
$HYPERLINKBASE
  1

  9
$STYLESHEET
  1

  9
$XEDIT
290
     1
  9
$CEPSNTYPE
380
     0
  9
$PSTYLEMODE
290
     0
  9
$FINGERPRINTGUID
  2
{4960F0C7-B997-4DC5-A91A-4B216C466710}
  9
$VERSIONGUID
  2
{93F50B5A-5A95-4DA1-95EA-C5BF329EBC57}
  9
$EXTNAMES
290
     1
  9
$PSVPSCALE
 40
0.0
  9
$OLESTARTUP
290
     0
  0
ENDSEC
  0
SECTION
  2
CLASSES
  0
CLASS
  1
ACDBDICTIONARYWDFLT
  2
AcDbDictionaryWithDefault
  3
ObjectDBX Classes
 90
        0
280
     0
281
     0
  0
CLASS
  1
MATERIAL
  2
AcDbMaterial
  3
ObjectDBX Classes
 90
     1153
280
     0
281
     0
  0
CLASS
  1
VISUALSTYLE
  2
AcDbVisualStyle
  3
ObjectDBX Classes
 90
     4095
280
     0
281
     0
  0
CLASS
  1
SCALE
  2
AcDbScale
  3
ObjectDBX Classes
 90
     1153
280
     0
281
     0
  0
CLASS
  1
TABLESTYLE
  2
AcDbTableStyle
  3
ObjectDBX Classes
 90
     4095
280
     0
281
     0
  0
CLASS
  1
MLEADERSTYLE
  2
AcDbMLeaderStyle
  3
ACDB_MLEADERSTYLE_CLASS
 90
     4095
280
     0
281
     0
  0
CLASS
  1
ACDB_ALDIMOBJECTCONTEXTDATA_CLASS
  2
AcDbAlignedDimensionObjectContextData
  3
ObjectDBX Classes
 90
    33921
280
     0
281
     0
  0
CLASS
  1
ACDB_TEXTOBJECTCONTEXTDATA_CLASS
  2
AcDbTextObjectContextData
  3
ObjectDBX Classes
 90
    33921
280
     0
281
     0
  0
CLASS
  1
DIMASSOC
  2
AcDbDimAssoc
  3
"AcDbDimAssoc|Product Desc:     AcDim ARX App For Dimension|Company:          Autodesk, Inc.|WEB Address:      www.autodesk.com"
 90
        0
280
     0
281
     0
  0
CLASS
  1
MULTILEADER
  2
AcDbMLeader
  3
ACDB_MLEADER_CLASS
 90
     1025
280
     0
281
     1
  0
CLASS
  1
ACDB_MLEADEROBJECTCONTEXTDATA_CLASS
  2
AcDbMLeaderObjectContextData
  3
ObjectDBX Classes
 90
    33921
280
     0
281
     0
  0
CLASS
  1
SORTENTSTABLE
  2
AcDbSortentsTable
  3
ObjectDBX Classes
 90
        0
280
     0
281
     0
  0
CLASS
  1
ACDB_MTEXTATTRIBUTEOBJECTCONTEXTDATA_CLASS
  2
AcDbMTextAttributeObjectContextData
  3
ObjectDBX Classes
 90
     1153
280
     0
281
     0
  0
CLASS
  1
DICTIONARYVAR
  2
AcDbDictionaryVar
  3
ObjectDBX Classes
 90
        0
280
     0
281
     0
  0
CLASS
  1
CELLSTYLEMAP
  2
AcDbCellStyleMap
  3
ObjectDBX Classes
 90
     1152
280
     0
281
     0
  0
CLASS
  1
ACDBPLACEHOLDER
  2
AcDbPlaceHolder
  3
ObjectDBX Classes
 90
        0
280
     0
281
     0
  0
CLASS
  1
LAYOUT
  2
AcDbLayout
  3
ObjectDBX Classes
 90
        0
280
     0
281
     0
  0
ENDSEC
  0
SECTION
  2
TABLES
  0
TABLE
  2
VPORT
  5
8
330
0
100
AcDbSymbolTable
 70
     1
  0
VPORT
  5
52
330
8
100
AcDbSymbolTableRecord
100
AcDbViewportTableRecord
  2
*Active
 70
     0
 10
0.0
 20
0.0
 11
1.0
 21
1.0
 12
239.25189177403
 22
202.2368844679034
 13
0.0
 23
0.0
 14
10.0
 24
10.0
 15
10.0
 25
10.0
 16
0.0
 26
0.0
 36
1.0
 17
0.0
 27
0.0
 37
0.0
 40
143.363228721745
 41
2.023923444976076
 42
50.0
 43
0.0
 44
0.0
 50
0.0
 51
0.0
 71
     0
 72
  1000
 73
     1
 74
     1
 75
     0
 76
     0
 77
     0
 78
     0
281
     0
 65
     1
110
0.0
120
0.0
130
0.0
111
1.0
121
0.0
131
0.0
112
0.0
122
1.0
132
0.0
 79
     0
146
0.0
1001
ACAD_NAV_VCDISPLAY
1070
     3
  0
ENDTAB
  0
TABLE
  2
LTYPE
  5
5
330
0
100
AcDbSymbolTable
 70
     5
  0
LTYPE
  5
56
330
5
100
AcDbSymbolTableRecord
100
AcDbLinetypeTableRecord
  2
ByBlock
 70
     0
  3

 72
    65
 73
     0
 40
0.0
  0
LTYPE
  5
57
330
5
100
AcDbSymbolTableRecord
100
AcDbLinetypeTableRecord
  2
ByLayer
 70
     0
  3

 72
    65
 73
     0
 40
0.0
  0
LTYPE
  5
58
330
5
100
AcDbSymbolTableRecord
100
AcDbLinetypeTableRecord
  2
Continuous
 70
     0
  3
Solid line
 72
    65
 73
     0
 40
0.0
  0
LTYPE
  5
75
330
5
100
AcDbSymbolTableRecord
100
AcDbLinetypeTableRecord
  2
JIS_08_15
 70
     0
  3
1SASEN15 ____ _ ____ _ ____ _ ____ _ ____
 72
    65
 73
     4
 40
17.25
 49
15.0
 74
     0
 49
-0.75
 74
     0
 49
0.75
 74
     0
 49
-0.75
 74
     0
  0
LTYPE
  5
76
330
5
100
AcDbSymbolTableRecord
100
AcDbLinetypeTableRecord
  2
CENTER
 70
     0
  3
Center ____ _ ____ _ ____ _ ____ _ ____ _ ____
 72
    65
 73
     4
 40
50.8
 49
31.75
 74
     0
 49
-6.349999999999998
 74
     0
 49
6.349999999999998
 74
     0
 49
-6.349999999999998
 74
     0
  0
LTYPE
  5
77
330
5
100
AcDbSymbolTableRecord
100
AcDbLinetypeTableRecord
  2
DASHED
 70
     0
  3
Dashed __ __ __ __ __ __ __ __ __ __ __ __ __ _
 72
    65
 73
     2
 40
19.05
 49
12.7
 74
     0
 49
-6.349999999999998
 74
     0
  0
LTYPE
  5
78
330
5
100
AcDbSymbolTableRecord
100
AcDbLinetypeTableRecord
  2
HIDDEN
 70
     0
  3
Hidden __ __ __ __ __ __ __ __ __ __ __ __ __ __
 72
    65
 73
     2
 40
9.525
 49
6.349999999999998
 74
     0
 49
-3.174999999999998
 74
     0
  0
ENDTAB
  0
TABLE
  2
LAYER
  5
2
330
0
100
AcDbSymbolTable
 70
     9
  0
LAYER
  5
4F
102
{ACAD_XDICTIONARY
360
549
102
}
330
2
100
AcDbSymbolTableRecord
100
AcDbLayerTableRecord
  2
0
 70
     0
 62
     7
  6
Continuous
370
    35
390
88
1001
AcAecLayerStandard
1000

1000

  0
LAYER
  5
70
330
2
100
AcDbSymbolTableRecord
100
AcDbLayerTableRecord
  2
Defpoints
 70
     0
 62
     7
  6
Continuous
290
     0
370
    -3
390
88
1001
AcAecLayerStandard
1000

1000

  0
LAYER
  5
9C
102
{ACAD_XDICTIONARY
360
9D
102
}
330
2
100
AcDbSymbolTableRecord
100
AcDbLayerTableRecord
  2
viewports
 70
     0
 62
     5
  6
Continuous
290
     0
370
    18
390
88
1001
AcAecLayerStandard
1000

1000

  0
LAYER
  5
A1
102
{ACAD_XDICTIONARY
360
A2
102
}
330
2
100
AcDbSymbolTableRecord
100
AcDbLayerTableRecord
  2
center
 70
     0
 62
     2
  6
JIS_08_15
370
    18
390
88
1001
AcAecLayerStandard
1000

1000

  0
LAYER
  5
A7
102
{ACAD_XDICTIONARY
360
A8
102
}
330
2
100
AcDbSymbolTableRecord
100
AcDbLayerTableRecord
  2
dim
 70
     0
 62
     2
  6
Continuous
370
    18
390
88
1001
AcAecLayerStandard
1000

1000

  0
LAYER
  5
146
102
{ACAD_XDICTIONARY
360
147
102
}
330
2
100
AcDbSymbolTableRecord
100
AcDbLayerTableRecord
  2
text
 70
     0
 62
     3
  6
Continuous
370
    18
390
88
1001
AcAecLayerStandard
1000

1000

  0
LAYER
  5
1B3
102
{ACAD_XDICTIONARY
360
1B4
102
}
330
2
100
AcDbSymbolTableRecord
100
AcDbLayerTableRecord
  2
neji
 70
     0
 62
     7
  6
Continuous
370
    18
390
88
1001
AcAecLayerStandard
1000

1000

  0
LAYER
  5
337
102
{ACAD_XDICTIONARY
360
338
102
}
330
2
100
AcDbSymbolTableRecord
100
AcDbLayerTableRecord
  2
flame
 70
     0
 62
     4
  6
Continuous
370
    18
390
88
1001
AcAecLayerStandard
1000

1000

  0
LAYER
  5
485
102
{ACAD_XDICTIONARY
360
54B
102
}
330
2
100
AcDbSymbolTableRecord
100
AcDbLayerTableRecord
  2
frame
 70
     0
 62
     4
  6
Continuous
370
    18
390
88
  0
ENDTAB
  0
TABLE
  2
STYLE
  5
3
330
0
100
AcDbSymbolTable
 70
     6
  0
STYLE
  5
50
330
3
100
AcDbSymbolTableRecord
100
AcDbTextStyleTableRecord
  2
Standard
 70
     0
 40
0.0
 41
1.0
 50
0.0
 71
     0
 42
2.5
  3
txt
  4

  0
STYLE
  5
55
330
3
100
AcDbSymbolTableRecord
100
AcDbTextStyleTableRecord
  2
Annotative
 70
     0
 40
0.0
 41
1.0
 50
0.0
 71
     0
 42
0.2
  3
txt
  4

1001
AcadAnnotative
1000
AnnotativeData
1002
{
1070
     1
1070
     1
1002
}
  0
STYLE
  5
71
330
3
100
AcDbSymbolTableRecord
100
AcDbTextStyleTableRecord
  2
ATOM
 70
     0
 40
0.0
 41
0.9
 50
0.0
 71
     0
 42
3.0
  3
txt.shx
  4
extfont.shx
1001
AcadAnnotative
1000
AnnotativeData
1002
{
1070
     1
1070
     1
1002
}
  0
STYLE
  5
72
330
3
100
AcDbSymbolTableRecord
100
AcDbTextStyleTableRecord
  2
MX_NOTE_STANDARD
 70
     0
 40
0.0
 41
1.0
 50
0.0
 71
     0
 42
3.2
  3
txt.shx
  4
extfont.shx
  0
STYLE
  5
73
330
3
100
AcDbSymbolTableRecord
100
AcDbTextStyleTableRecord
  2
MX_DIMTXSTY_2
 70
     0
 40
0.0
 41
1.35
 50
0.0
 71
     0
 42
3.2
  3
txt.shx
  4
extfont.shx
  0
STYLE
  5
74
330
3
100
AcDbSymbolTableRecord
100
AcDbTextStyleTableRecord
  2
MX_DIMTXSTY_3
 70
     0
 40
0.0
 41
1.199999999999999
 50
0.0
 71
     0
 42
3.2
  3
txt.shx
  4
extfont.shx
  0
ENDTAB
  0
TABLE
  2
VIEW
  5
6
330
0
100
AcDbSymbolTable
 70
     0
  0
ENDTAB
  0
TABLE
  2
UCS
  5
7
330
0
100
AcDbSymbolTable
 70
     0
  0
ENDTAB
  0
TABLE
  2
APPID
  5
9
330
0
100
AcDbSymbolTable
 70
    12
  0
APPID
  5
51
330
9
100
AcDbSymbolTableRecord
100
AcDbRegAppTableRecord
  2
ACAD
 70
     0
  0
APPID
  5
59
330
9
100
AcDbSymbolTableRecord
100
AcDbRegAppTableRecord
  2
AcadAnnotative
 70
     0
  0
APPID
  5
6F
330
9
100
AcDbSymbolTableRecord
100
AcDbRegAppTableRecord
  2
ACAD_PSEXT
 70
     0
  0
APPID
  5
82
330
9
100
AcDbSymbolTableRecord
100
AcDbRegAppTableRecord
  2
ACAD_DSTYLE_DIMBREAK
 70
     0
  0
APPID
  5
83
330
9
100
AcDbSymbolTableRecord
100
AcDbRegAppTableRecord
  2
ACAD_DSTYLE_DIMJAG
 70
     0
  0
APPID
  5
84
330
9
100
AcDbSymbolTableRecord
100
AcDbRegAppTableRecord
  2
ACAD_DSTYLE_DIMTALN
 70
     0
  0
APPID
  5
9F
330
9
100
AcDbSymbolTableRecord
100
AcDbRegAppTableRecord
  2
AcAecLayerStandard
 70
     0
  0
APPID
  5
33F
330
9
100
AcDbSymbolTableRecord
100
AcDbRegAppTableRecord
  2
AcDbBlockRepETag
 70
     0
  0
APPID
  5
41E
330
9
100
AcDbSymbolTableRecord
100
AcDbRegAppTableRecord
  2
AcDbDynamicBlockGUID
 70
     0
  0
APPID
  5
582
330
9
100
AcDbSymbolTableRecord
100
AcDbRegAppTableRecord
  2
ACAD_MLEADERVER
 70
     0
  0
APPID
  5
589
330
9
100
AcDbSymbolTableRecord
100
AcDbRegAppTableRecord
  2
AcDbAttr
 70
     0
  0
APPID
  5
59A
330
9
100
AcDbSymbolTableRecord
100
AcDbRegAppTableRecord
  2
ACAD_NAV_VCDISPLAY
 70
     0
  0
ENDTAB
  0
TABLE
  2
DIMSTYLE
  5
A
330
0
100
AcDbSymbolTable
 70
     4
100
AcDbDimStyleTable
 71
     1
340
7A
  0
DIMSTYLE
105
53
330
A
100
AcDbSymbolTableRecord
100
AcDbDimStyleTableRecord
  2
Standard
 70
     0
340
50
  0
DIMSTYLE
105
54
330
A
100
AcDbSymbolTableRecord
100
AcDbDimStyleTableRecord
  2
Annotative
 70
     0
340
50
1001
AcadAnnotative
1000
AnnotativeData
1002
{
1070
     1
1070
     1
1002
}
  0
DIMSTYLE
105
7A
330
A
100
AcDbSymbolTableRecord
100
AcDbDimStyleTableRecord
  2
ATOM
 70
     0
 40
0.0
 41
2.0
 42
2.0
 43
7.0
 44
1.0
 47
0.1
 48
0.1
 73
     0
 74
     0
 77
     1
 78
     8
140
3.0
141
-2.5
143
0.03937007874016
146
0.4999999999999998
147
0.625
171
     3
172
     1
178
     3
271
     2
272
     2
274
     3
276
     2
279
     1
283
     0
284
     8
289
     0
340
71
341
7C
342
7C
1001
ACAD_DSTYLE_DIMBREAK
1070
   391
1040
3.75
1001
AcadAnnotative
1000
AnnotativeData
1002
{
1070
     1
1070
     1
1002
}
1001
ACAD_DSTYLE_DIMJAG
1070
   388
1040
1.5
1001
ACAD_DSTYLE_DIMTALN
1070
   392
1070
     0
  0
DIMSTYLE
105
85
330
A
100
AcDbSymbolTableRecord
100
AcDbDimStyleTableRecord
  2
MXDIMSTYLE
 70
     0
 41
2.5
 42
1.0
 43
3.75
 44
2.286
 73
     0
 74
     0
 77
     1
 78
     8
140
3.2
141
2.5
143
0.03937
147
1.0
171
     4
172
     1
173
     1
274
     4
279
     2
284
     8
285
     8
286
     8
340
72
  0
ENDTAB
  0
TABLE
  2
BLOCK_RECORD
  5
1
330
0
100
AcDbSymbolTable
 70
    15
  0
BLOCK_RECORD
  5
67
102
{ACAD_XDICTIONARY
360
334
102
}
330
1
100
AcDbSymbolTableRecord
100
AcDbBlockTableRecord
  2
*Model_Space
340
6A
  0
BLOCK_RECORD
  5
63
330
1
100
AcDbSymbolTableRecord
100
AcDbBlockTableRecord
  2
*Paper_Space
340
66
  0
BLOCK_RECORD
  5
6B
330
1
100
AcDbSymbolTableRecord
100
AcDbBlockTableRecord
  2
*Paper_Space0
340
6E
  0
BLOCK_RECORD
  5
7C
330
1
100
AcDbSymbolTableRecord
100
AcDbBlockTableRecord
  2
_Open30
340
0
310
2800000020000000200000000100080000000000000400000000000000000000000000000000000000000000000080000080000000808000800000008000800080800000C0C0C000C0DCC000F0CAA6000020400000206000002080000020A0000020C0000020E00000400000004020000040400000406000004080000040A0
310
000040C0000040E00000600000006020000060400000606000006080000060A0000060C0000060E00000800000008020000080400000806000008080000080A0000080C0000080E00000A0000000A0200000A0400000A0600000A0800000A0A00000A0C00000A0E00000C0000000C0200000C0400000C0600000C0800000C0
310
A00000C0C00000C0E00000E0000000E0200000E0400000E0600000E0800000E0A00000E0C00000E0E00040000000400020004000400040006000400080004000A0004000C0004000E00040200000402020004020400040206000402080004020A0004020C0004020E000404000004040200040404000404060004040800040
310
40A0004040C0004040E00040600000406020004060400040606000406080004060A0004060C0004060E00040800000408020004080400040806000408080004080A0004080C0004080E00040A0000040A0200040A0400040A0600040A0800040A0A00040A0C00040A0E00040C0000040C0200040C0400040C0600040C08000
310
40C0A00040C0C00040C0E00040E0000040E0200040E0400040E0600040E0800040E0A00040E0C00040E0E00080000000800020008000400080006000800080008000A0008000C0008000E00080200000802020008020400080206000802080008020A0008020C0008020E00080400000804020008040400080406000804080
310
008040A0008040C0008040E00080600000806020008060400080606000806080008060A0008060C0008060E00080800000808020008080400080806000808080008080A0008080C0008080E00080A0000080A0200080A0400080A0600080A0800080A0A00080A0C00080A0E00080C0000080C0200080C0400080C0600080C0
310
800080C0A00080C0C00080C0E00080E0000080E0200080E0400080E0600080E0800080E0A00080E0C00080E0E000C0000000C0002000C0004000C0006000C0008000C000A000C000C000C000E000C0200000C0202000C0204000C0206000C0208000C020A000C020C000C020E000C0400000C0402000C0404000C0406000C0
310
408000C040A000C040C000C040E000C0600000C0602000C0604000C0606000C0608000C060A000C060C000C060E000C0800000C0802000C0804000C0806000C0808000C080A000C080C000C080E000C0A00000C0A02000C0A04000C0A06000C0A08000C0A0A000C0A0C000C0A0E000C0C00000C0C02000C0C04000C0C06000
310
C0C08000C0C0A000F0FBFF00A4A0A000808080000000FF0000FF000000FFFF00FF000000FF00FF00FFFF0000FFFFFF0000000000000000000000000000000000000000000000000000000000000000000000000000000000000000000000000000000000000000000000000000000000000000000000000000000000000000
310
00000000000000000000000000000000000000000000000000000000000000000000000000000000000000000000000000000000000000000000000000000000000000000000000000000000000000000000000000000000000000000000000000000000000000000000000000000000000000000000000000000000000000
310
000000000000000000000000000000000000000000000000000000000000000000000000000000000000000000000000000000FFFF0000000000000000000000000000000000000000000000000000000000000000FFFFFFFF0000000000000000000000000000000000000000000000000000000000000000FFFFFFFF0000
310
000000000000000000000000000000000000000000000000000000000000FFFFFF0000000000000000000000000000000000000000000000000000000000000000FFFFFFFF0000000000000000000000000000000000000000000000000000000000000000FFFFFF0000000000000000000000000000000000000000000000
310
000000000000000000FFFFFFFF0000000000000000000000000000000000000000000000000000000000000000FFFFFFFF00000000FFFFFFFFFFFFFFFFFFFFFFFFFFFFFFFFFFFFFFFFFFFFFFFFFFFFFFFFFFFF00000000000000000000000000000000000000000000000000FFFFFFFF000000000000000000000000000000
310
000000000000000000FFFFFFFF000000000000000000000000000000000000000000000000FFFFFFFF000000000000000000000000000000000000000000000000FFFFFFFF000000000000000000000000000000000000000000000000FFFFFFFF000000000000000000000000000000000000000000000000FFFFFFFF0000
310
0000000000000000000000000000000000000000000000FFFFFF0000000000000000000000000000000000000000000000000000000000000000000000000000000000000000000000000000000000000000000000000000000000000000000000000000000000000000000000000000000000000000000000000000000000
310
00000000000000000000000000000000000000000000000000000000000000000000000000000000000000000000000000000000000000000000000000000000000000000000000000000000000000000000000000000000000000000000000000000000000000000000000000000000000000000000000000000000000000
310
0000000000000000000000000000000000000000000000000000000000000000000000000000000000000000000000000000000000000000
102
{BLKREFS
331
4F8
331
4F9
331
501
331
502
331
50A
331
50B
331
513
331
514
331
51C
331
51D
331
525
331
526
331
52E
331
52F
331
537
331
538
102
}
  0
BLOCK_RECORD
  5
1D7
330
1
100
AcDbSymbolTableRecord
100
AcDbBlockTableRecord
  2
_TagCircle
340
0
1001
ACAD
1000
DesignCenter Data
1002
{
1070
     1
1070
     4
1002
}
  0
BLOCK_RECORD
  5
1F8
330
1
100
AcDbSymbolTableRecord
100
AcDbBlockTableRecord
  2
*D3
340
0
  0
BLOCK_RECORD
  5
204
330
1
100
AcDbSymbolTableRecord
100
AcDbBlockTableRecord
  2
*D4
340
0
  0
BLOCK_RECORD
  5
210
330
1
100
AcDbSymbolTableRecord
100
AcDbBlockTableRecord
  2
*D5
340
0
  0
BLOCK_RECORD
  5
21C
330
1
100
AcDbSymbolTableRecord
100
AcDbBlockTableRecord
  2
*D6
340
0
  0
BLOCK_RECORD
  5
228
330
1
100
AcDbSymbolTableRecord
100
AcDbBlockTableRecord
  2
*D7
340
0
  0
BLOCK_RECORD
  5
236
330
1
100
AcDbSymbolTableRecord
100
AcDbBlockTableRecord
  2
*D8
340
0
  0
BLOCK_RECORD
  5
242
330
1
100
AcDbSymbolTableRecord
100
AcDbBlockTableRecord
  2
*D9
340
0
  0
BLOCK_RECORD
  5
24E
330
1
100
AcDbSymbolTableRecord
100
AcDbBlockTableRecord
  2
*D10
340
0
  0
BLOCK_RECORD
  5
33A
102
{ACAD_XDICTIONARY
360
33B
102
}
330
1
100
AcDbSymbolTableRecord
100
AcDbBlockTableRecord
  2
ATOM_A4T_zuwaku
340
0
1001
AcDbDynamicBlockGUID
1000
{B9C2F380-7588-499F-A218-AE65411906E4}
1001
AcDbBlockRepETag
1070
     1
1071
      214
1001
ACAD
1000
DesignCenter Data
1002
{
1070
     1
1070
     4
1002
}
  0
BLOCK_RECORD
  5
43B
102
{ACAD_XDICTIONARY
360
43C
102
}
330
1
100
AcDbSymbolTableRecord
100
AcDbBlockTableRecord
  2
部品表
340
0
310
2800000020000000200000000100080000000000000400000000000000000000000000000000000000000000000080000080000000808000800000008000800080800000C0C0C000C0DCC000F0CAA6000020400000206000002080000020A0000020C0000020E00000400000004020000040400000406000004080000040A0
310
000040C0000040E00000600000006020000060400000606000006080000060A0000060C0000060E00000800000008020000080400000806000008080000080A0000080C0000080E00000A0000000A0200000A0400000A0600000A0800000A0A00000A0C00000A0E00000C0000000C0200000C0400000C0600000C0800000C0
310
A00000C0C00000C0E00000E0000000E0200000E0400000E0600000E0800000E0A00000E0C00000E0E00040000000400020004000400040006000400080004000A0004000C0004000E00040200000402020004020400040206000402080004020A0004020C0004020E000404000004040200040404000404060004040800040
310
40A0004040C0004040E00040600000406020004060400040606000406080004060A0004060C0004060E00040800000408020004080400040806000408080004080A0004080C0004080E00040A0000040A0200040A0400040A0600040A0800040A0A00040A0C00040A0E00040C0000040C0200040C0400040C0600040C08000
310
40C0A00040C0C00040C0E00040E0000040E0200040E0400040E0600040E0800040E0A00040E0C00040E0E00080000000800020008000400080006000800080008000A0008000C0008000E00080200000802020008020400080206000802080008020A0008020C0008020E00080400000804020008040400080406000804080
310
008040A0008040C0008040E00080600000806020008060400080606000806080008060A0008060C0008060E00080800000808020008080400080806000808080008080A0008080C0008080E00080A0000080A0200080A0400080A0600080A0800080A0A00080A0C00080A0E00080C0000080C0200080C0400080C0600080C0
310
800080C0A00080C0C00080C0E00080E0000080E0200080E0400080E0600080E0800080E0A00080E0C00080E0E000C0000000C0002000C0004000C0006000C0008000C000A000C000C000C000E000C0200000C0202000C0204000C0206000C0208000C020A000C020C000C020E000C0400000C0402000C0404000C0406000C0
310
408000C040A000C040C000C040E000C0600000C0602000C0604000C0606000C0608000C060A000C060C000C060E000C0800000C0802000C0804000C0806000C0808000C080A000C080C000C080E000C0A00000C0A02000C0A04000C0A06000C0A08000C0A0A000C0A0C000C0A0E000C0C00000C0C02000C0C04000C0C06000
310
C0C08000C0C0A000F0FBFF00A4A0A000808080000000FF0000FF000000FFFF00FF000000FF00FF00FFFF0000FFFFFF00FFFFFFFFFFFFFFFFFFFFFFFFFFFFFFFFFFFFFFFFFFFFFFFFFFFFFFFFFFFFFFFFFFFFFFFFFFFFFFFFFFFFFFFFFFFFFFFFFFFFFFFFFFFFFFFFFFFFFFFFFFFFFFFFFFFFFFFFFFFFFFFFFFFFFFFFFFFFFF
310
FFFFFFFFFFFFFFFFFFFFFFFFFFFFFFFFFFFFFFFFFFFFFFFFFFFFFFFFFFFFFFFFFFFFFFFFFFFFFFFFFFFFFFFFFFFFFFFFFFFFFFFFFFFFFFFFFFFFFFFFFFFFFFFFFFFFFFFFFFFFFFFFFFFFFFFFFFFFFFFFFFFFFFFFFFFFFFFFFFFFFFFFFFFFFFFFFFFFFFFFFFFFFFFFFFFFFFFFFFFFFFFFFFFFFFFFFFFFFFFFFFFFFFFFFFFFFF
310
FFFFFFFFFFFFFFFFFFFFFFFFFFFFFFFFFFFFFFFFFFFFFFFFFFFFFFFFFFFFFFFFFFFFFFFFFFFFFFFFFFFFFFFFFFFFFFFFFFFFFFFFFFFFFFFFFFFFFFFFFFFFFFFFFFFFFFFFFFFFFFFFFFFFFFFFFFFFFFFFFFFFFFFFFFFFFFFFFFFFFFFFFFFFFFFFFFFFFFFFFFFFFFFFFFFFFFFFFFFFFFFFFFFFFFFFFFFFFFFFFFFFFFFFFFFFFF
310
FFFFFFFFFFFFFFFFFFFFFFFFFFFFFFFFFFFFFFFFFFFFFFFFFFFFFFFFFFFFFFFFFFFFFFFFFFFFFFFFFFFFFFFFFFFFFFFFFFFFFFFFFFFFFFFFFFFFFFFFFFFFFFFFFFFFFFFFFFFFFFFFFFFFFFFFFFFFFFFFFFFFFFFFFFFFFFFFFFFFFFFFFFFFFFFFFFFFFFFFFFFFFFFFFFFFFFFFFFFFFFFFFFFFFFFFFFFFFFFFFFFFFFFFFFFFFF
310
FFFFFFFFFFFFFFFFFFFFFFFFFFFFFFFFFFFFFFFFFFFEFEFFFEFFFEFEFFFEFEFEFEFEFEFEFEFEFEFEFEFEFEFEFFFEFEFEFEFFFFFFFFFEFEFEFEFEFEFEFEFEFEFEFEFEFEFEFEFEFEFEFEFEFEFEFEFEFEFEFEFEFEFFFFFFFFFFFFFFFFFFFFFFFFFFFFFFFFFFFFFFFFFFFFFFFFFFFFFFFFFFFFFFFFFFFFFFFFFFFFFFFFFFFFFFFF
310
FFFFFFFFFFFFFFFFFFFFFFFFFFFFFFFFFFFFFFFFFFFFFFFFFFFFFFFFFFFFFFFFFFFFFFFFFFFFFFFFFFFFFFFFFFFFFFFFFFFFFFFFFFFFFFFFFFFFFFFFFFFFFFFFFFFFFFFFFFFFFFFFFFFFFFFFFFFFFFFFFFFFFFFFFFFFFFFFFFFFFFFFFFFFFFFFFFFFFFFFFFFFFFFFFFFFFFFFFFFFFFFFFFFFFFFFFFFFFFFFFFFFFFFFFFFFFF
310
FFFFFFFFFFFFFFFFFFFFFFFFFFFFFFFFFFFFFFFFFFFFFFFFFFFFFFFFFFFFFFFFFFFFFFFFFFFFFFFFFFFFFFFFFFFFFFFFFFFFFFFFFFFFFFFFFFFFFFFFFFFFFFFFFFFFFFFFFFFFFFFFFFFFFFFFFFFFFFFFFFFFFFFFFFFFFFFFFFFFFFFFFFFFFFFFFFFFFFFFFFFFFFFFFFFFFFFFFFFFFFFFFFFFFFFFFFFFFFFFFFFFFFFFFFFFFF
310
FFFFFFFFFFFFFFFFFFFFFFFFFFFFFFFFFFFFFFFFFFFFFFFFFFFFFFFFFFFFFFFFFFFFFFFFFFFFFFFFFFFFFFFFFFFFFFFFFFFFFFFFFFFFFFFFFFFFFFFFFFFFFFFFFFFFFFFFFFFFFFFFFFFFFFFFFFFFFFFFFFFFFFFFFFFFFFFFFFFFFFFFFFFFFFFFFFFFFFFFFFFFFFFFFFFFFFFFFFFFFFFFFFFFFFFFFFFFFFFFFFFFFFFFFFFFFF
310
FFFFFFFFFFFFFFFFFFFFFFFFFFFFFFFFFFFFFFFFFFFFFFFFFFFFFFFFFFFFFFFFFFFFFFFFFFFFFFFFFFFFFFFFFFFFFFFFFFFFFFFFFFFFFFFF
1001
AcDbDynamicBlockGUID
1000
{C98E84B9-7DC5-4FE5-8658-A136B1396970}
1001
AcDbBlockRepETag
1070
     1
1071
       18
1001
ACAD
1000
DesignCenter Data
1002
{
1070
     1
1070
     4
1002
}
  0
BLOCK_RECORD
  5
4A5
330
1
100
AcDbSymbolTableRecord
100
AcDbBlockTableRecord
  2
*E2113
340
0
  0
BLOCK_RECORD
  5
4CD
330
1
100
AcDbSymbolTableRecord
100
AcDbBlockTableRecord
  2
*E2214
340
0
  0
ENDTAB
  0
ENDSEC
  0
SECTION
  2
BLOCKS
  0
BLOCK
  5
68
330
67
100
AcDbEntity
  8
0
100
AcDbBlockBegin
  2
*Model_Space
 70
     0
 10
0.0
 20
0.0
 30
0.0
  3
*Model_Space
  1

  0
ENDBLK
  5
69
330
67
100
AcDbEntity
  8
0
100
AcDbBlockEnd
  0
BLOCK
  5
64
330
63
100
AcDbEntity
 67
     1
  8
0
100
AcDbBlockBegin
  2
*Paper_Space
 70
     0
 10
0.0
 20
0.0
 30
0.0
  3
*Paper_Space
  1

  0
ENDBLK
  5
65
330
63
100
AcDbEntity
 67
     1
  8
0
100
AcDbBlockEnd
  0
BLOCK
  5
6C
330
6B
100
AcDbEntity
 67
     1
  8
0
100
AcDbBlockBegin
  2
*Paper_Space0
 70
     0
 10
0.0
 20
0.0
 30
0.0
  3
*Paper_Space0
  1

  0
ENDBLK
  5
6D
330
6B
100
AcDbEntity
 67
     1
  8
0
100
AcDbBlockEnd
  0
BLOCK
  5
7D
330
7C
100
AcDbEntity
  8
0
100
AcDbBlockBegin
  2
_Open30
 70
     0
 10
0.0
 20
0.0
 30
0.0
  3
_Open30
  1

  0
LINE
  5
7E
330
7C
100
AcDbEntity
  8
0
  6
ByBlock
 62
     0
370
    -2
100
AcDbLine
 10
-1.0
 20
0.26794919
 30
0.0
 11
0.0
 21
0.0
 31
0.0
  0
LINE
  5
7F
330
7C
100
AcDbEntity
  8
0
  6
ByBlock
 62
     0
370
    -2
100
AcDbLine
 10
0.0
 20
0.0
 30
0.0
 11
-1.0
 21
-0.26794919
 31
0.0
  0
LINE
  5
80
330
7C
100
AcDbEntity
  8
0
  6
ByBlock
 62
     0
370
    -2
100
AcDbLine
 10
0.0
 20
0.0
 30
0.0
 11
-1.0
 21
0.0
 31
0.0
  0
ENDBLK
  5
81
330
7C
100
AcDbEntity
  8
0
100
AcDbBlockEnd
  0
BLOCK
  5
1D8
330
1D7
100
AcDbEntity
  8
0
100
AcDbBlockBegin
  2
_TagCircle
 70
     2
 10
0.0
 20
0.0
 30
0.0
  3
_TagCircle
  1

  0
CIRCLE
  5
1D9
330
1D7
100
AcDbEntity
  8
0
  6
ByBlock
 62
     0
370
    -2
100
AcDbCircle
 10
0.0
 20
0.0
 30
0.0
 40
4.0
  0
ATTDEF
  5
1DA
330
1D7
100
AcDbEntity
  8
0
 62
     0
100
AcDbText
 10
-4.5
 20
-1.5
 30
0.0
 40
3.0
  1
タグ番号
 72
     1
 11
0.0
 21
-1.5
 31
0.0
100
AcDbAttributeDefinition
  3
タグ番号を入力
  2
タグ番号
 70
     0
  0
ENDBLK
  5
1DB
330
1D7
100
AcDbEntity
  8
0
100
AcDbBlockEnd
  0
BLOCK
  5
1F9
330
1F8
100
AcDbEntity
  8
0
100
AcDbBlockBegin
  2
*D3
 70
     1
 10
0.0
 20
0.0
 30
0.0
  3
*D3
  1

  0
LINE
  5
4F5
330
1F8
100
AcDbEntity
  8
dim
 62
     0
370
    -2
100
AcDbLine
 10
248.3267244338783
 20
185.6418803253188
 30
0.0
 11
248.3267244338783
 21
167.463508541952
 31
0.0
  0
LINE
  5
4F6
330
1F8
100
AcDbEntity
  8
dim
 62
     0
370
    -2
100
AcDbLine
 10
213.3267246449391
 20
185.6418803253188
 30
0.0
 11
213.3267246449391
 21
167.463508541952
 31
0.0
  0
LINE
  5
4F7
330
1F8
100
AcDbEntity
  8
dim
 62
     0
370
    -2
100
AcDbLine
 10
246.3267244459389
 20
168.4635085359216
 30
0.0
 11
215.3267246328784
 21
168.4635085359216
 31
0.0
  0
INSERT
  5
4F8
330
1F8
100
AcDbEntity
  8
dim
 62
     0
370
    -2
100
AcDbBlockReference
  2
_Open30
 10
248.3267244338783
 20
168.4635085359216
 30
0.0
 41
1.999999987939381
 42
1.999999987939381
 43
1.999999987939381
  0
INSERT
  5
4F9
330
1F8
100
AcDbEntity
  8
dim
 62
     0
370
    -2
100
AcDbBlockReference
  2
_Open30
 10
213.3267246449391
 20
168.4635085359216
 30
0.0
 41
1.999999987939381
 42
1.999999987939381
 43
1.999999987939381
 50
180.0
  0
MTEXT
  5
4FA
330
1F8
100
AcDbEntity
  8
dim
 62
     3
100
AcDbMText
 10
231.3085598076884
 20
170.5885085231073
 30
0.0
 40
2.999999981909071
 41
0.0
 71
     5
 72
     1
  1
17.5
  7
ATOM
 73
     1
 44
1.0
1001
ACAD
1000
MTEXTBEGIN
1070
    73
1070
     1
1070
    44
1040
1.0
1070
    74
1070
     0
1000
MTEXTEND
  0
POINT
  5
4FB
330
1F8
100
AcDbEntity
  8
Defpoints
 62
     0
100
AcDbPoint
 10
248.3267244338783
 20
187.6418803132582
 30
0.0
  0
POINT
  5
4FC
330
1F8
100
AcDbEntity
  8
Defpoints
 62
     0
100
AcDbPoint
 10
213.3267246449391
 20
187.6418803132582
 30
0.0
  0
POINT
  5
4FD
330
1F8
100
AcDbEntity
  8
Defpoints
 62
     0
100
AcDbPoint
 10
213.3267246449391
 20
168.4635085359216
 30
0.0
  0
ENDBLK
  5
1FA
330
1F8
100
AcDbEntity
  8
0
100
AcDbBlockEnd
  0
BLOCK
  5
205
330
204
100
AcDbEntity
  8
0
100
AcDbBlockBegin
  2
*D4
 70
     1
 10
0.0
 20
0.0
 30
0.0
  3
*D4
  1

  0
LINE
  5
4FE
330
204
100
AcDbEntity
  8
dim
 62
     0
370
    -2
100
AcDbLine
 10
213.3267246449391
 20
218.8418781251126
 30
0.0
 11
213.3267246449391
 21
232.1537667825814
 31
0.0
  0
LINE
  5
4FF
330
204
100
AcDbEntity
  8
dim
 62
     0
370
    -2
100
AcDbLine
 10
233.3267245243328
 20
224.9962900879996
 30
0.0
 11
233.3267245243328
 21
232.1537667825814
 31
0.0
  0
LINE
  5
500
330
204
100
AcDbEntity
  8
dim
 62
     0
370
    -2
100
AcDbLine
 10
215.3267246328784
 20
231.1537667886117
 30
0.0
 11
231.3267245363934
 21
231.1537667886117
 31
0.0
  0
INSERT
  5
501
330
204
100
AcDbEntity
  8
dim
 62
     0
370
    -2
100
AcDbBlockReference
  2
_Open30
 10
213.3267246449391
 20
231.1537667886117
 30
0.0
 41
1.999999987939381
 42
1.999999987939381
 43
1.999999987939381
 50
180.0
  0
INSERT
  5
502
330
204
100
AcDbEntity
  8
dim
 62
     0
370
    -2
100
AcDbBlockReference
  2
_Open30
 10
233.3267245243328
 20
231.1537667886117
 30
0.0
 41
1.999999987939381
 42
1.999999987939381
 43
1.999999987939381
  0
MTEXT
  5
503
330
204
100
AcDbEntity
  8
dim
 62
     3
100
AcDbMText
 10
222.965926605
 20
233.2787667757973
 30
0.0
 40
2.999999981909071
 41
0.0
 71
     5
 72
     1
  1
10
  7
ATOM
 73
     1
 44
1.0
1001
ACAD
1000
MTEXTBEGIN
1070
    73
1070
     1
1070
    44
1040
1.0
1070
    74
1070
     0
1000
MTEXTEND
  0
POINT
  5
504
330
204
100
AcDbEntity
  8
Defpoints
 62
     0
100
AcDbPoint
 10
213.3267246449391
 20
216.8418781371732
 30
0.0
  0
POINT
  5
505
330
204
100
AcDbEntity
  8
Defpoints
 62
     0
100
AcDbPoint
 10
233.3267245243328
 20
222.9962901000603
 30
0.0
  0
POINT
  5
506
330
204
100
AcDbEntity
  8
Defpoints
 62
     0
100
AcDbPoint
 10
233.3267245243328
 20
231.1537667886117
 30
0.0
  0
ENDBLK
  5
206
330
204
100
AcDbEntity
  8
0
100
AcDbBlockEnd
  0
BLOCK
  5
211
330
210
100
AcDbEntity
  8
0
100
AcDbBlockBegin
  2
*D5
 70
     1
 10
0.0
 20
0.0
 30
0.0
  3
*D5
  1

  0
LINE
  5
507
330
210
100
AcDbEntity
  8
dim
 62
     0
370
    -2
100
AcDbLine
 10
213.3267246449391
 20
185.6418783253188
 30
0.0
 11
193.1565752692653
 21
185.6418783253188
 31
0.0
  0
LINE
  5
508
330
210
100
AcDbEntity
  8
dim
 62
     0
370
    -2
100
AcDbLine
 10
219.3267246087571
 20
206.0418782023006
 30
0.0
 11
193.1565752692654
 21
206.0418782023006
 31
0.0
  0
LINE
  5
509
330
210
100
AcDbEntity
  8
dim
 62
     0
370
    -2
100
AcDbLine
 10
194.156575263235
 20
187.6418783132581
 30
0.0
 11
194.1565752632351
 21
204.0418782143611
 31
0.0
  0
INSERT
  5
50A
330
210
100
AcDbEntity
  8
dim
 62
     0
370
    -2
100
AcDbBlockReference
  2
_Open30
 10
194.156575263235
 20
185.6418783253188
 30
0.0
 41
1.999999987939381
 42
1.999999987939381
 43
1.999999987939381
 50
270.0
  0
INSERT
  5
50B
330
210
100
AcDbEntity
  8
dim
 62
     0
370
    -2
100
AcDbBlockReference
  2
_Open30
 10
194.1565752632351
 20
206.0418782023006
 30
0.0
 41
1.999999987939381
 42
1.999999987939381
 43
1.999999987939381
 50
90.0
  0
MTEXT
  5
50C
330
210
100
AcDbEntity
  8
dim
 62
     3
100
AcDbMText
 10
192.0315752760494
 20
196.5643288247228
 30
0.0
 40
2.999999981909071
 41
0.0
 71
     5
 72
     1
  1
10.2
  7
ATOM
 11
0.0000000000000001
 21
1.0
 31
0.0
 73
     1
 44
1.0
1001
ACAD
1000
MTEXTBEGIN
1070
    73
1070
     1
1070
    44
1040
1.0
1070
    74
1070
     0
1000
MTEXTEND
  0
POINT
  5
50D
330
210
100
AcDbEntity
  8
Defpoints
 62
     0
100
AcDbPoint
 10
215.3267246328785
 20
185.6418783253188
 30
0.0
  0
POINT
  5
50E
330
210
100
AcDbEntity
  8
Defpoints
 62
     0
100
AcDbPoint
 10
221.3267245966965
 20
206.0418782023006
 30
0.0
  0
POINT
  5
50F
330
210
100
AcDbEntity
  8
Defpoints
 62
     0
100
AcDbPoint
 10
194.1565752632351
 20
206.0418782023006
 30
0.0
  0
ENDBLK
  5
212
330
210
100
AcDbEntity
  8
0
100
AcDbBlockEnd
  0
BLOCK
  5
21D
330
21C
100
AcDbEntity
  8
0
100
AcDbBlockBegin
  2
*D6
 70
     1
 10
0.0
 20
0.0
 30
0.0
  3
*D6
  1

  0
LINE
  5
510
330
21C
100
AcDbEntity
  8
dim
 62
     0
370
    -2
100
AcDbLine
 10
254.4626203968769
 20
287.3222461001549
 30
0.0
 11
286.0098195000659
 21
287.3222461001549
 31
0.0
  0
LINE
  5
511
330
21C
100
AcDbEntity
  8
dim
 62
     0
370
    -2
100
AcDbLine
 10
254.4626203968769
 20
275.3222461725186
 30
0.0
 11
286.0098195000659
 21
275.3222461725186
 31
0.0
  0
LINE
  5
512
330
21C
100
AcDbEntity
  8
dim
 62
     0
370
    -2
100
AcDbLine
 10
285.0098195060962
 20
285.3222461122155
 30
0.0
 11
285.0098195060962
 21
277.3222461604579
 31
0.0
  0
INSERT
  5
513
330
21C
100
AcDbEntity
  8
dim
 62
     0
370
    -2
100
AcDbBlockReference
  2
_Open30
 10
285.0098195060962
 20
287.3222461001549
 30
0.0
 41
1.999999987939381
 42
1.999999987939381
 43
1.999999987939381
 50
90.0
  0
INSERT
  5
514
330
21C
100
AcDbEntity
  8
dim
 62
     0
370
    -2
100
AcDbBlockReference
  2
_Open30
 10
285.0098195060962
 20
275.3222461725186
 30
0.0
 41
1.999999987939381
 42
1.999999987939381
 43
1.999999987939381
 50
270.0
  0
MTEXT
  5
515
330
21C
100
AcDbEntity
  8
dim
 62
     3
100
AcDbMText
 10
282.8848195189106
 20
281.3222461363367
 30
0.0
 40
2.999999981909071
 41
0.0
 71
     5
 72
     1
  1
6
  7
ATOM
 11
0.0000000000000001
 21
1.0
 31
0.0
 73
     1
 44
1.0
1001
ACAD
1000
MTEXTBEGIN
1070
    73
1070
     1
1070
    44
1040
1.0
1070
    74
1070
     0
1000
MTEXTEND
  0
POINT
  5
516
330
21C
100
AcDbEntity
  8
Defpoints
 62
     0
100
AcDbPoint
 10
252.4626204089375
 20
287.3222461001549
 30
0.0
  0
POINT
  5
517
330
21C
100
AcDbEntity
  8
Defpoints
 62
     0
100
AcDbPoint
 10
252.4626204089375
 20
275.3222461725186
 30
0.0
  0
POINT
  5
518
330
21C
100
AcDbEntity
  8
Defpoints
 62
     0
100
AcDbPoint
 10
285.0098195060962
 20
275.3222461725186
 30
0.0
  0
ENDBLK
  5
21E
330
21C
100
AcDbEntity
  8
0
100
AcDbBlockEnd
  0
BLOCK
  5
229
330
228
100
AcDbEntity
  8
0
100
AcDbBlockBegin
  2
*D7
 70
     1
 10
0.0
 20
0.0
 30
0.0
  3
*D7
  1

  0
LINE
  5
519
330
228
100
AcDbEntity
  8
dim
 62
     0
370
    -2
100
AcDbLine
 10
263.9267243398053
 20
285.3222461122154
 30
0.0
 11
280.0098195362476
 21
285.3222461122154
 31
0.0
  0
LINE
  5
51A
330
228
100
AcDbEntity
  8
dim
 62
     0
370
    -2
100
AcDbLine
 10
263.9267243398053
 20
277.322246160458
 30
0.0
 11
280.0098195362476
 21
277.322246160458
 31
0.0
  0
LINE
  5
51B
330
228
100
AcDbEntity
  8
dim
 62
     0
370
    -2
100
AcDbLine
 10
279.009819542278
 20
283.3222461242761
 30
0.0
 11
279.009819542278
 21
279.3222461483974
 31
0.0
  0
INSERT
  5
51C
330
228
100
AcDbEntity
  8
dim
 62
     0
370
    -2
100
AcDbBlockReference
  2
_Open30
 10
279.009819542278
 20
285.3222461122154
 30
0.0
 41
1.999999987939381
 42
1.999999987939381
 43
1.999999987939381
 50
90.0
  0
INSERT
  5
51D
330
228
100
AcDbEntity
  8
dim
 62
     0
370
    -2
100
AcDbBlockReference
  2
_Open30
 10
279.009819542278
 20
277.322246160458
 30
0.0
 41
1.999999987939381
 42
1.999999987939381
 43
1.999999987939381
 50
270.0
  0
MTEXT
  5
51E
330
228
100
AcDbEntity
  8
dim
 62
     3
100
AcDbMText
 10
276.8848195550923
 20
281.3222461363371
 30
0.0
 40
2.999999981909071
 41
0.0
 71
     5
 72
     1
  1
4
  7
ATOM
 11
0.0000000000000001
 21
1.0
 31
0.0
 73
     1
 44
1.0
1001
ACAD
1000
MTEXTBEGIN
1070
    73
1070
     1
1070
    44
1040
1.0
1070
    74
1070
     0
1000
MTEXTEND
  0
POINT
  5
51F
330
228
100
AcDbEntity
  8
Defpoints
 62
     0
100
AcDbPoint
 10
261.9267243518659
 20
285.3222461122154
 30
0.0
  0
POINT
  5
520
330
228
100
AcDbEntity
  8
Defpoints
 62
     0
100
AcDbPoint
 10
261.9267243518659
 20
277.322246160458
 30
0.0
  0
POINT
  5
521
330
228
100
AcDbEntity
  8
Defpoints
 62
     0
100
AcDbPoint
 10
279.009819542278
 20
277.322246160458
 30
0.0
  0
ENDBLK
  5
22A
330
228
100
AcDbEntity
  8
0
100
AcDbBlockEnd
  0
BLOCK
  5
237
330
236
100
AcDbEntity
  8
0
100
AcDbBlockBegin
  2
*D8
 70
     1
 10
0.0
 20
0.0
 30
0.0
  3
*D8
  1

  0
LINE
  5
522
330
236
100
AcDbEntity
  8
dim
 62
     0
370
    -2
100
AcDbLine
 10
213.3267246449391
 20
298.1222460350275
 30
0.0
 11
191.9289447569328
 21
298.1222460350275
 31
0.0
  0
LINE
  5
523
330
236
100
AcDbEntity
  8
dim
 62
     0
370
    -2
100
AcDbLine
 10
213.3267246449391
 20
264.522246237646
 30
0.0
 11
191.9289447569328
 21
264.522246237646
 31
0.0
  0
LINE
  5
524
330
236
100
AcDbEntity
  8
dim
 62
     0
370
    -2
100
AcDbLine
 10
192.9289447509025
 20
296.1222460470882
 30
0.0
 11
192.9289447509025
 21
266.5222462255853
 31
0.0
  0
INSERT
  5
525
330
236
100
AcDbEntity
  8
dim
 62
     0
370
    -2
100
AcDbBlockReference
  2
_Open30
 10
192.9289447509025
 20
298.1222460350275
 30
0.0
 41
1.999999987939381
 42
1.999999987939381
 43
1.999999987939381
 50
90.0
  0
INSERT
  5
526
330
236
100
AcDbEntity
  8
dim
 62
     0
370
    -2
100
AcDbBlockReference
  2
_Open30
 10
192.9289447509025
 20
264.522246237646
 30
0.0
 41
1.999999987939381
 42
1.999999987939381
 43
1.999999987939381
 50
270.0
  0
MTEXT
  5
527
330
236
100
AcDbEntity
  8
dim
 62
     3
100
AcDbMText
 10
190.8039447637168
 20
281.3222461363368
 30
0.0
 40
2.999999981909071
 41
0.0
 71
     5
 72
     1
  1
16.8
  7
ATOM
 11
0.0000000000000001
 21
1.0
 31
0.0
 73
     1
 44
1.0
1001
ACAD
1000
MTEXTBEGIN
1070
    73
1070
     1
1070
    44
1040
1.0
1070
    74
1070
     0
1000
MTEXTEND
  0
POINT
  5
528
330
236
100
AcDbEntity
  8
Defpoints
 62
     0
100
AcDbPoint
 10
215.3267246328785
 20
298.1222460350275
 30
0.0
  0
POINT
  5
529
330
236
100
AcDbEntity
  8
Defpoints
 62
     0
100
AcDbPoint
 10
215.3267246328785
 20
264.522246237646
 30
0.0
  0
POINT
  5
52A
330
236
100
AcDbEntity
  8
Defpoints
 62
     0
100
AcDbPoint
 10
192.9289447509025
 20
264.522246237646
 30
0.0
  0
ENDBLK
  5
238
330
236
100
AcDbEntity
  8
0
100
AcDbBlockEnd
  0
BLOCK
  5
243
330
242
100
AcDbEntity
  8
0
100
AcDbBlockBegin
  2
*D9
 70
     1
 10
0.0
 20
0.0
 30
0.0
  3
*D9
  1

  0
LINE
  5
52B
330
242
100
AcDbEntity
  8
dim
 62
     0
370
    -2
100
AcDbLine
 10
213.3267246449391
 20
218.8418781251126
 30
0.0
 11
187.1565753054474
 21
218.8418781251126
 31
0.0
  0
LINE
  5
52C
330
242
100
AcDbEntity
  8
dim
 62
     0
370
    -2
100
AcDbLine
 10
213.3267246449391
 20
185.6418783253188
 30
0.0
 11
187.1565753054473
 21
185.6418783253189
 31
0.0
  0
LINE
  5
52D
330
242
100
AcDbEntity
  8
dim
 62
     0
370
    -2
100
AcDbLine
 10
188.156575299417
 20
216.8418781371732
 30
0.0
 11
188.156575299417
 21
187.6418783132581
 31
0.0
  0
INSERT
  5
52E
330
242
100
AcDbEntity
  8
dim
 62
     0
370
    -2
100
AcDbBlockReference
  2
_Open30
 10
188.156575299417
 20
218.8418781251126
 30
0.0
 41
1.999999987939381
 42
1.999999987939381
 43
1.999999987939381
 50
90.0
  0
INSERT
  5
52F
330
242
100
AcDbEntity
  8
dim
 62
     0
370
    -2
100
AcDbBlockReference
  2
_Open30
 10
188.156575299417
 20
185.6418783253189
 30
0.0
 41
1.999999987939381
 42
1.999999987939381
 43
1.999999987939381
 50
270.0
  0
MTEXT
  5
530
330
242
100
AcDbEntity
  8
dim
 62
     3
100
AcDbMText
 10
186.0315753122314
 20
202.9643287861292
 30
0.0
 40
2.999999981909071
 41
0.0
 71
     5
 72
     1
  1
16.6
  7
ATOM
 11
0.0000000000000001
 21
1.0
 31
0.0
 73
     1
 44
1.0
1001
ACAD
1000
MTEXTBEGIN
1070
    73
1070
     1
1070
    44
1040
1.0
1070
    74
1070
     0
1000
MTEXTEND
  0
POINT
  5
531
330
242
100
AcDbEntity
  8
Defpoints
 62
     0
100
AcDbPoint
 10
215.3267246328785
 20
218.8418781251126
 30
0.0
  0
POINT
  5
532
330
242
100
AcDbEntity
  8
Defpoints
 62
     0
100
AcDbPoint
 10
215.3267246328785
 20
185.6418783253188
 30
0.0
  0
POINT
  5
533
330
242
100
AcDbEntity
  8
Defpoints
 62
     0
100
AcDbPoint
 10
188.156575299417
 20
185.6418783253189
 30
0.0
  0
ENDBLK
  5
244
330
242
100
AcDbEntity
  8
0
100
AcDbBlockEnd
  0
BLOCK
  5
24F
330
24E
100
AcDbEntity
  8
0
100
AcDbBlockBegin
  2
*D10
 70
     1
 10
0.0
 20
0.0
 30
0.0
  3
*D10
  1

  0
LINE
  5
534
330
24E
100
AcDbEntity
  8
dim
 62
     0
370
    -2
100
AcDbLine
 10
213.3267246449391
 20
218.8418781251126
 30
0.0
 11
213.3267246449391
 21
238.1537667463995
 31
0.0
  0
LINE
  5
535
330
24E
100
AcDbEntity
  8
dim
 62
     0
370
    -2
100
AcDbLine
 10
263.9170405184056
 20
213.8453037178567
 30
0.0
 11
263.9170405184056
 21
238.1537667463995
 31
0.0
  0
LINE
  5
536
330
24E
100
AcDbEntity
  8
dim
 62
     0
370
    -2
100
AcDbLine
 10
215.3267246328784
 20
237.1537667524298
 30
0.0
 11
261.9170405304663
 21
237.1537667524298
 31
0.0
  0
INSERT
  5
537
330
24E
100
AcDbEntity
  8
dim
 62
     0
370
    -2
100
AcDbBlockReference
  2
_Open30
 10
213.3267246449391
 20
237.1537667524298
 30
0.0
 41
1.999999987939381
 42
1.999999987939381
 43
1.999999987939381
 50
180.0
  0
INSERT
  5
538
330
24E
100
AcDbEntity
  8
dim
 62
     0
370
    -2
100
AcDbBlockReference
  2
_Open30
 10
263.9170405184056
 20
237.1537667524298
 30
0.0
 41
1.999999987939381
 42
1.999999987939381
 43
1.999999987939381
  0
MTEXT
  5
539
330
24E
100
AcDbEntity
  8
dim
 62
     3
100
AcDbMText
 10
238.6218825816722
 20
239.2787667396155
 30
0.0
 40
2.999999981909071
 41
0.0
 71
     5
 72
     1
  1
25.3
  7
ATOM
 73
     1
 44
1.0
1001
ACAD
1000
MTEXTBEGIN
1070
    73
1070
     1
1070
    44
1040
1.0
1070
    74
1070
     0
1000
MTEXTEND
  0
POINT
  5
53A
330
24E
100
AcDbEntity
  8
Defpoints
 62
     0
100
AcDbPoint
 10
213.3267246449391
 20
216.8418781371732
 30
0.0
  0
POINT
  5
53B
330
24E
100
AcDbEntity
  8
Defpoints
 62
     0
100
AcDbPoint
 10
263.9170405184056
 20
211.8453037299172
 30
0.0
  0
POINT
  5
53C
330
24E
100
AcDbEntity
  8
Defpoints
 62
     0
100
AcDbPoint
 10
263.9170405184056
 20
237.1537667524298
 30
0.0
  0
ENDBLK
  5
250
330
24E
100
AcDbEntity
  8
0
100
AcDbBlockEnd
  0
BLOCK
  5
33D
330
33A
100
AcDbEntity
  8
0
100
AcDbBlockBegin
  2
ATOM_A4T_zuwaku
 70
     2
 10
0.0
 20
0.0
 30
0.0
  3
ATOM_A4T_zuwaku
  1

  0
LWPOLYLINE
  5
33E
330
33A
100
AcDbEntity
  8
flame
  6
ByBlock
100
AcDbPolyline
 90
        4
 70
     1
 43
0.0
 10
24.59999999999946
 20
32.02453525127749
 10
20.59421302496503
 20
33.21128572090675
 10
20.59421302496503
 20
35.45924095267583
 10
24.59999999999946
 20
36.64599142230509
1001
AcDbBlockRepETag
1070
     1
1071
        0
1005
33E
  0
LWPOLYLINE
  5
340
330
33A
100
AcDbEntity
  8
flame
  6
ByBlock
100
AcDbPolyline
 90
        4
 70
     1
 43
0.0
 10
24.68499999999858
 20
31.9107014793517
 10
20.50921302496499
 20
33.14781598009358
 10
20.50921302496499
 20
35.52271069349081
 10
24.68499999999858
 20
36.75982519423087
1001
AcDbBlockRepETag
1070
     1
1071
        1
1005
340
  0
LWPOLYLINE
  5
341
330
33A
100
AcDbEntity
  8
flame
  6
ByBlock
100
AcDbPolyline
 90
        4
 70
     1
 43
0.0
 10
24.51499999999942
 20
32.13836902320327
 10
20.67921302496507
 20
33.27475546172173
 10
20.67921302496507
 20
35.39577121186268
 10
24.51499999999942
 20
36.53215765037931
1001
AcDbBlockRepETag
1070
     1
1071
        2
1005
341
  0
LINE
  5
342
330
33A
100
AcDbEntity
  8
flame
  6
ByBlock
100
AcDbLine
 10
119.0
 20
38.00000000000182
 30
0.0
 11
119.0
 21
10.00000000000182
 31
0.0
1001
AcDbBlockRepETag
1070
     1
1071
        3
1005
342
  0
LINE
  5
343
330
33A
100
AcDbEntity
  8
flame
  6
ByBlock
100
AcDbLine
 10
144.0
 20
38.00000000000182
 30
0.0
 11
144.0
 21
10.0
 31
0.0
1001
AcDbBlockRepETag
1070
     1
1071
        4
1005
343
  0
LINE
  5
344
330
33A
100
AcDbEntity
  8
flame
  6
ByBlock
100
AcDbLine
 10
143.9149999999999
 20
38.00000000000182
 30
0.0
 11
143.9149999999999
 21
10.0
 31
0.0
1001
AcDbBlockRepETag
1070
     1
1071
        5
1005
344
  0
LINE
  5
345
330
33A
100
AcDbEntity
  8
flame
  6
ByBlock
100
AcDbLine
 10
144.085
 20
38.00000000000182
 30
0.0
 11
144.085
 21
10.0
 31
0.0
1001
AcDbBlockRepETag
1070
     1
1071
        6
1005
345
  0
LINE
  5
346
330
33A
100
AcDbEntity
  8
flame
  6
ByBlock
100
AcDbLine
 10
141.0
 20
38.00000000000182
 30
0.0
 11
141.0
 21
10.0
 31
0.0
1001
AcDbBlockRepETag
1070
     1
1071
        7
1005
346
  0
LINE
  5
347
330
33A
100
AcDbEntity
  8
flame
  6
ByBlock
100
AcDbLine
 10
140.9149999999999
 20
38.00000000000182
 30
0.0
 11
140.9149999999999
 21
10.0
 31
0.0
1001
AcDbBlockRepETag
1070
     1
1071
        8
1005
347
  0
LINE
  5
348
330
33A
100
AcDbEntity
  8
flame
  6
ByBlock
100
AcDbLine
 10
141.085
 20
38.00000000000182
 30
0.0
 11
141.085
 21
10.0
 31
0.0
1001
AcDbBlockRepETag
1070
     1
1071
        9
1005
348
  0
LINE
  5
349
330
33A
100
AcDbEntity
  8
flame
  6
ByBlock
100
AcDbLine
 10
186.5
 20
10.00000000000182
 30
0.0
 11
186.5
 21
17.00000000000182
 31
0.0
1001
AcDbBlockRepETag
1070
     1
1071
       10
1005
349
  0
TEXT
  5
34A
330
33A
100
AcDbEntity
  8
flame
  6
ByBlock
100
AcDbText
 10
15.55924259358817
 20
11.75
 30
0.0
 40
5.0
  1
アトムリビンテック株式会社
 41
0.6
  7
ATOM
 72
     1
 11
38.75924259358817
 21
14.25
 31
0.0
100
AcDbText
 73
     2
1001
AcDbBlockRepETag
1070
     1
1071
       12
1005
34A
  0
TEXT
  5
34B
330
33A
100
AcDbEntity
  8
flame
  6
ByBlock
100
AcDbText
 10
67.5
 20
21.5
 30
0.0
 40
4.0
  1
開　　発　　部
 41
0.9
  7
ATOM
 11
67.5
 21
23.5
 31
0.0
100
AcDbText
 73
     2
1001
AcDbBlockRepETag
1070
     1
1071
       13
1005
34B
  0
TEXT
  5
34C
330
33A
100
AcDbEntity
  8
flame
  6
ByBlock
100
AcDbText
 10
67.5
 20
17.0
 30
0.0
 40
3.0
  1
〒110-8680
 41
0.7
  7
ATOM
 11
67.5
 21
18.5
 31
0.0
100
AcDbText
 73
     2
1001
AcDbBlockRepETag
1070
     1
1071
       14
1005
34C
  0
TEXT
  5
34D
330
33A
100
AcDbEntity
  8
flame
  6
ByBlock
100
AcDbText
 10
67.5
 20
12.5
 30
0.0
 40
3.0
  1
東京都 台東区 入谷 1-27-4
 41
0.65
  7
ATOM
 11
67.5
 21
14.0
 31
0.0
100
AcDbText
 73
     2
1001
AcDbBlockRepETag
1070
     1
1071
       15
1005
34D
  0
TEXT
  5
34E
330
33A
100
AcDbEntity
  8
flame
  6
ByBlock
100
AcDbText
 10
13.62
 20
40.00000000000182
 30
0.0
 40
3.0
  1
部番
 41
0.9
  7
ATOM
 72
     1
 11
16.5
 21
41.50000000000182
 31
0.0
100
AcDbText
 73
     2
1001
AcDbBlockRepETag
1070
     1
1071
       16
1005
34E
  0
TEXT
  5
34F
330
33A
100
AcDbEntity
  8
flame
  6
ByBlock
100
AcDbText
 10
27.63
 20
40.00000000000182
 30
0.0
 40
3.0
  1
部　　　　品　　　　名
 41
0.9
  7
ATOM
 72
     1
 11
45.0
 21
41.50000000000182
 31
0.0
100
AcDbText
 73
     2
1001
AcDbBlockRepETag
1070
     1
1071
       17
1005
34F
  0
TEXT
  5
350
330
33A
100
AcDbEntity
  8
flame
  6
ByBlock
100
AcDbText
 10
77.88
 20
40.00000000000182
 30
0.0
 40
3.0
  1
材　　質
 41
0.9
  7
ATOM
 72
     1
 11
84.0
 21
41.50000000000182
 31
0.0
100
AcDbText
 73
     2
1001
AcDbBlockRepETag
1070
     1
1071
       18
1005
350
  0
TEXT
  5
351
330
33A
100
AcDbEntity
  8
flame
  6
ByBlock
100
AcDbText
 10
98.62000000000001
 20
40.00000000000182
 30
0.0
 40
3.0
  1
数量
 41
0.9
  7
ATOM
 72
     1
 11
101.5
 21
41.50000000000182
 31
0.0
100
AcDbText
 73
     2
1001
AcDbBlockRepETag
1070
     1
1071
       19
1005
351
  0
TEXT
  5
352
330
33A
100
AcDbEntity
  8
flame
  6
ByBlock
100
AcDbText
 10
114.16
 20
40.00000000000182
 30
0.0
 40
3.0
  1
表　　面　　処　　理
 41
0.9
  7
ATOM
 72
     1
 11
130.0
 21
41.50000000000182
 31
0.0
100
AcDbText
 73
     2
1001
AcDbBlockRepETag
1070
     1
1071
       20
1005
352
  0
TEXT
  5
353
330
33A
100
AcDbEntity
  8
flame
  6
ByBlock
100
AcDbText
 10
168.26
 20
40.00000000000182
 30
0.0
 40
3.0
  1
備　　　考
 41
0.9
  7
ATOM
 72
     1
 11
176.0
 21
41.50000000000182
 31
0.0
100
AcDbText
 73
     2
1001
AcDbBlockRepETag
1070
     1
1071
       21
1005
353
  0
TEXT
  5
354
330
33A
100
AcDbEntity
  8
flame
  6
ByBlock
100
AcDbText
 10
180.18
 20
282.0000000000018
 30
0.0
 40
3.0
  1
改正日
 41
0.9
  7
ATOM
 72
     1
 11
184.5
 21
283.5000000000018
 31
0.0
100
AcDbText
 73
     2
1001
AcDbBlockRepETag
1070
     1
1071
       22
1005
354
  0
TEXT
  5
355
330
33A
100
AcDbEntity
  8
flame
  6
ByBlock
100
AcDbText
 10
158.47
 20
282.0000000000018
 30
0.0
 40
3.0
  1
改正担当
 41
0.9
  7
ATOM
 72
     1
 11
164.5
 21
283.5000000000018
 31
0.0
100
AcDbText
 73
     2
1001
AcDbBlockRepETag
1070
     1
1071
       23
1005
355
  0
TEXT
  5
356
330
33A
100
AcDbEntity
  8
flame
  6
ByBlock
100
AcDbText
 10
136.94
 20
282.0000000000018
 30
0.0
 40
3.0
  1
改正承認日
 41
0.9
  7
ATOM
 72
     1
 11
144.5
 21
283.5000000000018
 31
0.0
100
AcDbText
 73
     2
1001
AcDbBlockRepETag
1070
     1
1071
       24
1005
356
  0
TEXT
  5
357
330
33A
100
AcDbEntity
  8
flame
  6
ByBlock
100
AcDbText
 10
118.38
 20
282.0000000000018
 30
0.0
 40
3.0
  1
改正承認
 41
0.9
  7
ATOM
 72
     1
 11
124.5
 21
283.5000000000018
 31
0.0
100
AcDbText
 73
     2
1001
AcDbBlockRepETag
1070
     1
1071
       25
1005
357
  0
TEXT
  5
358
330
33A
100
AcDbEntity
  8
flame
  6
ByBlock
100
AcDbText
 10
43.02999999999999
 20
282.0000000000018
 30
0.0
 40
3.0
  1
改　　　　正　　　　理　　　　由
 41
0.9
  7
ATOM
 72
     1
 11
68.5
 21
283.5000000000018
 31
0.0
100
AcDbText
 73
     2
1001
AcDbBlockRepETag
1070
     1
1071
       26
1005
358
  0
TEXT
  5
359
330
33A
100
AcDbEntity
  8
flame
  6
ByBlock
100
AcDbText
 10
13.62
 20
282.0000000000018
 30
0.0
 40
3.0
  1
改番
 41
0.9
  7
ATOM
 72
     1
 11
16.5
 21
283.5000000000018
 31
0.0
100
AcDbText
 73
     2
1001
AcDbBlockRepETag
1070
     1
1071
       27
1005
359
  0
TEXT
  5
35A
330
33A
100
AcDbEntity
  8
flame
  6
ByBlock
100
AcDbText
 10
48.525
 20
35.00000000000182
 30
0.0
 40
2.5
  1
名
 41
0.9
  7
ATOM
 72
     1
 11
49.5
 21
36.25000000000182
 31
0.0
100
AcDbText
 73
     2
1001
AcDbBlockRepETag
1070
     1
1071
       28
1005
35A
  0
TEXT
  5
35B
330
33A
100
AcDbEntity
  8
flame
  6
ByBlock
100
AcDbText
 10
48.45
 20
31.50000000000182
 30
0.0
 40
2.5
  1
称
 41
0.9
  7
ATOM
 72
     1
 11
49.5
 21
32.75000000000182
 31
0.0
100
AcDbText
 73
     2
1001
AcDbBlockRepETag
1070
     1
1071
       29
1005
35B
  0
TEXT
  5
35C
330
33A
100
AcDbEntity
  8
flame
  6
ByBlock
100
AcDbText
 10
26.45
 20
35.00000000000182
 30
0.0
 40
2.5
  1
尺
 41
0.9
  7
ATOM
 72
     1
 11
27.5
 21
36.25000000000182
 31
0.0
100
AcDbText
 73
     2
1001
AcDbBlockRepETag
1070
     1
1071
       30
1005
35C
  0
TEXT
  5
35D
330
33A
100
AcDbEntity
  8
flame
  6
ByBlock
100
AcDbText
 10
26.45
 20
31.50000000000182
 30
0.0
 40
2.5
  1
度
 41
0.9
  7
ATOM
 72
     1
 11
27.5
 21
32.75000000000182
 31
0.0
100
AcDbText
 73
     2
1001
AcDbBlockRepETag
1070
     1
1071
       31
1005
35D
  0
TEXT
  5
35E
330
33A
100
AcDbEntity
  8
flame
  6
ByBlock
100
AcDbText
 10
102.95
 20
35.00000000000182
 30
0.0
 40
2.5
  1
承
 41
0.9
  7
ATOM
 72
     1
 11
104.0
 21
36.25000000000182
 31
0.0
100
AcDbText
 73
     2
1001
AcDbBlockRepETag
1070
     1
1071
       32
1005
35E
  0
TEXT
  5
35F
330
33A
100
AcDbEntity
  8
flame
  6
ByBlock
100
AcDbText
 10
102.95
 20
31.50000000000182
 30
0.0
 40
2.5
  1
認
 41
0.9
  7
ATOM
 72
     1
 11
104.0
 21
32.75000000000182
 31
0.0
100
AcDbText
 73
     2
1001
AcDbBlockRepETag
1070
     1
1071
       33
1005
35F
  0
TEXT
  5
360
330
33A
100
AcDbEntity
  8
flame
  6
ByBlock
100
AcDbText
 10
102.95
 20
28.00000000000182
 30
0.0
 40
2.5
  1
検
 41
0.9
  7
ATOM
 72
     1
 11
104.0
 21
29.25000000000182
 31
0.0
100
AcDbText
 73
     2
1001
AcDbBlockRepETag
1070
     1
1071
       34
1005
360
  0
TEXT
  5
361
330
33A
100
AcDbEntity
  8
flame
  6
ByBlock
100
AcDbText
 10
102.95
 20
24.50000000000182
 30
0.0
 40
2.5
  1
図
 41
0.9
  7
ATOM
 72
     1
 11
104.0
 21
25.75000000000182
 31
0.0
100
AcDbText
 73
     2
1001
AcDbBlockRepETag
1070
     1
1071
       35
1005
361
  0
TEXT
  5
362
330
33A
100
AcDbEntity
  8
flame
  6
ByBlock
100
AcDbText
 10
102.95
 20
21.00000000000182
 30
0.0
 40
2.5
  1
設
 41
0.9
  7
ATOM
 72
     1
 11
104.0
 21
22.25000000000182
 31
0.0
100
AcDbText
 73
     2
1001
AcDbBlockRepETag
1070
     1
1071
       36
1005
362
  0
TEXT
  5
363
330
33A
100
AcDbEntity
  8
flame
  6
ByBlock
100
AcDbText
 10
102.95
 20
17.50000000000182
 30
0.0
 40
2.5
  1
計
 41
0.9
  7
ATOM
 72
     1
 11
104.0
 21
18.75000000000182
 31
0.0
100
AcDbText
 73
     2
1001
AcDbBlockRepETag
1070
     1
1071
       37
1005
363
  0
TEXT
  5
364
330
33A
100
AcDbEntity
  8
flame
  6
ByBlock
100
AcDbText
 10
102.95
 20
14.00000000000182
 30
0.0
 40
2.5
  1
作
 41
0.9
  7
ATOM
 72
     1
 11
104.0
 21
15.25000000000182
 31
0.0
100
AcDbText
 73
     2
1001
AcDbBlockRepETag
1070
     1
1071
       38
1005
364
  0
TEXT
  5
365
330
33A
100
AcDbEntity
  8
flame
  6
ByBlock
100
AcDbText
 10
102.95
 20
10.50000000000182
 30
0.0
 40
2.5
  1
図
 41
0.9
  7
ATOM
 72
     1
 11
104.0
 21
11.75000000000182
 31
0.0
100
AcDbText
 73
     2
1001
AcDbBlockRepETag
1070
     1
1071
       39
1005
365
  0
TEXT
  5
366
330
33A
100
AcDbEntity
  8
flame
  6
ByBlock
100
AcDbText
 10
141.45
 20
35.00000000000182
 30
0.0
 40
2.5
  1
品
 41
0.9
  7
ATOM
 72
     1
 11
142.5
 21
36.25000000000182
 31
0.0
100
AcDbText
 73
     2
1001
AcDbBlockRepETag
1070
     1
1071
       40
1005
366
  0
TEXT
  5
367
330
33A
100
AcDbEntity
  8
flame
  6
ByBlock
100
AcDbText
 10
141.525
 20
31.50000000000182
 30
0.0
 40
2.5
  1
名
 41
0.9
  7
ATOM
 72
     1
 11
142.5
 21
32.75000000000182
 31
0.0
100
AcDbText
 73
     2
1001
AcDbBlockRepETag
1070
     1
1071
       41
1005
367
  0
TEXT
  5
368
330
33A
100
AcDbEntity
  8
flame
  6
ByBlock
100
AcDbText
 10
141.45
 20
28.00000000000182
 30
0.0
 40
2.5
  1
品
 41
0.9
  7
ATOM
 72
     1
 11
142.5
 21
29.25000000000182
 31
0.0
100
AcDbText
 73
     2
1001
AcDbBlockRepETag
1070
     1
1071
       42
1005
368
  0
TEXT
  5
369
330
33A
100
AcDbEntity
  8
flame
  6
ByBlock
100
AcDbText
 10
141.45
 20
24.50000000000182
 30
0.0
 40
2.5
  1
番
 41
0.9
  7
ATOM
 72
     1
 11
142.5
 21
25.75000000000182
 31
0.0
100
AcDbText
 73
     2
1001
AcDbBlockRepETag
1070
     1
1071
       43
1005
369
  0
TEXT
  5
36A
330
33A
100
AcDbEntity
  8
flame
  6
ByBlock
100
AcDbText
 10
141.45
 20
21.00000000000182
 30
0.0
 40
2.5
  1
図
 41
0.9
  7
ATOM
 72
     1
 11
142.5
 21
22.25000000000182
 31
0.0
100
AcDbText
 73
     2
1001
AcDbBlockRepETag
1070
     1
1071
       44
1005
36A
  0
TEXT
  5
36B
330
33A
100
AcDbEntity
  8
flame
  6
ByBlock
100
AcDbText
 10
141.525
 20
17.50000000000182
 30
0.0
 40
2.5
  1
名
 41
0.9
  7
ATOM
 72
     1
 11
142.5
 21
18.75000000000182
 31
0.0
100
AcDbText
 73
     2
1001
AcDbBlockRepETag
1070
     1
1071
       45
1005
36B
  0
TEXT
  5
36C
330
33A
100
AcDbEntity
  8
flame
  6
ByBlock
100
AcDbText
 10
141.45
 20
14.00000000000182
 30
0.0
 40
2.5
  1
図
 41
0.9
  7
ATOM
 72
     1
 11
142.5
 21
15.25000000000182
 31
0.0
100
AcDbText
 73
     2
1001
AcDbBlockRepETag
1070
     1
1071
       46
1005
36C
  0
TEXT
  5
36D
330
33A
100
AcDbEntity
  8
flame
  6
ByBlock
100
AcDbText
 10
141.45
 20
10.50000000000182
 30
0.0
 40
2.5
  1
番
 41
0.9
  7
ATOM
 72
     1
 11
142.5
 21
11.75000000000182
 31
0.0
100
AcDbText
 73
     2
1001
AcDbBlockRepETag
1070
     1
1071
       47
1005
36D
  0
TEXT
  5
36E
330
33A
100
AcDbEntity
  8
flame
  6
ByBlock
100
AcDbText
 10
42.16666666666666
 20
32.75000000000182
 30
0.0
 40
3.5
  1
A4T
 41
0.5
  7
ATOM
 72
     1
 11
44.5
 21
34.50000000000182
 31
0.0
100
AcDbText
 73
     2
1001
AcDbBlockRepETag
1070
     1
1071
       48
1005
36E
  0
LWPOLYLINE
  5
36F
330
33A
100
AcDbEntity
  8
flame
  6
ByBlock
100
AcDbPolyline
 90
        4
 70
     1
 43
0.0
 10
196.9999999999991
 20
10.0
 10
196.9999999999991
 20
287.0
 10
12.99999999999909
 20
287.0
 10
12.99999999999909
 20
10.0
1001
AcDbBlockRepETag
1070
     1
1071
       49
1005
36F
  0
LWPOLYLINE
  5
370
330
33A
100
AcDbEntity
  8
flame
  6
ByBlock
100
AcDbPolyline
 90
        4
 70
     1
 43
0.0
 10
197.1599999999989
 20
9.840000000000143
 10
197.1599999999989
 20
287.1599999999999
 10
12.83999999999923
 20
287.1599999999999
 10
12.83999999999923
 20
9.840000000000143
1001
AcDbBlockRepETag
1070
     1
1071
       50
1005
370
  0
LWPOLYLINE
  5
371
330
33A
100
AcDbEntity
  8
flame
  6
ByBlock
100
AcDbPolyline
 90
        4
 70
     1
 43
0.0
 10
196.8399999999992
 20
10.15999999999985
 10
196.8399999999992
 20
286.8400000000002
 10
13.15999999999894
 20
286.8400000000002
 10
13.15999999999894
 20
10.15999999999985
1001
AcDbBlockRepETag
1070
     1
1071
       51
1005
371
  0
LWPOLYLINE
  5
372
330
33A
100
AcDbEntity
  8
flame
  6
ByBlock
390
87
100
AcDbPolyline
 90
        4
 70
     1
 43
0.0
 10
0.0
 20
0.0
 10
210.0
 20
0.0
 10
210.0
 20
297.0
 10
0.0
 20
297.0
1001
AcDbBlockRepETag
1070
     1
1071
       52
1005
372
  0
LINE
  5
373
330
33A
100
AcDbEntity
  8
flame
  6
ByBlock
100
AcDbLine
 10
20.0
 20
287.0000000000018
 30
0.0
 11
20.0
 21
280.0000000000018
 31
0.0
1001
AcDbBlockRepETag
1070
     1
1071
       53
1005
373
  0
LINE
  5
374
330
33A
100
AcDbEntity
  8
flame
  6
ByBlock
100
AcDbLine
 10
20.08500000000004
 20
287.0000000000018
 30
0.0
 11
20.08500000000004
 21
280.0000000000018
 31
0.0
1001
AcDbBlockRepETag
1070
     1
1071
       54
1005
374
  0
LINE
  5
375
330
33A
100
AcDbEntity
  8
flame
  6
ByBlock
100
AcDbLine
 10
19.91499999999996
 20
287.0000000000018
 30
0.0
 11
19.91499999999996
 21
280.0000000000018
 31
0.0
1001
AcDbBlockRepETag
1070
     1
1071
       55
1005
375
  0
LINE
  5
376
330
33A
100
AcDbEntity
  8
flame
  6
ByBlock
100
AcDbLine
 10
117.0
 20
287.0000000000018
 30
0.0
 11
117.0
 21
280.0000000000018
 31
0.0
1001
AcDbBlockRepETag
1070
     1
1071
       56
1005
376
  0
LINE
  5
377
330
33A
100
AcDbEntity
  8
flame
  6
ByBlock
100
AcDbLine
 10
116.9149999999999
 20
287.0000000000018
 30
0.0
 11
116.9149999999999
 21
280.0000000000018
 31
0.0
1001
AcDbBlockRepETag
1070
     1
1071
       57
1005
377
  0
LINE
  5
378
330
33A
100
AcDbEntity
  8
flame
  6
ByBlock
100
AcDbLine
 10
117.085
 20
287.0000000000018
 30
0.0
 11
117.085
 21
280.0000000000018
 31
0.0
1001
AcDbBlockRepETag
1070
     1
1071
       58
1005
378
  0
LINE
  5
379
330
33A
100
AcDbEntity
  8
flame
  6
ByBlock
100
AcDbLine
 10
132.0
 20
287.0000000000018
 30
0.0
 11
132.0
 21
280.0000000000018
 31
0.0
1001
AcDbBlockRepETag
1070
     1
1071
       59
1005
379
  0
LINE
  5
37A
330
33A
100
AcDbEntity
  8
flame
  6
ByBlock
100
AcDbLine
 10
131.9149999999999
 20
287.0000000000018
 30
0.0
 11
131.9149999999999
 21
280.0000000000018
 31
0.0
1001
AcDbBlockRepETag
1070
     1
1071
       60
1005
37A
  0
LINE
  5
37B
330
33A
100
AcDbEntity
  8
flame
  6
ByBlock
100
AcDbLine
 10
132.085
 20
287.0000000000018
 30
0.0
 11
132.085
 21
280.0000000000018
 31
0.0
1001
AcDbBlockRepETag
1070
     1
1071
       61
1005
37B
  0
LINE
  5
37C
330
33A
100
AcDbEntity
  8
flame
  6
ByBlock
100
AcDbLine
 10
157.0
 20
287.0000000000018
 30
0.0
 11
157.0
 21
280.0000000000018
 31
0.0
1001
AcDbBlockRepETag
1070
     1
1071
       62
1005
37C
  0
LINE
  5
37D
330
33A
100
AcDbEntity
  8
flame
  6
ByBlock
100
AcDbLine
 10
156.9149999999999
 20
287.0000000000018
 30
0.0
 11
156.9149999999999
 21
280.0000000000018
 31
0.0
1001
AcDbBlockRepETag
1070
     1
1071
       63
1005
37D
  0
LINE
  5
37E
330
33A
100
AcDbEntity
  8
flame
  6
ByBlock
100
AcDbLine
 10
157.085
 20
287.0000000000018
 30
0.0
 11
157.085
 21
280.0000000000018
 31
0.0
1001
AcDbBlockRepETag
1070
     1
1071
       64
1005
37E
  0
LINE
  5
37F
330
33A
100
AcDbEntity
  8
flame
  6
ByBlock
100
AcDbLine
 10
172.0
 20
287.0000000000018
 30
0.0
 11
172.0
 21
280.0000000000018
 31
0.0
1001
AcDbBlockRepETag
1070
     1
1071
       65
1005
37F
  0
LINE
  5
380
330
33A
100
AcDbEntity
  8
flame
  6
ByBlock
100
AcDbLine
 10
171.9149999999999
 20
287.0000000000018
 30
0.0
 11
171.9149999999999
 21
280.0000000000018
 31
0.0
1001
AcDbBlockRepETag
1070
     1
1071
       66
1005
380
  0
LINE
  5
381
330
33A
100
AcDbEntity
  8
flame
  6
ByBlock
100
AcDbLine
 10
172.085
 20
287.0000000000018
 30
0.0
 11
172.085
 21
280.0000000000018
 31
0.0
1001
AcDbBlockRepETag
1070
     1
1071
       67
1005
381
  0
LINE
  5
382
330
33A
100
AcDbEntity
  8
flame
  6
ByBlock
100
AcDbLine
 10
13.0
 20
280.0000000000018
 30
0.0
 11
197.0
 21
280.0000000000018
 31
0.0
1001
AcDbBlockRepETag
1070
     1
1071
       68
1005
382
  0
LINE
  5
383
330
33A
100
AcDbEntity
  8
flame
  6
ByBlock
100
AcDbLine
 10
13.0
 20
279.9150000000027
 30
0.0
 11
197.0
 21
279.9150000000027
 31
0.0
1001
AcDbBlockRepETag
1070
     1
1071
       69
1005
383
  0
LINE
  5
384
330
33A
100
AcDbEntity
  8
flame
  6
ByBlock
100
AcDbLine
 10
13.0
 20
280.0850000000028
 30
0.0
 11
197.0
 21
280.0850000000028
 31
0.0
1001
AcDbBlockRepETag
1070
     1
1071
       70
1005
384
  0
LINE
  5
385
330
33A
100
AcDbEntity
  8
flame
  6
ByBlock
100
AcDbLine
 10
20.0
 20
45.00000000000182
 30
0.0
 11
20.0
 21
38.00000000000182
 31
0.0
1001
AcDbBlockRepETag
1070
     1
1071
       71
1005
385
  0
LINE
  5
386
330
33A
100
AcDbEntity
  8
flame
  6
ByBlock
100
AcDbLine
 10
19.91499999999996
 20
45.00000000000182
 30
0.0
 11
19.91499999999996
 21
38.00000000000182
 31
0.0
1001
AcDbBlockRepETag
1070
     1
1071
       72
1005
386
  0
LINE
  5
387
330
33A
100
AcDbEntity
  8
flame
  6
ByBlock
100
AcDbLine
 10
20.08500000000004
 20
45.00000000000182
 30
0.0
 11
20.08500000000004
 21
38.00000000000182
 31
0.0
1001
AcDbBlockRepETag
1070
     1
1071
       73
1005
387
  0
LINE
  5
388
330
33A
100
AcDbEntity
  8
flame
  6
ByBlock
100
AcDbLine
 10
70.0
 20
38.00000000000182
 30
0.0
 11
70.0
 21
45.00000000000182
 31
0.0
1001
AcDbBlockRepETag
1070
     1
1071
       74
1005
388
  0
LINE
  5
389
330
33A
100
AcDbEntity
  8
flame
  6
ByBlock
100
AcDbLine
 10
70.08500000000004
 20
38.00000000000182
 30
0.0
 11
70.08500000000004
 21
45.00000000000182
 31
0.0
1001
AcDbBlockRepETag
1070
     1
1071
       75
1005
389
  0
LINE
  5
38A
330
33A
100
AcDbEntity
  8
flame
  6
ByBlock
100
AcDbLine
 10
69.91499999999996
 20
38.00000000000182
 30
0.0
 11
69.91499999999996
 21
45.00000000000182
 31
0.0
1001
AcDbBlockRepETag
1070
     1
1071
       76
1005
38A
  0
LINE
  5
38B
330
33A
100
AcDbEntity
  8
flame
  6
ByBlock
100
AcDbLine
 10
98.0
 20
45.00000000000182
 30
0.0
 11
98.0
 21
38.00000000000182
 31
0.0
1001
AcDbBlockRepETag
1070
     1
1071
       77
1005
38B
  0
LINE
  5
38C
330
33A
100
AcDbEntity
  8
flame
  6
ByBlock
100
AcDbLine
 10
98.08500000000003
 20
45.00000000000182
 30
0.0
 11
98.08500000000003
 21
38.00000000000182
 31
0.0
1001
AcDbBlockRepETag
1070
     1
1071
       78
1005
38C
  0
LINE
  5
38D
330
33A
100
AcDbEntity
  8
flame
  6
ByBlock
100
AcDbLine
 10
97.91499999999997
 20
45.00000000000182
 30
0.0
 11
97.91499999999997
 21
38.00000000000182
 31
0.0
1001
AcDbBlockRepETag
1070
     1
1071
       79
1005
38D
  0
LINE
  5
38E
330
33A
100
AcDbEntity
  8
flame
  6
ByBlock
100
AcDbLine
 10
105.0
 20
45.00000000000182
 30
0.0
 11
105.0
 21
38.00000000000182
 31
0.0
1001
AcDbBlockRepETag
1070
     1
1071
       80
1005
38E
  0
LINE
  5
38F
330
33A
100
AcDbEntity
  8
flame
  6
ByBlock
100
AcDbLine
 10
105.085
 20
45.00000000000182
 30
0.0
 11
105.085
 21
38.00000000000182
 31
0.0
1001
AcDbBlockRepETag
1070
     1
1071
       81
1005
38F
  0
LINE
  5
390
330
33A
100
AcDbEntity
  8
flame
  6
ByBlock
100
AcDbLine
 10
105.17
 20
45.00000000000182
 30
0.0
 11
105.17
 21
38.00000000000182
 31
0.0
1001
AcDbBlockRepETag
1070
     1
1071
       82
1005
390
  0
LINE
  5
391
330
33A
100
AcDbEntity
  8
flame
  6
ByBlock
100
AcDbLine
 10
155.0
 20
45.00000000000182
 30
0.0
 11
155.0
 21
38.00000000000182
 31
0.0
1001
AcDbBlockRepETag
1070
     1
1071
       83
1005
391
  0
LINE
  5
392
330
33A
100
AcDbEntity
  8
flame
  6
ByBlock
100
AcDbLine
 10
155.085
 20
45.00000000000182
 30
0.0
 11
155.085
 21
38.00000000000182
 31
0.0
1001
AcDbBlockRepETag
1070
     1
1071
       84
1005
392
  0
LINE
  5
393
330
33A
100
AcDbEntity
  8
flame
  6
ByBlock
100
AcDbLine
 10
154.9149999999999
 20
45.00000000000182
 30
0.0
 11
154.9149999999999
 21
38.00000000000182
 31
0.0
1001
AcDbBlockRepETag
1070
     1
1071
       85
1005
393
  0
LINE
  5
394
330
33A
100
AcDbEntity
  8
flame
  6
ByBlock
100
AcDbLine
 10
12.99999999999909
 20
45.00000000000182
 30
0.0
 11
197.0
 21
45.00000000000182
 31
0.0
1001
AcDbBlockRepETag
1070
     1
1071
       86
1005
394
  0
LINE
  5
395
330
33A
100
AcDbEntity
  8
flame
  6
ByBlock
100
AcDbLine
 10
12.99999999999909
 20
44.91500000000269
 30
0.0
 11
197.0
 21
44.91500000000269
 31
0.0
1001
AcDbBlockRepETag
1070
     1
1071
       87
1005
395
  0
LINE
  5
396
330
33A
100
AcDbEntity
  8
flame
  6
ByBlock
100
AcDbLine
 10
12.99999999999909
 20
45.08500000000275
 30
0.0
 11
197.0
 21
45.08500000000275
 31
0.0
1001
AcDbBlockRepETag
1070
     1
1071
       88
1005
396
  0
LINE
  5
397
330
33A
100
AcDbEntity
  8
flame
  6
ByBlock
100
AcDbLine
 10
12.99999999999909
 20
38.00000000000182
 30
0.0
 11
197.0
 21
38.00000000000182
 31
0.0
1001
AcDbBlockRepETag
1070
     1
1071
       89
1005
397
  0
LINE
  5
398
330
33A
100
AcDbEntity
  8
flame
  6
ByBlock
100
AcDbLine
 10
12.99999999999909
 20
37.91500000000269
 30
0.0
 11
197.0
 21
37.91500000000269
 31
0.0
1001
AcDbBlockRepETag
1070
     1
1071
       90
1005
398
  0
LINE
  5
399
330
33A
100
AcDbEntity
  8
flame
  6
ByBlock
100
AcDbLine
 10
12.99999999999909
 20
38.08500000000277
 30
0.0
 11
197.0
 21
38.08500000000277
 31
0.0
1001
AcDbBlockRepETag
1070
     1
1071
       91
1005
399
  0
LINE
  5
39A
330
33A
100
AcDbEntity
  8
flame
  6
ByBlock
100
AcDbLine
 10
12.99999999999909
 20
31.00000000000183
 30
0.0
 11
197.0
 21
31.00000000000183
 31
0.0
1001
AcDbBlockRepETag
1070
     1
1071
       92
1005
39A
  0
LINE
  5
39B
330
33A
100
AcDbEntity
  8
flame
  6
ByBlock
100
AcDbLine
 10
12.99999999999909
 20
30.91500000000269
 30
0.0
 11
197.0
 21
30.91500000000269
 31
0.0
1001
AcDbBlockRepETag
1070
     1
1071
       93
1005
39B
  0
LINE
  5
39C
330
33A
100
AcDbEntity
  8
flame
  6
ByBlock
100
AcDbLine
 10
12.99999999999909
 20
31.08500000000276
 30
0.0
 11
197.0
 21
31.08500000000276
 31
0.0
1001
AcDbBlockRepETag
1070
     1
1071
       94
1005
39C
  0
LINE
  5
39D
330
33A
100
AcDbEntity
  8
flame
  6
ByBlock
100
AcDbLine
 10
102.5
 20
24.00000000000182
 30
0.0
 11
197.0
 21
24.00000000000182
 31
0.0
1001
AcDbBlockRepETag
1070
     1
1071
       95
1005
39D
  0
LINE
  5
39E
330
33A
100
AcDbEntity
  8
flame
  6
ByBlock
100
AcDbLine
 10
102.5
 20
23.91500000000269
 30
0.0
 11
197.0
 21
23.91500000000269
 31
0.0
1001
AcDbBlockRepETag
1070
     1
1071
       96
1005
39E
  0
LINE
  5
39F
330
33A
100
AcDbEntity
  8
flame
  6
ByBlock
100
AcDbLine
 10
102.5
 20
24.08500000000277
 30
0.0
 11
197.0
 21
24.08500000000277
 31
0.0
1001
AcDbBlockRepETag
1070
     1
1071
       97
1005
39F
  0
LINE
  5
3A0
330
33A
100
AcDbEntity
  8
flame
  6
ByBlock
100
AcDbLine
 10
102.5
 20
17.00000000000182
 30
0.0
 11
197.0
 21
17.00000000000182
 31
0.0
1001
AcDbBlockRepETag
1070
     1
1071
       98
1005
3A0
  0
LINE
  5
3A1
330
33A
100
AcDbEntity
  8
flame
  6
ByBlock
100
AcDbLine
 10
102.5
 20
16.91500000000269
 30
0.0
 11
197.0
 21
16.91500000000269
 31
0.0
1001
AcDbBlockRepETag
1070
     1
1071
       99
1005
3A1
  0
LINE
  5
3A2
330
33A
100
AcDbEntity
  8
flame
  6
ByBlock
100
AcDbLine
 10
102.5
 20
17.08500000000276
 30
0.0
 11
197.0
 21
17.08500000000276
 31
0.0
1001
AcDbBlockRepETag
1070
     1
1071
      100
1005
3A2
  0
LINE
  5
3A3
330
33A
100
AcDbEntity
  8
flame
  6
ByBlock
100
AcDbLine
 10
26.0
 20
38.00000000000182
 30
0.0
 11
26.0
 21
31.00000000000183
 31
0.0
1001
AcDbBlockRepETag
1070
     1
1071
      101
1005
3A3
  0
LINE
  5
3A4
330
33A
100
AcDbEntity
  8
flame
  6
ByBlock
100
AcDbLine
 10
26.08500000000004
 20
38.00000000000182
 30
0.0
 11
26.08500000000004
 21
31.00000000000183
 31
0.0
1001
AcDbBlockRepETag
1070
     1
1071
      102
1005
3A4
  0
LINE
  5
3A5
330
33A
100
AcDbEntity
  8
flame
  6
ByBlock
100
AcDbLine
 10
25.91499999999996
 20
38.00000000000182
 30
0.0
 11
25.91499999999996
 21
31.00000000000183
 31
0.0
1001
AcDbBlockRepETag
1070
     1
1071
      103
1005
3A5
  0
LINE
  5
3A6
330
33A
100
AcDbEntity
  8
flame
  6
ByBlock
100
AcDbLine
 10
29.0
 20
31.00000000000183
 30
0.0
 11
29.0
 21
38.00000000000182
 31
0.0
1001
AcDbBlockRepETag
1070
     1
1071
      104
1005
3A6
  0
LINE
  5
3A7
330
33A
100
AcDbEntity
  8
flame
  6
ByBlock
100
AcDbLine
 10
29.08500000000003
 20
31.00000000000183
 30
0.0
 11
29.08500000000003
 21
38.00000000000182
 31
0.0
1001
AcDbBlockRepETag
1070
     1
1071
      105
1005
3A7
  0
LINE
  5
3A8
330
33A
100
AcDbEntity
  8
flame
  6
ByBlock
100
AcDbLine
 10
28.91499999999997
 20
31.00000000000183
 30
0.0
 11
28.91499999999997
 21
38.00000000000182
 31
0.0
1001
AcDbBlockRepETag
1070
     1
1071
      106
1005
3A8
  0
LINE
  5
3A9
330
33A
100
AcDbEntity
  8
flame
  6
ByBlock
100
AcDbLine
 10
41.0
 20
38.00000000000182
 30
0.0
 11
41.0
 21
31.00000000000183
 31
0.0
1001
AcDbBlockRepETag
1070
     1
1071
      107
1005
3A9
  0
LINE
  5
3AA
330
33A
100
AcDbEntity
  8
flame
  6
ByBlock
100
AcDbLine
 10
41.08500000000003
 20
38.00000000000182
 30
0.0
 11
41.08500000000003
 21
31.00000000000183
 31
0.0
1001
AcDbBlockRepETag
1070
     1
1071
      108
1005
3AA
  0
LINE
  5
3AB
330
33A
100
AcDbEntity
  8
flame
  6
ByBlock
100
AcDbLine
 10
40.91499999999996
 20
38.00000000000182
 30
0.0
 11
40.91499999999996
 21
31.00000000000183
 31
0.0
1001
AcDbBlockRepETag
1070
     1
1071
      109
1005
3AB
  0
LINE
  5
3AC
330
33A
100
AcDbEntity
  8
flame
  6
ByBlock
100
AcDbLine
 10
48.0
 20
38.00000000000182
 30
0.0
 11
48.0
 21
31.00000000000183
 31
0.0
1001
AcDbBlockRepETag
1070
     1
1071
      110
1005
3AC
  0
LINE
  5
3AD
330
33A
100
AcDbEntity
  8
flame
  6
ByBlock
100
AcDbLine
 10
48.08500000000003
 20
38.00000000000182
 30
0.0
 11
48.08500000000003
 21
31.00000000000183
 31
0.0
1001
AcDbBlockRepETag
1070
     1
1071
      111
1005
3AD
  0
LINE
  5
3AE
330
33A
100
AcDbEntity
  8
flame
  6
ByBlock
100
AcDbLine
 10
47.91499999999996
 20
38.00000000000182
 30
0.0
 11
47.91499999999996
 21
31.00000000000183
 31
0.0
1001
AcDbBlockRepETag
1070
     1
1071
      112
1005
3AE
  0
LINE
  5
3AF
330
33A
100
AcDbEntity
  8
flame
  6
ByBlock
100
AcDbLine
 10
51.0
 20
38.00000000000182
 30
0.0
 11
51.0
 21
31.00000000000183
 31
0.0
1001
AcDbBlockRepETag
1070
     1
1071
      113
1005
3AF
  0
LINE
  5
3B0
330
33A
100
AcDbEntity
  8
flame
  6
ByBlock
100
AcDbLine
 10
51.08500000000002
 20
38.00000000000182
 30
0.0
 11
51.08500000000002
 21
31.00000000000183
 31
0.0
1001
AcDbBlockRepETag
1070
     1
1071
      114
1005
3B0
  0
LINE
  5
3B1
330
33A
100
AcDbEntity
  8
flame
  6
ByBlock
100
AcDbLine
 10
50.91499999999996
 20
38.00000000000182
 30
0.0
 11
50.91499999999996
 21
31.00000000000183
 31
0.0
1001
AcDbBlockRepETag
1070
     1
1071
      115
1005
3B1
  0
LINE
  5
3B2
330
33A
100
AcDbEntity
  8
flame
  6
ByBlock
100
AcDbLine
 10
105.5
 20
38.00000000000182
 30
0.0
 11
105.5
 21
10.00000000000182
 31
0.0
1001
AcDbBlockRepETag
1070
     1
1071
      116
1005
3B2
  0
LINE
  5
3B3
330
33A
100
AcDbEntity
  8
flame
  6
ByBlock
100
AcDbLine
 10
105.4149999999999
 20
38.00000000000182
 30
0.0
 11
105.4149999999999
 21
10.00000000000182
 31
0.0
1001
AcDbBlockRepETag
1070
     1
1071
      117
1005
3B3
  0
LINE
  5
3B4
330
33A
100
AcDbEntity
  8
flame
  6
ByBlock
100
AcDbLine
 10
105.585
 20
38.00000000000182
 30
0.0
 11
105.585
 21
10.00000000000182
 31
0.0
1001
AcDbBlockRepETag
1070
     1
1071
      118
1005
3B4
  0
LINE
  5
3B5
330
33A
100
AcDbEntity
  8
flame
  6
ByBlock
100
AcDbLine
 10
102.5
 20
38.00000000000182
 30
0.0
 11
102.5
 21
10.00000000000182
 31
0.0
1001
AcDbBlockRepETag
1070
     1
1071
      119
1005
3B5
  0
LINE
  5
3B6
330
33A
100
AcDbEntity
  8
flame
  6
ByBlock
100
AcDbLine
 10
102.585
 20
38.00000000000182
 30
0.0
 11
102.585
 21
10.00000000000182
 31
0.0
1001
AcDbBlockRepETag
1070
     1
1071
      120
1005
3B6
  0
LINE
  5
3B7
330
33A
100
AcDbEntity
  8
flame
  6
ByBlock
100
AcDbLine
 10
102.4149999999999
 20
38.00000000000182
 30
0.0
 11
102.4149999999999
 21
10.00000000000182
 31
0.0
1001
AcDbBlockRepETag
1070
     1
1071
      121
1005
3B7
  0
LWPOLYLINE
  5
3B8
330
33A
100
AcDbEntity
  8
flame
  6
ByBlock
100
AcDbPolyline
 90
        4
 70
     1
 43
0.0
 10
39.99690127353097
 20
20.30329643996265
 10
44.81342572509128
 20
25.1198208915248
 42
0.9999999999997582
 10
43.1737578266884
 20
26.75948878992676
 10
38.35723337512718
 20
21.94296433836826
 42
1.000000000000484
1001
AcDbBlockRepETag
1070
     1
1071
      122
1005
3B8
  0
LWPOLYLINE
  5
3B9
330
33A
100
AcDbEntity
  8
flame
  6
ByBlock
100
AcDbPolyline
 90
        4
 70
     1
 43
0.0
 10
39.93679719713055
 20
20.36340051636398
 10
44.75332164868995
 20
25.17992496792613
 42
1.0
 10
43.23386190308883
 20
26.69938471352543
 10
38.41733745152851
 20
21.88286026196692
 42
1.0
1001
AcDbBlockRepETag
1070
     1
1071
      123
1005
3B9
  0
LWPOLYLINE
  5
3BA
330
33A
100
AcDbEntity
  8
flame
  6
ByBlock
100
AcDbPolyline
 90
        4
 70
     1
 43
0.0
 10
40.0570053499323
 20
20.24319236356132
 10
44.87352980149171
 20
25.05971681512347
 42
1.0
 10
43.11365375028707
 20
26.81959286632809
 10
38.29712929872676
 20
22.00306841476959
 42
1.0
1001
AcDbBlockRepETag
1070
     1
1071
      124
1005
3BA
  0
LWPOLYLINE
  5
3BB
330
33A
100
AcDbEntity
  8
flame
  6
ByBlock
100
AcDbPolyline
 90
        6
 70
     1
 43
0.0
 10
23.65793040508288
 20
22.87921870190257
 42
0.5040414943243567
 10
23.86582274333614
 20
23.16016907249468
 10
22.88017841010152
 20
26.38406642074915
 42
0.7399610750323026
 10
22.46439373359499
 20
26.38406642074915
 10
21.47874940036127
 20
23.16016907249468
 42
0.5040414943247417
 10
21.68664173861271
 20
22.87921870190257
1001
AcDbBlockRepETag
1070
     1
1071
      125
1005
3BB
  0
LWPOLYLINE
  5
3BC
330
33A
100
AcDbEntity
  8
flame
  6
ByBlock
100
AcDbPolyline
 90
        6
 70
     1
 43
0.0
 10
23.65793040508288
 20
22.79421870190163
 42
0.504041494324358
 10
23.94710864759327
 20
23.18502066739529
 10
22.96146431435773
 20
26.40891801565158
 42
0.7399610750322862
 10
22.38310782933786
 20
26.40891801565158
 10
21.39746349610414
 20
23.18502066739529
 42
0.5040414943247422
 10
21.68664173861271
 20
22.79421870190163
1001
AcDbBlockRepETag
1070
     1
1071
      126
1005
3BC
  0
LWPOLYLINE
  5
3BD
330
33A
100
AcDbEntity
  8
flame
  6
ByBlock
100
AcDbPolyline
 90
        6
 70
     1
 43
0.0
 10
23.65793040508288
 20
22.9642187019017
 42
0.5040414943243489
 10
23.78453683907901
 20
23.13531747759225
 10
22.79889250584438
 20
26.35921482584854
 42
0.7399610750322957
 10
22.54567963785212
 20
26.35921482584854
 10
21.56003530461749
 20
23.13531747759225
 42
0.5040414943247367
 10
21.68664173861362
 20
22.9642187019017
1001
AcDbBlockRepETag
1070
     1
1071
      127
1005
3BD
  0
LWPOLYLINE
  5
3BE
330
33A
100
AcDbEntity
  8
flame
  6
ByBlock
100
AcDbPolyline
 90
       26
 70
     1
 43
0.0
 10
24.23597017697921
 20
21.94947136993869
 10
24.94491088760697
 20
19.63063079022686
 42
-0.5040414943260745
 10
24.66772110327111
 20
19.25603029610465
 10
24.26648897039922
 20
19.25603029610465
 42
0.4142135623730951
 10
24.12156143416723
 20
19.11110275987266
 10
24.12156143416723
 20
18.53139261494471
 10
28.46938752112419
 20
18.53139261494471
 10
28.46938752112419
 20
19.11110275987266
 42
0.4142135623730951
 10
28.3244599848922
 20
19.25603029610465
 10
27.82810683450316
 20
19.25603029610465
 42
-0.3297505471416469
 10
27.48161960408106
 20
19.5124173596123
 10
24.72424215320916
 20
28.53139261494471
 10
22.36314958463299
 20
28.53139261494471
 10
19.60577213376018
 20
19.5124173596123
 42
-0.3297505471416475
 10
19.25928490333898
 20
19.25603029610465
 10
18.90417012981925
 20
19.25603029610465
 42
0.4142135623730951
 10
18.75924259358817
 20
19.11110275987266
 10
18.75924259358817
 20
18.53139261494471
 10
21.07808317329727
 20
18.53139261494471
 10
21.07808317329727
 20
19.11110275987266
 42
0.4142135623730951
 10
20.93315563706619
 20
19.25603029610465
 10
20.57892187825655
 20
19.25603029610465
 42
-0.5040414943243619
 10
20.37102954000329
 20
19.53698066669676
 10
21.12427904504603
 20
22.00074878263877
 42
-0.329750547139216
 10
21.33217138329928
 20
22.15458102074263
 10
23.95878039264244
 20
22.15458102074263
 42
-0.3297505471401503
1001
AcDbBlockRepETag
1070
     1
1071
      128
1005
3BE
  0
LWPOLYLINE
  5
3BF
330
33A
100
AcDbEntity
  8
flame
  6
ByBlock
100
AcDbPolyline
 90
       26
 70
     1
 43
0.0
 10
24.15468427272208
 20
21.92461977503626
 10
24.86362498334984
 20
19.60577919532625
 42
-0.5040414943260704
 10
24.66772110327111
 20
19.3410302961056
 10
24.26648897039922
 20
19.3410302961056
 42
0.4142135623730974
 10
24.0365614341672
 20
19.11110275987266
 10
24.0365614341672
 20
18.44639261494558
 10
28.55438752112423
 20
18.44639261494558
 10
28.55438752112423
 20
19.11110275987266
 42
0.4142135623730974
 10
28.3244599848922
 20
19.3410302961056
 10
27.82810683450316
 20
19.34103029610378
 42
-0.3297505471416459
 10
27.56290550833819
 20
19.53726895451291
 10
24.78713884458648
 20
28.61639261494565
 10
22.30025289325567
 20
28.61639261494565
 10
19.52448622950305
 20
19.53726895451291
 42
-0.3297505471416504
 10
19.25928490333898
 20
19.3410302961056
 10
18.90417012981925
 20
19.3410302961056
 42
0.4142135623730973
 10
18.67424259358813
 20
19.11110275987266
 10
18.67424259358813
 20
18.44639261494558
 10
21.16308317329731
 20
18.44639261494558
 10
21.16308317329731
 20
19.11110275987266
 42
0.4142135623730973
 10
20.93315563706619
 20
19.3410302961056
 10
20.57892187825655
 20
19.3410302961056
 42
-0.5040414943243603
 10
20.45231544425951
 20
19.51212907179615
 10
21.20556494930315
 20
21.97589718773816
 42
-0.3297505471392114
 10
21.33217138329928
 20
22.06958102074168
 10
23.95878039264244
 20
22.0695810207435
 42
-0.3297505471401487
1001
AcDbBlockRepETag
1070
     1
1071
      129
1005
3BF
  0
LWPOLYLINE
  5
3C0
330
33A
100
AcDbEntity
  8
flame
  6
ByBlock
100
AcDbPolyline
 90
       26
 70
     1
 43
0.0
 10
24.31725608123634
 20
21.9743229648393
 10
25.02619679186409
 20
19.65548238512929
 42
-0.504041494326073
 10
24.66772110327111
 20
19.17103029610553
 10
24.26648897039922
 20
19.17103029610553
 42
0.4142135623730869
 10
24.20656143416727
 20
19.11110275987266
 10
24.20656143416727
 20
18.61639261494565
 10
28.38438752112415
 20
18.61639261494565
 10
28.38438752112415
 20
19.11110275987266
 42
0.4142135623730869
 10
28.3244599848922
 20
19.17103029610553
 10
27.82810683450316
 20
19.17103029610371
 42
-0.3297505471416466
 10
27.40033369982393
 20
19.48756576471169
 10
24.66134546183184
 20
28.44639261494558
 10
22.42604627601031
 20
28.44639261494558
 10
19.68705803801731
 20
19.48756576471169
 42
-0.3297505471416456
 10
19.25928490333898
 20
19.17103029610553
 10
18.90417012981925
 20
19.17103029610553
 42
0.4142135623730869
 10
18.8442425935882
 20
19.11110275987266
 10
18.8442425935882
 20
18.61639261494565
 10
20.99308317329724
 20
18.61639261494565
 10
20.99308317329724
 20
19.11110275987266
 42
0.4142135623730869
 10
20.93315563706619
 20
19.17103029610553
 10
20.57892187825564
 20
19.17103029610553
 42
-0.5040414943243603
 10
20.28974363574616
 20
19.56183226159737
 10
21.0429931407898
 20
22.02560037753938
 42
-0.3297505471392168
 10
21.33217138329928
 20
22.23958102074175
 10
23.95878039264244
 20
22.23958102074357
 42
-0.3297505471401506
1001
AcDbBlockRepETag
1070
     1
1071
      130
1005
3C0
  0
LWPOLYLINE
  5
3C1
330
33A
100
AcDbEntity
  8
flame
  6
ByBlock
100
AcDbPolyline
 90
       26
 70
     1
 43
0.0
 10
35.93296628726421
 20
26.29672794011822
 10
35.8606918689502
 20
28.53139261494471
 10
31.87518462257322
 20
28.53139261494471
 10
27.88967737619624
 20
28.53139261494471
 10
27.81740295788131
 20
26.29672794011822
 42
0.8721984941219423
 10
28.52513359009208
 20
26.17622796726755
 10
28.8149313892036
 20
27.09686812119617
 42
-0.3274643887701543
 10
29.78261458521411
 20
27.80675493378658
 10
29.99112665155826
 20
27.80675493378658
 42
-0.4142135623730951
 10
30.49837302837023
 20
27.29950855697462
 10
30.49837302836841
 20
19.61834913668463
 42
-0.4142135623730951
 10
30.13605418779025
 20
19.25603029610465
 10
29.84619911532718
 20
19.25603029610465
 42
0.4142135623730951
 10
29.70127157909519
 20
19.11110275987266
 10
29.70127157909519
 20
18.53139261494471
 10
31.87518462257322
 20
18.53139261494471
 10
34.04909766605124
 20
18.53139261494471
 10
34.04909766605124
 20
19.11110275987266
 42
0.4142135623730951
 10
33.90417012982016
 20
19.25603029610465
 10
33.61431505735618
 20
19.25603029610465
 42
-0.4142135623730951
 10
33.25199621677621
 20
19.61834913668463
 10
33.25199621677621
 20
27.29950855697462
 42
-0.4142135623730951
 10
33.75924259358817
 20
27.80675493378658
 10
33.96775465993233
 20
27.80675493378658
 42
-0.3274643887701542
 10
34.93543785594285
 20
27.09686812119617
 10
35.22523565505435
 20
26.17622796726755
 42
0.872198494121949
1001
AcDbBlockRepETag
1070
     1
1071
      131
1005
3C1
  0
LWPOLYLINE
  5
3C2
330
33A
100
AcDbEntity
  8
flame
  6
ByBlock
100
AcDbPolyline
 90
       26
 70
     1
 43
0.0
 10
36.01792186580043
 20
26.29947560740402
 10
35.94298720965799
 20
28.61639261494565
 10
31.87518462257322
 20
28.61639261494565
 10
27.80738203548754
 20
28.61639261494565
 10
27.73244737934419
 20
26.29947560740402
 42
0.8721984941219334
 10
28.60621161787186
 20
26.15070634092262
 10
28.89600941698336
 20
27.07134649485124
 42
-0.3274643887701552
 10
29.78261458521411
 20
27.72175493378564
 10
29.99112665155826
 20
27.72175493378564
 42
-0.414213562373094
 10
30.41337302837019
 20
27.29950855697462
 10
30.41337302836928
 20
19.61834913668463
 42
-0.4142135623730934
 10
30.13605418779025
 20
19.3410302961056
 10
29.84619911532718
 20
19.3410302961056
 42
0.4142135623730974
 10
29.61627157909516
 20
19.11110275987266
 10
29.61627157909516
 20
18.44639261494558
 10
31.87518462257322
 20
18.44639261494558
 10
34.13409766605127
 20
18.44639261494558
 10
34.13409766605127
 20
19.11110275987266
 42
0.4142135623730973
 10
33.90417012982016
 20
19.3410302961056
 10
33.61431505735618
 20
19.34103029610378
 42
-0.4142135623730934
 10
33.33699621677624
 20
19.61834913668463
 10
33.33699621677624
 20
27.29950855697462
 42
-0.414213562373094
 10
33.75924259358817
 20
27.72175493378564
 10
33.96775465993233
 20
27.72175493378564
 42
-0.3274643887701549
 10
34.85435982816307
 20
27.07134649485124
 10
35.14415762727367
 20
26.15070634092262
 42
0.8721984941219462
1001
AcDbBlockRepETag
1070
     1
1071
      132
1005
3C2
  0
LWPOLYLINE
  5
3C3
330
33A
100
AcDbEntity
  8
flame
  6
ByBlock
100
AcDbPolyline
 90
       26
 70
     1
 43
0.0
 10
35.848010708728
 20
26.29398027283242
 10
35.7783965282424
 20
28.44639261494558
 10
31.87518462257322
 20
28.44639261494558
 10
27.97197271690402
 20
28.44639261494558
 10
27.90235853641752
 20
26.29398027283424
 42
0.8721984941219337
 10
28.44405556231232
 20
26.20174959361248
 10
28.73385336142383
 20
27.1223897475411
 42
-0.327464388770155
 10
29.78261458521411
 20
27.89175493378571
 10
29.99112665155826
 20
27.89175493378571
 42
-0.4142135623730959
 10
30.58337302837026
 20
27.29950855697462
 10
30.58337302836844
 20
19.61834913668463
 42
-0.4142135623730962
 10
30.13605418779025
 20
19.17103029610553
 10
29.84619911532718
 20
19.17103029610553
 42
0.4142135623730869
 10
29.78627157909523
 20
19.11110275987266
 10
29.78627157909523
 20
18.61639261494565
 10
31.87518462257322
 20
18.61639261494565
 10
33.9640976660512
 20
18.61639261494565
 10
33.9640976660512
 20
19.11110275987266
 42
0.4142135623730869
 10
33.90417012982016
 20
19.17103029610553
 10
33.61431505735618
 20
19.17103029610371
 42
-0.414213562373096
 10
33.16699621677617
 20
19.61834913668463
 10
33.16699621677617
 20
27.29950855697462
 42
-0.4142135623730959
 10
33.75924259358817
 20
27.89175493378571
 10
33.96775465993233
 20
27.89175493378571
 42
-0.3274643887701536
 10
35.01651588372352
 20
27.1223897475411
 10
35.30631368283412
 20
26.20174959361248
 42
0.8721984941219799
1001
AcDbBlockRepETag
1070
     1
1071
      133
1005
3C3
  0
LWPOLYLINE
  5
3C4
330
33A
100
AcDbEntity
  8
flame
  6
ByBlock
100
AcDbPolyline
 90
       40
 70
     1
 43
0.0
 10
58.61431505735618
 20
19.25603029610465
 42
-0.4142135623730951
 10
58.75924259358817
 20
19.11110275987266
 10
58.75924259358817
 20
18.53139261494471
 10
54.70127157909519
 20
18.53139261494471
 10
54.70127157909519
 20
19.11110275987266
 42
-0.4142135623730951
 10
54.84619911532718
 20
19.25603029610465
 10
55.13605418779116
 20
19.25603029610465
 42
0.4142135623730951
 10
55.49837302837023
 20
19.61834913668463
 10
55.49837302837023
 20
27.59605675325474
 42
0.8769764629942649
 10
55.07099784874207
 20
27.65232176305835
 10
52.62705224928414
 20
18.53139261494471
 10
51.93153233427985
 20
18.53139261494471
 10
49.47647284567938
 20
27.69379936200676
 42
0.8769764629925763
 10
49.04909766605214
 20
27.63753435220133
 10
49.04909766605214
 20
19.47342160045264
 42
0.4142135623730951
 10
49.26648897039921
 20
19.25603029610465
 10
49.4838802747472
 20
19.25603029610465
 42
-0.4142135623730951
 10
49.62880781097918
 20
19.11110275987266
 10
49.62880781097918
 20
18.53139261494471
 10
47.59982230373225
 20
18.53139261494471
 10
47.59982230373225
 20
19.11110275987266
 42
-0.4142135623730951
 10
47.74474983996425
 20
19.25603029610465
 10
48.10706868054421
 20
19.25603029610465
 42
0.4142135623730951
 10
48.3244599848922
 20
19.47342160045264
 10
48.3244599848922
 20
27.5893636294386
 42
0.4142135623730951
 10
48.10706868054421
 20
27.80675493378658
 10
47.74474983996425
 20
27.80675493378658
 42
-0.4142135623730951
 10
47.59982230373225
 20
27.95168247001857
 10
47.59982230373225
 20
28.53139261494471
 10
51.80272085445722
 20
28.53139261494471
 10
52.96954857338005
 20
24.1767322842461
 42
0.7673269879785562
 10
53.38951632394036
 20
24.1767322842461
 10
54.55634404286321
 20
28.53139261494471
 10
58.75924259358817
 20
28.53139261494471
 10
58.75924259358817
 20
27.95168247001857
 42
-0.4142135623730951
 10
58.61431505735618
 20
27.80675493378658
 10
58.3244599848922
 20
27.80675493378658
 42
0.4142135623730951
 10
57.96214114431222
 20
27.44443609320661
 10
57.96214114431222
 20
19.61834913668463
 42
0.4142135623730951
 10
58.3244599848922
 20
19.25603029610465
1001
AcDbBlockRepETag
1070
     1
1071
      134
1005
3C4
  0
LWPOLYLINE
  5
3C5
330
33A
100
AcDbEntity
  8
flame
  6
ByBlock
100
AcDbPolyline
 90
       40
 70
     1
 43
0.0
 10
58.61431505735618
 20
19.3410302961056
 42
-0.4142135623730974
 10
58.84424259358819
 20
19.11110275987266
 10
58.84424259358819
 20
18.44639261494558
 10
54.61627157909514
 20
18.44639261494558
 10
54.61627157909514
 20
19.11110275987266
 42
-0.4142135623730974
 10
54.84619911532718
 20
19.3410302961056
 10
55.13605418779116
 20
19.3410302961056
 42
0.4142135623730934
 10
55.41337302837018
 20
19.61834913668463
 10
55.41337302837018
 20
27.59605675325474
 42
0.8769764629942653
 10
55.15310154397685
 20
27.63032214422492
 10
52.69227504326227
 20
18.44639261494558
 10
51.86630954030171
 20
18.44639261494558
 10
49.39436915044461
 20
27.67179974317333
 42
0.8769764629924258
 10
49.13409766605218
 20
27.63753435220133
 10
49.13409766605218
 20
19.47342160045264
 42
0.4142135623730835
 10
49.26648897039921
 20
19.3410302961056
 10
49.4838802747472
 20
19.3410302961056
 42
-0.4142135623730974
 10
49.71380781097924
 20
19.11110275987266
 10
49.71380781097924
 20
18.44639261494558
 10
47.51482230373222
 20
18.44639261494558
 10
47.51482230373222
 20
19.11110275987266
 42
-0.4142135623730974
 10
47.74474983996425
 20
19.3410302961056
 10
48.10706868054421
 20
19.3410302961056
 42
0.4142135623730913
 10
48.23945998489215
 20
19.47342160045264
 10
48.23945998489215
 20
27.5893636294386
 42
0.4142135623730913
 10
48.10706868054421
 20
27.72175493378564
 10
47.74474983996425
 20
27.72175493378564
 42
-0.4142135623730974
 10
47.51482230373222
 20
27.95168247001857
 10
47.51482230373222
 20
28.61639261494565
 10
51.86794364843535
 20
28.61639261494565
 10
53.05165226861482
 20
24.19873190307953
 42
0.767326987978615
 10
53.3074126287056
 20
24.19873190307953
 10
54.49112124888507
 20
28.61639261494565
 10
58.84424259358819
 20
28.61639261494565
 10
58.84424259358819
 20
27.95168247001857
 42
-0.4142135623730974
 10
58.61431505735618
 20
27.72175493378564
 10
58.3244599848922
 20
27.72175493378564
 42
0.4142135623730896
 10
58.04714114431225
 20
27.44443609320661
 10
58.04714114431225
 20
19.61834913668463
 42
0.4142135623730895
 10
58.3244599848922
 20
19.3410302961056
1001
AcDbBlockRepETag
1070
     1
1071
      135
1005
3C5
  0
LWPOLYLINE
  5
3C6
330
33A
100
AcDbEntity
  8
flame
  6
ByBlock
100
AcDbPolyline
 90
       40
 70
     1
 43
0.0
 10
58.61431505735618
 20
19.17103029610553
 42
-0.4142135623730869
 10
58.67424259358813
 20
19.11110275987266
 10
58.67424259358813
 20
18.61639261494565
 10
54.78627157909523
 20
18.61639261494565
 10
54.78627157909523
 20
19.11110275987266
 42
-0.4142135623730869
 10
54.84619911532718
 20
19.17103029610553
 10
55.13605418779116
 20
19.17103029610553
 42
0.4142135623730962
 10
55.58337302837025
 20
19.61834913668463
 10
55.58337302837025
 20
27.59605675325474
 42
0.8769764629943033
 10
54.98889415350731
 20
27.67432138189179
 10
52.561829455306
 20
18.61639261494565
 10
51.99675512825797
 20
18.61639261494565
 10
49.55857654091414
 20
27.71579898084019
 42
0.8769764629925827
 10
48.96409766605211
 20
27.63753435220133
 10
48.96409766605211
 20
19.47342160045264
 42
0.4142135623731002
 10
49.26648897039921
 20
19.17103029610553
 10
49.4838802747472
 20
19.17103029610553
 42
-0.4142135623730869
 10
49.54380781097915
 20
19.11110275987266
 10
49.54380781097915
 20
18.61639261494565
 10
47.68482230373229
 20
18.61639261494565
 10
47.68482230373229
 20
19.11110275987266
 42
-0.4142135623730869
 10
47.74474983996425
 20
19.17103029610553
 10
48.10706868054421
 20
19.17103029610553
 42
0.4142135623730966
 10
48.40945998489225
 20
19.47342160045264
 10
48.40945998489225
 20
27.5893636294386
 42
0.4142135623730966
 10
48.10706868054421
 20
27.89175493378571
 10
47.74474983996425
 20
27.89175493378571
 42
-0.4142135623730869
 10
47.68482230373229
 20
27.95168247001857
 10
47.68482230373229
 20
28.44639261494558
 10
51.73749806047908
 20
28.44639261494558
 10
52.88744487814528
 20
24.15473266541268
 42
0.7673269879785485
 10
53.47162001917514
 20
24.15473266541268
 10
54.62156683684135
 20
28.44639261494558
 10
58.67424259358813
 20
28.44639261494558
 10
58.67424259358813
 20
27.95168247001857
 42
-0.4142135623730869
 10
58.61431505735618
 20
27.89175493378571
 10
58.3244599848922
 20
27.89175493378571
 42
0.4142135623730962
 10
57.87714114431219
 20
27.44443609320661
 10
57.87714114431219
 20
19.61834913668463
 42
0.4142135623730985
 10
58.3244599848922
 20
19.17103029610553
1001
AcDbBlockRepETag
1070
     1
1071
      136
1005
3C6
  0
LINE
  5
3C7
330
33A
100
AcDbEntity
  8
flame
  6
ByBlock
100
AcDbLine
 10
105.0
 20
0.0
 30
0.0
 11
104.9999999999991
 21
10.0
 31
0.0
1001
AcDbBlockRepETag
1070
     1
1071
      137
1005
3C7
  0
LINE
  5
3C8
330
33A
100
AcDbEntity
  8
flame
  6
ByBlock
100
AcDbLine
 10
105.1599999999998
 20
0.0
 30
0.0
 11
105.1599999999989
 21
10.0
 31
0.0
1001
AcDbBlockRepETag
1070
     1
1071
      138
1005
3C8
  0
LINE
  5
3C9
330
33A
100
AcDbEntity
  8
flame
  6
ByBlock
100
AcDbLine
 10
104.8400000000001
 20
0.0
 30
0.0
 11
104.8399999999992
 21
10.0
 31
0.0
1001
AcDbBlockRepETag
1070
     1
1071
      139
1005
3C9
  0
LINE
  5
3CA
330
33A
100
AcDbEntity
  8
flame
  6
ByBlock
100
AcDbLine
 10
210.0
 20
148.5
 30
0.0
 11
196.9999999999991
 21
148.5
 31
0.0
1001
AcDbBlockRepETag
1070
     1
1071
      140
1005
3CA
  0
LINE
  5
3CB
330
33A
100
AcDbEntity
  8
flame
  6
ByBlock
100
AcDbLine
 10
210.0
 20
148.3400000000001
 30
0.0
 11
196.9999999999991
 21
148.3400000000001
 31
0.0
1001
AcDbBlockRepETag
1070
     1
1071
      141
1005
3CB
  0
LINE
  5
3CC
330
33A
100
AcDbEntity
  8
flame
  6
ByBlock
100
AcDbLine
 10
210.0
 20
148.6599999999998
 30
0.0
 11
196.9999999999991
 21
148.6599999999998
 31
0.0
1001
AcDbBlockRepETag
1070
     1
1071
      142
1005
3CC
  0
LINE
  5
3CD
330
33A
100
AcDbEntity
  8
flame
  6
ByBlock
100
AcDbLine
 10
105.0
 20
297.0
 30
0.0
 11
105.0
 21
287.0
 31
0.0
1001
AcDbBlockRepETag
1070
     1
1071
      143
1005
3CD
  0
LINE
  5
3CE
330
33A
100
AcDbEntity
  8
flame
  6
ByBlock
100
AcDbLine
 10
105.1599999999998
 20
297.0
 30
0.0
 11
105.1599999999998
 21
287.0
 31
0.0
1001
AcDbBlockRepETag
1070
     1
1071
      144
1005
3CE
  0
LINE
  5
3CF
330
33A
100
AcDbEntity
  8
flame
  6
ByBlock
100
AcDbLine
 10
104.8400000000001
 20
297.0
 30
0.0
 11
104.8400000000001
 21
287.0
 31
0.0
1001
AcDbBlockRepETag
1070
     1
1071
      145
1005
3CF
  0
LINE
  5
3D0
330
33A
100
AcDbEntity
  8
flame
  6
ByBlock
100
AcDbLine
 10
0.0
 20
148.5
 30
0.0
 11
12.99999999999909
 21
148.5
 31
0.0
1001
AcDbBlockRepETag
1070
     1
1071
      146
1005
3D0
  0
LINE
  5
3D1
330
33A
100
AcDbEntity
  8
flame
  6
ByBlock
100
AcDbLine
 10
0.0
 20
148.3400000000001
 30
0.0
 11
12.99999999999909
 21
148.3400000000001
 31
0.0
1001
AcDbBlockRepETag
1070
     1
1071
      147
1005
3D1
  0
LINE
  5
3D2
330
33A
100
AcDbEntity
  8
flame
  6
ByBlock
100
AcDbLine
 10
0.0
 20
148.6599999999998
 30
0.0
 11
12.99999999999909
 21
148.6599999999998
 31
0.0
1001
AcDbBlockRepETag
1070
     1
1071
      148
1005
3D2
  0
ATTDEF
  5
3D3
330
33A
100
AcDbEntity
  8
flame
  6
ByBlock
100
AcDbText
 10
16.5
 20
275.0000000000018
 30
0.0
 40
3.0
  1

 41
0.9
  7
ATOM
 72
     1
 11
16.5
 21
276.5000000000018
 31
0.0
100
AcDbAttributeDefinition
  3
改番?
  2
改番
 70
     0
 74
     2
1001
AcDbBlockRepETag
1070
     1
1071
      202
1005
0
1001
AcDbAttr
1070
     0
1070
     1
  0
ATTDEF
  5
3D4
330
33A
100
AcDbEntity
  8
flame
  6
ByBlock
100
AcDbText
 10
68.5
 20
275.0000000000018
 30
0.0
 40
3.0
  1

 41
0.9
  7
ATOM
 72
     1
 11
68.5
 21
276.5000000000018
 31
0.0
100
AcDbAttributeDefinition
  3
改正理由?
  2
改　　　　正　　　　理　　　　由
 70
     0
 74
     2
1001
AcDbBlockRepETag
1070
     1
1071
      203
1005
0
1001
AcDbAttr
1070
     0
1070
     1
  0
ATTDEF
  5
3D5
330
33A
100
AcDbEntity
  8
flame
  6
ByBlock
100
AcDbText
 10
124.5
 20
275.0000000000018
 30
0.0
 40
3.0
  1

 41
0.9
  7
ATOM
 72
     1
 11
124.5
 21
276.5000000000018
 31
0.0
100
AcDbAttributeDefinition
  3
改正承認?
  2
改正承認
 70
     0
 74
     2
1001
AcDbBlockRepETag
1070
     1
1071
      201
1005
0
1001
AcDbAttr
1070
     0
1070
     1
  0
ATTDEF
  5
3D6
330
33A
100
AcDbEntity
  8
flame
  6
ByBlock
100
AcDbText
 10
144.5
 20
275.0000000000018
 30
0.0
 40
3.0
  1

 41
0.9
  7
ATOM
 72
     1
 11
144.5
 21
276.5000000000018
 31
0.0
100
AcDbAttributeDefinition
  3
改正承認日?
  2
改正承認日
 70
     0
 74
     2
1001
AcDbBlockRepETag
1070
     1
1071
      200
1005
0
1001
AcDbAttr
1070
     0
1070
     1
  0
ATTDEF
  5
3D7
330
33A
100
AcDbEntity
  8
flame
  6
ByBlock
100
AcDbText
 10
164.5
 20
275.0000000000018
 30
0.0
 40
3.0
  1

 41
0.9
  7
ATOM
 72
     1
 11
164.5
 21
276.5000000000018
 31
0.0
100
AcDbAttributeDefinition
  3
改正担当?
  2
改正担当
 70
     0
 74
     2
1001
AcDbBlockRepETag
1070
     1
1071
      199
1005
0
1001
AcDbAttr
1070
     0
1070
     1
  0
ATTDEF
  5
3D8
330
33A
100
AcDbEntity
  8
flame
  6
ByBlock
100
AcDbText
 10
184.5
 20
275.0000000000018
 30
0.0
 40
3.0
  1

 41
0.9
  7
ATOM
 72
     1
 11
184.5
 21
276.5000000000018
 31
0.0
100
AcDbAttributeDefinition
  3
改正日?
  2
改正日
 70
     0
 74
     2
1001
AcDbBlockRepETag
1070
     1
1071
      198
1005
0
1001
AcDbAttr
1070
     0
1070
     1
  0
CIRCLE
  5
3D9
330
33A
100
AcDbEntity
  8
flame
100
AcDbCircle
 10
16.69857561378921
 20
34.3352633367922
 30
0.0
 40
1.123977615884085
1001
AcDbBlockRepETag
1070
     1
1071
      161
1005
3D9
  0
CIRCLE
  5
3DA
330
33A
100
AcDbEntity
  8
flame
100
AcDbCircle
 10
16.69857561378921
 20
34.3352633367922
 30
0.0
 40
1.208977615884085
1001
AcDbBlockRepETag
1070
     1
1071
      162
1005
3DA
  0
CIRCLE
  5
3DB
330
33A
100
AcDbEntity
  8
flame
100
AcDbCircle
 10
16.69857561378921
 20
34.3352633367922
 30
0.0
 40
1.038977615884085
1001
AcDbBlockRepETag
1070
     1
1071
      163
1005
3DB
  0
CIRCLE
  5
3DC
330
33A
100
AcDbEntity
  8
flame
100
AcDbCircle
 10
16.69857561378921
 20
34.3352633367922
 30
0.0
 40
2.310728085513118
1001
AcDbBlockRepETag
1070
     1
1071
      164
1005
3DC
  0
CIRCLE
  5
3DD
330
33A
100
AcDbEntity
  8
flame
100
AcDbCircle
 10
16.69857561378921
 20
34.3352633367922
 30
0.0
 40
2.395728085513118
1001
AcDbBlockRepETag
1070
     1
1071
      165
1005
3DD
  0
CIRCLE
  5
3DE
330
33A
100
AcDbEntity
  8
flame
100
AcDbCircle
 10
16.69857561378921
 20
34.3352633367922
 30
0.0
 40
2.225728085513118
1001
AcDbBlockRepETag
1070
     1
1071
      166
1005
3DE
  0
CIRCLE
  5
3DF
330
33A
100
AcDbEntity
  8
flame
100
AcDbCircle
 10
41.60561818906808
 20
23.63139261494507
 30
0.0
 40
5.269566433505018
1001
AcDbBlockRepETag
1070
     1
1071
      167
1005
3DF
  0
CIRCLE
  5
3E0
330
33A
100
AcDbEntity
  8
flame
100
AcDbCircle
 10
41.60561818906808
 20
23.63139261494507
 30
0.0
 40
5.354566433505018
1001
AcDbBlockRepETag
1070
     1
1071
      168
1005
3E0
  0
CIRCLE
  5
3E1
330
33A
100
AcDbEntity
  8
flame
100
AcDbCircle
 10
41.60561818906808
 20
23.63139261494507
 30
0.0
 40
5.184566433505018
1001
AcDbBlockRepETag
1070
     1
1071
      169
1005
3E1
  0
LINE
  5
3E2
330
33A
100
AcDbEntity
  8
flame
100
AcDbLine
 10
19.99421302496466
 20
34.3352633367922
 30
0.0
 11
21.99421302496467
 21
34.3352633367922
 31
0.0
1001
AcDbBlockRepETag
1070
     1
1071
      170
1005
3E2
  0
LINE
  5
3E3
330
33A
100
AcDbEntity
  8
flame
100
AcDbLine
 10
22.49421302496466
 20
34.3352633367922
 30
0.0
 11
22.99421302496467
 21
34.3352633367922
 31
0.0
1001
AcDbBlockRepETag
1070
     1
1071
      171
1005
3E3
  0
LINE
  5
3E4
330
33A
100
AcDbEntity
  8
flame
100
AcDbLine
 10
23.49421302496466
 20
34.3352633367922
 30
0.0
 11
25.19999999999982
 21
34.3352633367922
 31
0.0
1001
AcDbBlockRepETag
1070
     1
1071
      172
1005
3E4
  0
LINE
  5
3E5
330
33A
100
AcDbEntity
  8
flame
100
AcDbLine
 10
13.80000000000018
 20
34.3352633367922
 30
0.0
 11
14.9985756137894
 21
34.3352633367922
 31
0.0
1001
AcDbBlockRepETag
1070
     1
1071
      173
1005
3E5
  0
LINE
  5
3E6
330
33A
100
AcDbEntity
  8
flame
100
AcDbLine
 10
15.4985756137894
 20
34.3352633367922
 30
0.0
 11
15.9985756137894
 21
34.3352633367922
 31
0.0
1001
AcDbBlockRepETag
1070
     1
1071
      174
1005
3E6
  0
LINE
  5
3E7
330
33A
100
AcDbEntity
  8
flame
100
AcDbLine
 10
16.4985756137894
 20
34.3352633367922
 30
0.0
 11
19.59715122757825
 21
34.3352633367922
 31
0.0
1001
AcDbBlockRepETag
1070
     1
1071
      175
1005
3E7
  0
LINE
  5
3E8
330
33A
100
AcDbEntity
  8
flame
100
AcDbLine
 10
16.69857561378921
 20
37.23383895058032
 30
0.0
 11
16.69857561378921
 21
36.03526333679111
 31
0.0
1001
AcDbBlockRepETag
1070
     1
1071
      176
1005
3E8
  0
LINE
  5
3E9
330
33A
100
AcDbEntity
  8
flame
100
AcDbLine
 10
16.69857561378921
 20
35.53526333679111
 30
0.0
 11
16.69857561378921
 21
35.0352633367911
 31
0.0
1001
AcDbBlockRepETag
1070
     1
1071
      177
1005
3E9
  0
LINE
  5
3EA
330
33A
100
AcDbEntity
  8
flame
100
AcDbLine
 10
16.69857561378921
 20
34.53526333679111
 30
0.0
 11
16.69857561378921
 21
31.43668772300225
 31
0.0
1001
AcDbBlockRepETag
1070
     1
1071
      178
1005
3EA
  0
ATTDEF
  5
3EB
330
33A
100
AcDbEntity
  8
flame
  6
ByBlock
100
AcDbText
 10
76.75
 20
32.75000000000182
 30
0.0
 40
3.5
  1

 41
0.9
  7
ATOM
 72
     1
 11
76.75
 21
34.50000000000182
 31
0.0
100
AcDbAttributeDefinition
  3
名称?
  2
名称
 70
     0
 74
     2
1001
AcDbBlockRepETag
1070
     1
1071
      159
1005
0
1001
AcDbAttr
1070
     0
1070
     1
  0
ATTDEF
  5
3EC
330
33A
100
AcDbEntity
  8
flame
  6
ByBlock
100
AcDbText
 10
35.0
 20
32.78589838486369
 30
0.0
 40
3.5
  1

 41
0.9
  7
ATOM
 72
     1
 11
35.0
 21
34.53589838486369
 31
0.0
100
AcDbAttributeDefinition
  3
尺度?
  2
尺度
 70
     0
 74
     2
1001
AcDbBlockRepETag
1070
     1
1071
      160
1005
0
1001
AcDbAttr
1070
     0
1070
     1
  0
ATTDEF
  5
3ED
330
33A
100
AcDbEntity
  8
flame
  6
ByBlock
100
AcDbText
 10
112.25
 20
32.75000000000182
 30
0.0
 40
3.5
  1

 41
0.9
  7
ATOM
 72
     1
 11
112.25
 21
34.50000000000182
 31
0.0
100
AcDbAttributeDefinition
  3
承認?
  2
承認
 70
     0
 74
     2
1001
AcDbBlockRepETag
1070
     1
1071
      180
1005
0
1001
AcDbAttr
1070
     0
1070
     1
  0
ATTDEF
  5
3EE
330
33A
100
AcDbEntity
  8
flame
  6
ByBlock
100
AcDbText
 10
112.25
 20
25.75000000000182
 30
0.0
 40
3.5
  1

 41
0.9
  7
ATOM
 72
     1
 11
112.25
 21
27.50000000000182
 31
0.0
100
AcDbAttributeDefinition
  3
検図?
  2
検図
 70
     0
 74
     2
1001
AcDbBlockRepETag
1070
     1
1071
      179
1005
0
1001
AcDbAttr
1070
     0
1070
     1
  0
ATTDEF
  5
3EF
330
33A
100
AcDbEntity
  8
flame
  6
ByBlock
100
AcDbText
 10
112.25
 20
18.75000000000182
 30
0.0
 40
3.5
  1

 41
0.9
  7
ATOM
 72
     1
 11
112.25
 21
20.50000000000182
 31
0.0
100
AcDbAttributeDefinition
  3
設計?
  2
設計
 70
     0
 74
     2
1001
AcDbBlockRepETag
1070
     1
1071
      158
1005
0
1001
AcDbAttr
1070
     0
1070
     1
  0
ATTDEF
  5
3F0
330
33A
100
AcDbEntity
  8
flame
  6
ByBlock
100
AcDbText
 10
112.25
 20
11.75000000000182
 30
0.0
 40
3.5
  1

 41
0.9
  7
ATOM
 72
     1
 11
112.25
 21
13.50000000000182
 31
0.0
100
AcDbAttributeDefinition
  3
作図?
  2
作図
 70
     0
 74
     2
1001
AcDbBlockRepETag
1070
     1
1071
      157
1005
0
1001
AcDbAttr
1070
     0
1070
     1
  0
ATTDEF
  5
3F1
330
33A
100
AcDbEntity
  8
flame
  6
ByBlock
100
AcDbText
 10
130.0
 20
32.75000000000182
 30
0.0
 40
3.5
  1

 41
0.8
  7
ATOM
 72
     1
 11
130.0
 21
34.50000000000182
 31
0.0
100
AcDbAttributeDefinition
  3
承認日?
  2
承認日
 70
     0
 74
     2
1001
AcDbBlockRepETag
1070
     1
1071
      153
1005
0
1001
AcDbAttr
1070
     0
1070
     1
  0
ATTDEF
  5
3F2
330
33A
100
AcDbEntity
  8
flame
  6
ByBlock
100
AcDbText
 10
130.0
 20
25.75000000000182
 30
0.0
 40
3.5
  1

 41
0.8
  7
ATOM
 72
     1
 11
130.0
 21
27.50000000000182
 31
0.0
100
AcDbAttributeDefinition
  3
検図日?
  2
検図日
 70
     0
 74
     2
1001
AcDbBlockRepETag
1070
     1
1071
      154
1005
0
1001
AcDbAttr
1070
     0
1070
     1
  0
LINE
  5
3F3
330
33A
100
AcDbEntity
  8
flame
  6
ByBlock
100
AcDbLine
 10
12.99999999999909
 20
273.0000000000018
 30
0.0
 11
197.0
 21
273.0000000000018
 31
0.0
1001
AcDbBlockRepETag
1070
     1
1071
      192
1005
3F3
  0
LINE
  5
3F4
330
33A
100
AcDbEntity
  8
flame
  6
ByBlock
100
AcDbLine
 10
157.0
 20
280.0000000000018
 30
0.0
 11
157.0
 21
273.0000000000018
 31
0.0
1001
AcDbBlockRepETag
1070
     1
1071
      193
1005
3F4
  0
LINE
  5
3F5
330
33A
100
AcDbEntity
  8
flame
  6
ByBlock
100
AcDbLine
 10
132.0
 20
280.0000000000018
 30
0.0
 11
132.0
 21
273.0000000000018
 31
0.0
1001
AcDbBlockRepETag
1070
     1
1071
      194
1005
3F5
  0
LINE
  5
3F6
330
33A
100
AcDbEntity
  8
flame
  6
ByBlock
100
AcDbLine
 10
117.0
 20
280.0000000000018
 30
0.0
 11
117.0
 21
273.0000000000018
 31
0.0
1001
AcDbBlockRepETag
1070
     1
1071
      195
1005
3F6
  0
LINE
  5
3F7
330
33A
100
AcDbEntity
  8
flame
  6
ByBlock
100
AcDbLine
 10
20.0
 20
280.0000000000018
 30
0.0
 11
20.0
 21
273.0000000000018
 31
0.0
1001
AcDbBlockRepETag
1070
     1
1071
      196
1005
3F7
  0
LINE
  5
3F8
330
33A
100
AcDbEntity
  8
flame
  6
ByBlock
100
AcDbLine
 10
172.0
 20
280.0000000000018
 30
0.0
 11
172.0
 21
273.0000000000018
 31
0.0
1001
AcDbBlockRepETag
1070
     1
1071
      197
1005
3F8
  0
ATTDEF
  5
3F9
330
33A
100
AcDbEntity
  8
flame
  6
ByBlock
100
AcDbText
 10
130.0
 20
18.75000000000182
 30
0.0
 40
3.5
  1

 41
0.8
  7
ATOM
 72
     1
 11
130.0
 21
20.50000000000182
 31
0.0
100
AcDbAttributeDefinition
  3
設計日?
  2
設計日
 70
     0
 74
     2
1001
AcDbBlockRepETag
1070
     1
1071
      155
1005
0
1001
AcDbAttr
1070
     0
1070
     1
  0
ATTDEF
  5
3FA
330
33A
100
AcDbEntity
  8
flame
  6
ByBlock
100
AcDbText
 10
130.0
 20
11.75000000000182
 30
0.0
 40
3.5
  1

 41
0.8
  7
ATOM
 72
     1
 11
130.0
 21
13.50000000000182
 31
0.0
100
AcDbAttributeDefinition
  3
作図日?
  2
作図日
 70
     0
 74
     2
1001
AcDbBlockRepETag
1070
     1
1071
      156
1005
0
1001
AcDbAttr
1070
     0
1070
     1
  0
ATTDEF
  5
3FB
330
33A
100
AcDbEntity
  8
flame
  6
ByBlock
100
AcDbText
 10
170.5
 20
32.75000000000182
 30
0.0
 40
3.5
  1

 41
0.9
  7
ATOM
 72
     1
 11
170.5
 21
34.50000000000182
 31
0.0
100
AcDbAttributeDefinition
  3
品名?
  2
品名
 70
     0
 74
     2
1001
AcDbBlockRepETag
1070
     1
1071
      149
1005
0
1001
AcDbAttr
1070
     0
1070
     1
  0
ATTDEF
  5
3FC
330
33A
100
AcDbEntity
  8
flame
  6
ByBlock
100
AcDbText
 10
170.5
 20
25.75000000000182
 30
0.0
 40
3.5
  1

 41
0.9
  7
ATOM
 72
     1
 11
170.5
 21
27.50000000000182
 31
0.0
100
AcDbAttributeDefinition
  3
品番?
  2
品番
 70
     0
 74
     2
1001
AcDbBlockRepETag
1070
     1
1071
      150
1005
0
1001
AcDbAttr
1070
     0
1070
     1
  0
ATTDEF
  5
3FD
330
33A
100
AcDbEntity
  8
flame
  6
ByBlock
100
AcDbText
 10
170.5
 20
18.75000000000182
 30
0.0
 40
3.5
  1

 41
0.9
  7
ATOM
 72
     1
 11
170.5
 21
20.50000000000182
 31
0.0
100
AcDbAttributeDefinition
  3
図名?
  2
図名
 70
     0
 74
     2
1001
AcDbBlockRepETag
1070
     1
1071
      151
1005
0
1001
AcDbAttr
1070
     0
1070
     1
  0
ATTDEF
  5
3FE
330
33A
100
AcDbEntity
  8
flame
  6
ByBlock
100
AcDbText
 10
165.25
 20
11.75000000000182
 30
0.0
 40
3.5
  1

 41
0.9
  7
ATOM
 72
     1
 11
165.25
 21
13.50000000000182
 31
0.0
100
AcDbAttributeDefinition
  3
図番?
  2
図番
 70
     0
 74
     2
1001
AcDbBlockRepETag
1070
     1
1071
      152
1005
0
1001
AcDbAttr
1070
     0
1070
     1
  0
LINE
  5
3FF
330
33A
100
AcDbEntity
  8
flame
  6
ByBlock
100
AcDbLine
 10
155.0
 20
52.00000000000182
 30
0.0
 11
155.0
 21
45.00000000000182
 31
0.0
1001
AcDbBlockRepETag
1070
     1
1071
      204
1005
3FF
  0
LINE
  5
400
330
33A
100
AcDbEntity
  8
flame
  6
ByBlock
100
AcDbLine
 10
105.0
 20
52.00000000000182
 30
0.0
 11
105.0
 21
45.00000000000182
 31
0.0
1001
AcDbBlockRepETag
1070
     1
1071
      205
1005
400
  0
LINE
  5
401
330
33A
100
AcDbEntity
  8
flame
  6
ByBlock
100
AcDbLine
 10
98.0
 20
52.00000000000182
 30
0.0
 11
98.0
 21
45.00000000000182
 31
0.0
1001
AcDbBlockRepETag
1070
     1
1071
      206
1005
401
  0
LINE
  5
402
330
33A
100
AcDbEntity
  8
flame
  6
ByBlock
100
AcDbLine
 10
70.0
 20
52.00000000000182
 30
0.0
 11
70.0
 21
45.00000000000182
 31
0.0
1001
AcDbBlockRepETag
1070
     1
1071
       11
1005
402
  0
LINE
  5
403
330
33A
100
AcDbEntity
  8
flame
  6
ByBlock
100
AcDbLine
 10
20.0
 20
52.00000000000182
 30
0.0
 11
20.0
 21
45.00000000000182
 31
0.0
1001
AcDbBlockRepETag
1070
     1
1071
      207
1005
403
  0
LINE
  5
404
330
33A
100
AcDbEntity
  8
flame
  6
ByBlock
100
AcDbLine
 10
12.99999999999909
 20
52.00000000000182
 30
0.0
 11
197.0
 21
52.00000000000182
 31
0.0
1001
AcDbBlockRepETag
1070
     1
1071
      208
1005
404
  0
ATTDEF
  5
405
102
{ACAD_XDICTIONARY
360
406
102
}
330
33A
100
AcDbEntity
  8
flame
  6
ByBlock
100
AcDbText
 10
16.5
 20
47.00000000000182
 30
0.0
 40
3.0
  1

 41
0.9
  7
ATOM
 72
     1
 11
16.5
 21
48.50000000000182
 31
0.0
100
AcDbAttributeDefinition
  3
部番?
  2
部番
 70
     0
 74
     2
1001
AcDbBlockRepETag
1070
     1
1071
      213
1005
0
1001
AcadAnnotative
1000
AnnotativeData
1002
{
1070
     1
1070
     0
1002
}
1001
AcDbAttr
1070
     0
1070
     1
  0
ATTDEF
  5
409
102
{ACAD_XDICTIONARY
360
40A
102
}
330
33A
100
AcDbEntity
  8
flame
  6
ByBlock
100
AcDbText
 10
45.0
 20
47.00000000000182
 30
0.0
 40
3.0
  1

 41
0.9
  7
ATOM
 72
     1
 11
45.0
 21
48.50000000000182
 31
0.0
100
AcDbAttributeDefinition
  3
部品名?
  2
部　　　　品　　　　名
 70
     0
 74
     2
1001
AcDbBlockRepETag
1070
     1
1071
      211
1005
0
1001
AcadAnnotative
1000
AnnotativeData
1002
{
1070
     1
1070
     0
1002
}
1001
AcDbAttr
1070
     0
1070
     1
  0
ATTDEF
  5
40D
102
{ACAD_XDICTIONARY
360
40E
102
}
330
33A
100
AcDbEntity
  8
flame
  6
ByBlock
100
AcDbText
 10
84.0
 20
47.00000000000182
 30
0.0
 40
3.0
  1

 41
0.9
  7
ATOM
 72
     1
 11
84.0
 21
48.50000000000182
 31
0.0
100
AcDbAttributeDefinition
  3
材質?
  2
材　　質
 70
     0
 74
     2
1001
AcDbBlockRepETag
1070
     1
1071
      210
1005
0
1001
AcadAnnotative
1000
AnnotativeData
1002
{
1070
     1
1070
     0
1002
}
1001
AcDbAttr
1070
     0
1070
     1
  0
ATTDEF
  5
411
102
{ACAD_XDICTIONARY
360
412
102
}
330
33A
100
AcDbEntity
  8
flame
  6
ByBlock
100
AcDbText
 10
101.5
 20
47.00000000000182
 30
0.0
 40
3.0
  1

 41
0.9
  7
ATOM
 72
     1
 11
101.5
 21
48.50000000000182
 31
0.0
100
AcDbAttributeDefinition
  3
数量?
  2
数量
 70
     0
 74
     2
1001
AcDbBlockRepETag
1070
     1
1071
      212
1005
0
1001
AcadAnnotative
1000
AnnotativeData
1002
{
1070
     1
1070
     0
1002
}
1001
AcDbAttr
1070
     0
1070
     1
  0
ATTDEF
  5
415
102
{ACAD_XDICTIONARY
360
416
102
}
330
33A
100
AcDbEntity
  8
flame
  6
ByBlock
100
AcDbText
 10
130.0
 20
47.00000000000182
 30
0.0
 40
3.0
  1

 41
0.9
  7
ATOM
 72
     1
 11
130.0
 21
48.50000000000182
 31
0.0
100
AcDbAttributeDefinition
  3
表面処理?
  2
表　　面　　処　　理
 70
     0
 74
     2
1001
AcDbBlockRepETag
1070
     1
1071
      209
1005
0
1001
AcadAnnotative
1000
AnnotativeData
1002
{
1070
     1
1070
     0
1002
}
1001
AcDbAttr
1070
     0
1070
     1
  0
ATTDEF
  5
419
102
{ACAD_XDICTIONARY
360
41A
102
}
330
33A
100
AcDbEntity
  8
flame
  6
ByBlock
100
AcDbText
 10
176.0
 20
47.00000000000182
 30
0.0
 40
3.0
  1

 41
0.9
  7
ATOM
 72
     1
 11
176.0
 21
48.50000000000182
 31
0.0
100
AcDbAttributeDefinition
  3
備考?
  2
備　　　考
 70
     0
 74
     2
1001
AcDbBlockRepETag
1070
     1
1071
      181
1005
0
1001
AcadAnnotative
1000
AnnotativeData
1002
{
1070
     1
1070
     0
1002
}
1001
AcDbAttr
1070
     0
1070
     1
  0
ENDBLK
  5
41D
330
33A
100
AcDbEntity
  8
0
100
AcDbBlockEnd
  0
BLOCK
  5
43E
330
43B
100
AcDbEntity
  8
0
100
AcDbBlockBegin
  2
部品表
 70
     2
 10
0.0
 20
0.0
 30
0.0
  3
部品表
  1

  0
LINE
  5
43F
330
43B
100
AcDbEntity
  8
flame
  6
ByBlock
100
AcDbLine
 10
142.0000000000009
 20
7.000000222036987
 30
0.0
 11
142.0000000000009
 21
0.0000002220369879
 31
0.0
1001
AcDbBlockRepETag
1070
     1
1071
        8
1005
43F
  0
LINE
  5
440
330
43B
100
AcDbEntity
  8
flame
  6
ByBlock
100
AcDbLine
 10
92.00000000000091
 20
7.000000222036987
 30
0.0
 11
92.00000000000091
 21
0.0000002220369879
 31
0.0
1001
AcDbBlockRepETag
1070
     1
1071
        9
1005
440
  0
LINE
  5
441
330
43B
100
AcDbEntity
  8
flame
  6
ByBlock
100
AcDbLine
 10
85.0000000000009
 20
7.000000222036987
 30
0.0
 11
85.0000000000009
 21
0.0000002220369879
 31
0.0
1001
AcDbBlockRepETag
1070
     1
1071
       10
1005
441
  0
LINE
  5
442
330
43B
100
AcDbEntity
  8
flame
  6
ByBlock
100
AcDbLine
 10
57.00000000000091
 20
7.000000222036987
 30
0.0
 11
57.00000000000091
 21
0.0000002220369879
 31
0.0
1001
AcDbBlockRepETag
1070
     1
1071
       11
1005
442
  0
LINE
  5
443
330
43B
100
AcDbEntity
  8
flame
  6
ByBlock
100
AcDbLine
 10
7.000000000000909
 20
7.000000222036987
 30
0.0
 11
7.000000000000909
 21
0.0000002220369879
 31
0.0
1001
AcDbBlockRepETag
1070
     1
1071
       12
1005
443
  0
LINE
  5
444
330
43B
100
AcDbEntity
  8
flame
  6
ByBlock
100
AcDbLine
 10
0.0
 20
7.000000222036987
 30
0.0
 11
184.0000000000009
 21
7.000000222036987
 31
0.0
1001
AcDbBlockRepETag
1070
     1
1071
       13
1005
444
  0
LINE
  5
445
330
43B
100
AcDbEntity
  8
flame
  6
ByBlock
100
AcDbLine
 10
0.0
 20
0.0000002220369879
 30
0.0
 11
0.0
 21
7.000000222036987
 31
0.0
1001
AcDbBlockRepETag
1070
     1
1071
      123
1005
445
  0
ATTDEF
  5
446
102
{ACAD_XDICTIONARY
360
447
102
}
330
43B
100
AcDbEntity
  8
flame
  6
ByBlock
100
AcDbText
 10
3.500000000000909
 20
2.000000222036987
 30
0.0
 40
3.0
  1

 41
0.9
  7
ATOM
 72
     1
 11
3.500000000000909
 21
3.500000222036987
 31
0.0
100
AcDbAttributeDefinition
  3
部番?
  2
部番
 70
     0
 74
     2
1001
AcadAnnotative
1000
AnnotativeData
1002
{
1070
     1
1070
     1
1002
}
1001
AcDbBlockRepETag
1070
     1
1071
       16
1005
0
1001
AcDbAttr
1070
     0
1070
     1
  0
ATTDEF
  5
44B
102
{ACAD_XDICTIONARY
360
44C
102
}
330
43B
100
AcDbEntity
  8
flame
  6
ByBlock
100
AcDbText
 10
32.00000000000091
 20
2.000000222036987
 30
0.0
 40
3.0
  1

 41
0.9
  7
ATOM
 72
     1
 11
32.00000000000091
 21
3.500000222036987
 31
0.0
100
AcDbAttributeDefinition
  3
部品名?
  2
部　　　　品　　　　名
 70
     0
 74
     2
1001
AcadAnnotative
1000
AnnotativeData
1002
{
1070
     1
1070
     1
1002
}
1001
AcDbBlockRepETag
1070
     1
1071
       15
1005
0
1001
AcDbAttr
1070
     0
1070
     1
  0
ATTDEF
  5
450
102
{ACAD_XDICTIONARY
360
451
102
}
330
43B
100
AcDbEntity
  8
flame
  6
ByBlock
100
AcDbText
 10
71.00000000000091
 20
2.000000222036987
 30
0.0
 40
3.0
  1

 41
0.9
  7
ATOM
 72
     1
 11
71.00000000000091
 21
3.500000222036987
 31
0.0
100
AcDbAttributeDefinition
  3
材質?
  2
材　　質
 70
     0
 74
     2
1001
AcadAnnotative
1000
AnnotativeData
1002
{
1070
     1
1070
     1
1002
}
1001
AcDbBlockRepETag
1070
     1
1071
       14
1005
0
1001
AcDbAttr
1070
     0
1070
     1
  0
ATTDEF
  5
455
102
{ACAD_XDICTIONARY
360
456
102
}
330
43B
100
AcDbEntity
  8
flame
  6
ByBlock
100
AcDbText
 10
88.50000000000092
 20
2.000000222036987
 30
0.0
 40
3.0
  1

 41
0.9
  7
ATOM
 72
     1
 11
88.50000000000092
 21
3.500000222036987
 31
0.0
100
AcDbAttributeDefinition
  3
数量?
  2
数量
 70
     0
 74
     2
1001
AcDbBlockRepETag
1070
     1
1071
      178
1005
0
1001
AcadAnnotative
1000
AnnotativeData
1002
{
1070
     1
1070
     1
1002
}
1001
AcDbAttr
1070
     0
1070
     1
  0
ATTDEF
  5
45A
102
{ACAD_XDICTIONARY
360
45B
102
}
330
43B
100
AcDbEntity
  8
flame
  6
ByBlock
100
AcDbText
 10
117.0000000000009
 20
2.000000222036987
 30
0.0
 40
3.0
  1

 41
0.9
  7
ATOM
 72
     1
 11
117.0000000000009
 21
3.500000222036987
 31
0.0
100
AcDbAttributeDefinition
  3
表面処理?
  2
表　　面　　処　　理
 70
     0
 74
     2
1001
AcadAnnotative
1000
AnnotativeData
1002
{
1070
     1
1070
     1
1002
}
1001
AcDbBlockRepETag
1070
     1
1071
       17
1005
0
1001
AcDbAttr
1070
     0
1070
     1
  0
ATTDEF
  5
45F
102
{ACAD_XDICTIONARY
360
460
102
}
330
43B
100
AcDbEntity
  8
flame
  6
ByBlock
100
AcDbText
 10
163.0000000000009
 20
2.000000222036987
 30
0.0
 40
3.0
  1

 41
0.9
  7
ATOM
 72
     1
 11
163.0000000000009
 21
3.500000222036987
 31
0.0
100
AcDbAttributeDefinition
  3
備考?
  2
備　　　考
 70
     0
 74
     2
1001
AcDbBlockRepETag
1070
     1
1071
      181
1005
0
1001
AcadAnnotative
1000
AnnotativeData
1002
{
1070
     1
1070
     1
1002
}
1001
AcDbAttr
1070
     0
1070
     1
  0
ENDBLK
  5
464
330
43B
100
AcDbEntity
  8
0
100
AcDbBlockEnd
  0
BLOCK
  5
4A6
330
4A5
100
AcDbEntity
  8
0
100
AcDbBlockBegin
  2
*E2113
 70
     3
 10
0.0
 20
0.0
 30
0.0
  3
*E2113
  1

  0
LINE
  5
4A8
330
4A5
100
AcDbEntity
  8
flame
  6
ByBlock
100
AcDbLine
 10
142.0000000000009
 20
7.000000222036987
 30
0.0
 11
142.0000000000009
 21
0.0000002220369879
 31
0.0
1001
AcDbBlockRepETag
1070
     1
1071
        8
1005
4A8
  0
LINE
  5
4A9
330
4A5
100
AcDbEntity
  8
flame
  6
ByBlock
100
AcDbLine
 10
92.00000000000091
 20
7.000000222036987
 30
0.0
 11
92.00000000000091
 21
0.0000002220369879
 31
0.0
1001
AcDbBlockRepETag
1070
     1
1071
        9
1005
4A9
  0
LINE
  5
4AA
330
4A5
100
AcDbEntity
  8
flame
  6
ByBlock
100
AcDbLine
 10
85.0000000000009
 20
7.000000222036987
 30
0.0
 11
85.0000000000009
 21
0.0000002220369879
 31
0.0
1001
AcDbBlockRepETag
1070
     1
1071
       10
1005
4AA
  0
LINE
  5
4AB
330
4A5
100
AcDbEntity
  8
flame
  6
ByBlock
100
AcDbLine
 10
57.00000000000091
 20
7.000000222036987
 30
0.0
 11
57.00000000000091
 21
0.0000002220369879
 31
0.0
1001
AcDbBlockRepETag
1070
     1
1071
       11
1005
4AB
  0
LINE
  5
4AC
330
4A5
100
AcDbEntity
  8
flame
  6
ByBlock
100
AcDbLine
 10
7.000000000000909
 20
7.000000222036987
 30
0.0
 11
7.000000000000909
 21
0.0000002220369879
 31
0.0
1001
AcDbBlockRepETag
1070
     1
1071
       12
1005
4AC
  0
LINE
  5
4AD
330
4A5
100
AcDbEntity
  8
flame
  6
ByBlock
100
AcDbLine
 10
0.0
 20
7.000000222036987
 30
0.0
 11
184.0000000000009
 21
7.000000222036987
 31
0.0
1001
AcDbBlockRepETag
1070
     1
1071
       13
1005
4AD
  0
LINE
  5
4AE
330
4A5
100
AcDbEntity
  8
flame
  6
ByBlock
100
AcDbLine
 10
0.0
 20
0.0000002220369879
 30
0.0
 11
0.0
 21
7.000000222036987
 31
0.0
1001
AcDbBlockRepETag
1070
     1
1071
      123
1005
4AE
  0
ATTDEF
  5
4AF
102
{ACAD_XDICTIONARY
360
4B0
102
}
330
4A5
100
AcDbEntity
  8
flame
  6
ByBlock
100
AcDbText
 10
3.500000000000909
 20
2.000000222036987
 30
0.0
 40
3.0
  1

 41
0.9
  7
ATOM
 72
     1
 11
3.500000000000909
 21
3.500000222036987
 31
0.0
100
AcDbAttributeDefinition
  3
部番?
  2
部番
 70
     0
 74
     2
1001
AcDbBlockRepETag
1070
     1
1071
       16
1005
0
1001
AcadAnnotative
1000
AnnotativeData
1002
{
1070
     1
1070
     0
1002
}
1001
AcDbAttr
1070
     0
1070
     1
  0
ATTDEF
  5
4B4
102
{ACAD_XDICTIONARY
360
4B5
102
}
330
4A5
100
AcDbEntity
  8
flame
  6
ByBlock
100
AcDbText
 10
32.00000000000091
 20
2.000000222036987
 30
0.0
 40
3.0
  1

 41
0.9
  7
ATOM
 72
     1
 11
32.00000000000091
 21
3.500000222036987
 31
0.0
100
AcDbAttributeDefinition
  3
部品名?
  2
部　　　　品　　　　名
 70
     0
 74
     2
1001
AcDbBlockRepETag
1070
     1
1071
       15
1005
0
1001
AcadAnnotative
1000
AnnotativeData
1002
{
1070
     1
1070
     0
1002
}
1001
AcDbAttr
1070
     0
1070
     1
  0
ATTDEF
  5
4B9
102
{ACAD_XDICTIONARY
360
4BA
102
}
330
4A5
100
AcDbEntity
  8
flame
  6
ByBlock
100
AcDbText
 10
71.00000000000091
 20
2.000000222036987
 30
0.0
 40
3.0
  1

 41
0.9
  7
ATOM
 72
     1
 11
71.00000000000091
 21
3.500000222036987
 31
0.0
100
AcDbAttributeDefinition
  3
材質?
  2
材　　質
 70
     0
 74
     2
1001
AcDbBlockRepETag
1070
     1
1071
       14
1005
0
1001
AcadAnnotative
1000
AnnotativeData
1002
{
1070
     1
1070
     0
1002
}
1001
AcDbAttr
1070
     0
1070
     1
  0
ATTDEF
  5
4BE
102
{ACAD_XDICTIONARY
360
4BF
102
}
330
4A5
100
AcDbEntity
  8
flame
  6
ByBlock
100
AcDbText
 10
88.50000000000092
 20
2.000000222036987
 30
0.0
 40
3.0
  1

 41
0.9
  7
ATOM
 72
     1
 11
88.50000000000092
 21
3.500000222036987
 31
0.0
100
AcDbAttributeDefinition
  3
数量?
  2
数量
 70
     0
 74
     2
1001
AcDbBlockRepETag
1070
     1
1071
      178
1005
0
1001
AcadAnnotative
1000
AnnotativeData
1002
{
1070
     1
1070
     0
1002
}
1001
AcDbAttr
1070
     0
1070
     1
  0
ATTDEF
  5
4C3
102
{ACAD_XDICTIONARY
360
4C4
102
}
330
4A5
100
AcDbEntity
  8
flame
  6
ByBlock
100
AcDbText
 10
117.0000000000009
 20
2.000000222036987
 30
0.0
 40
3.0
  1

 41
0.9
  7
ATOM
 72
     1
 11
117.0000000000009
 21
3.500000222036987
 31
0.0
100
AcDbAttributeDefinition
  3
表面処理?
  2
表　　面　　処　　理
 70
     0
 74
     2
1001
AcDbBlockRepETag
1070
     1
1071
       17
1005
0
1001
AcadAnnotative
1000
AnnotativeData
1002
{
1070
     1
1070
     0
1002
}
1001
AcDbAttr
1070
     0
1070
     1
  0
ATTDEF
  5
4C8
102
{ACAD_XDICTIONARY
360
4C9
102
}
330
4A5
100
AcDbEntity
  8
flame
  6
ByBlock
100
AcDbText
 10
163.0000000000009
 20
2.000000222036987
 30
0.0
 40
3.0
  1

 41
0.9
  7
ATOM
 72
     1
 11
163.0000000000009
 21
3.500000222036987
 31
0.0
100
AcDbAttributeDefinition
  3
備考?
  2
備　　　考
 70
     0
 74
     2
1001
AcDbBlockRepETag
1070
     1
1071
      181
1005
0
1001
AcadAnnotative
1000
AnnotativeData
1002
{
1070
     1
1070
     0
1002
}
1001
AcDbAttr
1070
     0
1070
     1
  0
ENDBLK
  5
4A7
330
4A5
100
AcDbEntity
  8
0
100
AcDbBlockEnd
  0
BLOCK
  5
4CE
330
4CD
100
AcDbEntity
  8
0
100
AcDbBlockBegin
  2
*E2214
 70
     3
 10
0.0
 20
0.0
 30
0.0
  3
*E2214
  1

  0
LINE
  5
4D0
330
4CD
100
AcDbEntity
  8
flame
  6
ByBlock
100
AcDbLine
 10
142.0000000000009
 20
7.000000222036987
 30
0.0
 11
142.0000000000009
 21
0.0000002220369879
 31
0.0
1001
AcDbBlockRepETag
1070
     1
1071
        8
1005
4D0
  0
LINE
  5
4D1
330
4CD
100
AcDbEntity
  8
flame
  6
ByBlock
100
AcDbLine
 10
92.00000000000091
 20
7.000000222036987
 30
0.0
 11
92.00000000000091
 21
0.0000002220369879
 31
0.0
1001
AcDbBlockRepETag
1070
     1
1071
        9
1005
4D1
  0
LINE
  5
4D2
330
4CD
100
AcDbEntity
  8
flame
  6
ByBlock
100
AcDbLine
 10
85.0000000000009
 20
7.000000222036987
 30
0.0
 11
85.0000000000009
 21
0.0000002220369879
 31
0.0
1001
AcDbBlockRepETag
1070
     1
1071
       10
1005
4D2
  0
LINE
  5
4D3
330
4CD
100
AcDbEntity
  8
flame
  6
ByBlock
100
AcDbLine
 10
57.00000000000091
 20
7.000000222036987
 30
0.0
 11
57.00000000000091
 21
0.0000002220369879
 31
0.0
1001
AcDbBlockRepETag
1070
     1
1071
       11
1005
4D3
  0
LINE
  5
4D4
330
4CD
100
AcDbEntity
  8
flame
  6
ByBlock
100
AcDbLine
 10
7.000000000000909
 20
7.000000222036987
 30
0.0
 11
7.000000000000909
 21
0.0000002220369879
 31
0.0
1001
AcDbBlockRepETag
1070
     1
1071
       12
1005
4D4
  0
LINE
  5
4D5
330
4CD
100
AcDbEntity
  8
flame
  6
ByBlock
100
AcDbLine
 10
0.0
 20
7.000000222036987
 30
0.0
 11
184.0000000000009
 21
7.000000222036987
 31
0.0
1001
AcDbBlockRepETag
1070
     1
1071
       13
1005
4D5
  0
LINE
  5
4D6
330
4CD
100
AcDbEntity
  8
flame
  6
ByBlock
100
AcDbLine
 10
0.0
 20
0.0000002220369879
 30
0.0
 11
0.0
 21
7.000000222036987
 31
0.0
1001
AcDbBlockRepETag
1070
     1
1071
      123
1005
4D6
  0
ATTDEF
  5
4D7
102
{ACAD_XDICTIONARY
360
4D8
102
}
330
4CD
100
AcDbEntity
  8
flame
  6
ByBlock
100
AcDbText
 10
3.500000000000909
 20
2.000000222036987
 30
0.0
 40
3.0
  1

 41
0.9
  7
ATOM
 72
     1
 11
3.500000000000909
 21
3.500000222036987
 31
0.0
100
AcDbAttributeDefinition
  3
部番?
  2
部番
 70
     0
 74
     2
1001
AcDbBlockRepETag
1070
     1
1071
       16
1005
0
1001
AcadAnnotative
1000
AnnotativeData
1002
{
1070
     1
1070
     0
1002
}
1001
AcDbAttr
1070
     0
1070
     1
  0
ATTDEF
  5
4DC
102
{ACAD_XDICTIONARY
360
4DD
102
}
330
4CD
100
AcDbEntity
  8
flame
  6
ByBlock
100
AcDbText
 10
32.00000000000091
 20
2.000000222036987
 30
0.0
 40
3.0
  1

 41
0.9
  7
ATOM
 72
     1
 11
32.00000000000091
 21
3.500000222036987
 31
0.0
100
AcDbAttributeDefinition
  3
部品名?
  2
部　　　　品　　　　名
 70
     0
 74
     2
1001
AcDbBlockRepETag
1070
     1
1071
       15
1005
0
1001
AcadAnnotative
1000
AnnotativeData
1002
{
1070
     1
1070
     0
1002
}
1001
AcDbAttr
1070
     0
1070
     1
  0
ATTDEF
  5
4E1
102
{ACAD_XDICTIONARY
360
4E2
102
}
330
4CD
100
AcDbEntity
  8
flame
  6
ByBlock
100
AcDbText
 10
71.00000000000091
 20
2.000000222036987
 30
0.0
 40
3.0
  1

 41
0.9
  7
ATOM
 72
     1
 11
71.00000000000091
 21
3.500000222036987
 31
0.0
100
AcDbAttributeDefinition
  3
材質?
  2
材　　質
 70
     0
 74
     2
1001
AcDbBlockRepETag
1070
     1
1071
       14
1005
0
1001
AcadAnnotative
1000
AnnotativeData
1002
{
1070
     1
1070
     0
1002
}
1001
AcDbAttr
1070
     0
1070
     1
  0
ATTDEF
  5
4E6
102
{ACAD_XDICTIONARY
360
4E7
102
}
330
4CD
100
AcDbEntity
  8
flame
  6
ByBlock
100
AcDbText
 10
88.50000000000092
 20
2.000000222036987
 30
0.0
 40
3.0
  1

 41
0.9
  7
ATOM
 72
     1
 11
88.50000000000092
 21
3.500000222036987
 31
0.0
100
AcDbAttributeDefinition
  3
数量?
  2
数量
 70
     0
 74
     2
1001
AcDbBlockRepETag
1070
     1
1071
      178
1005
0
1001
AcadAnnotative
1000
AnnotativeData
1002
{
1070
     1
1070
     0
1002
}
1001
AcDbAttr
1070
     0
1070
     1
  0
ATTDEF
  5
4EB
102
{ACAD_XDICTIONARY
360
4EC
102
}
330
4CD
100
AcDbEntity
  8
flame
  6
ByBlock
100
AcDbText
 10
117.0000000000009
 20
2.000000222036987
 30
0.0
 40
3.0
  1

 41
0.9
  7
ATOM
 72
     1
 11
117.0000000000009
 21
3.500000222036987
 31
0.0
100
AcDbAttributeDefinition
  3
表面処理?
  2
表　　面　　処　　理
 70
     0
 74
     2
1001
AcDbBlockRepETag
1070
     1
1071
       17
1005
0
1001
AcadAnnotative
1000
AnnotativeData
1002
{
1070
     1
1070
     0
1002
}
1001
AcDbAttr
1070
     0
1070
     1
  0
ATTDEF
  5
4F0
102
{ACAD_XDICTIONARY
360
4F1
102
}
330
4CD
100
AcDbEntity
  8
flame
  6
ByBlock
100
AcDbText
 10
163.0000000000009
 20
2.000000222036987
 30
0.0
 40
3.0
  1

 41
0.9
  7
ATOM
 72
     1
 11
163.0000000000009
 21
3.500000222036987
 31
0.0
100
AcDbAttributeDefinition
  3
備考?
  2
備　　　考
 70
     0
 74
     2
1001
AcDbBlockRepETag
1070
     1
1071
      181
1005
0
1001
AcadAnnotative
1000
AnnotativeData
1002
{
1070
     1
1070
     0
1002
}
1001
AcDbAttr
1070
     0
1070
     1
  0
ENDBLK
  5
4CF
330
4CD
100
AcDbEntity
  8
0
100
AcDbBlockEnd
  0
ENDSEC
  0
SECTION
  2
ENTITIES
  0
LINE
  5
DA
330
67
100
AcDbEntity
  8
0
  6
Continuous
100
AcDbLine
 10
252.4626224089375
 20
210.0418781781793
 30
0.0
 11
252.4626224089375
 21
214.0418781540581
 31
0.0
  0
LINE
  5
DB
330
67
100
AcDbEntity
  8
0
  6
Continuous
100
AcDbLine
 10
245.9758344480549
 20
210.0418781781793
 30
0.0
 11
245.9758344480549
 21
214.0418781540581
 31
0.0
  0
ARC
  5
DC
330
67
100
AcDbEntity
  8
0
  6
Continuous
100
AcDbCircle
 10
221.4120285961822
 20
216.8418781371732
 30
0.0
 40
1.999999987939381
100
AcDbArc
 50
0.0
 51
90.0
  0
LINE
  5
DD
330
67
100
AcDbEntity
  8
0
  6
Continuous
100
AcDbLine
 10
223.4120285841216
 20
216.8418781371732
 30
0.0
 11
223.4120285841216
 21
210.0418781781793
 31
0.0
  0
LINE
  5
DE
330
67
100
AcDbEntity
  8
0
  6
Continuous
100
AcDbLine
 10
254.4626223968769
 20
210.0418781781793
 30
0.0
 11
254.4626223968769
 21
214.0418781540581
 31
0.0
  0
ARC
  5
DF
330
67
100
AcDbEntity
  8
0
  6
Continuous
100
AcDbCircle
 10
261.9267243518659
 20
212.0418781661187
 30
0.0
 40
1.999999987939381
100
AcDbArc
 50
315.0000000000012
 51
90.0
  0
LINE
  5
E0
330
67
100
AcDbEntity
  8
0
  6
Continuous
100
AcDbLine
 10
259.3409383674591
 20
206.6276641987681
 30
0.0
 11
263.340938343338
 21
210.6276641746468
 31
0.0
  0
LINE
  5
E1
330
67
100
AcDbEntity
  8
0
  6
Continuous
100
AcDbLine
 10
256.1946743864321
 20
207.0418781962703
 30
0.0
 11
254.4626223968769
 21
210.0418781781793
 31
0.0
  0
ARC
  5
E2
330
67
100
AcDbEntity
  8
0
  6
Continuous
100
AcDbCircle
 10
257.9267243759871
 20
208.04187819024
 30
0.0
 40
1.999999987939381
100
AcDbArc
 50
210.0000000000021
 51
315.0000000000012
  0
ARC
  5
E3
330
67
100
AcDbEntity
  8
0
  6
Continuous
100
AcDbCircle
 10
219.3267246087571
 20
201.0418782324521
 30
0.0
 40
1.999999987939381
100
AcDbArc
 50
180.0
 51
270.0
  0
ARC
  5
E4
330
67
100
AcDbEntity
  8
0
  6
Continuous
100
AcDbCircle
 10
225.3267245725754
 20
201.0418782324521
 30
0.0
 40
1.999999987939381
100
AcDbArc
 50
90.0
 51
180.0
  0
ARC
  5
E5
330
67
100
AcDbEntity
  8
0
  6
Continuous
100
AcDbCircle
 10
225.3267245725754
 20
201.0418782324521
 30
0.0
 40
1.999999987939381
100
AcDbArc
 50
180.0
 51
270.0
  0
ARC
  5
E6
330
67
100
AcDbEntity
  8
0
  6
Continuous
100
AcDbCircle
 10
242.3267244700601
 20
201.0418782324521
 30
0.0
 40
1.999999987939381
100
AcDbArc
 50
270.0
 51
0.0
  0
ARC
  5
E7
330
67
100
AcDbEntity
  8
0
  6
Continuous
100
AcDbCircle
 10
219.3267246087571
 20
201.0418782324521
 30
0.0
 40
1.999999987939381
100
AcDbArc
 50
90.0
 51
180.0
  0
ARC
  5
E8
330
67
100
AcDbEntity
  8
0
  6
Continuous
100
AcDbCircle
 10
242.3267244700601
 20
201.0418782324521
 30
0.0
 40
1.999999987939381
100
AcDbArc
 50
0.0
 51
90.0
  0
ARC
  5
E9
330
67
100
AcDbEntity
  8
0
  6
Continuous
100
AcDbCircle
 10
242.3267244700601
 20
191.641878289137
 30
0.0
 40
1.999999987939381
100
AcDbArc
 50
270.0
 51
0.0
  0
ARC
  5
EA
330
67
100
AcDbEntity
  8
0
  6
Continuous
100
AcDbCircle
 10
219.3267246087571
 20
191.641878289137
 30
0.0
 40
1.999999987939381
100
AcDbArc
 50
180.0
 51
270.0
  0
LINE
  5
EB
330
67
100
AcDbEntity
  8
0
  6
Continuous
100
AcDbLine
 10
219.3267246087571
 20
189.6418783011976
 30
0.0
 11
242.3267244700601
 21
189.6418783011976
 31
0.0
  0
LINE
  5
EC
330
67
100
AcDbEntity
  8
0
  6
Continuous
100
AcDbLine
 10
219.3267246087571
 20
199.0418782445127
 30
0.0
 11
242.3267244700601
 21
199.0418782445127
 31
0.0
  0
LINE
  5
ED
330
67
100
AcDbEntity
  8
0
  6
Continuous
100
AcDbLine
 10
219.3267246087571
 20
203.0418782203915
 30
0.0
 11
242.3267244700601
 21
203.0418782203915
 31
0.0
  0
LINE
  5
EE
330
67
100
AcDbEntity
  8
0
  6
Continuous
100
AcDbLine
 10
244.3267244579995
 20
191.641878289137
 30
0.0
 11
244.3267244579995
 21
201.0418782324521
 31
0.0
  0
LINE
  5
EF
330
67
100
AcDbEntity
  8
0
  6
Continuous
100
AcDbLine
 10
217.3267246208179
 20
191.641878289137
 30
0.0
 11
217.3267246208179
 21
201.0418782324521
 31
0.0
  0
ARC
  5
F0
330
67
100
AcDbEntity
  8
0
  6
Continuous
100
AcDbCircle
 10
215.3267246328785
 20
216.8418781371732
 30
0.0
 40
1.999999987939381
100
AcDbArc
 50
90.0
 51
180.0
  0
ARC
  5
F1
330
67
100
AcDbEntity
  8
0
  6
Continuous
100
AcDbCircle
 10
221.3267245966965
 20
208.04187819024
 30
0.0
 40
1.999999987939381
100
AcDbArc
 50
90.0
 51
180.0
  0
ARC
  5
F2
330
67
100
AcDbEntity
  8
0
  6
Continuous
100
AcDbCircle
 10
221.3267245966965
 20
208.04187819024
 30
0.0
 40
1.999999987939381
100
AcDbArc
 50
180.0
 51
270.0
  0
LINE
  5
F3
330
67
100
AcDbEntity
  8
0
  6
Continuous
100
AcDbLine
 10
223.4120285841216
 20
214.0418781540581
 30
0.0
 11
261.9267243518659
 21
214.0418781540581
 31
0.0
  0
LINE
  5
F4
330
67
100
AcDbEntity
  8
0
  6
Continuous
100
AcDbLine
 10
221.3267245966965
 20
210.0418781781793
 30
0.0
 11
254.4626223968769
 21
210.0418781781793
 31
0.0
  0
LINE
  5
F5
330
67
100
AcDbEntity
  8
0
  6
Continuous
100
AcDbLine
 10
221.3267245966965
 20
206.0418782023006
 30
0.0
 11
248.3267244338783
 21
206.0418782023006
 31
0.0
  0
ARC
  5
F6
330
67
100
AcDbEntity
  8
0
  6
Continuous
100
AcDbCircle
 10
246.3267244459389
 20
187.6418783132581
 30
0.0
 40
1.999999987939381
100
AcDbArc
 50
270.0
 51
0.0
  0
ARC
  5
F7
330
67
100
AcDbEntity
  8
0
  6
Continuous
100
AcDbCircle
 10
215.3267246328785
 20
187.6418783132581
 30
0.0
 40
1.999999987939381
100
AcDbArc
 50
180.0
 51
270.0
  0
LINE
  5
F8
330
67
100
AcDbEntity
  8
0
  6
Continuous
100
AcDbLine
 10
248.3267244338783
 20
187.6418783132581
 30
0.0
 11
248.3267244338783
 21
206.0418782023006
 31
0.0
  0
LINE
  5
F9
330
67
100
AcDbEntity
  8
0
  6
Continuous
100
AcDbLine
 10
213.3267246449391
 20
187.6418783132581
 30
0.0
 11
213.3267246449391
 21
216.8418781371732
 31
0.0
  0
LINE
  5
FA
330
67
100
AcDbEntity
  8
0
  6
Continuous
100
AcDbLine
 10
215.3267246328785
 20
218.8418781251126
 30
0.0
 11
221.4120285961822
 21
218.8418781251126
 31
0.0
  0
LINE
  5
FB
330
67
100
AcDbEntity
  8
0
  6
Continuous
100
AcDbLine
 10
215.3267246328785
 20
185.6418783253188
 30
0.0
 11
246.3267244459389
 21
185.6418783253188
 31
0.0
  0
LINE
  5
FC
330
67
100
AcDbEntity
  8
center
100
AcDbLine
 10
233.3267245243328
 20
176.2641671103028
 30
0.0
 11
233.3267245243328
 21
223.0788780995621
 31
0.0
  0
ARC
  5
13F
330
67
100
AcDbEntity
  8
0
  6
Continuous
100
AcDbCircle
 10
159.0448112468225
 20
188.6418783072279
 30
0.0
 40
2.999999981909071
100
AcDbArc
 50
270.0
 51
0.0
  0
ARC
  5
140
330
67
100
AcDbEntity
  8
0
  6
Continuous
100
AcDbCircle
 10
131.4448114132592
 20
188.6418783072279
 30
0.0
 40
2.999999981909071
100
AcDbArc
 50
180.0
 51
270.0
  0
LINE
  5
141
330
67
100
AcDbEntity
  8
0
  6
Continuous
100
AcDbLine
 10
154.4448112745619
 20
216.8418781371732
 30
0.0
 11
156.4448112625013
 21
218.8418781251126
 31
0.0
  0
LINE
  5
142
330
67
100
AcDbEntity
  8
0
  6
Continuous
100
AcDbLine
 10
136.2448113843136
 20
216.8418781371732
 30
0.0
 11
134.2448113963742
 21
218.8418781251126
 31
0.0
  0
LINE
  5
14B
330
67
100
AcDbEntity
  8
0
  6
Continuous
100
AcDbLine
 10
136.2448113843136
 20
214.0418781540581
 30
0.0
 11
154.4448112745619
 21
214.0418781540581
 31
0.0
  0
LINE
  5
14C
330
67
100
AcDbEntity
  8
0
  6
Continuous
100
AcDbLine
 10
136.2448113843136
 20
210.0418781781793
 30
0.0
 11
139.4448113650166
 21
210.0418781781793
 31
0.0
  0
LINE
  5
14D
330
67
100
AcDbEntity
  8
0
  6
Continuous
100
AcDbLine
 10
136.2448113843136
 20
206.0418782023006
 30
0.0
 11
139.4448113650166
 21
206.0418782023006
 31
0.0
  0
LINE
  5
14E
330
67
100
AcDbEntity
  8
0
  6
Continuous
100
AcDbLine
 10
162.0448112287315
 20
188.6418783072279
 30
0.0
 11
162.0448112287315
 21
215.8418781432035
 31
0.0
  0
LINE
  5
14F
330
67
100
AcDbEntity
  8
0
  6
Continuous
100
AcDbLine
 10
128.44481143135
 20
188.6418783072279
 30
0.0
 11
128.44481143135
 21
215.8418781432035
 31
0.0
  0
LINE
  5
150
330
67
100
AcDbEntity
  8
0
  6
Continuous
100
AcDbLine
 10
131.4448114132592
 20
218.8418781251126
 30
0.0
 11
134.2448113963742
 21
218.8418781251126
 31
0.0
  0
LINE
  5
151
330
67
100
AcDbEntity
  8
0
  6
Continuous
100
AcDbLine
 10
131.4448114132592
 20
185.6418783253188
 30
0.0
 11
133.2448114024046
 21
185.6418783253188
 31
0.0
  0
ARC
  5
152
330
67
100
AcDbEntity
  8
0
  6
Continuous
100
AcDbCircle
 10
131.4448114132592
 20
215.8418781432035
 30
0.0
 40
2.999999981909071
100
AcDbArc
 50
90.0
 51
180.0
  0
LINE
  5
153
330
67
100
AcDbEntity
  8
0
  6
Continuous
100
AcDbLine
 10
136.2448113843136
 20
206.0418782023006
 30
0.0
 11
136.2448113843136
 21
216.8418781371732
 31
0.0
  0
LINE
  5
154
330
67
100
AcDbEntity
  8
0
  6
Continuous
100
AcDbLine
 10
139.4448113650166
 20
206.0418782023006
 30
0.0
 11
139.4448113650166
 21
214.0418781540581
 31
0.0
  0
LINE
  5
155
330
67
100
AcDbEntity
  8
0
  6
Continuous
100
AcDbLine
 10
151.4448112926529
 20
206.0418782023006
 30
0.0
 11
151.4448112926529
 21
214.0418781540581
 31
0.0
  0
LINE
  5
156
330
67
100
AcDbEntity
  8
0
  6
Continuous
100
AcDbLine
 10
154.4448112745619
 20
206.0418782023006
 30
0.0
 11
154.4448112745619
 21
216.8418781371732
 31
0.0
  0
LINE
  5
157
330
67
100
AcDbEntity
  8
0
  6
Continuous
100
AcDbLine
 10
151.4448112926529
 20
210.0418781781793
 30
0.0
 11
154.4448112745619
 21
210.0418781781793
 31
0.0
  0
LINE
  5
158
330
67
100
AcDbEntity
  8
0
  6
Continuous
100
AcDbLine
 10
159.0448112468225
 20
218.8418781251126
 30
0.0
 11
156.4448112625013
 21
218.8418781251126
 31
0.0
  0
ARC
  5
159
330
67
100
AcDbEntity
  8
0
  6
Continuous
100
AcDbCircle
 10
159.0448112468225
 20
215.8418781432035
 30
0.0
 40
2.999999981909071
100
AcDbArc
 50
0.0
 51
90.0
  0
LINE
  5
15A
330
67
100
AcDbEntity
  8
0
  6
Continuous
100
AcDbLine
 10
151.4448112926529
 20
206.0418782023006
 30
0.0
 11
154.4448112745619
 21
206.0418782023006
 31
0.0
  0
LINE
  5
15B
330
67
100
AcDbEntity
  8
0
  6
Continuous
100
AcDbLine
 10
138.4409633710702
 20
188.6418783072279
 30
0.0
 11
152.0486592890115
 21
188.6418783072279
 31
0.0
  0
LINE
  5
15C
330
67
100
AcDbEntity
  8
0
  6
Continuous
100
AcDbLine
 10
133.2448114024046
 20
185.6418783253188
 30
0.0
 11
138.4409633710702
 21
188.6418783072279
 31
0.0
  0
LINE
  5
15D
330
67
100
AcDbEntity
  8
0
  6
Continuous
100
AcDbLine
 10
157.2448112576771
 20
185.6418783253188
 30
0.0
 11
152.0486592890115
 21
188.6418783072279
 31
0.0
  0
LINE
  5
15E
330
67
100
AcDbEntity
  8
0
  6
Continuous
100
AcDbLine
 10
157.2448112576771
 20
185.6418783253188
 30
0.0
 11
159.0448112468225
 21
185.6418783253188
 31
0.0
  0
LINE
  5
15F
330
67
100
AcDbEntity
  8
center
100
AcDbLine
 10
145.2448113300409
 20
175.6418783856219
 30
0.0
 11
145.2448113300409
 21
228.8418780648095
 31
0.0
  0
LINE
  5
1C2
330
67
100
AcDbEntity
  8
neji
  6
Continuous
100
AcDbLine
 10
227.3267245605148
 20
217.4465245465967
 30
0.0
 11
227.3267245605146
 21
214.0418781540581
 31
0.0
  0
LINE
  5
1C3
330
67
100
AcDbEntity
  8
neji
  6
Continuous
100
AcDbLine
 10
239.326724488151
 20
217.4465245465967
 30
0.0
 11
234.3267245183026
 21
222.0418781058156
 31
0.0
  0
LINE
  5
1C4
330
67
100
AcDbEntity
  8
neji
  6
Continuous
100
AcDbLine
 10
234.3267245183026
 20
222.0418781058156
 30
0.0
 11
232.3267245303632
 21
222.0418781058156
 31
0.0
  0
LINE
  5
1C5
330
67
100
AcDbEntity
  8
neji
  6
Continuous
100
AcDbLine
 10
232.3267245303632
 20
222.0418781058156
 30
0.0
 11
227.3267245605148
 21
217.4465245465967
 31
0.0
  0
LINE
  5
1C6
330
67
100
AcDbEntity
  8
neji
  6
Continuous
100
AcDbLine
 10
227.3267245605148
 20
217.4465245465967
 30
0.0
 11
239.326724488151
 21
217.4465245465967
 31
0.0
  0
LINE
  5
1C7
330
67
100
AcDbEntity
  8
neji
  6
Continuous
100
AcDbLine
 10
151.2448112938591
 20
214.0418781540581
 30
0.0
 11
151.2448112938589
 21
217.4465245465967
 31
0.0
  0
LINE
  5
1C8
330
67
100
AcDbEntity
  8
neji
  6
Continuous
100
AcDbLine
 10
150.1618113003897
 20
214.0418781540581
 30
0.0
 11
150.1618113003899
 21
217.4465245465967
 31
0.0
  0
LINE
  5
1C9
330
67
100
AcDbEntity
  8
neji
  6
Continuous
100
AcDbLine
 10
140.3278113596918
 20
214.0418781540581
 30
0.0
 11
140.3278113596916
 21
217.4465245465967
 31
0.0
  0
LINE
  5
1CA
330
67
100
AcDbEntity
  8
neji
  6
Continuous
100
AcDbLine
 10
139.2448113662226
 20
217.4465245465967
 30
0.0
 11
139.2448113662228
 21
214.0418781540581
 31
0.0
  0
LINE
  5
1CB
330
67
100
AcDbEntity
  8
neji
  6
Continuous
100
AcDbLine
 10
151.2448112938589
 20
217.4465245465967
 30
0.0
 11
146.2448113240105
 21
222.0418781058156
 31
0.0
  0
LINE
  5
1CC
330
67
100
AcDbEntity
  8
neji
  6
Continuous
100
AcDbLine
 10
146.2448113240105
 20
222.0418781058156
 30
0.0
 11
144.244811336071
 21
222.0418781058156
 31
0.0
  0
LINE
  5
1CD
330
67
100
AcDbEntity
  8
neji
  6
Continuous
100
AcDbLine
 10
144.244811336071
 20
222.0418781058156
 30
0.0
 11
139.2448113662226
 21
217.4465245465967
 31
0.0
  0
LINE
  5
1CE
330
67
100
AcDbEntity
  8
neji
  6
Continuous
100
AcDbLine
 10
139.2448113662226
 20
217.4465245465967
 30
0.0
 11
151.2448112938589
 21
217.4465245465967
 31
0.0
  0
LINE
  5
1E1
330
67
100
AcDbEntity
  8
neji
  6
Continuous
100
AcDbLine
 10
239.3267244881508
 20
214.0418781540581
 30
0.0
 11
239.326724488151
 21
217.4465245465967
 31
0.0
  0
LINE
  5
1E2
330
67
100
AcDbEntity
  8
neji
  6
Continuous
100
AcDbLine
 10
238.243724494682
 20
214.0418781540581
 30
0.0
 11
238.243724494682
 21
217.4465245465967
 31
0.0
  0
LINE
  5
1E3
330
67
100
AcDbEntity
  8
neji
  6
Continuous
100
AcDbLine
 10
228.4097245539836
 20
214.0418781540581
 30
0.0
 11
228.4097245539838
 21
217.4465245465967
 31
0.0
  0
LINE
  5
1E4
330
67
100
AcDbEntity
  8
neji
  6
Continuous
100
AcDbLine
 10
227.3267245605146
 20
210.0418781781793
 30
0.0
 11
227.3267245605146
 21
206.0418782023005
 31
0.0
  0
LINE
  5
1E5
330
67
100
AcDbEntity
  8
neji
  6
Continuous
100
AcDbLine
 10
239.326724488151
 20
206.0418782023005
 30
0.0
 11
239.326724488151
 21
210.0418781781793
 31
0.0
  0
LINE
  5
1E6
330
67
100
AcDbEntity
  8
neji
  6
Continuous
100
AcDbLine
 10
238.243724494682
 20
206.0418782023005
 30
0.0
 11
238.243724494682
 21
210.0418781781793
 31
0.0
  0
LINE
  5
1E7
330
67
100
AcDbEntity
  8
neji
  6
Continuous
100
AcDbLine
 10
228.4097245539838
 20
206.0418782023005
 30
0.0
 11
228.4097245539838
 21
210.0418781781793
 31
0.0
  0
LINE
  5
1E9
330
67
100
AcDbEntity
  8
0
  6
Continuous
100
AcDbLine
 10
140.3278113596918
 20
188.6418783072279
 30
0.0
 11
140.3278113596918
 21
186.8418783180825
 31
0.0
  0
LINE
  5
1EA
330
67
100
AcDbEntity
  8
0
  6
Continuous
100
AcDbLine
 10
139.2448113662226
 20
188.6418783072279
 30
0.0
 11
139.2448113662226
 21
186.8418783180825
 31
0.0
  0
LINE
  5
1EB
330
67
100
AcDbEntity
  8
0
  6
Continuous
100
AcDbLine
 10
150.1618113003897
 20
188.6418783072279
 30
0.0
 11
150.1618113003897
 21
186.8418783180825
 31
0.0
  0
LINE
  5
1EC
330
67
100
AcDbEntity
  8
0
  6
Continuous
100
AcDbLine
 10
151.2448112938589
 20
188.6418783072279
 30
0.0
 11
151.2448112938589
 21
186.8418783180825
 31
0.0
  0
LINE
  5
1ED
330
67
100
AcDbEntity
  8
0
  6
Continuous
100
AcDbLine
 10
135.3232713898705
 20
186.8418783180825
 30
0.0
 11
155.1663492702109
 21
186.8418783180825
 31
0.0
  0
ARC
  5
1EE
330
67
100
AcDbEntity
  8
0
  6
Continuous
100
AcDbCircle
 10
138.7596573691483
 20
182.8418783422036
 30
0.0
 40
3.799999977084823
100
AcDbArc
 50
182.9999999999997
 51
270.0
  0
LINE
  5
1EF
330
67
100
AcDbEntity
  8
0
  6
Continuous
100
AcDbLine
 10
134.7617993932565
 20
186.5177123200373
 30
0.0
 11
134.9648653920319
 21
182.643000343403
 31
0.0
  0
ARC
  5
1F0
330
67
100
AcDbEntity
  8
0
  6
Continuous
100
AcDbCircle
 10
151.7299652909332
 20
182.8418783422036
 30
0.0
 40
3.799999977084823
100
AcDbArc
 50
270.0
 51
357.0000000000002
  0
LINE
  5
1F1
330
67
100
AcDbEntity
  8
0
  6
Continuous
100
AcDbLine
 10
155.727821266825
 20
186.5177123200373
 30
0.0
 11
155.5247572680491
 21
182.643000343403
 31
0.0
  0
LINE
  5
1F2
330
67
100
AcDbEntity
  8
0
  6
Continuous
100
AcDbLine
 10
138.7596573691483
 20
179.0418783651189
 30
0.0
 11
151.7299652909332
 21
179.0418783651189
 31
0.0
  0
LINE
  5
1F3
330
67
100
AcDbEntity
  8
neji
  6
Continuous
100
AcDbLine
 10
243.763836461394
 20
185.6418783253188
 30
0.0
 11
243.6066704623418
 21
182.643000343403
 31
0.0
  0
LINE
  5
1F4
330
67
100
AcDbEntity
  8
neji
  6
Continuous
100
AcDbLine
 10
222.889614587272
 20
185.6418783253188
 30
0.0
 11
223.0467785863241
 21
182.643000343403
 31
0.0
  0
LINE
  5
1F5
330
67
100
AcDbEntity
  8
neji
  6
Continuous
100
AcDbLine
 10
226.8415705634404
 20
179.0418783651189
 30
0.0
 11
239.8118784852254
 21
179.0418783651189
 31
0.0
  0
ARC
  5
1F6
330
67
100
AcDbEntity
  8
neji
  6
Continuous
100
AcDbCircle
 10
226.8415705634404
 20
182.8418783422036
 30
0.0
 40
3.799999977084823
100
AcDbArc
 50
182.9999999999997
 51
270.0
  0
ARC
  5
1F7
330
67
100
AcDbEntity
  8
neji
  6
Continuous
100
AcDbCircle
 10
239.8118784852254
 20
182.8418783422036
 30
0.0
 40
3.799999977084823
100
AcDbArc
 50
270.0
 51
357.0000000000002
  0
ENDSEC
  0
SECTION
  2
OBJECTS
  0
DICTIONARY
  5
C
330
0
100
AcDbDictionary
281
     1
  3
ACAD_CIP_PREVIOUS_PRODUCT_INFO
350
598
  3
ACAD_COLOR
350
5E
  3
ACAD_GROUP
350
D
  3
ACAD_LAYOUT
350
5D
  3
ACAD_MATERIAL
350
10
  3
ACAD_MLEADERSTYLE
350
61
  3
ACAD_MLINESTYLE
350
5A
  3
ACAD_PLOTSETTINGS
350
5C
  3
ACAD_PLOTSTYLENAME
350
E
  3
ACAD_SCALELIST
350
3D
  3
ACAD_TABLESTYLE
350
5F
  3
ACAD_VISUALSTYLE
350
29
  3
ACDB_RECOMPOSE_DATA
350
59C
  3
AcDbVariableDictionary
350
53D
  3
DWGPROPS
350
59D
  0
DICTIONARY
  5
549
330
4F
100
AcDbDictionary
280
     1
281
     1
  3
ADSK_XREC_LAYER_RECONCILED
360
54A
  0
DICTIONARY
  5
9D
330
9C
100
AcDbDictionary
280
     1
281
     1
  3
ADSK_XREC_LAYER_RECONCILED
360
9E
  0
DICTIONARY
  5
A2
330
A1
100
AcDbDictionary
280
     1
281
     1
  3
ADSK_XREC_LAYER_RECONCILED
360
A3
  0
DICTIONARY
  5
A8
330
A7
100
AcDbDictionary
280
     1
281
     1
  3
ADSK_XREC_LAYER_RECONCILED
360
A9
  0
DICTIONARY
  5
147
330
146
100
AcDbDictionary
280
     1
281
     1
  3
ADSK_XREC_LAYER_RECONCILED
360
148
  0
DICTIONARY
  5
1B4
330
1B3
100
AcDbDictionary
280
     1
281
     1
  3
ADSK_XREC_LAYER_RECONCILED
360
1B5
  0
DICTIONARY
  5
338
330
337
100
AcDbDictionary
280
     1
281
     1
  3
ADSK_XREC_LAYER_RECONCILED
360
339
  0
DICTIONARY
  5
54B
330
485
100
AcDbDictionary
280
     1
281
     1
  3
ADSK_XREC_LAYER_RECONCILED
360
54C
  0
DICTIONARY
  5
334
330
67
100
AcDbDictionary
280
     1
281
     1
  3
ACAD_SORTENTS
360
335
  0
DICTIONARY
  5
33B
330
33A
100
AcDbDictionary
280
     1
281
     1
  3
ACAD_SORTENTS
360
33C
  0
DICTIONARY
  5
43C
330
43B
100
AcDbDictionary
280
     1
281
     1
  3
ACAD_SORTENTS
360
43D
  3
AcDbBlockTableRecordData
360
5CB
  0
DICTIONARY
  5
406
330
405
100
AcDbDictionary
280
     1
281
     1
  3
AcDbContextDataManager
360
407
  0
DICTIONARY
  5
40A
330
409
100
AcDbDictionary
280
     1
281
     1
  3
AcDbContextDataManager
360
40B
  0
DICTIONARY
  5
40E
330
40D
100
AcDbDictionary
280
     1
281
     1
  3
AcDbContextDataManager
360
40F
  0
DICTIONARY
  5
412
330
411
100
AcDbDictionary
280
     1
281
     1
  3
AcDbContextDataManager
360
413
  0
DICTIONARY
  5
416
330
415
100
AcDbDictionary
280
     1
281
     1
  3
AcDbContextDataManager
360
417
  0
DICTIONARY
  5
41A
330
419
100
AcDbDictionary
280
     1
281
     1
  3
AcDbContextDataManager
360
41B
  0
DICTIONARY
  5
447
330
446
100
AcDbDictionary
280
     1
281
     1
  3
AcDbContextDataManager
360
448
  0
DICTIONARY
  5
44C
330
44B
100
AcDbDictionary
280
     1
281
     1
  3
AcDbContextDataManager
360
44D
  0
DICTIONARY
  5
451
330
450
100
AcDbDictionary
280
     1
281
     1
  3
AcDbContextDataManager
360
452
  0
DICTIONARY
  5
456
330
455
100
AcDbDictionary
280
     1
281
     1
  3
AcDbContextDataManager
360
457
  0
DICTIONARY
  5
45B
330
45A
100
AcDbDictionary
280
     1
281
     1
  3
AcDbContextDataManager
360
45C
  0
DICTIONARY
  5
460
330
45F
100
AcDbDictionary
280
     1
281
     1
  3
AcDbContextDataManager
360
461
  0
DICTIONARY
  5
4B0
330
4AF
100
AcDbDictionary
280
     1
281
     1
  3
AcDbContextDataManager
360
4B1
  0
DICTIONARY
  5
4B5
330
4B4
100
AcDbDictionary
280
     1
281
     1
  3
AcDbContextDataManager
360
4B6
  0
DICTIONARY
  5
4BA
330
4B9
100
AcDbDictionary
280
     1
281
     1
  3
AcDbContextDataManager
360
4BB
  0
DICTIONARY
  5
4BF
330
4BE
100
AcDbDictionary
280
     1
281
     1
  3
AcDbContextDataManager
360
4C0
  0
DICTIONARY
  5
4C4
330
4C3
100
AcDbDictionary
280
     1
281
     1
  3
AcDbContextDataManager
360
4C5
  0
DICTIONARY
  5
4C9
330
4C8
100
AcDbDictionary
280
     1
281
     1
  3
AcDbContextDataManager
360
4CA
  0
DICTIONARY
  5
4D8
330
4D7
100
AcDbDictionary
280
     1
281
     1
  3
AcDbContextDataManager
360
4D9
  0
DICTIONARY
  5
4DD
330
4DC
100
AcDbDictionary
280
     1
281
     1
  3
AcDbContextDataManager
360
4DE
  0
DICTIONARY
  5
4E2
330
4E1
100
AcDbDictionary
280
     1
281
     1
  3
AcDbContextDataManager
360
4E3
  0
DICTIONARY
  5
4E7
330
4E6
100
AcDbDictionary
280
     1
281
     1
  3
AcDbContextDataManager
360
4E8
  0
DICTIONARY
  5
4EC
330
4EB
100
AcDbDictionary
280
     1
281
     1
  3
AcDbContextDataManager
360
4ED
  0
DICTIONARY
  5
4F1
330
4F0
100
AcDbDictionary
280
     1
281
     1
  3
AcDbContextDataManager
360
4F2
  0
XRECORD
  5
598
102
{ACAD_REACTORS
330
C
102
}
330
C
100
AcDbXrecord
280
     1
300
ACD
300
2012
300
ACD_F_S
  0
DICTIONARY
  5
5E
102
{ACAD_REACTORS
330
C
102
}
330
C
100
AcDbDictionary
281
     1
  0
DICTIONARY
  5
D
102
{ACAD_REACTORS
330
C
102
}
330
C
100
AcDbDictionary
281
     1
  0
DICTIONARY
  5
5D
102
{ACAD_REACTORS
330
C
102
}
330
C
100
AcDbDictionary
281
     1
  3
Model
350
6A
  3
レイアウト1
350
66
  3
レイアウト2
350
6E
  0
DICTIONARY
  5
10
102
{ACAD_REACTORS
330
C
102
}
330
C
100
AcDbDictionary
281
     1
  3
ByBlock
350
19
  3
ByLayer
350
11
  3
Global
350
21
  0
DICTIONARY
  5
61
102
{ACAD_REACTORS
330
C
102
}
330
C
100
AcDbDictionary
281
     1
  3
ATOM_balloon
350
1D6
  3
Standard
350
62
  0
DICTIONARY
  5
5A
102
{ACAD_REACTORS
330
C
102
}
330
C
100
AcDbDictionary
281
     1
  3
Standard
350
5B
  0
DICTIONARY
  5
5C
102
{ACAD_REACTORS
330
C
102
}
330
C
100
AcDbDictionary
281
     1
  0
ACDBDICTIONARYWDFLT
  5
E
102
{ACAD_REACTORS
330
C
102
}
330
C
100
AcDbDictionary
281
     1
  3
invisible
350
87
  3
Normal
350
F
  3
Style 1
350
88
100
AcDbDictionaryWithDefault
340
F
  0
DICTIONARY
  5
3D
102
{ACAD_REACTORS
330
C
102
}
330
C
100
AcDbDictionary
281
     1
  3
*A1
350
89
  3
*A10
350
91
  3
*A11
350
92
  3
*A12
350
93
  3
*A13
350
94
  3
*A14
350
95
  3
*A15
350
96
  3
*A16
350
97
  3
*A17
350
98
  3
*A18
350
99
  3
*A2
350
9A
  3
*A3
350
8A
  3
*A4
350
8B
  3
*A5
350
8C
  3
*A6
350
8D
  3
*A7
350
8E
  3
*A8
350
8F
  3
*A9
350
90
  3
A0
350
3E
  3
A1
350
3F
  3
A2
350
40
  3
A3
350
41
  3
A4
350
42
  3
A5
350
43
  3
A6
350
44
  3
A7
350
45
  3
A8
350
46
  3
A9
350
47
  3
B0
350
48
  3
B1
350
49
  3
B2
350
4A
  3
B3
350
4B
  3
B4
350
4C
  3
B5
350
4D
  3
B6
350
4E
  0
DICTIONARY
  5
5F
102
{ACAD_REACTORS
330
C
102
}
330
C
100
AcDbDictionary
281
     1
  3
Standard
350
60
  0
DICTIONARY
  5
29
102
{ACAD_REACTORS
330
C
102
}
330
C
100
AcDbDictionary
281
     1
  3
2dWireframe
350
2F
  3
3D Hidden
350
31
  3
3dWireframe
350
30
  3
Basic
350
2E
  3
Brighten
350
35
  3
ColorChange
350
39
  3
Conceptual
350
32
  3
Dim
350
34
  3
EdgeColorOff
350
3C
  3
Facepattern
350
38
  3
Flat
350
2A
  3
FlatWithEdges
350
2B
  3
Gouraud
350
2C
  3
GouraudWithEdges
350
2D
  3
Hidden
350
591
  3
JitterOff
350
3A
  3
Linepattern
350
37
  3
OverhangOff
350
3B
  3
Realistic
350
33
  3
Shaded
350
596
  3
Shaded with edges
350
595
  3
Shades of Gray
350
592
  3
Sketchy
350
593
  3
Thicken
350
36
  3
Wireframe
350
590
  3
X-Ray
350
594
  0
XRECORD
  5
59C
102
{ACAD_REACTORS
330
C
102
}
330
C
100
AcDbXrecord
280
     1
 90
        1
330
60
  0
DICTIONARY
  5
53D
102
{ACAD_REACTORS
330
C
102
}
330
C
100
AcDbDictionary
281
     1
  3
ANNOALLVISIBLE
350
540
  3
CANNOSCALE
350
541
  3
CMLEADERSTYLE
350
53F
  3
CTABLESTYLE
350
53E
  3
DIMASSOC
350
553
  3
HIDETEXT
350
551
  3
INDEXCTL
350
550
  3
LAYEREVAL
350
542
  3
LAYERNOTIFY
350
543
  3
LIGHTINGUNITS
350
54E
  3
MSLTSCALE
350
54D
  3
SORTENTS
350
54F
  3
XCLIPFRAME
350
599
  0
XRECORD
  5
59D
102
{ACAD_REACTORS
330
C
102
}
330
C
100
AcDbXrecord
280
     1
  1
DWGPROPS COOKIE
  2

  3

  4

  6

  7

  8
0035sekine
  9

300
=
301
=
302
=
303
=
304
=
305
=
306
=
307
=
308
=
309
=
 40
0.0010156481481481
 41
2455756.392186331
 42
2457584.408898842
  1

 90
        0
  0
XRECORD
  5
54A
102
{ACAD_REACTORS
330
549
102
}
330
549
100
AcDbXrecord
280
     1
290
     1
  0
XRECORD
  5
9E
102
{ACAD_REACTORS
330
9D
102
}
330
9D
100
AcDbXrecord
280
     1
290
     1
  0
XRECORD
  5
A3
102
{ACAD_REACTORS
330
A2
102
}
330
A2
100
AcDbXrecord
280
     1
290
     1
  0
XRECORD
  5
A9
102
{ACAD_REACTORS
330
A8
102
}
330
A8
100
AcDbXrecord
280
     1
290
     1
  0
XRECORD
  5
148
102
{ACAD_REACTORS
330
147
102
}
330
147
100
AcDbXrecord
280
     1
290
     1
  0
XRECORD
  5
1B5
102
{ACAD_REACTORS
330
1B4
102
}
330
1B4
100
AcDbXrecord
280
     1
290
     1
  0
XRECORD
  5
339
102
{ACAD_REACTORS
330
338
102
}
330
338
100
AcDbXrecord
280
     1
290
     1
  0
XRECORD
  5
54C
102
{ACAD_REACTORS
330
54B
102
}
330
54B
100
AcDbXrecord
280
     1
290
     1
  0
SORTENTSTABLE
  5
335
102
{ACAD_REACTORS
330
334
102
}
330
334
100
AcDbSortentsTable
330
67
331
1E5
  5
1C2
331
1E2
  5
1C5
331
1C6
  5
1CD
331
1C3
  5
1CA
331
1CC
  5
1E1
331
1C9
  5
1D0
331
1E3
  5
1C7
331
1C4
  5
1CB
331
1E6
  5
1C4
331
1CD
  5
1E2
331
1CA
  5
1D1
331
1C7
  5
1CE
331
1E1
  5
1C3
331
1C2
  5
1C8
331
1E7
  5
1C6
331
1E4
  5
1C9
331
1C8
  5
1CF
331
1C5
  5
1CC
331
1CE
  5
1E3
331
1CB
  5
1DC
  0
SORTENTSTABLE
  5
33C
102
{ACAD_REACTORS
330
33B
102
}
330
33B
100
AcDbSortentsTable
330
33A
  0
SORTENTSTABLE
  5
43D
102
{ACAD_REACTORS
330
43C
102
}
330
43C
100
AcDbSortentsTable
330
43B
  0
DICTIONARY
  5
5CB
102
{ACAD_REACTORS
330
43C
102
}
330
43C
100
AcDbDictionary
280
     1
281
     1
  3
Edit
360
5CC
  0
DICTIONARY
  5
407
102
{ACAD_REACTORS
330
406
102
}
330
406
100
AcDbDictionary
281
     1
  3
ACDB_ANNOTATIONSCALES
350
408
  0
DICTIONARY
  5
40B
102
{ACAD_REACTORS
330
40A
102
}
330
40A
100
AcDbDictionary
281
     1
  3
ACDB_ANNOTATIONSCALES
350
40C
  0
DICTIONARY
  5
40F
102
{ACAD_REACTORS
330
40E
102
}
330
40E
100
AcDbDictionary
281
     1
  3
ACDB_ANNOTATIONSCALES
350
410
  0
DICTIONARY
  5
413
102
{ACAD_REACTORS
330
412
102
}
330
412
100
AcDbDictionary
281
     1
  3
ACDB_ANNOTATIONSCALES
350
414
  0
DICTIONARY
  5
417
102
{ACAD_REACTORS
330
416
102
}
330
416
100
AcDbDictionary
281
     1
  3
ACDB_ANNOTATIONSCALES
350
418
  0
DICTIONARY
  5
41B
102
{ACAD_REACTORS
330
41A
102
}
330
41A
100
AcDbDictionary
281
     1
  3
ACDB_ANNOTATIONSCALES
350
41C
  0
DICTIONARY
  5
448
102
{ACAD_REACTORS
330
447
102
}
330
447
100
AcDbDictionary
281
     1
  3
ACDB_ANNOTATIONSCALES
350
449
  0
DICTIONARY
  5
44D
102
{ACAD_REACTORS
330
44C
102
}
330
44C
100
AcDbDictionary
281
     1
  3
ACDB_ANNOTATIONSCALES
350
44E
  0
DICTIONARY
  5
452
102
{ACAD_REACTORS
330
451
102
}
330
451
100
AcDbDictionary
281
     1
  3
ACDB_ANNOTATIONSCALES
350
453
  0
DICTIONARY
  5
457
102
{ACAD_REACTORS
330
456
102
}
330
456
100
AcDbDictionary
281
     1
  3
ACDB_ANNOTATIONSCALES
350
458
  0
DICTIONARY
  5
45C
102
{ACAD_REACTORS
330
45B
102
}
330
45B
100
AcDbDictionary
281
     1
  3
ACDB_ANNOTATIONSCALES
350
45D
  0
DICTIONARY
  5
461
102
{ACAD_REACTORS
330
460
102
}
330
460
100
AcDbDictionary
281
     1
  3
ACDB_ANNOTATIONSCALES
350
462
  0
DICTIONARY
  5
4B1
102
{ACAD_REACTORS
330
4B0
102
}
330
4B0
100
AcDbDictionary
281
     1
  3
ACDB_ANNOTATIONSCALES
350
4B2
  0
DICTIONARY
  5
4B6
102
{ACAD_REACTORS
330
4B5
102
}
330
4B5
100
AcDbDictionary
281
     1
  3
ACDB_ANNOTATIONSCALES
350
4B7
  0
DICTIONARY
  5
4BB
102
{ACAD_REACTORS
330
4BA
102
}
330
4BA
100
AcDbDictionary
281
     1
  3
ACDB_ANNOTATIONSCALES
350
4BC
  0
DICTIONARY
  5
4C0
102
{ACAD_REACTORS
330
4BF
102
}
330
4BF
100
AcDbDictionary
281
     1
  3
ACDB_ANNOTATIONSCALES
350
4C1
  0
DICTIONARY
  5
4C5
102
{ACAD_REACTORS
330
4C4
102
}
330
4C4
100
AcDbDictionary
281
     1
  3
ACDB_ANNOTATIONSCALES
350
4C6
  0
DICTIONARY
  5
4CA
102
{ACAD_REACTORS
330
4C9
102
}
330
4C9
100
AcDbDictionary
281
     1
  3
ACDB_ANNOTATIONSCALES
350
4CB
  0
DICTIONARY
  5
4D9
102
{ACAD_REACTORS
330
4D8
102
}
330
4D8
100
AcDbDictionary
281
     1
  3
ACDB_ANNOTATIONSCALES
350
4DA
  0
DICTIONARY
  5
4DE
102
{ACAD_REACTORS
330
4DD
102
}
330
4DD
100
AcDbDictionary
281
     1
  3
ACDB_ANNOTATIONSCALES
350
4DF
  0
DICTIONARY
  5
4E3
102
{ACAD_REACTORS
330
4E2
102
}
330
4E2
100
AcDbDictionary
281
     1
  3
ACDB_ANNOTATIONSCALES
350
4E4
  0
DICTIONARY
  5
4E8
102
{ACAD_REACTORS
330
4E7
102
}
330
4E7
100
AcDbDictionary
281
     1
  3
ACDB_ANNOTATIONSCALES
350
4E9
  0
DICTIONARY
  5
4ED
102
{ACAD_REACTORS
330
4EC
102
}
330
4EC
100
AcDbDictionary
281
     1
  3
ACDB_ANNOTATIONSCALES
350
4EE
  0
DICTIONARY
  5
4F2
102
{ACAD_REACTORS
330
4F1
102
}
330
4F1
100
AcDbDictionary
281
     1
  3
ACDB_ANNOTATIONSCALES
350
4F3
  0
LAYOUT
  5
6A
102
{ACAD_XDICTIONARY
360
5C7
102
}
102
{ACAD_REACTORS
330
5D
102
}
330
5D
100
AcDbPlotSettings
  1

  2
Adobe PDF
  4
A4
  6

 40
3.174999952316283
 41
3.174999952316283
 42
3.175003051757812
 43
3.17498779296875
 44
209.9733276367186
 45
297.0318298339844
 46
-3.188337683677673
 47
-3.159078955650328
 48
0.0
 49
0.0
140
0.0
141
0.0
142
1.0
143
1.734437514187948
 70
 11954
 72
     1
 73
     0
 74
     0
  7
monochrome.stb
 75
     0
147
0.5765557950746894
148
-28.11828335081955
149
-89.73579471156519
100
AcDbLayout
  1
Model
 70
     1
 71
     0
 10
0.0
 20
0.0
 11
12.0
 21
9.0
 12
0.0
 22
0.0
 32
0.0
 14
0.0
 24
0.0
 34
0.0
 15
0.0
 25
0.0
 35
0.0
146
0.0
 13
0.0
 23
0.0
 33
0.0
 16
1.0
 26
0.0
 36
0.0
 17
0.0
 27
1.0
 37
0.0
 76
     0
330
67
331
52
1001
ACAD_PSEXT
1000
Adobe PDF
1000
Adobe PDF Converter
1000
My Documents
1000

1070
     0
  0
LAYOUT
  5
66
102
{ACAD_XDICTIONARY
360
5C5
102
}
102
{ACAD_REACTORS
330
5D
102
}
330
5D
100
AcDbPlotSettings
  1

  2
Adobe PDF
  4

  6

 40
0.0
 41
0.0
 42
0.0
 43
0.0
 44
0.0
 45
0.0
 46
0.0
 47
0.0
 48
0.0
 49
0.0
140
0.0
141
0.0
142
1.0
143
1.0
 70
   688
 72
     0
 73
     0
 74
     5
  7

 75
    16
147
1.0
148
0.0
149
0.0
100
AcDbLayout
  1
レイアウト1
 70
     1
 71
     1
 10
0.0
 20
0.0
 11
12.0
 21
9.0
 12
0.0
 22
0.0
 32
0.0
 14
1.000000000000000E+20
 24
1.000000000000000E+20
 34
1.000000000000000E+20
 15
-1.000000000000000E+20
 25
-1.000000000000000E+20
 35
-1.000000000000000E+20
146
0.0
 13
0.0
 23
0.0
 33
0.0
 16
1.0
 26
0.0
 36
0.0
 17
0.0
 27
1.0
 37
0.0
 76
     0
330
63
  0
LAYOUT
  5
6E
102
{ACAD_XDICTIONARY
360
5C9
102
}
102
{ACAD_REACTORS
330
5D
102
}
330
5D
100
AcDbPlotSettings
  1

  2
Adobe PDF
  4

  6

 40
0.0
 41
0.0
 42
0.0
 43
0.0
 44
0.0
 45
0.0
 46
0.0
 47
0.0
 48
0.0
 49
0.0
140
0.0
141
0.0
142
1.0
143
1.0
 70
   688
 72
     0
 73
     0
 74
     5
  7

 75
    16
147
1.0
148
0.0
149
0.0
100
AcDbLayout
  1
レイアウト2
 70
     1
 71
     2
 10
0.0
 20
0.0
 11
12.0
 21
9.0
 12
0.0
 22
0.0
 32
0.0
 14
0.0
 24
0.0
 34
0.0
 15
0.0
 25
0.0
 35
0.0
146
0.0
 13
0.0
 23
0.0
 33
0.0
 16
1.0
 26
0.0
 36
0.0
 17
0.0
 27
1.0
 37
0.0
 76
     0
330
6B
  0
MATERIAL
  5
19
102
{ACAD_XDICTIONARY
360
1A
102
}
102
{ACAD_REACTORS
330
10
102
}
330
10
100
AcDbMaterial
  1
ByBlock
 72
     0
 43
0.0208333333333333
 43
0.0
 43
0.0
 43
0.0
 43
0.0
 43
0.0208333333333333
 43
0.0
 43
0.0
 43
0.0
 43
0.0
 43
1.0
 43
0.0
 43
0.0
 43
0.0
 43
0.0
 43
1.0
 77
     0
 47
0.0208333333333333
 47
0.0
 47
0.0
 47
0.0
 47
0.0
 47
0.0208333333333333
 47
0.0
 47
0.0
 47
0.0
 47
0.0
 47
1.0
 47
0.0
 47
0.0
 47
0.0
 47
0.0
 47
1.0
171
     0
 49
0.0208333333333333
 49
0.0
 49
0.0
 49
0.0
 49
0.0
 49
0.0208333333333333
 49
0.0
 49
0.0
 49
0.0
 49
0.0
 49
1.0
 49
0.0
 49
0.0
 49
0.0
 49
0.0
 49
1.0
175
     0
142
0.0208333333333333
142
0.0
142
0.0
142
0.0
142
0.0
142
0.0208333333333333
142
0.0
142
0.0
142
0.0
142
0.0
142
1.0
142
0.0
142
0.0
142
0.0
142
0.0
142
1.0
179
     0
144
0.0208333333333333
144
0.0
144
0.0
144
0.0
144
0.0
144
0.0208333333333333
144
0.0
144
0.0
144
0.0
144
0.0
144
1.0
144
0.0
144
0.0
144
0.0
144
0.0
144
1.0
147
0.0208333333333333
147
0.0
147
0.0
147
0.0
147
0.0
147
0.0208333333333333
147
0.0
147
0.0
147
0.0
147
0.0
147
1.0
147
0.0
147
0.0
147
0.0
147
0.0
147
1.0
  0
MATERIAL
  5
11
102
{ACAD_XDICTIONARY
360
12
102
}
102
{ACAD_REACTORS
330
10
102
}
330
10
100
AcDbMaterial
  1
ByLayer
 72
     0
 43
0.0208333333333333
 43
0.0
 43
0.0
 43
0.0
 43
0.0
 43
0.0208333333333333
 43
0.0
 43
0.0
 43
0.0
 43
0.0
 43
1.0
 43
0.0
 43
0.0
 43
0.0
 43
0.0
 43
1.0
 77
     0
 47
0.0208333333333333
 47
0.0
 47
0.0
 47
0.0
 47
0.0
 47
0.0208333333333333
 47
0.0
 47
0.0
 47
0.0
 47
0.0
 47
1.0
 47
0.0
 47
0.0
 47
0.0
 47
0.0
 47
1.0
171
     0
 49
0.0208333333333333
 49
0.0
 49
0.0
 49
0.0
 49
0.0
 49
0.0208333333333333
 49
0.0
 49
0.0
 49
0.0
 49
0.0
 49
1.0
 49
0.0
 49
0.0
 49
0.0
 49
0.0
 49
1.0
175
     0
142
0.0208333333333333
142
0.0
142
0.0
142
0.0
142
0.0
142
0.0208333333333333
142
0.0
142
0.0
142
0.0
142
0.0
142
1.0
142
0.0
142
0.0
142
0.0
142
0.0
142
1.0
179
     0
144
0.0208333333333333
144
0.0
144
0.0
144
0.0
144
0.0
144
0.0208333333333333
144
0.0
144
0.0
144
0.0
144
0.0
144
1.0
144
0.0
144
0.0
144
0.0
144
0.0
144
1.0
147
0.0208333333333333
147
0.0
147
0.0
147
0.0
147
0.0
147
0.0208333333333333
147
0.0
147
0.0
147
0.0
147
0.0
147
1.0
147
0.0
147
0.0
147
0.0
147
0.0
147
1.0
  0
MATERIAL
  5
21
102
{ACAD_XDICTIONARY
360
22
102
}
102
{ACAD_REACTORS
330
10
102
}
330
10
100
AcDbMaterial
  1
Global
 72
     0
 43
0.0208333333333333
 43
0.0
 43
0.0
 43
0.0
 43
0.0
 43
0.0208333333333333
 43
0.0
 43
0.0
 43
0.0
 43
0.0
 43
1.0
 43
0.0
 43
0.0
 43
0.0
 43
0.0
 43
1.0
 77
     0
 47
0.0208333333333333
 47
0.0
 47
0.0
 47
0.0
 47
0.0
 47
0.0208333333333333
 47
0.0
 47
0.0
 47
0.0
 47
0.0
 47
1.0
 47
0.0
 47
0.0
 47
0.0
 47
0.0
 47
1.0
171
     0
 49
0.0208333333333333
 49
0.0
 49
0.0
 49
0.0
 49
0.0
 49
0.0208333333333333
 49
0.0
 49
0.0
 49
0.0
 49
0.0
 49
1.0
 49
0.0
 49
0.0
 49
0.0
 49
0.0
 49
1.0
175
     0
142
0.0208333333333333
142
0.0
142
0.0
142
0.0
142
0.0
142
0.0208333333333333
142
0.0
142
0.0
142
0.0
142
0.0
142
1.0
142
0.0
142
0.0
142
0.0
142
0.0
142
1.0
179
     0
144
0.0208333333333333
144
0.0
144
0.0
144
0.0
144
0.0
144
0.0208333333333333
144
0.0
144
0.0
144
0.0
144
0.0
144
1.0
144
0.0
144
0.0
144
0.0
144
0.0
144
1.0
147
0.0208333333333333
147
0.0
147
0.0
147
0.0
147
0.0
147
0.0208333333333333
147
0.0
147
0.0
147
0.0
147
0.0
147
1.0
147
0.0
147
0.0
147
0.0
147
0.0
147
1.0
  0
MLEADERSTYLE
  5
1D6
102
{ACAD_REACTORS
330
61
102
}
330
61
100
AcDbMLeaderStyle
170
     1
171
     1
172
     0
 90
        2
 40
0.0
 41
0.0
173
     1
 91
-1073741824
 92
       -2
290
     1
 42
2.0
291
     0
 43
-0.36
  3
Standard
341
7C
 44
2.399999999999999
300

342
71
174
     1
178
     6
175
     1
176
     0
 93
-1023410173
 45
3.0
292
     0
297
     0
 46
4.0
343
1D7
 94
-1073741824
 47
1.0
 49
1.0
140
1.0
293
     1
141
0.0
294
     1
177
     0
142
1.0
295
     0
296
     1
143
3.75
1001
ACAD_MLEADERVER
1070
     2
  0
MLEADERSTYLE
  5
62
102
{ACAD_REACTORS
330
61
102
}
330
61
100
AcDbMLeaderStyle
170
     2
171
     1
172
     0
 90
        2
 40
0.0
 41
0.0
173
     1
 91
-1056964608
340
56
 92
       -2
290
     1
 42
0.09
291
     1
 43
0.36
  3
Standard
 44
0.18
300

342
50
174
     1
178
     6
175
     1
176
     0
 93
-1056964608
 45
0.18
292
     0
297
     0
 46
0.18
 94
-1056964608
 47
1.0
 49
1.0
140
1.0
293
     1
141
0.0
294
     1
177
     0
142
1.0
295
     0
296
     0
143
0.125
1001
ACAD_MLEADERVER
1070
     2
  0
MLINESTYLE
  5
5B
102
{ACAD_REACTORS
330
5A
102
}
330
5A
100
AcDbMlineStyle
  2
STANDARD
 70
     0
  3

 62
   256
 51
90.0
 52
90.0
 71
     2
 49
0.5
 62
   256
  6
BYLAYER
 49
-0.5
 62
   256
  6
BYLAYER
  0
ACDBPLACEHOLDER
  5
87
102
{ACAD_REACTORS
330
E
102
}
330
E
  0
ACDBPLACEHOLDER
  5
F
102
{ACAD_REACTORS
330
E
102
}
330
E
  0
ACDBPLACEHOLDER
  5
88
102
{ACAD_REACTORS
330
E
102
}
330
E
  0
SCALE
  5
89
102
{ACAD_REACTORS
330
3D
102
}
330
3D
100
AcDbScale
 70
     0
300
3:1
140
3.0
141
1.0
290
     0
  0
SCALE
  5
91
102
{ACAD_REACTORS
330
3D
102
}
330
3D
100
AcDbScale
 70
     0
300
3/16" = 1'-0"
140
0.1875
141
12.0
290
     0
  0
SCALE
  5
92
102
{ACAD_REACTORS
330
3D
102
}
330
3D
100
AcDbScale
 70
     0
300
1/4" = 1'-0"
140
0.25
141
12.0
290
     0
  0
SCALE
  5
93
102
{ACAD_REACTORS
330
3D
102
}
330
3D
100
AcDbScale
 70
     0
300
3/8" = 1'-0"
140
0.375
141
12.0
290
     0
  0
SCALE
  5
94
102
{ACAD_REACTORS
330
3D
102
}
330
3D
100
AcDbScale
 70
     0
300
1/2" = 1'-0"
140
0.5
141
12.0
290
     0
  0
SCALE
  5
95
102
{ACAD_REACTORS
330
3D
102
}
330
3D
100
AcDbScale
 70
     0
300
3/4" = 1'-0"
140
0.75
141
12.0
290
     0
  0
SCALE
  5
96
102
{ACAD_REACTORS
330
3D
102
}
330
3D
100
AcDbScale
 70
     0
300
1" = 1'-0"
140
1.0
141
12.0
290
     0
  0
SCALE
  5
97
102
{ACAD_REACTORS
330
3D
102
}
330
3D
100
AcDbScale
 70
     0
300
1-1/2" = 1'-0"
140
1.5
141
12.0
290
     0
  0
SCALE
  5
98
102
{ACAD_REACTORS
330
3D
102
}
330
3D
100
AcDbScale
 70
     0
300
3" = 1'-0"
140
3.0
141
12.0
290
     0
  0
SCALE
  5
99
102
{ACAD_REACTORS
330
3D
102
}
330
3D
100
AcDbScale
 70
     0
300
6" = 1'-0"
140
6.0
141
12.0
290
     0
  0
SCALE
  5
9A
102
{ACAD_REACTORS
330
3D
102
}
330
3D
100
AcDbScale
 70
     0
300
1'-0" = 1'-0"
140
12.0
141
12.0
290
     0
  0
SCALE
  5
8A
102
{ACAD_REACTORS
330
3D
102
}
330
3D
100
AcDbScale
 70
     0
300
5:1
140
5.0
141
1.0
290
     0
  0
SCALE
  5
8B
102
{ACAD_REACTORS
330
3D
102
}
330
3D
100
AcDbScale
 70
     0
300
1/128" = 1'-0"
140
0.0078125
141
12.0
290
     0
  0
SCALE
  5
8C
102
{ACAD_REACTORS
330
3D
102
}
330
3D
100
AcDbScale
 70
     0
300
1/64" = 1'-0"
140
0.015625
141
12.0
290
     0
  0
SCALE
  5
8D
102
{ACAD_REACTORS
330
3D
102
}
330
3D
100
AcDbScale
 70
     0
300
1/32" = 1'-0"
140
0.03125
141
12.0
290
     0
  0
SCALE
  5
8E
102
{ACAD_REACTORS
330
3D
102
}
330
3D
100
AcDbScale
 70
     0
300
1/16" = 1'-0"
140
0.0625
141
12.0
290
     0
  0
SCALE
  5
8F
102
{ACAD_REACTORS
330
3D
102
}
330
3D
100
AcDbScale
 70
     0
300
3/32" = 1'-0"
140
0.09375
141
12.0
290
     0
  0
SCALE
  5
90
102
{ACAD_REACTORS
330
3D
102
}
330
3D
100
AcDbScale
 70
     0
300
1/8" = 1'-0"
140
0.125
141
12.0
290
     0
  0
SCALE
  5
3E
102
{ACAD_REACTORS
330
3D
102
}
330
3D
100
AcDbScale
 70
     0
300
1:1
140
1.0
141
1.0
290
     1
  0
SCALE
  5
3F
102
{ACAD_REACTORS
330
3D
102
}
330
3D
100
AcDbScale
 70
     0
300
1:2
140
1.0
141
2.0
290
     0
  0
SCALE
  5
40
102
{ACAD_REACTORS
330
3D
102
}
330
3D
100
AcDbScale
 70
     0
300
1:4
140
1.0
141
4.0
290
     0
  0
SCALE
  5
41
102
{ACAD_REACTORS
330
3D
102
}
330
3D
100
AcDbScale
 70
     0
300
1:5
140
1.0
141
5.0
290
     0
  0
SCALE
  5
42
102
{ACAD_REACTORS
330
3D
102
}
330
3D
100
AcDbScale
 70
     0
300
1:8
140
1.0
141
8.0
290
     0
  0
SCALE
  5
43
102
{ACAD_REACTORS
330
3D
102
}
330
3D
100
AcDbScale
 70
     0
300
1:10
140
1.0
141
10.0
290
     0
  0
SCALE
  5
44
102
{ACAD_REACTORS
330
3D
102
}
330
3D
100
AcDbScale
 70
     0
300
1:16
140
1.0
141
16.0
290
     0
  0
SCALE
  5
45
102
{ACAD_REACTORS
330
3D
102
}
330
3D
100
AcDbScale
 70
     0
300
1:20
140
1.0
141
20.0
290
     0
  0
SCALE
  5
46
102
{ACAD_REACTORS
330
3D
102
}
330
3D
100
AcDbScale
 70
     0
300
1:30
140
1.0
141
30.0
290
     0
  0
SCALE
  5
47
102
{ACAD_REACTORS
330
3D
102
}
330
3D
100
AcDbScale
 70
     0
300
1:40
140
1.0
141
40.0
290
     0
  0
SCALE
  5
48
102
{ACAD_REACTORS
330
3D
102
}
330
3D
100
AcDbScale
 70
     0
300
1:50
140
1.0
141
50.0
290
     0
  0
SCALE
  5
49
102
{ACAD_REACTORS
330
3D
102
}
330
3D
100
AcDbScale
 70
     0
300
1:100
140
1.0
141
100.0
290
     0
  0
SCALE
  5
4A
102
{ACAD_REACTORS
330
3D
102
}
330
3D
100
AcDbScale
 70
     0
300
2:1
140
2.0
141
1.0
290
     0
  0
SCALE
  5
4B
102
{ACAD_REACTORS
330
3D
102
}
330
3D
100
AcDbScale
 70
     0
300
4:1
140
4.0
141
1.0
290
     0
  0
SCALE
  5
4C
102
{ACAD_REACTORS
330
3D
102
}
330
3D
100
AcDbScale
 70
     0
300
8:1
140
8.0
141
1.0
290
     0
  0
SCALE
  5
4D
102
{ACAD_REACTORS
330
3D
102
}
330
3D
100
AcDbScale
 70
     0
300
10:1
140
10.0
141
1.0
290
     0
  0
SCALE
  5
4E
102
{ACAD_REACTORS
330
3D
102
}
330
3D
100
AcDbScale
 70
     0
300
100:1
140
100.0
141
1.0
290
     0
  0
TABLESTYLE
  5
60
102
{ACAD_XDICTIONARY
360
554
102
}
102
{ACAD_REACTORS
330
5F
102
}
330
5F
100
AcDbTableStyle
  3
Standard
 70
     0
 71
     3
 40
1.5
 41
1.5
280
     0
281
     0
  7
Standard
140
4.5
170
     2
 62
     0
 63
     7
283
     0
274
    -2
284
     1
 64
     0
275
    -2
285
     1
 65
     0
276
    -2
286
     1
 66
     0
277
    -2
287
     1
 67
     0
278
    -2
288
     1
 68
     0
279
    -2
289
     1
 69
     0
  7
Standard
140
6.0
170
     5
 62
     0
 63
     7
283
     0
274
    -2
284
     1
 64
     0
275
    -2
285
     1
 65
     0
276
    -2
286
     1
 66
     0
277
    -2
287
     1
 67
     0
278
    -2
288
     1
 68
     0
279
    -2
289
     1
 69
     0
  7
Standard
140
4.5
170
     5
 62
     0
 63
     7
283
     0
274
    -2
284
     1
 64
     0
275
    -2
285
     1
 65
     0
276
    -2
286
     1
 66
     0
277
    -2
287
     1
 67
     0
278
    -2
288
     1
 68
     0
279
    -2
289
     1
 69
     0
  0
VISUALSTYLE
  5
2F
102
{ACAD_XDICTIONARY
360
5A8
102
}
102
{ACAD_REACTORS
330
29
102
}
330
29
100
AcDbVisualStyle
  2

 70
     4
 71
     0
 72
     2
 73
     0
 90
        0
 40
-0.6
 41
-30.0
 62
     5
 63
     7
 74
     1
 91
        4
 64
     7
 65
   257
 75
     1
175
     1
 42
1.0
 92
        0
 66
   257
 43
1.0
 76
     1
 77
     6
 78
     2
 67
     7
 79
     5
170
     0
171
     0
290
     0
174
     0
 93
        1
 44
0.0
173
     0
291
     0
 45
0.0
1001
ACAD
1000
AcDbSavedByObjectVersion
1070
     0
  0
VISUALSTYLE
  5
31
102
{ACAD_XDICTIONARY
360
5AC
102
}
102
{ACAD_REACTORS
330
29
102
}
330
29
100
AcDbVisualStyle
  2

 70
     6
 71
     1
 72
     2
 73
     2
 90
        0
 40
-0.6
 41
-30.0
 62
     5
 63
     7
 74
     2
 91
        2
 64
     7
 65
   257
 75
     2
175
     1
 42
179.0
 92
        0
 66
   257
 43
1.0
 76
     1
 77
     6
 78
     2
 67
     7
 79
     3
170
     0
171
     0
290
     0
174
     0
 93
        1
 44
0.0
173
     0
291
     0
 45
0.0
1001
ACAD
1000
AcDbSavedByObjectVersion
1070
     0
  0
VISUALSTYLE
  5
30
102
{ACAD_XDICTIONARY
360
5AA
102
}
102
{ACAD_REACTORS
330
29
102
}
330
29
100
AcDbVisualStyle
  2

 70
     5
 71
     0
 72
     2
 73
     0
 90
        0
 40
-0.6
 41
-30.0
 62
     5
 63
     7
 74
     1
 91
        4
 64
     7
 65
   257
 75
     1
175
     1
 42
1.0
 92
        0
 66
   257
 43
1.0
 76
     1
 77
     6
 78
     2
 67
     7
 79
     5
170
     0
171
     0
290
     0
174
     0
 93
        1
 44
0.0
173
     0
291
     0
 45
0.0
1001
ACAD
1000
AcDbSavedByObjectVersion
1070
     0
  0
VISUALSTYLE
  5
2E
102
{ACAD_XDICTIONARY
360
5A6
102
}
102
{ACAD_REACTORS
330
29
102
}
330
29
100
AcDbVisualStyle
  2

 70
     7
 71
     1
 72
     0
 73
     1
 90
        0
 40
-0.6
 41
-30.0
 62
     5
 63
     7
 74
     0
 91
        4
 64
     7
 65
   257
 75
     1
175
     1
 42
1.0
 92
        8
 66
     7
 43
1.0
 76
     1
 77
     6
 78
     2
 67
     7
 79
     5
170
     0
171
     0
290
     0
174
     0
 93
        1
 44
0.0
173
     0
291
     1
 45
0.0
1001
ACAD
1000
AcDbSavedByObjectVersion
1070
     0
  0
VISUALSTYLE
  5
35
102
{ACAD_XDICTIONARY
360
5B4
102
}
102
{ACAD_REACTORS
330
29
102
}
330
29
100
AcDbVisualStyle
  2

 70
    12
 71
     2
 72
     2
 73
     0
 90
        0
 40
-0.6
 41
-30.0
 62
     5
 63
     7
 74
     1
 91
        4
 64
     7
 65
   257
 75
     1
175
     1
 42
1.0
 92
        8
 66
     7
 43
1.0
 76
     1
 77
     6
 78
     2
 67
     7
 79
     5
170
     0
171
     0
290
     0
174
     0
 93
        1
 44
50.0
173
     0
291
     1
 45
0.0
1001
ACAD
1000
AcDbSavedByObjectVersion
1070
     0
  0
VISUALSTYLE
  5
39
102
{ACAD_XDICTIONARY
360
5BC
102
}
102
{ACAD_REACTORS
330
29
102
}
330
29
100
AcDbVisualStyle
  2

 70
    16
 71
     2
 72
     2
 73
     3
 90
        0
 40
-0.6
 41
-30.0
 62
     5
 63
     8
 74
     1
 91
        4
 64
     7
 65
   257
 75
     1
175
     1
 42
1.0
 92
        8
 66
     8
 43
1.0
 76
     1
 77
     6
 78
     2
 67
     7
 79
     5
170
     0
171
     0
290
     0
174
     0
 93
        1
 44
0.0
173
     0
291
     1
 45
0.0
1001
ACAD
1000
AcDbSavedByObjectVersion
1070
     0
  0
VISUALSTYLE
  5
32
102
{ACAD_XDICTIONARY
360
5AE
102
}
102
{ACAD_REACTORS
330
29
102
}
330
29
100
AcDbVisualStyle
  2

 70
     9
 71
     3
 72
     2
 73
     0
 90
        0
 40
-0.6
 41
-30.0
 62
     5
 63
     7
 74
     2
 91
        2
 64
     7
 65
   257
 75
     1
175
     1
 42
179.0
 92
        8
 66
     7
 43
1.0
 76
     1
 77
     6
 78
     2
 67
     7
 79
     3
170
     0
171
     0
290
     0
174
     0
 93
        1
 44
0.0
173
     0
291
     0
 45
0.0
1001
ACAD
1000
AcDbSavedByObjectVersion
1070
     0
  0
VISUALSTYLE
  5
34
102
{ACAD_XDICTIONARY
360
5B2
102
}
102
{ACAD_REACTORS
330
29
102
}
330
29
100
AcDbVisualStyle
  2

 70
    11
 71
     2
 72
     2
 73
     0
 90
        0
 40
-0.6
 41
-30.0
 62
     5
 63
     7
 74
     1
 91
        4
 64
     7
 65
   257
 75
     1
175
     1
 42
1.0
 92
        8
 66
     7
 43
1.0
 76
     1
 77
     6
 78
     2
 67
     7
 79
     5
170
     0
171
     0
290
     0
174
     0
 93
        1
 44
-50.0
173
     0
291
     1
 45
0.0
1001
ACAD
1000
AcDbSavedByObjectVersion
1070
     0
  0
VISUALSTYLE
  5
3C
102
{ACAD_XDICTIONARY
360
5C2
102
}
102
{ACAD_REACTORS
330
29
102
}
330
29
100
AcDbVisualStyle
  2

 70
    22
 71
     2
 72
     2
 73
     0
 90
        0
 40
-0.6
 41
-30.0
 62
     5
 63
     7
 74
     1
 91
        4
 64
     7
 65
   257
 75
     1
175
     1
 42
1.0
 92
        8
 66
     7
 43
1.0
 76
     1
 77
     6
 78
     2
 67
     7
 79
     5
170
     0
171
     0
290
     0
174
     0
 93
        1
 44
0.0
173
     0
291
     1
 45
0.0
1001
ACAD
1000
AcDbSavedByObjectVersion
1070
     0
  0
VISUALSTYLE
  5
38
102
{ACAD_XDICTIONARY
360
5BA
102
}
102
{ACAD_REACTORS
330
29
102
}
330
29
100
AcDbVisualStyle
  2

 70
    15
 71
     2
 72
     2
 73
     0
 90
        0
 40
-0.6
 41
-30.0
 62
     5
 63
     7
 74
     1
 91
        4
 64
     7
 65
   257
 75
     1
175
     1
 42
1.0
 92
        8
 66
     7
 43
1.0
 76
     1
 77
     6
 78
     2
 67
     7
 79
     5
170
     0
171
     0
290
     0
174
     0
 93
        1
 44
0.0
173
     0
291
     1
 45
0.0
1001
ACAD
1000
AcDbSavedByObjectVersion
1070
     0
  0
VISUALSTYLE
  5
2A
102
{ACAD_XDICTIONARY
360
59E
102
}
102
{ACAD_REACTORS
330
29
102
}
330
29
100
AcDbVisualStyle
  2

 70
     0
 71
     2
 72
     1
 73
     1
 90
        2
 40
-0.6
 41
30.0
 62
     5
 63
     7
 74
     0
 91
        4
 64
     7
 65
   257
 75
     1
175
     1
 42
1.0
 92
        8
 66
     7
 43
1.0
 76
     1
 77
     6
 78
     2
 67
     7
 79
     5
170
     0
171
     0
290
     0
174
     0
 93
       13
 44
0.0
173
     0
291
     1
 45
0.0
1001
ACAD
1000
AcDbSavedByObjectVersion
1070
     0
  0
VISUALSTYLE
  5
2B
102
{ACAD_XDICTIONARY
360
5A0
102
}
102
{ACAD_REACTORS
330
29
102
}
330
29
100
AcDbVisualStyle
  2

 70
     1
 71
     2
 72
     1
 73
     1
 90
        2
 40
-0.6
 41
30.0
 62
     5
 63
     7
 74
     1
 91
        4
 64
     7
 65
   257
 75
     1
175
     1
 42
1.0
 92
        0
 66
   257
 43
1.0
 76
     1
 77
     6
 78
     2
 67
     7
 79
     5
170
     0
171
     0
290
     0
174
     0
 93
       13
 44
0.0
173
     0
291
     1
 45
0.0
1001
ACAD
1000
AcDbSavedByObjectVersion
1070
     0
  0
VISUALSTYLE
  5
2C
102
{ACAD_XDICTIONARY
360
5A2
102
}
102
{ACAD_REACTORS
330
29
102
}
330
29
100
AcDbVisualStyle
  2

 70
     2
 71
     2
 72
     2
 73
     1
 90
        2
 40
-0.6
 41
30.0
 62
     5
 63
     7
 74
     0
 91
        4
 64
     7
 65
   257
 75
     1
175
     1
 42
1.0
 92
        0
 66
     7
 43
1.0
 76
     1
 77
     6
 78
     2
 67
     7
 79
     5
170
     0
171
     0
290
     0
174
     0
 93
       13
 44
0.0
173
     0
291
     1
 45
0.0
1001
ACAD
1000
AcDbSavedByObjectVersion
1070
     0
  0
VISUALSTYLE
  5
2D
102
{ACAD_XDICTIONARY
360
5A4
102
}
102
{ACAD_REACTORS
330
29
102
}
330
29
100
AcDbVisualStyle
  2

 70
     3
 71
     2
 72
     2
 73
     1
 90
        2
 40
-0.6
 41
30.0
 62
     5
 63
     7
 74
     1
 91
        4
 64
     7
 65
   257
 75
     1
175
     1
 42
1.0
 92
        0
 66
   257
 43
1.0
 76
     1
 77
     6
 78
     2
 67
     7
 79
     5
170
     0
171
     0
290
     0
174
     0
 93
       13
 44
0.0
173
     0
291
     1
 45
0.0
1001
ACAD
1000
AcDbSavedByObjectVersion
1070
     0
  0
VISUALSTYLE
  5
591
102
{ACAD_XDICTIONARY
360
5CF
102
}
102
{ACAD_REACTORS
330
29
102
}
330
29
100
AcDbVisualStyle
  2
Hidden
 70
     6
 71
     1
 72
     2
 73
     2
 90
        0
 40
-0.6
 41
-30.0
 62
     5
 63
     7
 74
     2
 91
        2
 64
     7
 65
   257
 75
     2
175
     1
 42
40.0
 92
        0
 66
   257
 43
1.0
 76
     1
 77
     6
 78
     2
 67
     7
 79
     3
170
     0
171
     0
290
     0
174
     0
 93
        1
 44
0.0
173
     0
291
     0
 45
0.0
1001
ACAD
1000
AcDbSavedByObjectVersion
1070
     0
  0
VISUALSTYLE
  5
3A
102
{ACAD_XDICTIONARY
360
5BE
102
}
102
{ACAD_REACTORS
330
29
102
}
330
29
100
AcDbVisualStyle
  2

 70
    20
 71
     2
 72
     2
 73
     0
 90
        0
 40
-0.6
 41
-30.0
 62
     5
 63
     7
 74
     1
 91
        4
 64
     7
 65
   257
 75
     1
175
     1
 42
1.0
 92
       10
 66
     7
 43
1.0
 76
     1
 77
     6
 78
     2
 67
     7
 79
     5
170
     0
171
     0
290
     0
174
     0
 93
        1
 44
0.0
173
     0
291
     1
 45
0.0
1001
ACAD
1000
AcDbSavedByObjectVersion
1070
     0
  0
VISUALSTYLE
  5
37
102
{ACAD_XDICTIONARY
360
5B8
102
}
102
{ACAD_REACTORS
330
29
102
}
330
29
100
AcDbVisualStyle
  2

 70
    14
 71
     2
 72
     2
 73
     0
 90
        0
 40
-0.6
 41
-30.0
 62
     5
 63
     7
 74
     1
 91
        4
 64
     7
 65
   257
 75
     7
175
     7
 42
1.0
 92
        8
 66
     7
 43
1.0
 76
     1
 77
     6
 78
     2
 67
     7
 79
     5
170
     0
171
     0
290
     0
174
     0
 93
        1
 44
0.0
173
     0
291
     1
 45
0.0
1001
ACAD
1000
AcDbSavedByObjectVersion
1070
     0
  0
VISUALSTYLE
  5
3B
102
{ACAD_XDICTIONARY
360
5C0
102
}
102
{ACAD_REACTORS
330
29
102
}
330
29
100
AcDbVisualStyle
  2

 70
    21
 71
     2
 72
     2
 73
     0
 90
        0
 40
-0.6
 41
-30.0
 62
     5
 63
     7
 74
     1
 91
        4
 64
     7
 65
   257
 75
     1
175
     1
 42
1.0
 92
        9
 66
     7
 43
1.0
 76
     1
 77
     6
 78
     2
 67
     7
 79
     5
170
     0
171
     0
290
     0
174
     0
 93
        1
 44
0.0
173
     0
291
     1
 45
0.0
1001
ACAD
1000
AcDbSavedByObjectVersion
1070
     0
  0
VISUALSTYLE
  5
33
102
{ACAD_XDICTIONARY
360
5B0
102
}
102
{ACAD_REACTORS
330
29
102
}
330
29
100
AcDbVisualStyle
  2

 70
     8
 71
     2
 72
     2
 73
     0
 90
        0
 40
-0.6
 41
-30.0
 62
     5
 63
     7
 74
     1
 91
        0
 64
     7
 65
   257
 75
     1
175
     1
 42
1.0
 92
        8
 66
     8
 43
1.0
 76
     1
 77
     6
 78
     2
 67
     7
 79
     5
170
     0
171
     0
290
     0
174
     0
 93
       13
 44
0.0
173
     0
291
     0
 45
0.0
1001
ACAD
1000
AcDbSavedByObjectVersion
1070
     0
  0
VISUALSTYLE
  5
596
102
{ACAD_XDICTIONARY
360
5D9
102
}
102
{ACAD_REACTORS
330
29
102
}
330
29
100
AcDbVisualStyle
  2
Shaded
 70
    27
 71
     2
 72
     2
 73
     1
 90
        2
 40
-0.6
 41
30.0
 62
     5
 63
     7
 74
     0
 91
        4
 64
     7
 65
   257
 75
     1
175
     1
 42
1.0
 92
        8
 66
   257
 43
1.0
 76
     1
 77
     6
 78
     2
 67
     8
 79
     3
170
     0
171
     0
290
     0
174
     0
 93
        5
 44
0.0
173
     0
291
     0
 45
0.0
1001
ACAD
1000
AcDbSavedByObjectVersion
1070
     0
  0
VISUALSTYLE
  5
595
102
{ACAD_XDICTIONARY
360
5D7
102
}
102
{ACAD_REACTORS
330
29
102
}
330
29
100
AcDbVisualStyle
  2
Shaded with edges
 70
    26
 71
     2
 72
     2
 73
     1
 90
        2
 40
-0.6
 41
30.0
 62
     5
 63
     7
 74
     1
 91
       10
 64
     7
 65
   257
 75
     2
175
     1
 42
1.0
 92
        8
 66
   257
 43
1.0
 76
     1
 77
     6
 78
     2
 67
     7
 79
     3
170
     0
171
     0
290
     0
174
     0
 93
        5
 44
0.0
173
     0
291
     0
 45
0.0
1001
ACAD
1000
AcDbSavedByObjectVersion
1070
     0
  0
VISUALSTYLE
  5
592
102
{ACAD_XDICTIONARY
360
5D1
102
}
102
{ACAD_REACTORS
330
29
102
}
330
29
100
AcDbVisualStyle
  2
Shades of Gray
 70
    23
 71
     2
 72
     2
 73
     3
 90
        0
 40
-0.6
 41
-30.0
 62
     5
 63
     7
 74
     2
 91
        2
 64
     7
 65
     7
 75
     1
175
     1
 42
40.0
 92
        8
 66
     7
 43
1.0
 76
     1
 77
     6
 78
     2
 67
     7
 79
     3
170
     0
171
     0
290
     0
174
     0
 93
        1
 44
0.0
173
     0
291
     0
 45
0.0
1001
ACAD
1000
AcDbSavedByObjectVersion
1070
     0
  0
VISUALSTYLE
  5
593
102
{ACAD_XDICTIONARY
360
5D3
102
}
102
{ACAD_REACTORS
330
29
102
}
330
29
100
AcDbVisualStyle
  2
Sketchy
 70
    24
 71
     1
 72
     2
 73
     2
 90
        0
 40
-0.6
 41
-30.0
 62
     5
 63
     7
 74
     2
 91
        2
 64
     7
 65
     7
 75
     1
175
     1
 42
40.0
 92
       11
 66
     7
 43
1.0
 76
     1
 77
     6
 78
     2
 67
     7
 79
     6
170
     0
171
     0
290
     0
174
     0
 93
        1
 44
0.0
173
     0
291
     0
 45
0.0
1001
ACAD
1000
AcDbSavedByObjectVersion
1070
     0
  0
VISUALSTYLE
  5
36
102
{ACAD_XDICTIONARY
360
5B6
102
}
102
{ACAD_REACTORS
330
29
102
}
330
29
100
AcDbVisualStyle
  2

 70
    13
 71
     2
 72
     2
 73
     0
 90
        0
 40
-0.6
 41
-30.0
 62
     5
 63
     7
 74
     1
 91
        4
 64
     7
 65
   257
 75
     1
175
     1
 42
1.0
 92
       12
 66
     7
 43
1.0
 76
     1
 77
     6
 78
     2
 67
     7
 79
     5
170
     0
171
     0
290
     0
174
     0
 93
        1
 44
0.0
173
     0
291
     1
 45
0.0
1001
ACAD
1000
AcDbSavedByObjectVersion
1070
     0
  0
VISUALSTYLE
  5
590
102
{ACAD_XDICTIONARY
360
5CD
102
}
102
{ACAD_REACTORS
330
29
102
}
330
29
100
AcDbVisualStyle
  2
Wireframe
 70
     5
 71
     0
 72
     2
 73
     0
 90
        0
 40
-0.6
 41
-30.0
 62
     5
 63
     7
 74
     1
 91
        4
 64
     7
 65
   257
 75
     1
175
     1
 42
1.0
 92
        0
 66
   257
 43
1.0
 76
     1
 77
     6
 78
     2
 67
     7
 79
     3
170
     0
171
     0
290
     0
174
     0
 93
        1
 44
0.0
173
     0
291
     0
 45
0.0
1001
ACAD
1000
AcDbSavedByObjectVersion
1070
     0
  0
VISUALSTYLE
  5
594
102
{ACAD_XDICTIONARY
360
5D5
102
}
102
{ACAD_REACTORS
330
29
102
}
330
29
100
AcDbVisualStyle
  2
X-Ray
 70
    25
 71
     2
 72
     2
 73
     1
 90
        1
 40
0.5
 41
-30.0
 62
     5
 63
     7
 74
     1
 91
        0
 64
     7
 65
   257
 75
     1
175
     1
 42
1.0
 92
        8
 66
     7
 43
1.0
 76
     1
 77
     6
 78
     2
 67
     7
 79
     3
170
     0
171
     0
290
     0
174
     0
 93
       13
 44
0.0
173
     0
291
     0
 45
0.0
1001
ACAD
1000
AcDbSavedByObjectVersion
1070
     0
  0
DICTIONARYVAR
  5
540
102
{ACAD_REACTORS
330
53D
102
}
330
53D
100
DictionaryVariables
280
     0
  1
0
  0
DICTIONARYVAR
  5
541
102
{ACAD_REACTORS
330
53D
102
}
330
53D
100
DictionaryVariables
280
     0
  1
1:1
  0
DICTIONARYVAR
  5
53F
102
{ACAD_REACTORS
330
53D
102
}
330
53D
100
DictionaryVariables
280
     0
  1
STANDARD
  0
DICTIONARYVAR
  5
53E
102
{ACAD_REACTORS
330
53D
102
}
330
53D
100
DictionaryVariables
280
     0
  1
STANDARD
  0
DICTIONARYVAR
  5
553
102
{ACAD_REACTORS
330
53D
102
}
330
53D
100
DictionaryVariables
280
     0
  1
2
  0
DICTIONARYVAR
  5
551
102
{ACAD_REACTORS
330
53D
102
}
330
53D
100
DictionaryVariables
280
     0
  1
1
  0
DICTIONARYVAR
  5
550
102
{ACAD_REACTORS
330
53D
102
}
330
53D
100
DictionaryVariables
280
     0
  1
0
  0
DICTIONARYVAR
  5
542
102
{ACAD_REACTORS
330
53D
102
}
330
53D
100
DictionaryVariables
280
     0
  1
1
  0
DICTIONARYVAR
  5
543
102
{ACAD_REACTORS
330
53D
102
}
330
53D
100
DictionaryVariables
280
     0
  1
15
  0
DICTIONARYVAR
  5
54E
102
{ACAD_REACTORS
330
53D
102
}
330
53D
100
DictionaryVariables
280
     0
  1
2
  0
DICTIONARYVAR
  5
54D
102
{ACAD_REACTORS
330
53D
102
}
330
53D
100
DictionaryVariables
280
     0
  1
1
  0
DICTIONARYVAR
  5
54F
102
{ACAD_REACTORS
330
53D
102
}
330
53D
100
DictionaryVariables
280
     0
  1
127
  0
DICTIONARYVAR
  5
599
102
{ACAD_REACTORS
330
53D
102
}
330
53D
100
DictionaryVariables
280
     0
  1
2
  0
XRECORD
  5
5CC
102
{ACAD_REACTORS
330
5CB
102
}
330
5CB
100
AcDbXrecord
280
     1
1070
     0
1070
     1
1070
     1
  0
DICTIONARY
  5
408
102
{ACAD_REACTORS
330
407
102
}
330
407
100
AcDbDictionary
281
     1
  0
DICTIONARY
  5
40C
102
{ACAD_REACTORS
330
40B
102
}
330
40B
100
AcDbDictionary
281
     1
  0
DICTIONARY
  5
410
102
{ACAD_REACTORS
330
40F
102
}
330
40F
100
AcDbDictionary
281
     1
  0
DICTIONARY
  5
414
102
{ACAD_REACTORS
330
413
102
}
330
413
100
AcDbDictionary
281
     1
  0
DICTIONARY
  5
418
102
{ACAD_REACTORS
330
417
102
}
330
417
100
AcDbDictionary
281
     1
  0
DICTIONARY
  5
41C
102
{ACAD_REACTORS
330
41B
102
}
330
41B
100
AcDbDictionary
281
     1
  0
DICTIONARY
  5
449
102
{ACAD_REACTORS
330
448
102
}
330
448
100
AcDbDictionary
281
     1
  3
*A1
350
44A
  0
DICTIONARY
  5
44E
102
{ACAD_REACTORS
330
44D
102
}
330
44D
100
AcDbDictionary
281
     1
  3
*A1
350
44F
  0
DICTIONARY
  5
453
102
{ACAD_REACTORS
330
452
102
}
330
452
100
AcDbDictionary
281
     1
  3
*A1
350
454
  0
DICTIONARY
  5
458
102
{ACAD_REACTORS
330
457
102
}
330
457
100
AcDbDictionary
281
     1
  3
*A1
350
459
  0
DICTIONARY
  5
45D
102
{ACAD_REACTORS
330
45C
102
}
330
45C
100
AcDbDictionary
281
     1
  3
*A1
350
45E
  0
DICTIONARY
  5
462
102
{ACAD_REACTORS
330
461
102
}
330
461
100
AcDbDictionary
281
     1
  3
*A1
350
463
  0
DICTIONARY
  5
4B2
102
{ACAD_REACTORS
330
4B1
102
}
330
4B1
100
AcDbDictionary
281
     1
  0
DICTIONARY
  5
4B7
102
{ACAD_REACTORS
330
4B6
102
}
330
4B6
100
AcDbDictionary
281
     1
  0
DICTIONARY
  5
4BC
102
{ACAD_REACTORS
330
4BB
102
}
330
4BB
100
AcDbDictionary
281
     1
  0
DICTIONARY
  5
4C1
102
{ACAD_REACTORS
330
4C0
102
}
330
4C0
100
AcDbDictionary
281
     1
  0
DICTIONARY
  5
4C6
102
{ACAD_REACTORS
330
4C5
102
}
330
4C5
100
AcDbDictionary
281
     1
  0
DICTIONARY
  5
4CB
102
{ACAD_REACTORS
330
4CA
102
}
330
4CA
100
AcDbDictionary
281
     1
  0
DICTIONARY
  5
4DA
102
{ACAD_REACTORS
330
4D9
102
}
330
4D9
100
AcDbDictionary
281
     1
  0
DICTIONARY
  5
4DF
102
{ACAD_REACTORS
330
4DE
102
}
330
4DE
100
AcDbDictionary
281
     1
  0
DICTIONARY
  5
4E4
102
{ACAD_REACTORS
330
4E3
102
}
330
4E3
100
AcDbDictionary
281
     1
  0
DICTIONARY
  5
4E9
102
{ACAD_REACTORS
330
4E8
102
}
330
4E8
100
AcDbDictionary
281
     1
  0
DICTIONARY
  5
4EE
102
{ACAD_REACTORS
330
4ED
102
}
330
4ED
100
AcDbDictionary
281
     1
  0
DICTIONARY
  5
4F3
102
{ACAD_REACTORS
330
4F2
102
}
330
4F2
100
AcDbDictionary
281
     1
  0
DICTIONARY
  5
5C7
330
6A
100
AcDbDictionary
280
     1
281
     1
  3
ACAD_XREC_ROUNDTRIP
360
5C8
  0
DICTIONARY
  5
5C5
330
66
100
AcDbDictionary
280
     1
281
     1
  3
ACAD_XREC_ROUNDTRIP
360
5C6
  0
DICTIONARY
  5
5C9
330
6E
100
AcDbDictionary
280
     1
281
     1
  3
ACAD_XREC_ROUNDTRIP
360
5CA
  0
DICTIONARY
  5
1A
330
19
100
AcDbDictionary
280
     1
281
     1
  3
ACAD_XREC_ROUNDTRIP
360
559
  3
BUMPTILE
360
1C
  3
DIFFUSETILE
360
1B
  3
OPACITYTILE
360
1F
  3
REFLECTIONTILE
360
1E
  3
REFRACTIONTILE
360
20
  3
SPECULARTILE
360
1D
  0
DICTIONARY
  5
12
330
11
100
AcDbDictionary
280
     1
281
     1
  3
ACAD_XREC_ROUNDTRIP
360
558
  3
BUMPTILE
360
14
  3
DIFFUSETILE
360
13
  3
OPACITYTILE
360
17
  3
REFLECTIONTILE
360
16
  3
REFRACTIONTILE
360
18
  3
SPECULARTILE
360
15
  0
DICTIONARY
  5
22
330
21
100
AcDbDictionary
280
     1
281
     1
  3
ACAD_XREC_ROUNDTRIP
360
55A
  3
BUMPTILE
360
24
  3
DIFFUSETILE
360
23
  3
OPACITYTILE
360
27
  3
REFLECTIONTILE
360
26
  3
REFRACTIONTILE
360
28
  3
SPECULARTILE
360
25
  0
DICTIONARY
  5
554
330
60
100
AcDbDictionary
280
     1
281
     1
  3
ACAD_ROUNDTRIP_2008_TABLESTYLE_CELLSTYLEMAP
360
59B
  3
ACAD_XREC_ROUNDTRIP
360
5C4
  0
DICTIONARY
  5
5A8
330
2F
100
AcDbDictionary
280
     1
281
     1
  3
ACAD_XREC_ROUNDTRIP
360
5A9
  0
DICTIONARY
  5
5AC
330
31
100
AcDbDictionary
280
     1
281
     1
  3
ACAD_XREC_ROUNDTRIP
360
5AD
  0
DICTIONARY
  5
5AA
330
30
100
AcDbDictionary
280
     1
281
     1
  3
ACAD_XREC_ROUNDTRIP
360
5AB
  0
DICTIONARY
  5
5A6
330
2E
100
AcDbDictionary
280
     1
281
     1
  3
ACAD_XREC_ROUNDTRIP
360
5A7
  0
DICTIONARY
  5
5B4
330
35
100
AcDbDictionary
280
     1
281
     1
  3
ACAD_XREC_ROUNDTRIP
360
5B5
  0
DICTIONARY
  5
5BC
330
39
100
AcDbDictionary
280
     1
281
     1
  3
ACAD_XREC_ROUNDTRIP
360
5BD
  0
DICTIONARY
  5
5AE
330
32
100
AcDbDictionary
280
     1
281
     1
  3
ACAD_XREC_ROUNDTRIP
360
5AF
  0
DICTIONARY
  5
5B2
330
34
100
AcDbDictionary
280
     1
281
     1
  3
ACAD_XREC_ROUNDTRIP
360
5B3
  0
DICTIONARY
  5
5C2
330
3C
100
AcDbDictionary
280
     1
281
     1
  3
ACAD_XREC_ROUNDTRIP
360
5C3
  0
DICTIONARY
  5
5BA
330
38
100
AcDbDictionary
280
     1
281
     1
  3
ACAD_XREC_ROUNDTRIP
360
5BB
  0
DICTIONARY
  5
59E
330
2A
100
AcDbDictionary
280
     1
281
     1
  3
ACAD_XREC_ROUNDTRIP
360
59F
  0
DICTIONARY
  5
5A0
330
2B
100
AcDbDictionary
280
     1
281
     1
  3
ACAD_XREC_ROUNDTRIP
360
5A1
  0
DICTIONARY
  5
5A2
330
2C
100
AcDbDictionary
280
     1
281
     1
  3
ACAD_XREC_ROUNDTRIP
360
5A3
  0
DICTIONARY
  5
5A4
330
2D
100
AcDbDictionary
280
     1
281
     1
  3
ACAD_XREC_ROUNDTRIP
360
5A5
  0
DICTIONARY
  5
5CF
330
591
100
AcDbDictionary
280
     1
281
     1
  3
ACAD_XREC_ROUNDTRIP
360
5D0
  0
DICTIONARY
  5
5BE
330
3A
100
AcDbDictionary
280
     1
281
     1
  3
ACAD_XREC_ROUNDTRIP
360
5BF
  0
DICTIONARY
  5
5B8
330
37
100
AcDbDictionary
280
     1
281
     1
  3
ACAD_XREC_ROUNDTRIP
360
5B9
  0
DICTIONARY
  5
5C0
330
3B
100
AcDbDictionary
280
     1
281
     1
  3
ACAD_XREC_ROUNDTRIP
360
5C1
  0
DICTIONARY
  5
5B0
330
33
100
AcDbDictionary
280
     1
281
     1
  3
ACAD_XREC_ROUNDTRIP
360
5B1
  0
DICTIONARY
  5
5D9
330
596
100
AcDbDictionary
280
     1
281
     1
  3
ACAD_XREC_ROUNDTRIP
360
5DA
  0
DICTIONARY
  5
5D7
330
595
100
AcDbDictionary
280
     1
281
     1
  3
ACAD_XREC_ROUNDTRIP
360
5D8
  0
DICTIONARY
  5
5D1
330
592
100
AcDbDictionary
280
     1
281
     1
  3
ACAD_XREC_ROUNDTRIP
360
5D2
  0
DICTIONARY
  5
5D3
330
593
100
AcDbDictionary
280
     1
281
     1
  3
ACAD_XREC_ROUNDTRIP
360
5D4
  0
DICTIONARY
  5
5B6
330
36
100
AcDbDictionary
280
     1
281
     1
  3
ACAD_XREC_ROUNDTRIP
360
5B7
  0
DICTIONARY
  5
5CD
330
590
100
AcDbDictionary
280
     1
281
     1
  3
ACAD_XREC_ROUNDTRIP
360
5CE
  0
DICTIONARY
  5
5D5
330
594
100
AcDbDictionary
280
     1
281
     1
  3
ACAD_XREC_ROUNDTRIP
360
5D6
  0
ACDB_MTEXTATTRIBUTEOBJECTCONTEXTDATA_CLASS
  5
44A
102
{ACAD_REACTORS
330
449
102
}
330
449
100
AcDbObjectContextData
 70
     3
290
     1
100
AcDbAnnotScaleObjectContextData
340
3E
 70
     1
 50
0.0
 10
3.500000000000909
 20
2.000000222036987
 11
3.500000000000909
 21
3.500000222036987
290
     0
  0
ACDB_MTEXTATTRIBUTEOBJECTCONTEXTDATA_CLASS
  5
44F
102
{ACAD_REACTORS
330
44E
102
}
330
44E
100
AcDbObjectContextData
 70
     3
290
     1
100
AcDbAnnotScaleObjectContextData
340
3E
 70
     1
 50
0.0
 10
32.00000000000091
 20
2.000000222036987
 11
32.00000000000091
 21
3.500000222036987
290
     0
  0
ACDB_MTEXTATTRIBUTEOBJECTCONTEXTDATA_CLASS
  5
454
102
{ACAD_REACTORS
330
453
102
}
330
453
100
AcDbObjectContextData
 70
     3
290
     1
100
AcDbAnnotScaleObjectContextData
340
3E
 70
     1
 50
0.0
 10
71.00000000000091
 20
2.000000222036987
 11
71.00000000000091
 21
3.500000222036987
290
     0
  0
ACDB_MTEXTATTRIBUTEOBJECTCONTEXTDATA_CLASS
  5
459
102
{ACAD_REACTORS
330
458
102
}
330
458
100
AcDbObjectContextData
 70
     3
290
     1
100
AcDbAnnotScaleObjectContextData
340
3E
 70
     1
 50
0.0
 10
88.50000000000092
 20
2.000000222036987
 11
88.50000000000092
 21
3.500000222036987
290
     0
  0
ACDB_MTEXTATTRIBUTEOBJECTCONTEXTDATA_CLASS
  5
45E
102
{ACAD_REACTORS
330
45D
102
}
330
45D
100
AcDbObjectContextData
 70
     3
290
     1
100
AcDbAnnotScaleObjectContextData
340
3E
 70
     1
 50
0.0
 10
117.0000000000009
 20
2.000000222036987
 11
117.0000000000009
 21
3.500000222036987
290
     0
  0
ACDB_MTEXTATTRIBUTEOBJECTCONTEXTDATA_CLASS
  5
463
102
{ACAD_REACTORS
330
462
102
}
330
462
100
AcDbObjectContextData
 70
     3
290
     1
100
AcDbAnnotScaleObjectContextData
340
3E
 70
     1
 50
0.0
 10
163.0000000000009
 20
2.000000222036987
 11
163.0000000000009
 21
3.500000222036987
290
     0
  0
XRECORD
  5
5C8
102
{ACAD_REACTORS
330
5C7
102
}
330
5C7
100
AcDbXrecord
280
     1
102
SHADEPLOT
 70
     0
102
SHADEPLOTRESLEVEL
 70
     2
102
SHADEPLOTCUSTOMDPI
 70
   300
  0
XRECORD
  5
5C6
102
{ACAD_REACTORS
330
5C5
102
}
330
5C5
100
AcDbXrecord
280
     1
102
SHADEPLOT
 70
     0
102
SHADEPLOTRESLEVEL
 70
     2
102
SHADEPLOTCUSTOMDPI
 70
   300
  0
XRECORD
  5
5CA
102
{ACAD_REACTORS
330
5C9
102
}
330
5C9
100
AcDbXrecord
280
     1
102
SHADEPLOT
 70
     0
102
SHADEPLOTRESLEVEL
 70
     2
102
SHADEPLOTCUSTOMDPI
 70
   300
  0
XRECORD
  5
559
102
{ACAD_REACTORS
330
1A
102
}
330
1A
100
AcDbXrecord
280
     1
102
MATERIAL
148
0.0
149
0.0
149
0.0
 93
        0
 94
      127
282
     0
 72
     0
 77
     0
171
     0
175
     0
179
     0
273
     0
  0
XRECORD
  5
1C
102
{ACAD_REACTORS
330
1A
102
}
330
1A
100
AcDbXrecord
280
     1
270
     1
271
     1
  0
XRECORD
  5
1B
102
{ACAD_REACTORS
330
1A
102
}
330
1A
100
AcDbXrecord
280
     1
270
     1
271
     1
  0
XRECORD
  5
1F
102
{ACAD_REACTORS
330
1A
102
}
330
1A
100
AcDbXrecord
280
     1
270
     1
271
     1
  0
XRECORD
  5
1E
102
{ACAD_REACTORS
330
1A
102
}
330
1A
100
AcDbXrecord
280
     1
270
     1
271
     1
  0
XRECORD
  5
20
102
{ACAD_REACTORS
330
1A
102
}
330
1A
100
AcDbXrecord
280
     1
270
     1
271
     1
  0
XRECORD
  5
1D
102
{ACAD_REACTORS
330
1A
102
}
330
1A
100
AcDbXrecord
280
     1
270
     1
271
     1
  0
XRECORD
  5
558
102
{ACAD_REACTORS
330
12
102
}
330
12
100
AcDbXrecord
280
     1
102
MATERIAL
148
0.0
149
0.0
149
0.0
 93
        0
 94
      127
282
     0
 72
     0
 77
     0
171
     0
175
     0
179
     0
273
     0
  0
XRECORD
  5
14
102
{ACAD_REACTORS
330
12
102
}
330
12
100
AcDbXrecord
280
     1
270
     1
271
     1
  0
XRECORD
  5
13
102
{ACAD_REACTORS
330
12
102
}
330
12
100
AcDbXrecord
280
     1
270
     1
271
     1
  0
XRECORD
  5
17
102
{ACAD_REACTORS
330
12
102
}
330
12
100
AcDbXrecord
280
     1
270
     1
271
     1
  0
XRECORD
  5
16
102
{ACAD_REACTORS
330
12
102
}
330
12
100
AcDbXrecord
280
     1
270
     1
271
     1
  0
XRECORD
  5
18
102
{ACAD_REACTORS
330
12
102
}
330
12
100
AcDbXrecord
280
     1
270
     1
271
     1
  0
XRECORD
  5
15
102
{ACAD_REACTORS
330
12
102
}
330
12
100
AcDbXrecord
280
     1
270
     1
271
     1
  0
XRECORD
  5
55A
102
{ACAD_REACTORS
330
22
102
}
330
22
100
AcDbXrecord
280
     1
102
MATERIAL
148
0.0
149
0.0
149
0.0
 93
        0
 94
      127
282
     0
 72
     0
 77
     0
171
     0
175
     0
179
     0
273
     0
  0
XRECORD
  5
24
102
{ACAD_REACTORS
330
22
102
}
330
22
100
AcDbXrecord
280
     1
270
     1
271
     1
  0
XRECORD
  5
23
102
{ACAD_REACTORS
330
22
102
}
330
22
100
AcDbXrecord
280
     1
270
     1
271
     1
  0
XRECORD
  5
27
102
{ACAD_REACTORS
330
22
102
}
330
22
100
AcDbXrecord
280
     1
270
     1
271
     1
  0
XRECORD
  5
26
102
{ACAD_REACTORS
330
22
102
}
330
22
100
AcDbXrecord
280
     1
270
     1
271
     1
  0
XRECORD
  5
28
102
{ACAD_REACTORS
330
22
102
}
330
22
100
AcDbXrecord
280
     1
270
     1
271
     1
  0
XRECORD
  5
25
102
{ACAD_REACTORS
330
22
102
}
330
22
100
AcDbXrecord
280
     1
270
     1
271
     1
  0
CELLSTYLEMAP
  5
59B
102
{ACAD_REACTORS
330
554
102
}
330
554
100
AcDbCellStyleMap
 90
        3
300
CELLSTYLE
  1
TABLEFORMAT_BEGIN
 90
        5
170
     1
 91
        0
 92
    32768
 62
   257
 93
        1
300
CONTENTFORMAT
  1
CONTENTFORMAT_BEGIN
 90
        0
 91
        0
 92
      512
 93
        0
300

 40
0.0
140
1.0
 94
        5
 62
     0
340
50
144
6.0
309
CONTENTFORMAT_END
171
     1
301
MARGIN
  1
CELLMARGIN_BEGIN
 40
1.5
 40
1.5
 40
1.5
 40
1.5
 40
0.18
 40
0.18
309
CELLMARGIN_END
 94
        6
 95
        1
302
GRIDFORMAT
  1
GRIDFORMAT_BEGIN
 90
        0
 91
        1
 62
     0
 92
       -2
340
0
 93
        0
 40
1.125
309
GRIDFORMAT_END
 95
        2
302
GRIDFORMAT
  1
GRIDFORMAT_BEGIN
 90
        0
 91
        1
 62
     0
 92
       -2
340
0
 93
        0
 40
1.125
309
GRIDFORMAT_END
 95
        4
302
GRIDFORMAT
  1
GRIDFORMAT_BEGIN
 90
        0
 91
        1
 62
     0
 92
       -2
340
0
 93
        0
 40
1.125
309
GRIDFORMAT_END
 95
        8
302
GRIDFORMAT
  1
GRIDFORMAT_BEGIN
 90
        0
 91
        1
 62
     0
 92
       -2
340
0
 93
        0
 40
1.125
309
GRIDFORMAT_END
 95
       16
302
GRIDFORMAT
  1
GRIDFORMAT_BEGIN
 90
        0
 91
        1
 62
     0
 92
       -2
340
0
 93
        0
 40
1.125
309
GRIDFORMAT_END
 95
       32
302
GRIDFORMAT
  1
GRIDFORMAT_BEGIN
 90
        0
 91
        1
 62
     0
 92
       -2
340
0
 93
        0
 40
1.125
309
GRIDFORMAT_END
309
TABLEFORMAT_END
  1
CELLSTYLE_BEGIN
 90
        1
 91
        1
300
_TITLE
309
CELLSTYLE_END
300
CELLSTYLE
  1
TABLEFORMAT_BEGIN
 90
        5
170
     1
 91
        0
 92
        0
 62
   257
 93
        1
300
CONTENTFORMAT
  1
CONTENTFORMAT_BEGIN
 90
        0
 91
        0
 92
      512
 93
        0
300

 40
0.0
140
1.0
 94
        5
 62
     0
340
50
144
4.5
309
CONTENTFORMAT_END
171
     1
301
MARGIN
  1
CELLMARGIN_BEGIN
 40
1.5
 40
1.5
 40
1.5
 40
1.5
 40
0.18
 40
0.18
309
CELLMARGIN_END
 94
        6
 95
        1
302
GRIDFORMAT
  1
GRIDFORMAT_BEGIN
 90
        0
 91
        1
 62
     0
 92
       -2
340
0
 93
        0
 40
1.125
309
GRIDFORMAT_END
 95
        2
302
GRIDFORMAT
  1
GRIDFORMAT_BEGIN
 90
        0
 91
        1
 62
     0
 92
       -2
340
0
 93
        0
 40
1.125
309
GRIDFORMAT_END
 95
        4
302
GRIDFORMAT
  1
GRIDFORMAT_BEGIN
 90
        0
 91
        1
 62
     0
 92
       -2
340
0
 93
        0
 40
1.125
309
GRIDFORMAT_END
 95
        8
302
GRIDFORMAT
  1
GRIDFORMAT_BEGIN
 90
        0
 91
        1
 62
     0
 92
       -2
340
0
 93
        0
 40
1.125
309
GRIDFORMAT_END
 95
       16
302
GRIDFORMAT
  1
GRIDFORMAT_BEGIN
 90
        0
 91
        1
 62
     0
 92
       -2
340
0
 93
        0
 40
1.125
309
GRIDFORMAT_END
 95
       32
302
GRIDFORMAT
  1
GRIDFORMAT_BEGIN
 90
        0
 91
        1
 62
     0
 92
       -2
340
0
 93
        0
 40
1.125
309
GRIDFORMAT_END
309
TABLEFORMAT_END
  1
CELLSTYLE_BEGIN
 90
        2
 91
        1
300
_HEADER
309
CELLSTYLE_END
300
CELLSTYLE
  1
TABLEFORMAT_BEGIN
 90
        5
170
     1
 91
        0
 92
        0
 62
   257
 93
        1
300
CONTENTFORMAT
  1
CONTENTFORMAT_BEGIN
 90
        0
 91
        0
 92
      512
 93
        0
300

 40
0.0
140
1.0
 94
        2
 62
     0
340
50
144
4.5
309
CONTENTFORMAT_END
171
     1
301
MARGIN
  1
CELLMARGIN_BEGIN
 40
1.5
 40
1.5
 40
1.5
 40
1.5
 40
0.18
 40
0.18
309
CELLMARGIN_END
 94
        6
 95
        1
302
GRIDFORMAT
  1
GRIDFORMAT_BEGIN
 90
        0
 91
        1
 62
     0
 92
       -2
340
0
 93
        0
 40
1.125
309
GRIDFORMAT_END
 95
        2
302
GRIDFORMAT
  1
GRIDFORMAT_BEGIN
 90
        0
 91
        1
 62
     0
 92
       -2
340
0
 93
        0
 40
1.125
309
GRIDFORMAT_END
 95
        4
302
GRIDFORMAT
  1
GRIDFORMAT_BEGIN
 90
        0
 91
        1
 62
     0
 92
       -2
340
0
 93
        0
 40
1.125
309
GRIDFORMAT_END
 95
        8
302
GRIDFORMAT
  1
GRIDFORMAT_BEGIN
 90
        0
 91
        1
 62
     0
 92
       -2
340
0
 93
        0
 40
1.125
309
GRIDFORMAT_END
 95
       16
302
GRIDFORMAT
  1
GRIDFORMAT_BEGIN
 90
        0
 91
        1
 62
     0
 92
       -2
340
0
 93
        0
 40
1.125
309
GRIDFORMAT_END
 95
       32
302
GRIDFORMAT
  1
GRIDFORMAT_BEGIN
 90
        0
 91
        1
 62
     0
 92
       -2
340
0
 93
        0
 40
1.125
309
GRIDFORMAT_END
309
TABLEFORMAT_END
  1
CELLSTYLE_BEGIN
 90
        3
 91
        2
300
_DATA
309
CELLSTYLE_END
  0
XRECORD
  5
5C4
102
{ACAD_REACTORS
330
554
102
}
330
554
100
AcDbXrecord
280
     1
102
ACAD_ROUNDTRIP_PRE2007_TABLESTYLE
 90
      512
 91
        0
  1

 92
      512
 93
        0
  2

 94
      512
 95
        0
  3

  0
XRECORD
  5
5A9
102
{ACAD_REACTORS
330
5A8
102
}
330
5A8
100
AcDbXrecord
280
     1
102
RTVSPropertyOp0
 70
     1
102
RTVSPropertyOp1
 70
     1
102
RTVSPropertyOp2
 70
     1
102
RTVSPropertyOp3
 70
     1
102
RTVSPropertyOp4
 70
     1
102
RTVSPropertyOp5
 70
     1
102
RTVSPropertyOp6
 70
     1
102
RTVSPropertyOp7
 70
     1
102
RTVSPropertyOp8
 70
     1
102
RTVSPropertyOp9
 70
     1
102
RTVSPropertyOp10
 70
     1
102
RTVSPropertyOp11
 70
     1
102
RTVSPropertyOp12
 70
     1
102
RTVSPropertyOp13
 70
     1
102
RTVSPropertyOp14
 70
     1
102
RTVSPropertyOp15
 70
     1
102
RTVSPropertyOp16
 70
     1
102
RTVSPropertyOp17
 70
     1
102
RTVSPropertyOp18
 70
     1
102
RTVSPropertyOp19
 70
     1
102
RTVSPropertyOp20
 70
     1
102
RTVSPropertyOp21
 70
     1
102
RTVSPropertyOp22
 70
     1
102
RTVSPropertyOp23
 70
     1
102
RTVSPropertyOp24
 70
     1
102
RTVSPropertyOp25
 70
     1
102
RTVSPropertyOp26
 70
     1
102
RTVSPropertyOp27
 70
     1
102
RTVSPropertyOp28
 70
     1
102
RTVSPropertyOp29
 70
     1
102
RTVSPropertyOp30
 70
     1
102
RTVSPropertyOp31
 70
     1
102
RTVSPropertyOp32
 70
     1
  0
XRECORD
  5
5AD
102
{ACAD_REACTORS
330
5AC
102
}
330
5AC
100
AcDbXrecord
280
     1
102
RTVSPropertyOp0
 70
     1
102
RTVSPropertyOp1
 70
     1
102
RTVSPropertyOp2
 70
     1
102
RTVSPropertyOp3
 70
     1
102
RTVSPropertyOp4
 70
     1
102
RTVSPropertyOp5
 70
     1
102
RTVSPropertyOp6
 70
     1
102
RTVSPropertyOp7
 70
     1
102
RTVSPropertyOp8
 70
     1
102
RTVSPropertyOp9
 70
     1
102
RTVSPropertyOp10
 70
     1
102
RTVSPropertyOp11
 70
     1
102
RTVSPropertyOp12
 70
     1
102
RTVSPropertyOp13
 70
     1
102
RTVSPropertyOp14
 70
     1
102
RTVSPropertyOp15
 70
     1
102
RTVSPropertyOp16
 70
     1
102
RTVSPropertyOp17
 70
     1
102
RTVSPropertyOp18
 70
     1
102
RTVSPropertyOp19
 70
     1
102
RTVSPropertyOp20
 70
     1
102
RTVSPropertyOp21
 70
     1
102
RTVSPropertyOp22
 70
     1
102
RTVSPropertyOp23
 70
     1
102
RTVSPropertyOp24
 70
     1
102
RTVSPropertyOp25
 70
     1
102
RTVSPropertyOp26
 70
     1
102
RTVSPropertyOp27
 70
     1
102
RTVSPropertyOp28
 70
     1
102
RTVSPropertyOp29
 70
     1
102
RTVSPropertyOp30
 70
     1
102
RTVSPropertyOp31
 70
     1
102
RTVSPropertyOp32
 70
     1
  0
XRECORD
  5
5AB
102
{ACAD_REACTORS
330
5AA
102
}
330
5AA
100
AcDbXrecord
280
     1
102
RTVSPropertyOp0
 70
     1
102
RTVSPropertyOp1
 70
     1
102
RTVSPropertyOp2
 70
     1
102
RTVSPropertyOp3
 70
     1
102
RTVSPropertyOp4
 70
     1
102
RTVSPropertyOp5
 70
     1
102
RTVSPropertyOp6
 70
     1
102
RTVSPropertyOp7
 70
     1
102
RTVSPropertyOp8
 70
     1
102
RTVSPropertyOp9
 70
     1
102
RTVSPropertyOp10
 70
     1
102
RTVSPropertyOp11
 70
     1
102
RTVSPropertyOp12
 70
     1
102
RTVSPropertyOp13
 70
     1
102
RTVSPropertyOp14
 70
     1
102
RTVSPropertyOp15
 70
     1
102
RTVSPropertyOp16
 70
     1
102
RTVSPropertyOp17
 70
     1
102
RTVSPropertyOp18
 70
     1
102
RTVSPropertyOp19
 70
     1
102
RTVSPropertyOp20
 70
     1
102
RTVSPropertyOp21
 70
     1
102
RTVSPropertyOp22
 70
     1
102
RTVSPropertyOp23
 70
     1
102
RTVSPropertyOp24
 70
     1
102
RTVSPropertyOp25
 70
     1
102
RTVSPropertyOp26
 70
     1
102
RTVSPropertyOp27
 70
     1
102
RTVSPropertyOp28
 70
     1
102
RTVSPropertyOp29
 70
     1
102
RTVSPropertyOp30
 70
     1
102
RTVSPropertyOp31
 70
     1
102
RTVSPropertyOp32
 70
     1
  0
XRECORD
  5
5A7
102
{ACAD_REACTORS
330
5A6
102
}
330
5A6
100
AcDbXrecord
280
     1
102
RTVSPropertyOp0
 70
     1
102
RTVSPropertyOp1
 70
     1
102
RTVSPropertyOp2
 70
     1
102
RTVSPropertyOp3
 70
     1
102
RTVSPropertyOp4
 70
     1
102
RTVSPropertyOp5
 70
     1
102
RTVSPropertyOp6
 70
     1
102
RTVSPropertyOp7
 70
     1
102
RTVSPropertyOp8
 70
     1
102
RTVSPropertyOp9
 70
     1
102
RTVSPropertyOp10
 70
     1
102
RTVSPropertyOp11
 70
     1
102
RTVSPropertyOp12
 70
     1
102
RTVSPropertyOp13
 70
     1
102
RTVSPropertyOp14
 70
     1
102
RTVSPropertyOp15
 70
     1
102
RTVSPropertyOp16
 70
     1
102
RTVSPropertyOp17
 70
     1
102
RTVSPropertyOp18
 70
     1
102
RTVSPropertyOp19
 70
     1
102
RTVSPropertyOp20
 70
     1
102
RTVSPropertyOp21
 70
     1
102
RTVSPropertyOp22
 70
     1
102
RTVSPropertyOp23
 70
     1
102
RTVSPropertyOp24
 70
     1
102
RTVSPropertyOp25
 70
     1
102
RTVSPropertyOp26
 70
     1
102
RTVSPropertyOp27
 70
     1
102
RTVSPropertyOp28
 70
     1
102
RTVSPropertyOp29
 70
     1
102
RTVSPropertyOp30
 70
     1
102
RTVSPropertyOp31
 70
     1
102
RTVSPropertyOp32
 70
     1
  0
XRECORD
  5
5B5
102
{ACAD_REACTORS
330
5B4
102
}
330
5B4
100
AcDbXrecord
280
     1
102
RTVSPropertyOp0
 70
     1
102
RTVSPropertyOp1
 70
     1
102
RTVSPropertyOp2
 70
     1
102
RTVSPropertyOp3
 70
     1
102
RTVSPropertyOp4
 70
     1
102
RTVSPropertyOp5
 70
     1
102
RTVSPropertyOp6
 70
     1
102
RTVSPropertyOp7
 70
     1
102
RTVSPropertyOp8
 70
     1
102
RTVSPropertyOp9
 70
     1
102
RTVSPropertyOp10
 70
     1
102
RTVSPropertyOp11
 70
     1
102
RTVSPropertyOp12
 70
     1
102
RTVSPropertyOp13
 70
     1
102
RTVSPropertyOp14
 70
     1
102
RTVSPropertyOp15
 70
     1
102
RTVSPropertyOp16
 70
     1
102
RTVSPropertyOp17
 70
     1
102
RTVSPropertyOp18
 70
     1
102
RTVSPropertyOp19
 70
     1
102
RTVSPropertyOp20
 70
     1
102
RTVSPropertyOp21
 70
     1
102
RTVSPropertyOp22
 70
     1
102
RTVSPropertyOp23
 70
     1
102
RTVSPropertyOp24
 70
     1
102
RTVSPropertyOp25
 70
     1
102
RTVSPropertyOp26
 70
     1
102
RTVSPropertyOp27
 70
     1
102
RTVSPropertyOp28
 70
     1
102
RTVSPropertyOp29
 70
     1
102
RTVSPropertyOp30
 70
     1
102
RTVSPropertyOp31
 70
     1
102
RTVSPropertyOp32
 70
     1
  0
XRECORD
  5
5BD
102
{ACAD_REACTORS
330
5BC
102
}
330
5BC
100
AcDbXrecord
280
     1
102
RTVSPropertyOp0
 70
     1
102
RTVSPropertyOp1
 70
     1
102
RTVSPropertyOp2
 70
     1
102
RTVSPropertyOp3
 70
     1
102
RTVSPropertyOp4
 70
     1
102
RTVSPropertyOp5
 70
     1
102
RTVSPropertyOp6
 70
     1
102
RTVSPropertyOp7
 70
     1
102
RTVSPropertyOp8
 70
     1
102
RTVSPropertyOp9
 70
     1
102
RTVSPropertyOp10
 70
     1
102
RTVSPropertyOp11
 70
     1
102
RTVSPropertyOp12
 70
     1
102
RTVSPropertyOp13
 70
     1
102
RTVSPropertyOp14
 70
     1
102
RTVSPropertyOp15
 70
     1
102
RTVSPropertyOp16
 70
     1
102
RTVSPropertyOp17
 70
     1
102
RTVSPropertyOp18
 70
     1
102
RTVSPropertyOp19
 70
     1
102
RTVSPropertyOp20
 70
     1
102
RTVSPropertyOp21
 70
     1
102
RTVSPropertyOp22
 70
     1
102
RTVSPropertyOp23
 70
     1
102
RTVSPropertyOp24
 70
     1
102
RTVSPropertyOp25
 70
     1
102
RTVSPropertyOp26
 70
     1
102
RTVSPropertyOp27
 70
     1
102
RTVSPropertyOp28
 70
     1
102
RTVSPropertyOp29
 70
     1
102
RTVSPropertyOp30
 70
     1
102
RTVSPropertyOp31
 70
     1
102
RTVSPropertyOp32
 70
     1
  0
XRECORD
  5
5AF
102
{ACAD_REACTORS
330
5AE
102
}
330
5AE
100
AcDbXrecord
280
     1
102
RTVSPropertyOp0
 70
     1
102
RTVSPropertyOp1
 70
     1
102
RTVSPropertyOp2
 70
     1
102
RTVSPropertyOp3
 70
     1
102
RTVSPropertyOp4
 70
     1
102
RTVSPropertyOp5
 70
     1
102
RTVSPropertyOp6
 70
     1
102
RTVSPropertyOp7
 70
     1
102
RTVSPropertyOp8
 70
     1
102
RTVSPropertyOp9
 70
     1
102
RTVSPropertyOp10
 70
     1
102
RTVSPropertyOp11
 70
     1
102
RTVSPropertyOp12
 70
     1
102
RTVSPropertyOp13
 70
     1
102
RTVSPropertyOp14
 70
     1
102
RTVSPropertyOp15
 70
     1
102
RTVSPropertyOp16
 70
     1
102
RTVSPropertyOp17
 70
     1
102
RTVSPropertyOp18
 70
     1
102
RTVSPropertyOp19
 70
     1
102
RTVSPropertyOp20
 70
     1
102
RTVSPropertyOp21
 70
     1
102
RTVSPropertyOp22
 70
     1
102
RTVSPropertyOp23
 70
     1
102
RTVSPropertyOp24
 70
     1
102
RTVSPropertyOp25
 70
     1
102
RTVSPropertyOp26
 70
     1
102
RTVSPropertyOp27
 70
     1
102
RTVSPropertyOp28
 70
     1
102
RTVSPropertyOp29
 70
     1
102
RTVSPropertyOp30
 70
     1
102
RTVSPropertyOp31
 70
     1
102
RTVSPropertyOp32
 70
     1
  0
XRECORD
  5
5B3
102
{ACAD_REACTORS
330
5B2
102
}
330
5B2
100
AcDbXrecord
280
     1
102
RTVSPropertyOp0
 70
     1
102
RTVSPropertyOp1
 70
     1
102
RTVSPropertyOp2
 70
     1
102
RTVSPropertyOp3
 70
     1
102
RTVSPropertyOp4
 70
     1
102
RTVSPropertyOp5
 70
     1
102
RTVSPropertyOp6
 70
     1
102
RTVSPropertyOp7
 70
     1
102
RTVSPropertyOp8
 70
     1
102
RTVSPropertyOp9
 70
     1
102
RTVSPropertyOp10
 70
     1
102
RTVSPropertyOp11
 70
     1
102
RTVSPropertyOp12
 70
     1
102
RTVSPropertyOp13
 70
     1
102
RTVSPropertyOp14
 70
     1
102
RTVSPropertyOp15
 70
     1
102
RTVSPropertyOp16
 70
     1
102
RTVSPropertyOp17
 70
     1
102
RTVSPropertyOp18
 70
     1
102
RTVSPropertyOp19
 70
     1
102
RTVSPropertyOp20
 70
     1
102
RTVSPropertyOp21
 70
     1
102
RTVSPropertyOp22
 70
     1
102
RTVSPropertyOp23
 70
     1
102
RTVSPropertyOp24
 70
     1
102
RTVSPropertyOp25
 70
     1
102
RTVSPropertyOp26
 70
     1
102
RTVSPropertyOp27
 70
     1
102
RTVSPropertyOp28
 70
     1
102
RTVSPropertyOp29
 70
     1
102
RTVSPropertyOp30
 70
     1
102
RTVSPropertyOp31
 70
     1
102
RTVSPropertyOp32
 70
     1
  0
XRECORD
  5
5C3
102
{ACAD_REACTORS
330
5C2
102
}
330
5C2
100
AcDbXrecord
280
     1
102
RTVSPropertyOp0
 70
     0
102
RTVSPropertyOp1
 70
     0
102
RTVSPropertyOp2
 70
     0
102
RTVSPropertyOp3
 70
     0
102
RTVSPropertyOp4
 70
     0
102
RTVSPropertyOp5
 70
     0
102
RTVSPropertyOp6
 70
     0
102
RTVSPropertyOp7
 70
     0
102
RTVSPropertyOp8
 70
     0
102
RTVSPropertyOp9
 70
     0
102
RTVSPropertyOp10
 70
     0
102
RTVSPropertyOp11
 70
     0
102
RTVSPropertyOp12
 70
     0
102
RTVSPropertyOp13
 70
     0
102
RTVSPropertyOp14
 70
     2
102
RTVSPropertyOp15
 70
     0
102
RTVSPropertyOp16
 70
     0
102
RTVSPropertyOp17
 70
     0
102
RTVSPropertyOp18
 70
     0
102
RTVSPropertyOp19
 70
     0
102
RTVSPropertyOp20
 70
     0
102
RTVSPropertyOp21
 70
     0
102
RTVSPropertyOp22
 70
     0
102
RTVSPropertyOp23
 70
     0
102
RTVSPropertyOp24
 70
     0
102
RTVSPropertyOp25
 70
     0
102
RTVSPropertyOp26
 70
     0
102
RTVSPropertyOp27
 70
     0
102
RTVSPropertyOp28
 70
     1
102
RTVSPropertyOp29
 70
     1
102
RTVSPropertyOp30
 70
     1
102
RTVSPropertyOp31
 70
     1
102
RTVSPropertyOp32
 70
     1
  0
XRECORD
  5
5BB
102
{ACAD_REACTORS
330
5BA
102
}
330
5BA
100
AcDbXrecord
280
     1
102
RTVSPropertyOp0
 70
     1
102
RTVSPropertyOp1
 70
     1
102
RTVSPropertyOp2
 70
     1
102
RTVSPropertyOp3
 70
     1
102
RTVSPropertyOp4
 70
     1
102
RTVSPropertyOp5
 70
     1
102
RTVSPropertyOp6
 70
     1
102
RTVSPropertyOp7
 70
     1
102
RTVSPropertyOp8
 70
     1
102
RTVSPropertyOp9
 70
     1
102
RTVSPropertyOp10
 70
     1
102
RTVSPropertyOp11
 70
     1
102
RTVSPropertyOp12
 70
     1
102
RTVSPropertyOp13
 70
     1
102
RTVSPropertyOp14
 70
     1
102
RTVSPropertyOp15
 70
     1
102
RTVSPropertyOp16
 70
     1
102
RTVSPropertyOp17
 70
     1
102
RTVSPropertyOp18
 70
     1
102
RTVSPropertyOp19
 70
     1
102
RTVSPropertyOp20
 70
     1
102
RTVSPropertyOp21
 70
     1
102
RTVSPropertyOp22
 70
     1
102
RTVSPropertyOp23
 70
     1
102
RTVSPropertyOp24
 70
     1
102
RTVSPropertyOp25
 70
     1
102
RTVSPropertyOp26
 70
     1
102
RTVSPropertyOp27
 70
     1
102
RTVSPropertyOp28
 70
     1
102
RTVSPropertyOp29
 70
     1
102
RTVSPropertyOp30
 70
     1
102
RTVSPropertyOp31
 70
     1
102
RTVSPropertyOp32
 70
     1
  0
XRECORD
  5
59F
102
{ACAD_REACTORS
330
59E
102
}
330
59E
100
AcDbXrecord
280
     1
102
RTVSPropertyOp0
 70
     1
102
RTVSPropertyOp1
 70
     1
102
RTVSPropertyOp2
 70
     1
102
RTVSPropertyOp3
 70
     1
102
RTVSPropertyOp4
 70
     1
102
RTVSPropertyOp5
 70
     1
102
RTVSPropertyOp6
 70
     1
102
RTVSPropertyOp7
 70
     1
102
RTVSPropertyOp8
 70
     1
102
RTVSPropertyOp9
 70
     1
102
RTVSPropertyOp10
 70
     1
102
RTVSPropertyOp11
 70
     1
102
RTVSPropertyOp12
 70
     1
102
RTVSPropertyOp13
 70
     1
102
RTVSPropertyOp14
 70
     1
102
RTVSPropertyOp15
 70
     1
102
RTVSPropertyOp16
 70
     1
102
RTVSPropertyOp17
 70
     1
102
RTVSPropertyOp18
 70
     1
102
RTVSPropertyOp19
 70
     1
102
RTVSPropertyOp20
 70
     1
102
RTVSPropertyOp21
 70
     1
102
RTVSPropertyOp22
 70
     1
102
RTVSPropertyOp23
 70
     1
102
RTVSPropertyOp24
 70
     1
102
RTVSPropertyOp25
 70
     1
102
RTVSPropertyOp26
 70
     1
102
RTVSPropertyOp27
 70
     1
102
RTVSPropertyOp28
 70
     1
102
RTVSPropertyOp29
 70
     1
102
RTVSPropertyOp30
 70
     1
102
RTVSPropertyOp31
 70
     1
102
RTVSPropertyOp32
 70
     1
  0
XRECORD
  5
5A1
102
{ACAD_REACTORS
330
5A0
102
}
330
5A0
100
AcDbXrecord
280
     1
102
RTVSPropertyOp0
 70
     1
102
RTVSPropertyOp1
 70
     1
102
RTVSPropertyOp2
 70
     1
102
RTVSPropertyOp3
 70
     1
102
RTVSPropertyOp4
 70
     1
102
RTVSPropertyOp5
 70
     1
102
RTVSPropertyOp6
 70
     1
102
RTVSPropertyOp7
 70
     1
102
RTVSPropertyOp8
 70
     1
102
RTVSPropertyOp9
 70
     1
102
RTVSPropertyOp10
 70
     1
102
RTVSPropertyOp11
 70
     1
102
RTVSPropertyOp12
 70
     1
102
RTVSPropertyOp13
 70
     1
102
RTVSPropertyOp14
 70
     1
102
RTVSPropertyOp15
 70
     1
102
RTVSPropertyOp16
 70
     1
102
RTVSPropertyOp17
 70
     1
102
RTVSPropertyOp18
 70
     1
102
RTVSPropertyOp19
 70
     1
102
RTVSPropertyOp20
 70
     1
102
RTVSPropertyOp21
 70
     1
102
RTVSPropertyOp22
 70
     1
102
RTVSPropertyOp23
 70
     1
102
RTVSPropertyOp24
 70
     1
102
RTVSPropertyOp25
 70
     1
102
RTVSPropertyOp26
 70
     1
102
RTVSPropertyOp27
 70
     1
102
RTVSPropertyOp28
 70
     1
102
RTVSPropertyOp29
 70
     1
102
RTVSPropertyOp30
 70
     1
102
RTVSPropertyOp31
 70
     1
102
RTVSPropertyOp32
 70
     1
  0
XRECORD
  5
5A3
102
{ACAD_REACTORS
330
5A2
102
}
330
5A2
100
AcDbXrecord
280
     1
102
RTVSPropertyOp0
 70
     1
102
RTVSPropertyOp1
 70
     1
102
RTVSPropertyOp2
 70
     1
102
RTVSPropertyOp3
 70
     1
102
RTVSPropertyOp4
 70
     1
102
RTVSPropertyOp5
 70
     1
102
RTVSPropertyOp6
 70
     1
102
RTVSPropertyOp7
 70
     1
102
RTVSPropertyOp8
 70
     1
102
RTVSPropertyOp9
 70
     1
102
RTVSPropertyOp10
 70
     1
102
RTVSPropertyOp11
 70
     1
102
RTVSPropertyOp12
 70
     1
102
RTVSPropertyOp13
 70
     1
102
RTVSPropertyOp14
 70
     1
102
RTVSPropertyOp15
 70
     1
102
RTVSPropertyOp16
 70
     1
102
RTVSPropertyOp17
 70
     1
102
RTVSPropertyOp18
 70
     1
102
RTVSPropertyOp19
 70
     1
102
RTVSPropertyOp20
 70
     1
102
RTVSPropertyOp21
 70
     1
102
RTVSPropertyOp22
 70
     1
102
RTVSPropertyOp23
 70
     1
102
RTVSPropertyOp24
 70
     1
102
RTVSPropertyOp25
 70
     1
102
RTVSPropertyOp26
 70
     1
102
RTVSPropertyOp27
 70
     1
102
RTVSPropertyOp28
 70
     1
102
RTVSPropertyOp29
 70
     1
102
RTVSPropertyOp30
 70
     1
102
RTVSPropertyOp31
 70
     1
102
RTVSPropertyOp32
 70
     1
  0
XRECORD
  5
5A5
102
{ACAD_REACTORS
330
5A4
102
}
330
5A4
100
AcDbXrecord
280
     1
102
RTVSPropertyOp0
 70
     1
102
RTVSPropertyOp1
 70
     1
102
RTVSPropertyOp2
 70
     1
102
RTVSPropertyOp3
 70
     1
102
RTVSPropertyOp4
 70
     1
102
RTVSPropertyOp5
 70
     1
102
RTVSPropertyOp6
 70
     1
102
RTVSPropertyOp7
 70
     1
102
RTVSPropertyOp8
 70
     1
102
RTVSPropertyOp9
 70
     1
102
RTVSPropertyOp10
 70
     1
102
RTVSPropertyOp11
 70
     1
102
RTVSPropertyOp12
 70
     1
102
RTVSPropertyOp13
 70
     1
102
RTVSPropertyOp14
 70
     1
102
RTVSPropertyOp15
 70
     1
102
RTVSPropertyOp16
 70
     1
102
RTVSPropertyOp17
 70
     1
102
RTVSPropertyOp18
 70
     1
102
RTVSPropertyOp19
 70
     1
102
RTVSPropertyOp20
 70
     1
102
RTVSPropertyOp21
 70
     1
102
RTVSPropertyOp22
 70
     1
102
RTVSPropertyOp23
 70
     1
102
RTVSPropertyOp24
 70
     1
102
RTVSPropertyOp25
 70
     1
102
RTVSPropertyOp26
 70
     1
102
RTVSPropertyOp27
 70
     1
102
RTVSPropertyOp28
 70
     1
102
RTVSPropertyOp29
 70
     1
102
RTVSPropertyOp30
 70
     1
102
RTVSPropertyOp31
 70
     1
102
RTVSPropertyOp32
 70
     1
  0
XRECORD
  5
5D0
102
{ACAD_REACTORS
330
5CF
102
}
330
5CF
100
AcDbXrecord
280
     1
102
RTVSPropertyOp0
 70
     1
102
RTVSPropertyOp1
 70
     1
102
RTVSPropertyOp2
 70
     1
102
RTVSPropertyOp3
 70
     1
102
RTVSPropertyOp4
 70
     1
102
RTVSPropertyOp5
 70
     1
102
RTVSPropertyOp6
 70
     1
102
RTVSPropertyOp7
 70
     1
102
RTVSPropertyOp8
 70
     1
102
RTVSPropertyOp9
 70
     1
102
RTVSPropertyOp10
 70
     1
102
RTVSPropertyOp11
 70
     1
102
RTVSPropertyOp12
 70
     1
102
RTVSPropertyOp13
 70
     1
102
RTVSPropertyOp14
 70
     1
102
RTVSPropertyOp15
 70
     1
102
RTVSPropertyOp16
 70
     1
102
RTVSPropertyOp17
 70
     1
102
RTVSPropertyOp18
 70
     1
102
RTVSPropertyOp19
 70
     1
102
RTVSPropertyOp20
 70
     1
102
RTVSPropertyOp21
 70
     1
102
RTVSPropertyOp22
 70
     1
102
RTVSPropertyOp23
 70
     1
102
RTVSPropertyOp24
 70
     1
102
RTVSPropertyOp25
 70
     1
102
RTVSPropertyOp26
 70
     1
102
RTVSPropertyOp27
 70
     1
102
RTVSPropertyOp28
 70
     1
102
RTVSPropertyOp29
 70
     1
102
RTVSPropertyOp30
 70
     1
102
RTVSPropertyOp31
 70
     1
102
RTVSPropertyOp32
 70
     1
  0
XRECORD
  5
5BF
102
{ACAD_REACTORS
330
5BE
102
}
330
5BE
100
AcDbXrecord
280
     1
102
RTVSPropertyOp0
 70
     0
102
RTVSPropertyOp1
 70
     0
102
RTVSPropertyOp2
 70
     0
102
RTVSPropertyOp3
 70
     0
102
RTVSPropertyOp4
 70
     0
102
RTVSPropertyOp5
 70
     0
102
RTVSPropertyOp6
 70
     0
102
RTVSPropertyOp7
 70
     0
102
RTVSPropertyOp8
 70
     0
102
RTVSPropertyOp9
 70
     0
102
RTVSPropertyOp10
 70
     0
102
RTVSPropertyOp11
 70
     0
102
RTVSPropertyOp12
 70
     0
102
RTVSPropertyOp13
 70
     0
102
RTVSPropertyOp14
 70
     2
102
RTVSPropertyOp15
 70
     0
102
RTVSPropertyOp16
 70
     0
102
RTVSPropertyOp17
 70
     0
102
RTVSPropertyOp18
 70
     0
102
RTVSPropertyOp19
 70
     0
102
RTVSPropertyOp20
 70
     0
102
RTVSPropertyOp21
 70
     0
102
RTVSPropertyOp22
 70
     0
102
RTVSPropertyOp23
 70
     0
102
RTVSPropertyOp24
 70
     0
102
RTVSPropertyOp25
 70
     0
102
RTVSPropertyOp26
 70
     0
102
RTVSPropertyOp27
 70
     0
102
RTVSPropertyOp28
 70
     1
102
RTVSPropertyOp29
 70
     1
102
RTVSPropertyOp30
 70
     1
102
RTVSPropertyOp31
 70
     1
102
RTVSPropertyOp32
 70
     1
  0
XRECORD
  5
5B9
102
{ACAD_REACTORS
330
5B8
102
}
330
5B8
100
AcDbXrecord
280
     1
102
RTVSPropertyOp0
 70
     1
102
RTVSPropertyOp1
 70
     1
102
RTVSPropertyOp2
 70
     1
102
RTVSPropertyOp3
 70
     1
102
RTVSPropertyOp4
 70
     1
102
RTVSPropertyOp5
 70
     1
102
RTVSPropertyOp6
 70
     1
102
RTVSPropertyOp7
 70
     1
102
RTVSPropertyOp8
 70
     1
102
RTVSPropertyOp9
 70
     1
102
RTVSPropertyOp10
 70
     1
102
RTVSPropertyOp11
 70
     1
102
RTVSPropertyOp12
 70
     1
102
RTVSPropertyOp13
 70
     1
102
RTVSPropertyOp14
 70
     1
102
RTVSPropertyOp15
 70
     1
102
RTVSPropertyOp16
 70
     1
102
RTVSPropertyOp17
 70
     1
102
RTVSPropertyOp18
 70
     1
102
RTVSPropertyOp19
 70
     1
102
RTVSPropertyOp20
 70
     1
102
RTVSPropertyOp21
 70
     1
102
RTVSPropertyOp22
 70
     1
102
RTVSPropertyOp23
 70
     1
102
RTVSPropertyOp24
 70
     1
102
RTVSPropertyOp25
 70
     1
102
RTVSPropertyOp26
 70
     1
102
RTVSPropertyOp27
 70
     1
102
RTVSPropertyOp28
 70
     1
102
RTVSPropertyOp29
 70
     1
102
RTVSPropertyOp30
 70
     1
102
RTVSPropertyOp31
 70
     1
102
RTVSPropertyOp32
 70
     1
  0
XRECORD
  5
5C1
102
{ACAD_REACTORS
330
5C0
102
}
330
5C0
100
AcDbXrecord
280
     1
102
RTVSPropertyOp0
 70
     0
102
RTVSPropertyOp1
 70
     0
102
RTVSPropertyOp2
 70
     0
102
RTVSPropertyOp3
 70
     0
102
RTVSPropertyOp4
 70
     0
102
RTVSPropertyOp5
 70
     0
102
RTVSPropertyOp6
 70
     0
102
RTVSPropertyOp7
 70
     0
102
RTVSPropertyOp8
 70
     0
102
RTVSPropertyOp9
 70
     0
102
RTVSPropertyOp10
 70
     0
102
RTVSPropertyOp11
 70
     0
102
RTVSPropertyOp12
 70
     0
102
RTVSPropertyOp13
 70
     0
102
RTVSPropertyOp14
 70
     2
102
RTVSPropertyOp15
 70
     0
102
RTVSPropertyOp16
 70
     0
102
RTVSPropertyOp17
 70
     0
102
RTVSPropertyOp18
 70
     0
102
RTVSPropertyOp19
 70
     0
102
RTVSPropertyOp20
 70
     0
102
RTVSPropertyOp21
 70
     0
102
RTVSPropertyOp22
 70
     0
102
RTVSPropertyOp23
 70
     0
102
RTVSPropertyOp24
 70
     0
102
RTVSPropertyOp25
 70
     0
102
RTVSPropertyOp26
 70
     0
102
RTVSPropertyOp27
 70
     0
102
RTVSPropertyOp28
 70
     1
102
RTVSPropertyOp29
 70
     1
102
RTVSPropertyOp30
 70
     1
102
RTVSPropertyOp31
 70
     1
102
RTVSPropertyOp32
 70
     1
  0
XRECORD
  5
5B1
102
{ACAD_REACTORS
330
5B0
102
}
330
5B0
100
AcDbXrecord
280
     1
102
RTVSPropertyOp0
 70
     1
102
RTVSPropertyOp1
 70
     1
102
RTVSPropertyOp2
 70
     1
102
RTVSPropertyOp3
 70
     1
102
RTVSPropertyOp4
 70
     1
102
RTVSPropertyOp5
 70
     1
102
RTVSPropertyOp6
 70
     1
102
RTVSPropertyOp7
 70
     1
102
RTVSPropertyOp8
 70
     1
102
RTVSPropertyOp9
 70
     1
102
RTVSPropertyOp10
 70
     1
102
RTVSPropertyOp11
 70
     1
102
RTVSPropertyOp12
 70
     1
102
RTVSPropertyOp13
 70
     1
102
RTVSPropertyOp14
 70
     1
102
RTVSPropertyOp15
 70
     1
102
RTVSPropertyOp16
 70
     1
102
RTVSPropertyOp17
 70
     1
102
RTVSPropertyOp18
 70
     1
102
RTVSPropertyOp19
 70
     1
102
RTVSPropertyOp20
 70
     1
102
RTVSPropertyOp21
 70
     1
102
RTVSPropertyOp22
 70
     1
102
RTVSPropertyOp23
 70
     1
102
RTVSPropertyOp24
 70
     1
102
RTVSPropertyOp25
 70
     1
102
RTVSPropertyOp26
 70
     1
102
RTVSPropertyOp27
 70
     1
102
RTVSPropertyOp28
 70
     1
102
RTVSPropertyOp29
 70
     1
102
RTVSPropertyOp30
 70
     1
102
RTVSPropertyOp31
 70
     1
102
RTVSPropertyOp32
 70
     1
  0
XRECORD
  5
5DA
102
{ACAD_REACTORS
330
5D9
102
}
330
5D9
100
AcDbXrecord
280
     1
102
RTVSPropertyOp0
 70
     1
102
RTVSPropertyOp1
 70
     1
102
RTVSPropertyOp2
 70
     1
102
RTVSPropertyOp3
 70
     1
102
RTVSPropertyOp4
 70
     1
102
RTVSPropertyOp5
 70
     1
102
RTVSPropertyOp6
 70
     1
102
RTVSPropertyOp7
 70
     1
102
RTVSPropertyOp8
 70
     1
102
RTVSPropertyOp9
 70
     1
102
RTVSPropertyOp10
 70
     1
102
RTVSPropertyOp11
 70
     1
102
RTVSPropertyOp12
 70
     1
102
RTVSPropertyOp13
 70
     1
102
RTVSPropertyOp14
 70
     1
102
RTVSPropertyOp15
 70
     1
102
RTVSPropertyOp16
 70
     1
102
RTVSPropertyOp17
 70
     1
102
RTVSPropertyOp18
 70
     1
102
RTVSPropertyOp19
 70
     1
102
RTVSPropertyOp20
 70
     1
102
RTVSPropertyOp21
 70
     1
102
RTVSPropertyOp22
 70
     1
102
RTVSPropertyOp23
 70
     1
102
RTVSPropertyOp24
 70
     1
102
RTVSPropertyOp25
 70
     1
102
RTVSPropertyOp26
 70
     1
102
RTVSPropertyOp27
 70
     1
102
RTVSPropertyOp28
 70
     1
102
RTVSPropertyOp29
 70
     1
102
RTVSPropertyOp30
 70
     1
102
RTVSPropertyOp31
 70
     1
102
RTVSPropertyOp32
 70
     1
  0
XRECORD
  5
5D8
102
{ACAD_REACTORS
330
5D7
102
}
330
5D7
100
AcDbXrecord
280
     1
102
RTVSPropertyOp0
 70
     1
102
RTVSPropertyOp1
 70
     1
102
RTVSPropertyOp2
 70
     1
102
RTVSPropertyOp3
 70
     1
102
RTVSPropertyOp4
 70
     1
102
RTVSPropertyOp5
 70
     1
102
RTVSPropertyOp6
 70
     1
102
RTVSPropertyOp7
 70
     1
102
RTVSPropertyOp8
 70
     1
102
RTVSPropertyOp9
 70
     1
102
RTVSPropertyOp10
 70
     1
102
RTVSPropertyOp11
 70
     1
102
RTVSPropertyOp12
 70
     1
102
RTVSPropertyOp13
 70
     1
102
RTVSPropertyOp14
 70
     1
102
RTVSPropertyOp15
 70
     1
102
RTVSPropertyOp16
 70
     1
102
RTVSPropertyOp17
 70
     1
102
RTVSPropertyOp18
 70
     1
102
RTVSPropertyOp19
 70
     1
102
RTVSPropertyOp20
 70
     1
102
RTVSPropertyOp21
 70
     1
102
RTVSPropertyOp22
 70
     1
102
RTVSPropertyOp23
 70
     1
102
RTVSPropertyOp24
 70
     1
102
RTVSPropertyOp25
 70
     1
102
RTVSPropertyOp26
 70
     1
102
RTVSPropertyOp27
 70
     1
102
RTVSPropertyOp28
 70
     1
102
RTVSPropertyOp29
 70
     1
102
RTVSPropertyOp30
 70
     1
102
RTVSPropertyOp31
 70
     1
102
RTVSPropertyOp32
 70
     1
  0
XRECORD
  5
5D2
102
{ACAD_REACTORS
330
5D1
102
}
330
5D1
100
AcDbXrecord
280
     1
102
RTVSPropertyOp0
 70
     1
102
RTVSPropertyOp1
 70
     1
102
RTVSPropertyOp2
 70
     1
102
RTVSPropertyOp3
 70
     1
102
RTVSPropertyOp4
 70
     1
102
RTVSPropertyOp5
 70
     1
102
RTVSPropertyOp6
 70
     1
102
RTVSPropertyOp7
 70
     1
102
RTVSPropertyOp8
 70
     1
102
RTVSPropertyOp9
 70
     1
102
RTVSPropertyOp10
 70
     1
102
RTVSPropertyOp11
 70
     1
102
RTVSPropertyOp12
 70
     1
102
RTVSPropertyOp13
 70
     1
102
RTVSPropertyOp14
 70
     1
102
RTVSPropertyOp15
 70
     1
102
RTVSPropertyOp16
 70
     1
102
RTVSPropertyOp17
 70
     1
102
RTVSPropertyOp18
 70
     1
102
RTVSPropertyOp19
 70
     1
102
RTVSPropertyOp20
 70
     1
102
RTVSPropertyOp21
 70
     1
102
RTVSPropertyOp22
 70
     1
102
RTVSPropertyOp23
 70
     1
102
RTVSPropertyOp24
 70
     1
102
RTVSPropertyOp25
 70
     1
102
RTVSPropertyOp26
 70
     1
102
RTVSPropertyOp27
 70
     1
102
RTVSPropertyOp28
 70
     1
102
RTVSPropertyOp29
 70
     1
102
RTVSPropertyOp30
 70
     1
102
RTVSPropertyOp31
 70
     1
102
RTVSPropertyOp32
 70
     1
  0
XRECORD
  5
5D4
102
{ACAD_REACTORS
330
5D3
102
}
330
5D3
100
AcDbXrecord
280
     1
102
RTVSPropertyOp0
 70
     1
102
RTVSPropertyOp1
 70
     1
102
RTVSPropertyOp2
 70
     1
102
RTVSPropertyOp3
 70
     1
102
RTVSPropertyOp4
 70
     1
102
RTVSPropertyOp5
 70
     1
102
RTVSPropertyOp6
 70
     1
102
RTVSPropertyOp7
 70
     1
102
RTVSPropertyOp8
 70
     1
102
RTVSPropertyOp9
 70
     1
102
RTVSPropertyOp10
 70
     1
102
RTVSPropertyOp11
 70
     1
102
RTVSPropertyOp12
 70
     1
102
RTVSPropertyOp13
 70
     1
102
RTVSPropertyOp14
 70
     1
102
RTVSPropertyOp15
 70
     1
102
RTVSPropertyOp16
 70
     1
102
RTVSPropertyOp17
 70
     1
102
RTVSPropertyOp18
 70
     1
102
RTVSPropertyOp19
 70
     1
102
RTVSPropertyOp20
 70
     1
102
RTVSPropertyOp21
 70
     1
102
RTVSPropertyOp22
 70
     1
102
RTVSPropertyOp23
 70
     1
102
RTVSPropertyOp24
 70
     1
102
RTVSPropertyOp25
 70
     1
102
RTVSPropertyOp26
 70
     1
102
RTVSPropertyOp27
 70
     1
102
RTVSPropertyOp28
 70
     1
102
RTVSPropertyOp29
 70
     1
102
RTVSPropertyOp30
 70
     1
102
RTVSPropertyOp31
 70
     1
102
RTVSPropertyOp32
 70
     1
  0
XRECORD
  5
5B7
102
{ACAD_REACTORS
330
5B6
102
}
330
5B6
100
AcDbXrecord
280
     1
102
RTVSPropertyOp0
 70
     1
102
RTVSPropertyOp1
 70
     1
102
RTVSPropertyOp2
 70
     1
102
RTVSPropertyOp3
 70
     1
102
RTVSPropertyOp4
 70
     1
102
RTVSPropertyOp5
 70
     1
102
RTVSPropertyOp6
 70
     1
102
RTVSPropertyOp7
 70
     1
102
RTVSPropertyOp8
 70
     1
102
RTVSPropertyOp9
 70
     1
102
RTVSPropertyOp10
 70
     1
102
RTVSPropertyOp11
 70
     1
102
RTVSPropertyOp12
 70
     1
102
RTVSPropertyOp13
 70
     1
102
RTVSPropertyOp14
 70
     1
102
RTVSPropertyOp15
 70
     1
102
RTVSPropertyOp16
 70
     1
102
RTVSPropertyOp17
 70
     1
102
RTVSPropertyOp18
 70
     1
102
RTVSPropertyOp19
 70
     1
102
RTVSPropertyOp20
 70
     1
102
RTVSPropertyOp21
 70
     1
102
RTVSPropertyOp22
 70
     1
102
RTVSPropertyOp23
 70
     1
102
RTVSPropertyOp24
 70
     1
102
RTVSPropertyOp25
 70
     1
102
RTVSPropertyOp26
 70
     1
102
RTVSPropertyOp27
 70
     1
102
RTVSPropertyOp28
 70
     1
102
RTVSPropertyOp29
 70
     1
102
RTVSPropertyOp30
 70
     1
102
RTVSPropertyOp31
 70
     1
102
RTVSPropertyOp32
 70
     1
  0
XRECORD
  5
5CE
102
{ACAD_REACTORS
330
5CD
102
}
330
5CD
100
AcDbXrecord
280
     1
102
RTVSPropertyOp0
 70
     1
102
RTVSPropertyOp1
 70
     1
102
RTVSPropertyOp2
 70
     1
102
RTVSPropertyOp3
 70
     1
102
RTVSPropertyOp4
 70
     1
102
RTVSPropertyOp5
 70
     1
102
RTVSPropertyOp6
 70
     1
102
RTVSPropertyOp7
 70
     1
102
RTVSPropertyOp8
 70
     1
102
RTVSPropertyOp9
 70
     1
102
RTVSPropertyOp10
 70
     1
102
RTVSPropertyOp11
 70
     1
102
RTVSPropertyOp12
 70
     1
102
RTVSPropertyOp13
 70
     1
102
RTVSPropertyOp14
 70
     1
102
RTVSPropertyOp15
 70
     1
102
RTVSPropertyOp16
 70
     1
102
RTVSPropertyOp17
 70
     1
102
RTVSPropertyOp18
 70
     1
102
RTVSPropertyOp19
 70
     1
102
RTVSPropertyOp20
 70
     1
102
RTVSPropertyOp21
 70
     1
102
RTVSPropertyOp22
 70
     1
102
RTVSPropertyOp23
 70
     1
102
RTVSPropertyOp24
 70
     1
102
RTVSPropertyOp25
 70
     1
102
RTVSPropertyOp26
 70
     1
102
RTVSPropertyOp27
 70
     1
102
RTVSPropertyOp28
 70
     1
102
RTVSPropertyOp29
 70
     1
102
RTVSPropertyOp30
 70
     1
102
RTVSPropertyOp31
 70
     1
102
RTVSPropertyOp32
 70
     1
  0
XRECORD
  5
5D6
102
{ACAD_REACTORS
330
5D5
102
}
330
5D5
100
AcDbXrecord
280
     1
102
RTVSPropertyOp0
 70
     1
102
RTVSPropertyOp1
 70
     1
102
RTVSPropertyOp2
 70
     1
102
RTVSPropertyOp3
 70
     1
102
RTVSPropertyOp4
 70
     1
102
RTVSPropertyOp5
 70
     1
102
RTVSPropertyOp6
 70
     1
102
RTVSPropertyOp7
 70
     1
102
RTVSPropertyOp8
 70
     1
102
RTVSPropertyOp9
 70
     1
102
RTVSPropertyOp10
 70
     1
102
RTVSPropertyOp11
 70
     1
102
RTVSPropertyOp12
 70
     1
102
RTVSPropertyOp13
 70
     1
102
RTVSPropertyOp14
 70
     1
102
RTVSPropertyOp15
 70
     1
102
RTVSPropertyOp16
 70
     1
102
RTVSPropertyOp17
 70
     1
102
RTVSPropertyOp18
 70
     1
102
RTVSPropertyOp19
 70
     1
102
RTVSPropertyOp20
 70
     1
102
RTVSPropertyOp21
 70
     1
102
RTVSPropertyOp22
 70
     1
102
RTVSPropertyOp23
 70
     1
102
RTVSPropertyOp24
 70
     1
102
RTVSPropertyOp25
 70
     1
102
RTVSPropertyOp26
 70
     1
102
RTVSPropertyOp27
 70
     1
102
RTVSPropertyOp28
 70
     1
102
RTVSPropertyOp29
 70
     1
102
RTVSPropertyOp30
 70
     1
102
RTVSPropertyOp31
 70
     1
102
RTVSPropertyOp32
 70
     1
  0
ENDSEC
  0
EOF
