  0
SECTION
  2
HEADER
  9
$ACADVER
  1
AC1015
  9
$ACADMAINTVER
 70
    20
  9
$DWGCODEPAGE
  3
ANSI_932
  9
$INSBASE
 10
0.0
 20
0.0
 30
0.0
  9
$EXTMIN
 10
305.4772087596984
 20
269.0381693092498
 30
0.0
  9
$EXTMAX
 10
705.4772087596984
 20
547.4947516484414
 30
0.0
  9
$LIMMIN
 10
0.0
 20
0.0
  9
$LIMMAX
 10
0.0
 20
0.0
  9
$ORTHOMODE
 70
     0
  9
$REGENMODE
 70
     1
  9
$FILLMODE
 70
     1
  9
$QTEXTMODE
 70
     0
  9
$MIRRTEXT
 70
     1
  9
$LTSCALE
 40
1.0
  9
$ATTMODE
 70
     1
  9
$TEXTSIZE
 40
0.0
  9
$TRACEWID
 40
0.05
  9
$TEXTSTYLE
  7
STANDARD
  9
$CLAYER
  8
0
  9
$CELTYPE
  6
CONTINUOUS
  9
$CECOLOR
 62
   256
  9
$CELTSCALE
 40
1.0
  9
$DISPSILH
 70
     0
  9
$DIMSCALE
 40
1.0
  9
$DIMASZ
 40
0.18
  9
$DIMEXO
 40
0.0625
  9
$DIMDLI
 40
0.38
  9
$DIMRND
 40
0.0
  9
$DIMDLE
 40
0.0
  9
$DIMEXE
 40
0.18
  9
$DIMTP
 40
0.0
  9
$DIMTM
 40
0.0
  9
$DIMTXT
 40
0.18
  9
$DIMCEN
 40
0.09
  9
$DIMTSZ
 40
0.0
  9
$DIMTOL
 70
     0
  9
$DIMLIM
 70
     0
  9
$DIMTIH
 70
     1
  9
$DIMTOH
 70
     1
  9
$DIMSE1
 70
     0
  9
$DIMSE2
 70
     0
  9
$DIMTAD
 70
     0
  9
$DIMZIN
 70
     0
  9
$DIMBLK
  1

  9
$DIMASO
 70
     1
  9
$DIMSHO
 70
     1
  9
$DIMPOST
  1

  9
$DIMAPOST
  1

  9
$DIMALT
 70
     0
  9
$DIMALTD
 70
     2
  9
$DIMALTF
 40
25.4
  9
$DIMLFAC
 40
1.0
  9
$DIMTOFL
 70
     0
  9
$DIMTVP
 40
0.0
  9
$DIMTIX
 70
     0
  9
$DIMSOXD
 70
     0
  9
$DIMSAH
 70
     0
  9
$DIMBLK1
  1

  9
$DIMBLK2
  1

  9
$DIMSTYLE
  2
STANDARD
  9
$DIMCLRD
 70
     0
  9
$DIMCLRE
 70
     0
  9
$DIMCLRT
 70
     0
  9
$DIMTFAC
 40
1.0
  9
$DIMGAP
 40
0.09
  9
$DIMJUST
 70
     0
  9
$DIMSD1
 70
     0
  9
$DIMSD2
 70
     0
  9
$DIMTOLJ
 70
     1
  9
$DIMTZIN
 70
     0
  9
$DIMALTZ
 70
     0
  9
$DIMALTTZ
 70
     0
  9
$DIMUPT
 70
     0
  9
$DIMDEC
 70
     4
  9
$DIMTDEC
 70
     4
  9
$DIMALTU
 70
     2
  9
$DIMALTTD
 70
     2
  9
$DIMTXSTY
  7
STANDARD
  9
$DIMAUNIT
 70
     0
  9
$DIMADEC
 70
     0
  9
$DIMALTRND
 40
0.0
  9
$DIMAZIN
 70
     0
  9
$DIMDSEP
 70
    46
  9
$DIMATFIT
 70
     3
  9
$DIMFRAC
 70
     0
  9
$DIMLDRBLK
  1

  9
$DIMLUNIT
 70
     2
  9
$DIMLWD
 70
    -2
  9
$DIMLWE
 70
    -2
  9
$DIMTMOVE
 70
     0
  9
$LUNITS
 70
     2
  9
$LUPREC
 70
     4
  9
$SKETCHINC
 40
0.1
  9
$FILLETRAD
 40
0.0
  9
$AUNITS
 70
     0
  9
$AUPREC
 70
     0
  9
$MENU
  1
acad
  9
$ELEVATION
 40
0.0
  9
$PELEVATION
 40
0.0
  9
$THICKNESS
 40
0.0
  9
$LIMCHECK
 70
     0
  9
$CHAMFERA
 40
0.0
  9
$CHAMFERB
 40
0.0
  9
$CHAMFERC
 40
0.0
  9
$CHAMFERD
 40
0.0
  9
$SKPOLY
 70
     0
  9
$TDCREATE
 40
12367012.42918502
  9
$TDUCREATE
 40
6.0000000000
  9
$TDUPDATE
 40
2457592.481388727
  9
$TDUUPDATE
 40
2457592.106388727
  9
$TDINDWG
 40
0.0013960532
  9
$TDUSRTIMER
 40
0.0013960532
  9
$USRTIMER
 70
     1
  9
$ANGBASE
 50
0.0
  9
$ANGDIR
 70
     0
  9
$PDMODE
 70
     0
  9
$PDSIZE
 40
0.0
  9
$PLINEWID
 40
0.0
  9
$SPLFRAME
 70
     0
  9
$SPLINETYPE
 70
     6
  9
$SPLINESEGS
 70
     8
  9
$HANDSEED
  5
6A7
  9
$SURFTAB1
 70
     6
  9
$SURFTAB2
 70
     6
  9
$SURFTYPE
 70
     6
  9
$SURFU
 70
     6
  9
$SURFV
 70
     6
  9
$UCSBASE
  2

  9
$UCSNAME
  2

  9
$UCSORG
 10
0.0
 20
0.0
 30
0.0
  9
$UCSXDIR
 10
1.0
 20
0.0
 30
0.0
  9
$UCSYDIR
 10
0.0
 20
1.0
 30
0.0
  9
$UCSORTHOREF
  2

  9
$UCSORTHOVIEW
 70
     0
  9
$UCSORGTOP
 10
0.0
 20
0.0
 30
0.0
  9
$UCSORGBOTTOM
 10
0.0
 20
0.0
 30
0.0
  9
$UCSORGLEFT
 10
0.0
 20
0.0
 30
0.0
  9
$UCSORGRIGHT
 10
0.0
 20
0.0
 30
0.0
  9
$UCSORGFRONT
 10
0.0
 20
0.0
 30
0.0
  9
$UCSORGBACK
 10
0.0
 20
0.0
 30
0.0
  9
$PUCSBASE
  2

  9
$PUCSNAME
  2

  9
$PUCSORG
 10
0.0
 20
0.0
 30
0.0
  9
$PUCSXDIR
 10
1.0
 20
0.0
 30
0.0
  9
$PUCSYDIR
 10
0.0
 20
1.0
 30
0.0
  9
$PUCSORTHOREF
  2

  9
$PUCSORTHOVIEW
 70
     0
  9
$PUCSORGTOP
 10
0.0
 20
0.0
 30
0.0
  9
$PUCSORGBOTTOM
 10
0.0
 20
0.0
 30
0.0
  9
$PUCSORGLEFT
 10
0.0
 20
0.0
 30
0.0
  9
$PUCSORGRIGHT
 10
0.0
 20
0.0
 30
0.0
  9
$PUCSORGFRONT
 10
0.0
 20
0.0
 30
0.0
  9
$PUCSORGBACK
 10
0.0
 20
0.0
 30
0.0
  9
$USERI1
 70
     0
  9
$USERI2
 70
     0
  9
$USERI3
 70
     0
  9
$USERI4
 70
     0
  9
$USERI5
 70
     0
  9
$USERR1
 40
12.01
  9
$USERR2
 40
0.0
  9
$USERR3
 40
0.0
  9
$USERR4
 40
0.0
  9
$USERR5
 40
0.0
  9
$WORLDVIEW
 70
     1
  9
$SHADEDGE
 70
     3
  9
$SHADEDIF
 70
    70
  9
$TILEMODE
 70
     1
  9
$MAXACTVP
 70
    16
  9
$PINSBASE
 10
0.0
 20
0.0
 30
0.0
  9
$PLIMCHECK
 70
     0
  9
$PEXTMIN
 10
1.000000000000000E+20
 20
1.000000000000000E+20
 30
1.000000000000000E+20
  9
$PEXTMAX
 10
-1.000000000000000E+20
 20
-1.000000000000000E+20
 30
-1.000000000000000E+20
  9
$PLIMMIN
 10
0.0
 20
0.0
  9
$PLIMMAX
 10
12.0
 20
9.0
  9
$UNITMODE
 70
     0
  9
$VISRETAIN
 70
     0
  9
$PLINEGEN
 70
     1
  9
$PSLTSCALE
 70
     0
  9
$TREEDEPTH
 70
  3020
  9
$CMLSTYLE
  2
STANDARD
  9
$CMLJUST
 70
     0
  9
$CMLSCALE
 40
1.0
  9
$PROXYGRAPHICS
 70
     0
  9
$MEASUREMENT
 70
     1
  9
$CELWEIGHT
370
    -1
  9
$ENDCAPS
280
     0
  9
$JOINSTYLE
280
     0
  9
$LWDISPLAY
290
     0
  9
$INSUNITS
 70
     0
  9
$HYPERLINKBASE
  1

  9
$STYLESHEET
  1

  9
$XEDIT
290
     1
  9
$CEPSNTYPE
380
     0
  9
$PSTYLEMODE
290
     1
  9
$FINGERPRINTGUID
  2
{D1B73054-4027-4733-B918-4B757A87312C}
  9
$VERSIONGUID
  2
{8303CB83-9E65-4B4C-8445-009663046E5E}
  9
$EXTNAMES
290
     1
  9
$PSVPSCALE
 40
0.0
  9
$OLESTARTUP
290
     0
  0
ENDSEC
  0
SECTION
  2
CLASSES
  0
CLASS
  1
IMAGE
  2
AcDbRasterImage
  3
ISM
 90
    34943
280
     0
281
     1
  0
CLASS
  1
DICTIONARYVAR
  2
AcDbDictionaryVar
  3
ObjectDBX Classes
 90
        0
280
     0
281
     0
  0
CLASS
  1
RASTERVARIABLES
  2
AcDbRasterVariables
  3
ISM
 90
    32768
280
     0
281
     0
  0
CLASS
  1
IMAGEDEF
  2
AcDbRasterImageDef
  3
ISM
 90
    32768
280
     0
281
     0
  0
CLASS
  1
IMAGEDEF_REACTOR
  2
AcDbRasterImageDefReactor
  3
ISM
 90
    32769
280
     0
281
     0
  0
CLASS
  1
IDBUFFER
  2
AcDbIdBuffer
  3
ObjectDBX Classes
 90
    32768
280
     0
281
     0
  0
CLASS
  1
SPATIAL_FILTER
  2
AcDbSpatialFilter
  3
ObjectDBX Classes
 90
    32768
280
     0
281
     0
  0
CLASS
  1
SORTENTSTABLE
  2
AcDbSortentsTable
  3
ObjectDBX Classes
 90
        0
280
     0
281
     0
  0
CLASS
  1
LAYER_INDEX
  2
AcDbLayerIndex
  3
ObjectDBX Classes
 90
    32768
280
     0
281
     0
  0
CLASS
  1
SPATIAL_INDEX
  2
AcDbSpatialIndex
  3
ObjectDBX Classes
 90
    32768
280
     0
281
     0
  0
CLASS
  1
OBJECT_PTR
  2
CAseDLPNTableRecord
  3
ASE-LPNTableRecord
 90
    32769
280
     0
281
     0
  0
CLASS
  1
LAYOUT
  2
AcDbLayout
  3
ObjectDBX Classes
 90
        0
280
     0
281
     0
  0
CLASS
  1
PLOTSETTINGS
  2
AcDbPlotSettings
  3
ObjectDBX Classes
 90
    32768
280
     0
281
     0
  0
CLASS
  1
ACDBDICTIONARYWDFLT
  2
AcDbDictionaryWithDefault
  3
ObjectDBX Classes
 90
        0
280
     0
281
     0
  0
CLASS
  1
ACDBPLACEHOLDER
  2
AcDbPlaceHolder
  3
ObjectDBX Classes
 90
        0
280
     0
281
     0
  0
CLASS
  1
MATERIAL
  2
AcDbMaterial
  3
ObjectDBX Classes
 90
     1153
280
     0
281
     0
  0
CLASS
  1
VISUALSTYLE
  2
AcDbVisualStyle
  3
ObjectDBX Classes
 90
     4095
280
     0
281
     0
  0
CLASS
  1
TABLESTYLE
  2
AcDbTableStyle
  3
ObjectDBX Classes
 90
     4095
280
     0
281
     0
  0
CLASS
  1
SCALE
  2
AcDbScale
  3
ObjectDBX Classes
 90
     1153
280
     0
281
     0
  0
CLASS
  1
MLEADERSTYLE
  2
AcDbMLeaderStyle
  3
ACDB_MLEADERSTYLE_CLASS
 90
     4095
280
     0
281
     0
  0
CLASS
  1
CELLSTYLEMAP
  2
AcDbCellStyleMap
  3
ObjectDBX Classes
 90
     1152
280
     0
281
     0
  0
ENDSEC
  0
SECTION
  2
TABLES
  0
TABLE
  2
VPORT
  5
7
330
0
100
AcDbSymbolTable
 70
     1
  0
VPORT
  5
15
330
7
100
AcDbSymbolTableRecord
100
AcDbViewportTableRecord
  2
*ACTIVE
 70
     0
 10
0.0
 20
0.0
 11
1.0
 21
1.0
 12
513.7900328855021
 22
421.1783721033762
 13
0.0
 23
0.0
 14
1.0
 24
1.0
 15
0.0
 25
0.0
 16
0.0
 26
0.0
 36
1.0
 17
0.0
 27
0.0
 37
0.0
 40
350.5579357533456
 41
2.026347305389221
 42
50.0
 43
0.0
 44
0.0
 50
0.0
 51
0.0
 71
     0
 72
   100
 73
     1
 74
     1
 75
     0
 76
     0
 77
     0
 78
     0
281
     0
 65
     1
110
0.0
120
0.0
130
0.0
111
1.0
121
0.0
131
0.0
112
0.0
122
1.0
132
0.0
 79
     0
146
0.0
1001
ACAD_NAV_VCDISPLAY
1070
     3
  0
ENDTAB
  0
TABLE
  2
LTYPE
  5
4
330
0
100
AcDbSymbolTable
 70
     8
  0
LTYPE
  5
11
330
4
100
AcDbSymbolTableRecord
100
AcDbLinetypeTableRecord
  2
BYBLOCK
 70
     0
  3

 72
    65
 73
     0
 40
0.0
  0
LTYPE
  5
12
330
4
100
AcDbSymbolTableRecord
100
AcDbLinetypeTableRecord
  2
BYLAYER
 70
     0
  3

 72
    65
 73
     0
 40
0.0
  0
LTYPE
  5
13
330
4
100
AcDbSymbolTableRecord
100
AcDbLinetypeTableRecord
  2
CONTINUOUS
 70
     0
  3
Solid line
 72
    65
 73
     0
 40
0.0
  0
LTYPE
  5
1D
330
4
100
AcDbSymbolTableRecord
100
AcDbLinetypeTableRecord
  2
DASHED
 70
     0
  3
Dashed
 72
    65
 73
     2
 40
15.0
 49
7.0
 74
     0
 49
-8.0
 74
     0
  0
LTYPE
  5
1E
330
4
100
AcDbSymbolTableRecord
100
AcDbLinetypeTableRecord
  2
DOTTED
 70
     0
  3
Dotted
 72
    65
 73
     2
 40
1.0
 49
0.0
 74
     0
 49
-1.0
 74
     0
  0
LTYPE
  5
1F
330
4
100
AcDbSymbolTableRecord
100
AcDbLinetypeTableRecord
  2
DOT_CENTER
 70
     0
  3
Dot_Center
 72
    65
 73
     4
 40
14.0
 49
12.0
 74
     0
 49
-1.0
 74
     0
 49
0.0
 74
     0
 49
-1.0
 74
     0
  0
LTYPE
  5
20
330
4
100
AcDbSymbolTableRecord
100
AcDbLinetypeTableRecord
  2
LONG_DASHED
 70
     0
  3
Long_Dashed
 72
    65
 73
     2
 40
15.0
 49
10.0
 74
     0
 49
-5.0
 74
     0
  0
LTYPE
  5
21
330
4
100
AcDbSymbolTableRecord
100
AcDbLinetypeTableRecord
  2
DASH_CENTER
 70
     0
  3
Dash_Center
 72
    65
 73
     4
 40
14.0
 49
11.0
 74
     0
 49
-1.0
 74
     0
 49
1.0
 74
     0
 49
-1.0
 74
     0
  0
LTYPE
  5
22
330
4
100
AcDbSymbolTableRecord
100
AcDbLinetypeTableRecord
  2
PHANTOM
 70
     0
  3
Phantom
 72
    65
 73
     6
 40
13.0
 49
10.0
 74
     0
 49
-1.0
 74
     0
 49
0.0
 74
     0
 49
-1.0
 74
     0
 49
0.0
 74
     0
 49
-1.0
 74
     0
  0
LTYPE
  5
23
330
4
100
AcDbSymbolTableRecord
100
AcDbLinetypeTableRecord
  2
CENTER_DASH_DASH
 70
     0
  3
Center_Dash_Dash
 72
    65
 73
     6
 40
14.0
 49
9.0
 74
     0
 49
-1.0
 74
     0
 49
1.0
 74
     0
 49
-1.0
 74
     0
 49
1.0
 74
     0
 49
-1.0
 74
     0
  0
ENDTAB
  0
TABLE
  2
LAYER
  5
2
330
0
100
AcDbSymbolTable
 70
     2
  0
LAYER
  5
14
102
{ACAD_XDICTIONARY
360
5CF
102
}
330
2
100
AcDbSymbolTableRecord
100
AcDbLayerTableRecord
  2
0
 70
     0
 62
     7
  6
CONTINUOUS
370
    -3
390
452
  0
LAYER
  5
24
102
{ACAD_XDICTIONARY
360
5D1
102
}
330
2
100
AcDbSymbolTableRecord
100
AcDbLayerTableRecord
  2
1
 70
     0
 62
     7
  6
CONTINUOUS
370
    -3
390
452
  0
ENDTAB
  0
TABLE
  2
STYLE
  5
3
330
0
100
AcDbSymbolTable
 70
     6
  0
STYLE
  5
17
330
3
100
AcDbSymbolTableRecord
100
AcDbTextStyleTableRecord
  2
STANDARD
 70
     0
 40
0.0
 41
1.0
 50
0.0
 71
     0
 42
0.0
  3
txt
  4

  0
STYLE
  5
26D
330
3
100
AcDbSymbolTableRecord
100
AcDbTextStyleTableRecord
  2
CONVERTER_1
 70
     0
 40
0.0
 41
0.63
 50
0.0
 71
     0
 42
0.0
  3
txt.shx
  4

  0
STYLE
  5
272
330
3
100
AcDbSymbolTableRecord
100
AcDbTextStyleTableRecord
  2
CONVERTER_2
 70
     0
 40
0.0
 41
0.9
 50
0.0
 71
     0
 42
0.0
  3
txt.shx
  4

  0
STYLE
  5
2A9
330
3
100
AcDbSymbolTableRecord
100
AcDbTextStyleTableRecord
  2
CONVERTER_3
 70
     0
 40
0.0
 41
0.45
 50
0.0
 71
     0
 42
0.0
  3
txt.shx
  4

  0
STYLE
  5
2AD
330
3
100
AcDbSymbolTableRecord
100
AcDbTextStyleTableRecord
  2
CONVERTER_4
 70
     0
 40
0.0
 41
0.603
 50
0.0
 71
     0
 42
0.0
  3
txt.shx
  4

  0
STYLE
  5
342
330
3
100
AcDbSymbolTableRecord
100
AcDbTextStyleTableRecord
  2
CONVERTER_5
 70
     0
 40
0.0
 41
0.6650000000000001
 50
0.0
 71
     0
 42
0.0
  3
simplex.shx
  4

  0
ENDTAB
  0
TABLE
  2
VIEW
  5
5
330
0
100
AcDbSymbolTable
 70
     0
  0
ENDTAB
  0
TABLE
  2
UCS
  5
6
330
0
100
AcDbSymbolTable
 70
     0
  0
ENDTAB
  0
TABLE
  2
APPID
  5
8
330
0
100
AcDbSymbolTable
 70
     4
  0
APPID
  5
16
330
8
100
AcDbSymbolTableRecord
100
AcDbRegAppTableRecord
  2
ACAD
 70
     0
  0
APPID
  5
5D5
330
8
100
AcDbSymbolTableRecord
100
AcDbRegAppTableRecord
  2
DCO15
 70
     0
  0
APPID
  5
5DF
330
8
100
AcDbSymbolTableRecord
100
AcDbRegAppTableRecord
  2
ACAD_NAV_VCDISPLAY
 70
     0
  0
APPID
  5
6A2
330
8
100
AcDbSymbolTableRecord
100
AcDbRegAppTableRecord
  2
ACAD_MLEADERVER
 70
     0
  0
ENDTAB
  0
TABLE
  2
DIMSTYLE
  5
9
330
0
100
AcDbSymbolTable
 70
    20
100
AcDbDimStyleTable
 71
     0
  0
DIMSTYLE
105
18
330
9
100
AcDbSymbolTableRecord
100
AcDbDimStyleTableRecord
  2
STANDARD
 70
     0
340
17
  0
DIMSTYLE
105
34B
330
9
100
AcDbSymbolTableRecord
100
AcDbDimStyleTableRecord
  2
ME10_DIM_0
 70
     0
 41
2.45
 42
1.0
 44
1.0
 73
     0
 74
     0
 77
     1
 78
     8
140
3.5
147
0.625
172
     1
173
     1
176
     2
177
     2
178
     3
271
     2
340
342
341
345
343
345
344
345
  0
DIMSTYLE
105
358
330
9
100
AcDbSymbolTableRecord
100
AcDbDimStyleTableRecord
  2
ME10_DIM_1
 70
     0
  3
{\Fgdt;n}<>
 41
2.45
 42
1.0
 44
1.0
 73
     0
 74
     0
 77
     1
 78
     8
140
3.5
147
0.625
172
     1
173
     1
176
     2
177
     2
178
     3
271
     2
340
342
341
345
343
345
344
345
  0
DIMSTYLE
105
365
330
9
100
AcDbSymbolTableRecord
100
AcDbDimStyleTableRecord
  2
ME10_DIM_2
 70
     0
 41
2.45
 42
1.0
 44
1.0
 73
     0
 74
     0
 77
     1
 78
     8
140
3.5
147
0.625
172
     1
173
     1
176
     2
177
     2
178
     3
271
     2
340
342
341
345
343
345
344
345
  0
DIMSTYLE
105
372
330
9
100
AcDbSymbolTableRecord
100
AcDbDimStyleTableRecord
  2
ME10_DIM_3
 70
     0
 41
2.45
 42
1.0
 44
1.0
 73
     0
 74
     0
 77
     1
 78
     8
140
3.5
147
0.625
172
     1
173
     1
176
     2
177
     2
178
     3
271
     2
340
342
341
345
343
345
344
345
  0
DIMSTYLE
105
37F
330
9
100
AcDbSymbolTableRecord
100
AcDbDimStyleTableRecord
  2
ME10_DIM_4
 70
     0
 41
2.45
 42
1.0
 44
1.0
 73
     0
 74
     0
 77
     1
 78
     8
140
3.5
147
0.625
172
     1
173
     1
176
     2
177
     2
178
     3
271
     2
340
342
341
345
343
345
344
345
  0
DIMSTYLE
105
38E
330
9
100
AcDbSymbolTableRecord
100
AcDbDimStyleTableRecord
  2
ME10_DIM_5
 70
     0
 41
2.45
 42
1.0
 44
1.0
 73
     0
 74
     0
 77
     1
 78
     8
140
3.5
147
0.625
172
     1
173
     1
176
     2
177
     2
178
     3
271
     2
340
342
341
345
343
345
344
345
  0
DIMSTYLE
105
39D
330
9
100
AcDbSymbolTableRecord
100
AcDbDimStyleTableRecord
  2
ME10_DIM_6
 70
     0
 41
2.45
 42
1.0
 44
1.0
 73
     0
 74
     0
 77
     1
 78
     8
140
3.5
147
0.625
172
     1
173
     1
176
     2
177
     2
178
     3
271
     2
340
342
341
345
343
345
344
345
  0
DIMSTYLE
105
3AA
330
9
100
AcDbSymbolTableRecord
100
AcDbDimStyleTableRecord
  2
ME10_DIM_7
 70
     0
 41
2.45
 42
1.0
 44
1.0
 73
     0
 74
     0
 77
     1
 78
     8
140
3.5
147
0.625
172
     1
173
     1
176
     2
177
     2
178
     3
271
     2
340
342
341
345
343
345
344
345
  0
DIMSTYLE
105
3B7
330
9
100
AcDbSymbolTableRecord
100
AcDbDimStyleTableRecord
  2
ME10_DIM_8
 70
     0
 41
2.45
 42
1.0
 44
1.0
 73
     0
 74
     0
 77
     1
 78
     8
140
3.5
147
0.625
172
     1
173
     1
176
     2
177
     2
178
     3
271
     2
340
342
341
345
343
345
344
345
  0
DIMSTYLE
105
3C4
330
9
100
AcDbSymbolTableRecord
100
AcDbDimStyleTableRecord
  2
ME10_DIM_9
 70
     0
 41
2.45
 42
1.0
 44
1.0
 73
     0
 74
     0
 77
     1
 78
     8
140
3.5
147
0.625
172
     1
173
     1
176
     2
177
     2
178
     3
271
     2
340
342
341
345
343
345
344
345
  0
DIMSTYLE
105
3D3
330
9
100
AcDbSymbolTableRecord
100
AcDbDimStyleTableRecord
  2
ME10_DIM_10
 70
     0
 41
2.45
 42
1.0
 44
1.0
 73
     0
 74
     0
 77
     1
 78
     8
140
3.5
147
0.625
172
     1
173
     1
176
     2
177
     2
178
     3
271
     2
340
342
341
345
343
345
344
345
  0
DIMSTYLE
105
3E0
330
9
100
AcDbSymbolTableRecord
100
AcDbDimStyleTableRecord
  2
ME10_DIM_11
 70
     0
 41
2.45
 42
1.0
 44
1.0
 73
     0
 74
     0
 77
     1
 78
     8
140
3.5
147
0.625
172
     1
173
     1
176
     2
177
     2
178
     3
271
     2
340
342
341
345
343
345
344
345
  0
DIMSTYLE
105
3EF
330
9
100
AcDbSymbolTableRecord
100
AcDbDimStyleTableRecord
  2
ME10_DIM_12
 70
     0
 41
2.45
 42
1.0
 44
1.0
 73
     0
 74
     0
 77
     1
 78
     8
140
3.5
147
0.625
172
     1
173
     1
176
     2
177
     2
178
     3
271
     2
340
342
341
345
343
345
344
345
  0
DIMSTYLE
105
3FE
330
9
100
AcDbSymbolTableRecord
100
AcDbDimStyleTableRecord
  2
ME10_DIM_13
 70
     0
 41
2.45
 42
1.0
 44
1.0
 73
     0
 74
     0
 77
     1
 78
     8
140
3.5
147
0.625
172
     1
173
     1
176
     2
177
     2
178
     3
271
     2
340
342
341
345
343
345
344
345
  0
DIMSTYLE
105
40B
330
9
100
AcDbSymbolTableRecord
100
AcDbDimStyleTableRecord
  2
ME10_DIM_14
 70
     0
 41
2.45
 42
1.0
 44
1.0
 73
     0
 74
     0
 77
     1
 78
     8
140
3.5
147
0.625
172
     1
173
     1
176
     2
177
     2
178
     3
271
     2
340
342
341
345
343
345
344
345
  0
DIMSTYLE
105
418
330
9
100
AcDbSymbolTableRecord
100
AcDbDimStyleTableRecord
  2
ME10_DIM_15
 70
     0
 41
2.45
 42
1.0
 44
1.0
 73
     0
 74
     0
 77
     1
 78
     8
140
3.5
147
0.625
172
     1
173
     1
176
     2
177
     2
178
     3
271
     2
340
342
341
345
343
345
344
345
  0
DIMSTYLE
105
425
330
9
100
AcDbSymbolTableRecord
100
AcDbDimStyleTableRecord
  2
ME10_DIM_16
 70
     0
 41
2.45
 42
1.0
 44
1.0
 73
     0
 74
     0
 77
     1
 78
     8
140
3.5
147
0.625
172
     1
173
     1
176
     2
177
     2
178
     3
271
     2
340
342
341
345
343
345
344
345
  0
DIMSTYLE
105
432
330
9
100
AcDbSymbolTableRecord
100
AcDbDimStyleTableRecord
  2
ME10_DIM_17
 70
     0
 41
2.45
 42
1.0
 44
1.0
 73
     0
 74
     0
 77
     1
 78
     8
140
3.5
147
0.625
172
     1
173
     1
176
     2
177
     2
178
     3
271
     2
340
342
341
345
343
345
344
345
  0
DIMSTYLE
105
441
330
9
100
AcDbSymbolTableRecord
100
AcDbDimStyleTableRecord
  2
ME10_DIM_18
 70
     0
  3
\U+0081`10.2
 41
2.45
 42
1.0
 44
1.0
 73
     0
 74
     0
 77
     1
 78
     8
140
3.5
147
0.625
172
     1
173
     1
176
     2
177
     2
178
     3
271
     2
340
342
341
345
343
345
344
345
  0
ENDTAB
  0
TABLE
  2
BLOCK_RECORD
  5
1
330
0
100
AcDbSymbolTable
 70
    27
  0
BLOCK_RECORD
  5
A
102
{ACAD_XDICTIONARY
360
4AD
102
}
330
1
100
AcDbSymbolTableRecord
100
AcDbBlockTableRecord
  2
*MODEL_SPACE
340
49E
  0
BLOCK_RECORD
  5
B
330
1
100
AcDbSymbolTableRecord
100
AcDbBlockTableRecord
  2
*PAPER_SPACE
340
49F
  0
BLOCK_RECORD
  5
25
330
1
100
AcDbSymbolTableRecord
100
AcDbBlockTableRecord
  2
_5
340
0
  0
BLOCK_RECORD
  5
27
330
1
100
AcDbSymbolTableRecord
100
AcDbBlockTableRecord
  2
_4
340
0
  0
BLOCK_RECORD
  5
29
330
1
100
AcDbSymbolTableRecord
100
AcDbBlockTableRecord
  2
_1
340
0
  0
BLOCK_RECORD
  5
2B
330
1
100
AcDbSymbolTableRecord
100
AcDbBlockTableRecord
  2
_2
340
0
  0
BLOCK_RECORD
  5
2D
330
1
100
AcDbSymbolTableRecord
100
AcDbBlockTableRecord
  2
______
340
0
102
{BLKREFS
331
31
102
}
  0
BLOCK_RECORD
  5
2F
330
1
100
AcDbSymbolTableRecord
100
AcDbBlockTableRecord
  2
FORMAT_A3
340
0
  0
BLOCK_RECORD
  5
339
330
1
100
AcDbSymbolTableRecord
100
AcDbBlockTableRecord
  2
*D6
340
0
  0
BLOCK_RECORD
  5
345
330
1
100
AcDbSymbolTableRecord
100
AcDbBlockTableRecord
  2
_OPEN30
340
0
  0
BLOCK_RECORD
  5
34D
330
1
100
AcDbSymbolTableRecord
100
AcDbBlockTableRecord
  2
*D8
340
0
  0
BLOCK_RECORD
  5
35A
330
1
100
AcDbSymbolTableRecord
100
AcDbBlockTableRecord
  2
*D9
340
0
  0
BLOCK_RECORD
  5
367
330
1
100
AcDbSymbolTableRecord
100
AcDbBlockTableRecord
  2
*D10
340
0
  0
BLOCK_RECORD
  5
374
330
1
100
AcDbSymbolTableRecord
100
AcDbBlockTableRecord
  2
*D11
340
0
  0
BLOCK_RECORD
  5
381
330
1
100
AcDbSymbolTableRecord
100
AcDbBlockTableRecord
  2
*D12
340
0
  0
BLOCK_RECORD
  5
390
330
1
100
AcDbSymbolTableRecord
100
AcDbBlockTableRecord
  2
*D13
340
0
  0
BLOCK_RECORD
  5
39F
330
1
100
AcDbSymbolTableRecord
100
AcDbBlockTableRecord
  2
*D14
340
0
  0
BLOCK_RECORD
  5
3AC
330
1
100
AcDbSymbolTableRecord
100
AcDbBlockTableRecord
  2
*D15
340
0
  0
BLOCK_RECORD
  5
3B9
330
1
100
AcDbSymbolTableRecord
100
AcDbBlockTableRecord
  2
*D16
340
0
  0
BLOCK_RECORD
  5
3C6
330
1
100
AcDbSymbolTableRecord
100
AcDbBlockTableRecord
  2
*D17
340
0
  0
BLOCK_RECORD
  5
3D5
330
1
100
AcDbSymbolTableRecord
100
AcDbBlockTableRecord
  2
*D18
340
0
  0
BLOCK_RECORD
  5
3E2
330
1
100
AcDbSymbolTableRecord
100
AcDbBlockTableRecord
  2
*D19
340
0
  0
BLOCK_RECORD
  5
3F1
330
1
100
AcDbSymbolTableRecord
100
AcDbBlockTableRecord
  2
*D20
340
0
  0
BLOCK_RECORD
  5
400
330
1
100
AcDbSymbolTableRecord
100
AcDbBlockTableRecord
  2
*D21
340
0
  0
BLOCK_RECORD
  5
40D
330
1
100
AcDbSymbolTableRecord
100
AcDbBlockTableRecord
  2
*D22
340
0
  0
BLOCK_RECORD
  5
41A
330
1
100
AcDbSymbolTableRecord
100
AcDbBlockTableRecord
  2
*D23
340
0
  0
BLOCK_RECORD
  5
427
330
1
100
AcDbSymbolTableRecord
100
AcDbBlockTableRecord
  2
*D24
340
0
  0
BLOCK_RECORD
  5
434
330
1
100
AcDbSymbolTableRecord
100
AcDbBlockTableRecord
  2
*D25
340
0
  0
BLOCK_RECORD
  5
443
330
1
100
AcDbSymbolTableRecord
100
AcDbBlockTableRecord
  2
*D26
340
0
  0
ENDTAB
  0
ENDSEC
  0
SECTION
  2
BLOCKS
  0
BLOCK
  5
D
330
A
100
AcDbEntity
  8
0
100
AcDbBlockBegin
  2
*MODEL_SPACE
 70
     0
 10
0.0
 20
0.0
 30
0.0
  3
*MODEL_SPACE
  1

  0
ENDBLK
  5
E
330
A
100
AcDbEntity
  8
0
100
AcDbBlockEnd
  0
BLOCK
  5
F
330
B
100
AcDbEntity
 67
     1
  8
0
100
AcDbBlockBegin
  2
*PAPER_SPACE
 70
     0
 10
0.0
 20
0.0
 30
0.0
  3
*PAPER_SPACE
  1

  0
ENDBLK
  5
10
330
B
100
AcDbEntity
 67
     1
  8
0
100
AcDbBlockEnd
  0
BLOCK
  5
26
330
25
100
AcDbEntity
  8
0
100
AcDbBlockBegin
  2
_5
 70
     0
 10
406.5890551875461
 20
267.2
 30
0.0
  3
_5
  1

  0
ARC
  5
67
330
25
100
AcDbEntity
  8
1
  6
Continuous
 62
     7
100
AcDbCircle
 10
505.0485746006673
 20
485.4999999999999
 30
0.0
 40
1.0
100
AcDbArc
 50
90.0
 51
180.0
  0
ARC
  5
66
330
25
100
AcDbEntity
  8
1
  6
Continuous
 62
     7
100
AcDbCircle
 10
505.0485746006673
 20
471.2000000000001
 30
0.0
 40
1.0
100
AcDbArc
 50
180.0
 51
-90.0
  0
ARC
  5
65
330
25
100
AcDbEntity
  8
1
  6
Continuous
 62
     7
100
AcDbCircle
 10
519.0485746006673
 20
485.4999999999999
 30
0.0
 40
1.0
100
AcDbArc
 50
0.0
 51
90.0
  0
ARC
  5
64
330
25
100
AcDbEntity
  8
1
  6
Continuous
 62
     7
100
AcDbCircle
 10
519.0485746006674
 20
471.2000000000001
 30
0.0
 40
1.0
100
AcDbArc
 50
-90.00000000000651
 51
0.0
  0
CIRCLE
  5
63
330
25
100
AcDbEntity
  8
1
  6
Continuous
 62
     7
100
AcDbCircle
 10
620.0701399239119
 20
478.35
 30
0.0
 40
8.14999999999992
  0
CIRCLE
  5
62
330
25
100
AcDbEntity
  8
1
  6
Continuous
 62
     7
100
AcDbCircle
 10
407.0701399239119
 20
478.35
 30
0.0
 40
8.15000000000003
  0
LWPOLYLINE
  5
61
330
25
100
AcDbEntity
  8
1
  6
Continuous
 62
     7
100
AcDbPolyline
 90
        2
 70
     1
 43
0.0
 10
590.0701399239119
 20
486.4999999999999
 42
1.0
 10
590.0701399239119
 20
470.2000000000001
 42
1.0
  0
LWPOLYLINE
  5
60
330
25
100
AcDbEntity
  8
1
  6
Continuous
 62
     7
100
AcDbPolyline
 90
        2
 70
     1
 43
0.0
 10
590.0701399239119
 20
482.1
 42
1.0
 10
590.0701399239119
 20
474.6
 42
1.0
  0
LWPOLYLINE
  5
5F
330
25
100
AcDbEntity
  8
1
  6
Continuous
 62
     7
100
AcDbPolyline
 90
        2
 70
     1
 43
0.0
 10
590.0701399239119
 20
484.05
 42
1.0
 10
590.0701399239119
 20
472.6499999999999
 42
1.0
  0
LWPOLYLINE
  5
5E
330
25
100
AcDbEntity
  8
1
  6
Continuous
 62
     7
100
AcDbPolyline
 90
        2
 70
     1
 43
0.0
 10
620.0701399239119
 20
482.1
 42
1.0
 10
620.0701399239119
 20
474.6
 42
1.0
  0
LWPOLYLINE
  5
5D
330
25
100
AcDbEntity
  8
1
  6
Continuous
 62
     7
100
AcDbPolyline
 90
        2
 70
     1
 43
0.0
 10
620.0701399239119
 20
484.05
 42
1.0
 10
620.0701399239119
 20
472.6499999999999
 42
1.0
  0
LWPOLYLINE
  5
5C
330
25
100
AcDbEntity
  8
1
  6
Continuous
 62
     7
100
AcDbPolyline
 90
        2
 70
     1
 43
0.0
 10
377.070139923912
 20
486.4999999999999
 42
1.0
 10
377.070139923912
 20
470.2000000000001
 42
1.0
  0
LWPOLYLINE
  5
5B
330
25
100
AcDbEntity
  8
1
  6
Continuous
 62
     7
100
AcDbPolyline
 90
        2
 70
     1
 43
0.0
 10
377.070139923912
 20
482.1
 42
1.0
 10
377.070139923912
 20
474.6
 42
1.0
  0
LWPOLYLINE
  5
5A
330
25
100
AcDbEntity
  8
1
  6
Continuous
 62
     7
100
AcDbPolyline
 90
        2
 70
     1
 43
0.0
 10
377.070139923912
 20
484.05
 42
1.0
 10
377.070139923912
 20
472.6499999999999
 42
1.0
  0
LWPOLYLINE
  5
59
330
25
100
AcDbEntity
  8
1
  6
Continuous
 62
     7
100
AcDbPolyline
 90
        2
 70
     1
 43
0.0
 10
407.0701399239119
 20
482.1
 42
1.0
 10
407.0701399239119
 20
474.6
 42
1.0
  0
LWPOLYLINE
  5
58
330
25
100
AcDbEntity
  8
1
  6
Continuous
 62
     7
100
AcDbPolyline
 90
        2
 70
     1
 43
0.0
 10
407.0701399239119
 20
484.05
 42
1.0
 10
407.0701399239119
 20
472.6499999999999
 42
1.0
  0
LINE
  5
57
330
25
100
AcDbEntity
  8
1
  6
DOT_CENTER
 62
     2
100
AcDbLine
 10
600.2201399239119
 20
478.35
 30
0.0
 11
579.920139923912
 21
478.35
 31
0.0
  0
LINE
  5
56
330
25
100
AcDbEntity
  8
1
  6
DOT_CENTER
 62
     2
100
AcDbLine
 10
590.0701399239119
 20
488.4999999999999
 30
0.0
 11
590.0701399239119
 21
468.2000000000001
 31
0.0
  0
LINE
  5
55
330
25
100
AcDbEntity
  8
1
  6
DOT_CENTER
 62
     2
100
AcDbLine
 10
630.2201399239119
 20
478.35
 30
0.0
 11
609.9201399239119
 21
478.35
 31
0.0
  0
LINE
  5
54
330
25
100
AcDbEntity
  8
1
  6
DOT_CENTER
 62
     2
100
AcDbLine
 10
620.0701399239119
 20
488.4999999999999
 30
0.0
 11
620.0701399239119
 21
468.2000000000001
 31
0.0
  0
LINE
  5
53
330
25
100
AcDbEntity
  8
1
  6
Continuous
 62
     7
100
AcDbLine
 10
508.1485746006674
 20
483.85
 30
0.0
 11
509.0485746006673
 21
483.85
 31
0.0
  0
LINE
  5
52
330
25
100
AcDbEntity
  8
1
  6
Continuous
 62
     7
100
AcDbLine
 10
509.0485746006673
 20
483.85
 30
0.0
 11
509.0485746006673
 21
472.85
 31
0.0
  0
LINE
  5
51
330
25
100
AcDbEntity
  8
1
  6
Continuous
 62
     7
100
AcDbLine
 10
508.1485746006674
 20
472.85
 30
0.0
 11
509.0485746006673
 21
472.85
 31
0.0
  0
LINE
  5
50
330
25
100
AcDbEntity
  8
1
  6
Continuous
 62
     7
100
AcDbLine
 10
508.1485746006674
 20
472.85
 30
0.0
 11
508.1485746006674
 21
483.85
 31
0.0
  0
LINE
  5
4F
330
25
100
AcDbEntity
  8
1
  6
Continuous
 62
     7
100
AcDbLine
 10
506.5485746006673
 20
486.4999999999999
 30
0.0
 11
505.0485746006673
 21
486.4999999999999
 31
0.0
  0
LINE
  5
4E
330
25
100
AcDbEntity
  8
1
  6
Continuous
 62
     7
100
AcDbLine
 10
506.5485746006673
 20
470.2000000000001
 30
0.0
 11
506.5485746006673
 21
486.4999999999999
 31
0.0
  0
LINE
  5
4D
330
25
100
AcDbEntity
  8
1
  6
Continuous
 62
     7
100
AcDbLine
 10
505.0485746006673
 20
470.2000000000001
 30
0.0
 11
506.5485746006673
 21
470.2000000000001
 31
0.0
  0
LINE
  5
4C
330
25
100
AcDbEntity
  8
1
  6
Continuous
 62
     7
100
AcDbLine
 10
504.0485746006673
 20
485.4999999999999
 30
0.0
 11
504.0485746006673
 21
471.2000000000001
 31
0.0
  0
LINE
  5
4B
330
25
100
AcDbEntity
  8
1
  6
Continuous
 62
     7
100
AcDbLine
 10
508.1485746006674
 20
485.5762395692966
 30
0.0
 11
506.5485746006673
 21
486.4999999999999
 31
0.0
  0
LINE
  5
4A
330
25
100
AcDbEntity
  8
1
  6
Continuous
 62
     7
100
AcDbLine
 10
506.5485746006673
 20
470.2000000000001
 30
0.0
 11
508.1485746006674
 21
471.1237604307033
 31
0.0
  0
LINE
  5
49
330
25
100
AcDbEntity
  8
1
  6
Continuous
 62
     7
100
AcDbLine
 10
508.1485746006674
 20
471.1237604307033
 30
0.0
 11
508.1485746006674
 21
485.5762395692966
 31
0.0
  0
LINE
  5
48
330
25
100
AcDbEntity
  8
1
  6
DOT_CENTER
 62
     2
100
AcDbLine
 10
522.0485746006672
 20
478.35
 30
0.0
 11
502.0485746006673
 21
478.35
 31
0.0
  0
LINE
  5
47
330
25
100
AcDbEntity
  8
1
  6
DOT_CENTER
 62
     2
100
AcDbLine
 10
387.220139923912
 20
478.35
 30
0.0
 11
366.920139923912
 21
478.35
 31
0.0
  0
LINE
  5
46
330
25
100
AcDbEntity
  8
1
  6
DOT_CENTER
 62
     2
100
AcDbLine
 10
377.070139923912
 20
488.4999999999999
 30
0.0
 11
377.070139923912
 21
468.2000000000001
 31
0.0
  0
LINE
  5
45
330
25
100
AcDbEntity
  8
1
  6
Continuous
 62
     7
100
AcDbLine
 10
515.0485746006673
 20
483.85
 30
0.0
 11
515.9485746006672
 21
483.85
 31
0.0
  0
LINE
  5
44
330
25
100
AcDbEntity
  8
1
  6
Continuous
 62
     7
100
AcDbLine
 10
515.0485746006673
 20
472.85
 30
0.0
 11
515.0485746006673
 21
483.85
 31
0.0
  0
LINE
  5
43
330
25
100
AcDbEntity
  8
1
  6
Continuous
 62
     7
100
AcDbLine
 10
515.0485746006673
 20
472.85
 30
0.0
 11
515.9485746006672
 21
472.85
 31
0.0
  0
LINE
  5
42
330
25
100
AcDbEntity
  8
1
  6
Continuous
 62
     7
100
AcDbLine
 10
515.9485746006672
 20
483.85
 30
0.0
 11
515.9485746006672
 21
472.85
 31
0.0
  0
LINE
  5
41
330
25
100
AcDbEntity
  8
1
  6
Continuous
 62
     7
100
AcDbLine
 10
519.0485746006673
 20
486.4999999999999
 30
0.0
 11
517.5485746006672
 21
486.4999999999999
 31
0.0
  0
LINE
  5
40
330
25
100
AcDbEntity
  8
1
  6
Continuous
 62
     7
100
AcDbLine
 10
517.5485746006672
 20
486.4999999999999
 30
0.0
 11
517.5485746006672
 21
470.2000000000001
 31
0.0
  0
LINE
  5
3F
330
25
100
AcDbEntity
  8
1
  6
Continuous
 62
     7
100
AcDbLine
 10
517.5485746006672
 20
470.2000000000001
 30
0.0
 11
519.0485746006673
 21
470.2000000000001
 31
0.0
  0
LINE
  5
3E
330
25
100
AcDbEntity
  8
1
  6
Continuous
 62
     7
100
AcDbLine
 10
520.0485746006672
 20
471.2000000000001
 30
0.0
 11
520.0485746006672
 21
485.4999999999999
 31
0.0
  0
LINE
  5
3D
330
25
100
AcDbEntity
  8
1
  6
Continuous
 62
     7
100
AcDbLine
 10
517.5485746006672
 20
486.4999999999999
 30
0.0
 11
515.9485746006672
 21
485.5762395692966
 31
0.0
  0
LINE
  5
3C
330
25
100
AcDbEntity
  8
1
  6
Continuous
 62
     7
100
AcDbLine
 10
515.9485746006672
 20
471.1237604307033
 30
0.0
 11
517.5485746006672
 21
470.2000000000001
 31
0.0
  0
LINE
  5
3B
330
25
100
AcDbEntity
  8
1
  6
Continuous
 62
     7
100
AcDbLine
 10
515.9485746006672
 20
485.5762395692966
 30
0.0
 11
515.9485746006672
 21
471.1237604307033
 31
0.0
  0
LINE
  5
3A
330
25
100
AcDbEntity
  8
1
  6
DOT_CENTER
 62
     2
100
AcDbLine
 10
417.2201399239119
 20
478.35
 30
0.0
 11
396.9201399239119
 21
478.35
 31
0.0
  0
LINE
  5
39
330
25
100
AcDbEntity
  8
1
  6
DOT_CENTER
 62
     2
100
AcDbLine
 10
407.0701399239119
 20
488.4999999999999
 30
0.0
 11
407.0701399239119
 21
468.2000000000001
 31
0.0
  0
ENDBLK
  5
68
330
25
100
AcDbEntity
  8
0
100
AcDbBlockEnd
  0
BLOCK
  5
28
330
27
100
AcDbEntity
  8
0
100
AcDbBlockBegin
  2
_4
 70
     0
 10
412.6890551875462
 20
270.35
 30
0.0
  3
_4
  1

  0
ARC
  5
8D
330
27
100
AcDbEntity
  8
1
  6
Continuous
 62
     7
100
AcDbCircle
 10
613.5701399239119
 20
471.85
 30
0.0
 40
0.5
100
AcDbArc
 50
180.0
 51
-90.0
  0
ARC
  5
8C
330
27
100
AcDbEntity
  8
1
  6
Continuous
 62
     7
100
AcDbCircle
 10
612.5701399239119
 20
472.1499999999999
 30
0.0
 40
0.5
100
AcDbArc
 50
0.0
 51
90.0
  0
ARC
  5
8B
330
27
100
AcDbEntity
  8
1
  6
Continuous
 62
     7
100
AcDbCircle
 10
597.5701399239119
 20
472.1499999999999
 30
0.0
 40
0.5
100
AcDbArc
 50
90.0
 51
180.0
  0
ARC
  5
8A
330
27
100
AcDbEntity
  8
1
  6
Continuous
 62
     7
100
AcDbCircle
 10
596.5701399239119
 20
471.85
 30
0.0
 40
0.5
100
AcDbArc
 50
-90.0
 51
0.0
  0
ARC
  5
89
330
27
100
AcDbEntity
  8
1
  6
Continuous
 62
     7
100
AcDbCircle
 10
400.570139923912
 20
471.85
 30
0.0
 40
0.5
100
AcDbArc
 50
180.0
 51
-90.0
  0
ARC
  5
88
330
27
100
AcDbEntity
  8
1
  6
Continuous
 62
     7
100
AcDbCircle
 10
399.570139923912
 20
472.1499999999999
 30
0.0
 40
0.5
100
AcDbArc
 50
0.0
 51
90.0
  0
ARC
  5
87
330
27
100
AcDbEntity
  8
1
  6
Continuous
 62
     7
100
AcDbCircle
 10
384.570139923912
 20
472.1499999999999
 30
0.0
 40
0.5
100
AcDbArc
 50
90.0
 51
180.0
  0
ARC
  5
86
330
27
100
AcDbEntity
  8
1
  6
Continuous
 62
     7
100
AcDbCircle
 10
383.570139923912
 20
471.85
 30
0.0
 40
0.5
100
AcDbArc
 50
-90.0
 51
0.0
  0
ARC
  5
85
330
27
100
AcDbEntity
  8
1
  6
Continuous
 62
     7
100
AcDbCircle
 10
509.5485746006672
 20
471.85
 30
0.0
 40
0.5
100
AcDbArc
 50
180.0
 51
-90.0
  0
ARC
  5
84
330
27
100
AcDbEntity
  8
1
  6
Continuous
 62
     7
100
AcDbCircle
 10
514.5485746006673
 20
471.85
 30
0.0
 40
0.5
100
AcDbArc
 50
-90.0
 51
0.0
  0
ARC
  5
83
330
27
100
AcDbEntity
  8
1
  6
Continuous
 62
     7
100
AcDbCircle
 10
392.070139923912
 20
476.35
 30
0.0
 40
6.50000000000007
100
AcDbArc
 50
79.61889609883172
 51
100.3811039011658
  0
ARC
  5
82
330
27
100
AcDbEntity
  8
1
  6
Continuous
 62
     7
100
AcDbCircle
 10
605.0701399239119
 20
476.35
 30
0.0
 40
6.500000000000059
100
AcDbArc
 50
79.61889609883224
 51
100.3811039011668
  0
LWPOLYLINE
  5
81
330
27
100
AcDbEntity
  8
1
  6
Continuous
 62
     7
100
AcDbPolyline
 90
        2
 70
     1
 43
0.0
 10
392.070139923912
 20
483.8250000000001
 42
1.0
 10
392.070139923912
 20
481.4749999999999
 42
1.0
  0
LWPOLYLINE
  5
80
330
27
100
AcDbEntity
  8
1
  6
Continuous
 62
     7
100
AcDbPolyline
 90
        2
 70
     1
 43
0.0
 10
605.0701399239119
 20
483.8250000000001
 42
1.0
 10
605.0701399239119
 20
481.4749999999999
 42
1.0
  0
ARC
  5
7F
330
27
100
AcDbEntity
  8
1
  6
Continuous
 62
     7
100
AcDbCircle
 10
605.0701399239119
 20
480.1499999999999
 30
0.0
 40
5.00000000000003
100
AcDbArc
 50
57.14011962111129
 51
122.8598803788887
  0
ARC
  5
7E
330
27
100
AcDbEntity
  8
1
  6
Continuous
 62
     7
100
AcDbCircle
 10
392.070139923912
 20
480.1499999999999
 30
0.0
 40
5.000000000000089
100
AcDbArc
 50
57.1401196211102
 51
122.8598803788887
  0
LINE
  5
7D
330
27
100
AcDbEntity
  8
1
  6
Continuous
 62
     7
100
AcDbLine
 10
602.3572079306617
 20
484.35
 30
0.0
 11
595.5857994492994
 21
484.35
 31
0.0
  0
LINE
  5
7C
330
27
100
AcDbEntity
  8
1
  6
Continuous
 62
     7
100
AcDbLine
 10
612.5701399239119
 20
472.6499999999999
 30
0.0
 11
597.5701399239119
 21
472.6499999999999
 31
0.0
  0
LINE
  5
7B
330
27
100
AcDbEntity
  8
1
  6
Continuous
 62
     7
100
AcDbLine
 10
596.5701399239119
 20
471.35
 30
0.0
 11
594.2441667566
 21
471.35
 31
0.0
  0
LINE
  5
7A
330
27
100
AcDbEntity
  8
1
  6
Continuous
 62
     7
100
AcDbLine
 10
613.5701399239119
 20
471.35
 30
0.0
 11
615.8961130912238
 21
471.35
 31
0.0
  0
LINE
  5
79
330
27
100
AcDbEntity
  8
1
  6
Continuous
 62
     7
100
AcDbLine
 10
613.0701399239119
 20
471.85
 30
0.0
 11
613.0701399239119
 21
472.1499999999999
 31
0.0
  0
LINE
  5
78
330
27
100
AcDbEntity
  8
1
  6
Continuous
 62
     7
100
AcDbLine
 10
597.0701399239119
 20
472.1499999999999
 30
0.0
 11
597.0701399239119
 21
471.85
 31
0.0
  0
LINE
  5
77
330
27
100
AcDbEntity
  8
1
  6
Continuous
 62
     7
100
AcDbLine
 10
614.5544803985244
 20
484.35
 30
0.0
 11
607.783071917162
 21
484.35
 31
0.0
  0
LINE
  5
76
330
27
100
AcDbEntity
  8
1
  6
Continuous
 62
     7
100
AcDbLine
 10
389.3572079306618
 20
484.35
 30
0.0
 11
382.5857994492996
 21
484.35
 31
0.0
  0
LINE
  5
75
330
27
100
AcDbEntity
  8
1
  6
Continuous
 62
     7
100
AcDbLine
 10
399.570139923912
 20
472.6499999999999
 30
0.0
 11
384.570139923912
 21
472.6499999999999
 31
0.0
  0
LINE
  5
74
330
27
100
AcDbEntity
  8
1
  6
Continuous
 62
     7
100
AcDbLine
 10
383.570139923912
 20
471.35
 30
0.0
 11
381.2441667566
 21
471.35
 31
0.0
  0
LINE
  5
73
330
27
100
AcDbEntity
  8
1
  6
Continuous
 62
     7
100
AcDbLine
 10
400.570139923912
 20
471.35
 30
0.0
 11
402.8961130912239
 21
471.35
 31
0.0
  0
LINE
  5
72
330
27
100
AcDbEntity
  8
1
  6
Continuous
 62
     7
100
AcDbLine
 10
400.070139923912
 20
471.85
 30
0.0
 11
400.070139923912
 21
472.1499999999999
 31
0.0
  0
LINE
  5
71
330
27
100
AcDbEntity
  8
1
  6
Continuous
 62
     7
100
AcDbLine
 10
384.070139923912
 20
472.1499999999999
 30
0.0
 11
384.070139923912
 21
471.85
 31
0.0
  0
LINE
  5
70
330
27
100
AcDbEntity
  8
1
  6
Continuous
 62
     7
100
AcDbLine
 10
509.0485746006672
 20
484.35
 30
0.0
 11
515.0485746006673
 21
484.35
 31
0.0
  0
LINE
  5
6F
330
27
100
AcDbEntity
  8
1
  6
Continuous
 62
     7
100
AcDbLine
 10
509.0485746006672
 20
471.85
 30
0.0
 11
509.0485746006672
 21
484.35
 31
0.0
  0
LINE
  5
6E
330
27
100
AcDbEntity
  8
1
  6
Continuous
 62
     7
100
AcDbLine
 10
514.5485746006673
 20
471.35
 30
0.0
 11
509.5485746006672
 21
471.35
 31
0.0
  0
LINE
  5
6D
330
27
100
AcDbEntity
  8
1
  6
Continuous
 62
     7
100
AcDbLine
 10
515.0485746006673
 20
484.35
 30
0.0
 11
515.0485746006673
 21
471.85
 31
0.0
  0
LINE
  5
6C
330
27
100
AcDbEntity
  8
1
  6
Continuous
 62
     7
100
AcDbLine
 10
515.9485746006672
 20
472.6499999999999
 30
0.0
 11
515.0485746006673
 21
472.6499999999999
 31
0.0
  0
LINE
  5
6B
330
27
100
AcDbEntity
  8
1
  6
Continuous
 62
     7
100
AcDbLine
 10
509.0485746006672
 20
472.6499999999999
 30
0.0
 11
508.1485746006674
 21
472.6499999999999
 31
0.0
  0
LINE
  5
6A
330
27
100
AcDbEntity
  8
1
  6
Continuous
 62
     7
100
AcDbLine
 10
515.9485746006672
 20
484.3500000000012
 30
0.0
 11
508.1485746006674
 21
484.35
 31
0.0
  0
LINE
  5
69
330
27
100
AcDbEntity
  8
1
  6
Continuous
 62
     7
100
AcDbLine
 10
401.5544803985242
 20
484.35
 30
0.0
 11
394.7830719171621
 21
484.35
 31
0.0
  0
ENDBLK
  5
8E
330
27
100
AcDbEntity
  8
0
100
AcDbBlockEnd
  0
BLOCK
  5
2A
330
29
100
AcDbEntity
  8
0
100
AcDbBlockBegin
  2
_1
 70
     0
 10
-24.26044663033302
 20
422.1915986383223
 30
0.0
  3
_1
  1

  0
ARC
  5
10A
330
29
100
AcDbEntity
  8
1
  6
Continuous
 62
   133
100
AcDbCircle
 10
589.4704161977021
 20
446.5006630174109
 30
0.0
 40
1.500000000000109
100
AcDbArc
 50
-22.62230010417725
 51
89.23814439937471
  0
ARC
  5
109
330
29
100
AcDbEntity
  8
1
  6
Continuous
 62
   133
100
AcDbCircle
 10
588.0701399239119
 20
446.6515307716504
 30
0.0
 40
1.5
100
AcDbArc
 50
78.46304096718187
 51
180.0
  0
ARC
  5
108
330
29
100
AcDbEntity
  8
1
  6
Continuous
 62
   133
100
AcDbCircle
 10
593.1701399239119
 20
428.0
 30
0.0
 40
1.5
100
AcDbArc
 50
-90.0
 51
45.2397298960822
  0
ARC
  5
107
330
29
100
AcDbEntity
  8
1
  6
Continuous
 62
   133
100
AcDbCircle
 10
620.6698636501215
 20
446.5006630174109
 30
0.0
 40
1.49999999999995
100
AcDbArc
 50
90.76185560061658
 51
-157.3776998958211
  0
ARC
  5
106
330
29
100
AcDbEntity
  8
1
  6
Continuous
 62
   133
100
AcDbCircle
 10
622.0701399239119
 20
446.6515307716504
 30
0.0
 40
1.5
100
AcDbArc
 50
0.0
 51
101.5369590328139
  0
ARC
  5
105
330
29
100
AcDbEntity
  8
1
  6
Continuous
 62
   133
100
AcDbCircle
 10
616.9701399239118
 20
428.0
 30
0.0
 40
1.500000000000109
100
AcDbArc
 50
134.7602701039209
 51
-90.0
  0
ARC
  5
104
330
29
100
AcDbEntity
  8
1
  6
Continuous
 62
   133
100
AcDbCircle
 10
587.0701399239119
 20
464.0
 30
0.0
 40
0.5
100
AcDbArc
 50
90.0
 51
180.0
  0
ARC
  5
103
330
29
100
AcDbEntity
  8
1
  6
Continuous
 62
   133
100
AcDbCircle
 10
594.670139923912
 20
464.0
 30
0.0
 40
0.5
100
AcDbArc
 50
0.0
 51
90.0
  0
ARC
  5
102
330
29
100
AcDbEntity
  8
1
  6
Continuous
 62
   133
100
AcDbCircle
 10
615.4701399239119
 20
464.0
 30
0.0
 40
0.5
100
AcDbArc
 50
90.0
 51
180.0
  0
ARC
  5
101
330
29
100
AcDbEntity
  8
1
  6
Continuous
 62
   133
100
AcDbCircle
 10
623.0701399239119
 20
464.0
 30
0.0
 40
0.5
100
AcDbArc
 50
0.0
 51
90.0
  0
ARC
  5
100
330
29
100
AcDbEntity
  8
1
  6
Continuous
 62
   133
100
AcDbCircle
 10
588.0701399239119
 20
461.3484692283496
 30
0.0
 40
1.5
100
AcDbArc
 50
180.0
 51
-78.463040967181
  0
ARC
  5
FF
330
29
100
AcDbEntity
  8
1
  6
Continuous
 62
   133
100
AcDbCircle
 10
593.6701399239119
 20
460.2801273872431
 30
0.0
 40
1.500000000000109
100
AcDbArc
 50
-123.1386315413154
 51
0.0
  0
ARC
  5
FE
330
29
100
AcDbEntity
  8
1
  6
Continuous
 62
   133
100
AcDbCircle
 10
616.4701399239119
 20
460.2801273872431
 30
0.0
 40
1.5
100
AcDbArc
 50
180.0
 51
-56.86136845868825
  0
ARC
  5
FD
330
29
100
AcDbEntity
  8
1
  6
Continuous
 62
   133
100
AcDbCircle
 10
622.0701399239119
 20
461.3484692283496
 30
0.0
 40
1.49999999999987
100
AcDbArc
 50
-101.5369590328147
 51
0.0
  0
ARC
  5
FC
330
29
100
AcDbEntity
  8
1
  6
Continuous
 62
     7
100
AcDbCircle
 10
591.0701399239119
 20
431.0
 30
0.0
 40
6.0
100
AcDbArc
 50
180.0
 51
-90.0
  0
ARC
  5
FB
330
29
100
AcDbEntity
  8
1
  6
Continuous
 62
     7
100
AcDbCircle
 10
619.0701399239119
 20
431.0
 30
0.0
 40
6.0
100
AcDbArc
 50
-90.0
 51
0.0
  0
ARC
  5
FA
330
29
100
AcDbEntity
  8
1
  6
Continuous
 62
     7
100
AcDbCircle
 10
586.0701399239119
 20
465.0
 30
0.0
 40
1.0
100
AcDbArc
 50
90.0
 51
180.0
  0
ARC
  5
F9
330
29
100
AcDbEntity
  8
1
  6
Continuous
 62
     7
100
AcDbCircle
 10
624.0701399239119
 20
465.0
 30
0.0
 40
1.0
100
AcDbArc
 50
0.0
 51
90.0
  0
ARC
  5
F8
330
29
100
AcDbEntity
  8
1
  6
Continuous
 62
     7
100
AcDbCircle
 10
378.070139923912
 20
431.0
 30
0.0
 40
5.0
100
AcDbArc
 50
180.0
 51
-90.0
  0
ARC
  5
F7
330
29
100
AcDbEntity
  8
1
  6
Continuous
 62
     7
100
AcDbCircle
 10
406.0701399239119
 20
431.0
 30
0.0
 40
5.0
100
AcDbArc
 50
-90.0
 51
0.0
  0
ARC
  5
F6
330
29
100
AcDbEntity
  8
1
  6
Continuous
 62
     7
100
AcDbCircle
 10
378.070139923912
 20
431.0
 30
0.0
 40
6.0
100
AcDbArc
 50
180.0
 51
-90.0
  0
ARC
  5
F5
330
29
100
AcDbEntity
  8
1
  6
Continuous
 62
     7
100
AcDbCircle
 10
406.0701399239119
 20
431.0
 30
0.0
 40
6.0
100
AcDbArc
 50
-90.0
 51
0.0
  0
ARC
  5
F4
330
29
100
AcDbEntity
  8
1
  6
Continuous
 62
     7
100
AcDbCircle
 10
373.070139923912
 20
465.0
 30
0.0
 40
1.0
100
AcDbArc
 50
90.0
 51
180.0
  0
ARC
  5
F3
330
29
100
AcDbEntity
  8
1
  6
Continuous
 62
     7
100
AcDbCircle
 10
411.0701399239119
 20
465.0
 30
0.0
 40
1.0
100
AcDbArc
 50
0.0
 51
90.0
  0
LWPOLYLINE
  5
F2
330
29
100
AcDbEntity
  8
1
  6
Continuous
 62
     7
100
AcDbPolyline
 90
        2
 70
     1
 43
0.0
 10
607.528639923912
 20
440.0
 42
1.0
 10
602.6116399239119
 20
440.0
 42
1.0
  0
LWPOLYLINE
  5
F1
330
29
100
AcDbEntity
  8
1
  6
Continuous
 62
     2
100
AcDbPolyline
 90
        2
 70
     1
 43
0.0
 10
608.0701399239119
 20
440.0
 42
1.0
 10
602.0701399239119
 20
440.0
 42
1.0
  0
ARC
  5
F0
330
29
100
AcDbEntity
  8
1
  6
Continuous
 62
     7
100
AcDbCircle
 10
605.0701399239119
 20
440.0
 30
0.0
 40
7.000000000000009
100
AcDbArc
 50
128.2132107017383
 51
-128.2132107017383
  0
ARC
  5
EF
330
29
100
AcDbEntity
  8
1
  6
Continuous
 62
     7
100
AcDbCircle
 10
605.0701399239119
 20
440.0
 30
0.0
 40
7.000000000000009
100
AcDbArc
 50
-51.78678929826169
 51
51.78678929826169
  0
ARC
  5
EE
330
29
100
AcDbEntity
  8
1
  6
Continuous
 62
     7
100
AcDbCircle
 10
605.0701399239119
 20
440.0
 30
0.0
 40
11.72499999999999
100
AcDbArc
 50
123.082236633543
 51
56.91776336645652
  0
ARC
  5
ED
330
29
100
AcDbEntity
  8
1
  6
Continuous
 62
     7
100
AcDbCircle
 10
605.0701399239119
 20
440.0
 30
0.0
 40
12.72500000000002
100
AcDbArc
 50
125.5583969858631
 51
54.44160301413649
  0
ARC
  5
EC
330
29
100
AcDbEntity
  8
1
  6
Continuous
 62
   133
100
AcDbCircle
 10
589.5701399239119
 20
454.0
 30
0.0
 40
5.99999999999999
100
AcDbArc
 50
-101.5369590328148
 51
-90.76185560061658
  0
ARC
  5
EB
330
29
100
AcDbEntity
  8
1
  6
Continuous
 62
   133
100
AcDbCircle
 10
605.0701399239119
 20
440.0
 30
0.0
 40
15.39999999999998
100
AcDbArc
 50
157.3776998958211
 51
-134.7602701039192
  0
ARC
  5
EA
330
29
100
AcDbEntity
  8
1
  6
Continuous
 62
   133
100
AcDbCircle
 10
591.0701399239119
 20
431.0
 30
0.0
 40
4.5
100
AcDbArc
 50
180.0
 51
-90.0
  0
ARC
  5
E9
330
29
100
AcDbEntity
  8
1
  6
Continuous
 62
   133
100
AcDbCircle
 10
620.5701399239119
 20
454.0
 30
0.0
 40
6.00000000000003
100
AcDbArc
 50
-89.23814439938235
 51
-78.4630409671841
  0
ARC
  5
E8
330
29
100
AcDbEntity
  8
1
  6
Continuous
 62
   133
100
AcDbCircle
 10
605.0701399239119
 20
440.0
 30
0.0
 40
15.39999999999995
100
AcDbArc
 50
-45.23972989608078
 51
22.62230010417892
  0
ARC
  5
E7
330
29
100
AcDbEntity
  8
1
  6
Continuous
 62
   133
100
AcDbCircle
 10
619.0701399239119
 20
431.0
 30
0.0
 40
4.5
100
AcDbArc
 50
-90.0
 51
0.0
  0
ARC
  5
E6
330
29
100
AcDbEntity
  8
1
  6
Continuous
 62
   133
100
AcDbCircle
 10
605.0701399239119
 20
440.0
 30
0.0
 40
13.89999999999999
100
AcDbArc
 50
127.1796771215054
 51
52.82032287849421
  0
ARC
  5
E5
330
29
100
AcDbEntity
  8
1
  6
Continuous
 62
   133
100
AcDbCircle
 10
589.5701399239119
 20
454.0
 30
0.0
 40
5.999999999999969
100
AcDbArc
 50
56.86136845868435
 51
101.5369590328147
  0
ARC
  5
E4
330
29
100
AcDbEntity
  8
1
  6
Continuous
 62
   133
100
AcDbCircle
 10
620.5701399239119
 20
454.0
 30
0.0
 40
6.00000000000007
100
AcDbArc
 50
78.46304096718419
 51
123.1386315413156
  0
ARC
  5
E3
330
29
100
AcDbEntity
  8
1
  6
Continuous
 62
     7
100
AcDbCircle
 10
605.0701399239119
 20
440.0
 30
0.0
 40
12.89999999999992
100
AcDbArc
 50
125.0046846811423
 51
54.99531531885727
  0
LWPOLYLINE
  5
E2
330
29
100
AcDbEntity
  8
1
  6
Continuous
 62
     7
100
AcDbPolyline
 90
        2
 70
     1
 43
0.0
 10
591.5701399239119
 20
454.0
 42
1.0
 10
587.5701399239119
 20
454.0
 42
1.0
  0
LWPOLYLINE
  5
E1
330
29
100
AcDbEntity
  8
1
  6
Continuous
 62
     7
100
AcDbPolyline
 90
        2
 70
     1
 43
0.0
 10
622.5701399239119
 20
454.0
 42
1.0
 10
618.5701399239119
 20
454.0
 42
1.0
  0
ARC
  5
E0
330
29
100
AcDbEntity
  8
1
  6
Continuous
 62
     7
100
AcDbCircle
 10
392.070139923912
 20
440.0
 30
0.0
 40
10.89999999999995
100
AcDbArc
 50
119.6969774237637
 51
60.30302257623525
  0
ARC
  5
DF
330
29
100
AcDbEntity
  8
1
  6
Continuous
 62
     7
100
AcDbCircle
 10
392.070139923912
 20
440.0
 30
0.0
 40
11.8999999999999
100
AcDbArc
 50
122.5350285076238
 51
57.46497149237522
  0
LWPOLYLINE
  5
DE
330
29
100
AcDbEntity
  8
1
  6
Continuous
 62
     7
100
AcDbPolyline
 90
        2
 70
     1
 43
0.0
 10
380.070139923912
 20
454.0
 42
1.0
 10
373.070139923912
 20
454.0
 42
1.0
  0
LWPOLYLINE
  5
DD
330
29
100
AcDbEntity
  8
1
  6
Continuous
 62
     7
100
AcDbPolyline
 90
        2
 70
     1
 43
0.0
 10
378.570139923912
 20
454.0
 42
1.0
 10
374.570139923912
 20
454.0
 42
1.0
  0
LWPOLYLINE
  5
DC
330
29
100
AcDbEntity
  8
1
  6
Continuous
 62
     7
100
AcDbPolyline
 90
        2
 70
     1
 43
0.0
 10
411.0701399239119
 20
454.0
 42
1.0
 10
404.070139923912
 20
454.0
 42
1.0
  0
LWPOLYLINE
  5
DB
330
29
100
AcDbEntity
  8
1
  6
Continuous
 62
     7
100
AcDbPolyline
 90
        2
 70
     1
 43
0.0
 10
409.570139923912
 20
454.0
 42
1.0
 10
405.5701399239119
 20
454.0
 42
1.0
  0
LINE
  5
DA
330
29
100
AcDbEntity
  8
1
  6
Continuous
 62
     7
100
AcDbLine
 10
609.400266942834
 20
434.5
 30
0.0
 11
600.7400129049896
 21
434.5
 31
0.0
  0
LINE
  5
D9
330
29
100
AcDbEntity
  8
1
  6
Continuous
 62
     7
100
AcDbLine
 10
609.400266942834
 20
445.5
 30
0.0
 11
600.7400129049896
 21
445.5
 31
0.0
  0
LINE
  5
D8
330
29
100
AcDbEntity
  8
1
  6
Continuous
 62
     7
100
AcDbLine
 10
598.670139923912
 20
449.8242366115643
 30
0.0
 11
597.6701399239119
 21
450.3520831237004
 31
0.0
  0
LINE
  5
D7
330
29
100
AcDbEntity
  8
1
  6
Continuous
 62
     7
100
AcDbLine
 10
611.4701399239119
 20
449.8242366115643
 30
0.0
 11
612.4701399239119
 21
450.3520831237004
 31
0.0
  0
LINE
  5
D6
330
29
100
AcDbEntity
  8
1
  6
Continuous
 62
   133
100
AcDbLine
 10
591.0701399239119
 20
426.5
 30
0.0
 11
593.1701399239119
 21
426.5
 31
0.0
  0
LINE
  5
D5
330
29
100
AcDbEntity
  8
1
  6
Continuous
 62
   133
100
AcDbLine
 10
586.5701399239119
 20
446.6515307716504
 30
0.0
 11
586.5701399239119
 21
431.0
 31
0.0
  0
LINE
  5
D4
330
29
100
AcDbEntity
  8
1
  6
Continuous
 62
   133
100
AcDbLine
 10
619.0701399239119
 20
426.5
 30
0.0
 11
616.9701399239118
 21
426.5
 31
0.0
  0
LINE
  5
D3
330
29
100
AcDbEntity
  8
1
  6
Continuous
 62
   133
100
AcDbLine
 10
623.5701399239119
 20
446.6515307716504
 30
0.0
 11
623.5701399239119
 21
431.0
 31
0.0
  0
LINE
  5
D2
330
29
100
AcDbEntity
  8
1
  6
Continuous
 62
   133
100
AcDbLine
 10
596.6701399239119
 20
451.0747460467499
 30
0.0
 11
596.6701399239119
 21
466.0000000000001
 31
0.0
  0
LINE
  5
D1
330
29
100
AcDbEntity
  8
1
  6
Continuous
 62
   133
100
AcDbLine
 10
613.4701399239119
 20
466.0000000000001
 30
0.0
 11
613.4701399239119
 21
451.0747460467499
 31
0.0
  0
LINE
  5
D0
330
29
100
AcDbEntity
  8
1
  6
Continuous
 62
   133
100
AcDbLine
 10
595.1701399239119
 20
460.2801273872431
 30
0.0
 11
595.1701399239119
 21
464.0
 31
0.0
  0
LINE
  5
CF
330
29
100
AcDbEntity
  8
1
  6
Continuous
 62
   133
100
AcDbLine
 10
586.5701399239119
 20
464.0
 30
0.0
 11
586.5701399239119
 21
461.3484692283496
 31
0.0
  0
LINE
  5
CE
330
29
100
AcDbEntity
  8
1
  6
Continuous
 62
   133
100
AcDbLine
 10
594.670139923912
 20
464.5
 30
0.0
 11
587.0701399239119
 21
464.5
 31
0.0
  0
LINE
  5
CD
330
29
100
AcDbEntity
  8
1
  6
Continuous
 62
   133
100
AcDbLine
 10
623.5701399239119
 20
461.3484692283496
 30
0.0
 11
623.5701399239119
 21
464.0
 31
0.0
  0
LINE
  5
CC
330
29
100
AcDbEntity
  8
1
  6
Continuous
 62
   133
100
AcDbLine
 10
614.9701399239119
 20
464.0
 30
0.0
 11
614.9701399239119
 21
460.2801273872431
 31
0.0
  0
LINE
  5
CB
330
29
100
AcDbEntity
  8
1
  6
Continuous
 62
   133
100
AcDbLine
 10
623.0701399239119
 20
464.5
 30
0.0
 11
615.4701399239119
 21
464.5
 31
0.0
  0
LINE
  5
CA
330
29
100
AcDbEntity
  8
1
  6
Continuous
 62
     7
100
AcDbLine
 10
598.670139923912
 20
449.8242366115643
 30
0.0
 11
598.670139923912
 21
466.0000000000001
 31
0.0
  0
LINE
  5
C9
330
29
100
AcDbEntity
  8
1
  6
Continuous
 62
     7
100
AcDbLine
 10
611.4701399239119
 20
466.0000000000001
 30
0.0
 11
611.4701399239119
 21
449.8242366115643
 31
0.0
  0
LINE
  5
C8
330
29
100
AcDbEntity
  8
1
  6
Continuous
 62
     7
100
AcDbLine
 10
599.6701399239119
 20
455.5
 30
0.0
 11
599.6701399239119
 21
466.0000000000001
 31
0.0
  0
LINE
  5
C7
330
29
100
AcDbEntity
  8
1
  6
Continuous
 62
     7
100
AcDbLine
 10
610.4701399239119
 20
455.5
 30
0.0
 11
599.6701399239119
 21
455.5
 31
0.0
  0
LINE
  5
C6
330
29
100
AcDbEntity
  8
1
  6
Continuous
 62
     7
100
AcDbLine
 10
610.4701399239119
 20
466.0000000000001
 30
0.0
 11
610.4701399239119
 21
455.5
 31
0.0
  0
LINE
  5
C5
330
29
100
AcDbEntity
  8
1
  6
Continuous
 62
     7
100
AcDbLine
 10
612.4701399239119
 20
466.0000000000001
 30
0.0
 11
610.4701399239119
 21
466.0000000000001
 31
0.0
  0
LINE
  5
C4
330
29
100
AcDbEntity
  8
1
  6
Continuous
 62
     7
100
AcDbLine
 10
597.6701399239119
 20
450.3520831237004
 30
0.0
 11
597.6701399239119
 21
466.0000000000001
 31
0.0
  0
LINE
  5
C3
330
29
100
AcDbEntity
  8
1
  6
Continuous
 62
     7
100
AcDbLine
 10
612.4701399239119
 20
466.0000000000001
 30
0.0
 11
612.4701399239119
 21
450.3520831237004
 31
0.0
  0
LINE
  5
C2
330
29
100
AcDbEntity
  8
1
  6
DOT_CENTER
 62
     2
100
AcDbLine
 10
618.9701399239119
 20
440.0
 30
0.0
 11
591.1701399239119
 21
440.0
 31
0.0
  0
LINE
  5
C1
330
29
100
AcDbEntity
  8
1
  6
DOT_CENTER
 62
     2
100
AcDbLine
 10
605.0701399239119
 20
488.4999999999999
 30
0.0
 11
605.0701399239119
 21
422.1915986383223
 31
0.0
  0
LINE
  5
C0
330
29
100
AcDbEntity
  8
1
  6
Continuous
 62
     7
100
AcDbLine
 10
586.0701399239119
 20
466.0000000000001
 30
0.0
 11
599.6701399239119
 21
466.0000000000001
 31
0.0
  0
LINE
  5
BF
330
29
100
AcDbEntity
  8
1
  6
Continuous
 62
     7
100
AcDbLine
 10
585.0701399239119
 20
431.0
 30
0.0
 11
585.0701399239119
 21
465.0
 31
0.0
  0
LINE
  5
BE
330
29
100
AcDbEntity
  8
1
  6
Continuous
 62
     7
100
AcDbLine
 10
619.0701399239119
 20
425.0
 30
0.0
 11
591.0701399239119
 21
425.0
 31
0.0
  0
LINE
  5
BD
330
29
100
AcDbEntity
  8
1
  6
Continuous
 62
     7
100
AcDbLine
 10
625.0701399239119
 20
465.0
 30
0.0
 11
625.0701399239119
 21
431.0
 31
0.0
  0
LINE
  5
BC
330
29
100
AcDbEntity
  8
1
  6
Continuous
 62
     7
100
AcDbLine
 10
612.4701399239119
 20
466.0000000000001
 30
0.0
 11
624.0701399239119
 21
466.0000000000001
 31
0.0
  0
LINE
  5
BB
330
29
100
AcDbEntity
  8
1
  6
DOT_CENTER
 62
     2
100
AcDbLine
 10
589.5701399239119
 20
459.5
 30
0.0
 11
589.5701399239119
 21
448.5
 31
0.0
  0
LINE
  5
BA
330
29
100
AcDbEntity
  8
1
  6
DOT_CENTER
 62
     2
100
AcDbLine
 10
595.0701399239119
 20
454.0
 30
0.0
 11
584.0701399239119
 21
454.0
 31
0.0
  0
LINE
  5
B9
330
29
100
AcDbEntity
  8
1
  6
DOT_CENTER
 62
     2
100
AcDbLine
 10
620.5701399239119
 20
459.5
 30
0.0
 11
620.5701399239119
 21
448.5
 31
0.0
  0
LINE
  5
B8
330
29
100
AcDbEntity
  8
1
  6
DOT_CENTER
 62
     2
100
AcDbLine
 10
626.0701399239119
 20
454.0
 30
0.0
 11
615.0701399239119
 21
454.0
 31
0.0
  0
LINE
  5
B7
330
29
100
AcDbEntity
  8
1
  6
DOT_CENTER
 62
     2
100
AcDbLine
 10
512.0485746006673
 20
422.1915986383223
 30
0.0
 11
512.0485746006673
 21
488.4999999999999
 31
0.0
  0
LINE
  5
B6
330
29
100
AcDbEntity
  8
1
  6
DOT_CENTER
 62
     2
100
AcDbLine
 10
519.0485746006674
 20
440.0
 30
0.0
 11
492.0485746006673
 21
440.0
 31
0.0
  0
LINE
  5
B5
330
29
100
AcDbEntity
  8
1
  6
DOT_CENTER
 62
     2
100
AcDbLine
 10
499.0485746006673
 20
454.0
 30
0.0
 11
492.0485746006673
 21
454.0
 31
0.0
  0
LINE
  5
B4
330
29
100
AcDbEntity
  8
1
  6
Continuous
 62
     7
100
AcDbLine
 10
517.0485746006674
 20
450.0324473584465
 30
0.0
 11
516.0485746006673
 21
450.5664563596316
 31
0.0
  0
LINE
  5
B3
330
29
100
AcDbEntity
  8
1
  6
Continuous
 62
     7
100
AcDbLine
 10
516.0485746006673
 20
450.5664563596316
 30
0.0
 11
497.0485746006673
 21
450.5664563596316
 31
0.0
  0
LINE
  5
B2
330
29
100
AcDbEntity
  8
1
  6
Continuous
 62
     7
100
AcDbLine
 10
517.0485746006674
 20
428.28375
 30
0.0
 11
516.0486128797193
 21
427.2750003349417
 31
0.0
  0
LINE
  5
B1
330
29
100
AcDbEntity
  8
1
  6
Continuous
 62
     7
100
AcDbLine
 10
516.0486128797193
 20
427.2750003349417
 30
0.0
 11
516.0485746006673
 21
427.2750000000001
 31
0.0
  0
LINE
  5
B0
330
29
100
AcDbEntity
  8
1
  6
Continuous
 62
     7
100
AcDbLine
 10
516.0485746006673
 20
427.2750000000001
 30
0.0
 11
516.0485746006673
 21
466.0000000000001
 31
0.0
  0
LINE
  5
AF
330
29
100
AcDbEntity
  8
1
  6
Continuous
 62
     7
100
AcDbLine
 10
517.0485746006674
 20
428.28375
 30
0.0
 11
517.0485746006674
 21
466.0000000000001
 31
0.0
  0
LINE
  5
AE
330
29
100
AcDbEntity
  8
1
  6
Continuous
 62
     7
100
AcDbLine
 10
516.0485746006673
 20
427.2750000000001
 30
0.0
 11
497.0485746006673
 21
427.1
 31
0.0
  0
LINE
  5
AD
330
29
100
AcDbEntity
  8
1
  6
Continuous
 62
     7
100
AcDbLine
 10
398.470139923912
 20
465.0
 30
0.0
 11
397.470139923912
 21
466.0000000000001
 31
0.0
  0
LINE
  5
AC
330
29
100
AcDbEntity
  8
1
  6
Continuous
 62
     7
100
AcDbLine
 10
397.470139923912
 20
449.4683683916503
 30
0.0
 11
398.470139923912
 21
450.0324473584465
 31
0.0
  0
LINE
  5
AB
330
29
100
AcDbEntity
  8
1
  6
Continuous
 62
     7
100
AcDbLine
 10
386.6701399239119
 20
449.4683683916503
 30
0.0
 11
385.670139923912
 21
450.0324473584465
 31
0.0
  0
LINE
  5
AA
330
29
100
AcDbEntity
  8
1
  6
Continuous
 62
     7
100
AcDbLine
 10
385.670139923912
 20
465.0
 30
0.0
 11
386.6701399239119
 21
466.0000000000001
 31
0.0
  0
LINE
  5
A9
330
29
100
AcDbEntity
  8
1
  6
Continuous
 62
     7
100
AcDbLine
 10
495.0485746006673
 20
425.0
 30
0.0
 11
495.0485746006673
 21
466.0000000000001
 31
0.0
  0
LINE
  5
A8
330
29
100
AcDbEntity
  8
1
  6
Continuous
 62
     7
100
AcDbLine
 10
495.0485746006673
 20
466.0000000000001
 30
0.0
 11
494.0485746006673
 21
465.0
 31
0.0
  0
LINE
  5
A7
330
29
100
AcDbEntity
  8
1
  6
Continuous
 62
     7
100
AcDbLine
 10
495.0485746006673
 20
425.0
 30
0.0
 11
494.0485746006673
 21
426.0
 31
0.0
  0
LINE
  5
A6
330
29
100
AcDbEntity
  8
1
  6
Continuous
 62
     7
100
AcDbLine
 10
494.0485746006673
 20
465.0
 30
0.0
 11
494.0485746006673
 21
426.0
 31
0.0
  0
LINE
  5
A5
330
29
100
AcDbEntity
  8
1
  6
Continuous
 62
     7
100
AcDbLine
 10
495.0485746006673
 20
425.0
 30
0.0
 11
497.0485746006673
 21
425.0
 31
0.0
  0
LINE
  5
A4
330
29
100
AcDbEntity
  8
1
  6
Continuous
 62
     7
100
AcDbLine
 10
497.0485746006673
 20
425.0
 30
0.0
 11
497.0485746006673
 21
466.0000000000001
 31
0.0
  0
LINE
  5
A3
330
29
100
AcDbEntity
  8
1
  6
Continuous
 62
     7
100
AcDbLine
 10
517.0485746006674
 20
466.0000000000001
 30
0.0
 11
495.0485746006673
 21
466.0000000000001
 31
0.0
  0
LINE
  5
A2
330
29
100
AcDbEntity
  8
1
  6
DOT_CENTER
 62
     2
100
AcDbLine
 10
405.9701399239119
 20
440.0
 30
0.0
 11
378.1701399239119
 21
440.0
 31
0.0
  0
LINE
  5
A1
330
29
100
AcDbEntity
  8
1
  6
DOT_CENTER
 62
     2
100
AcDbLine
 10
392.070139923912
 20
488.4999999999999
 30
0.0
 11
392.070139923912
 21
422.1915986383223
 31
0.0
  0
LINE
  5
A0
330
29
100
AcDbEntity
  8
1
  6
Continuous
 62
     7
100
AcDbLine
 10
386.6701399239119
 20
466.0000000000001
 30
0.0
 11
386.6701399239119
 21
449.4683683916503
 31
0.0
  0
LINE
  5
9F
330
29
100
AcDbEntity
  8
1
  6
Continuous
 62
     7
100
AcDbLine
 10
373.070139923912
 20
466.0000000000001
 30
0.0
 11
386.6701399239119
 21
466.0000000000001
 31
0.0
  0
LINE
  5
9E
330
29
100
AcDbEntity
  8
1
  6
Continuous
 62
     7
100
AcDbLine
 10
372.070139923912
 20
431.0
 30
0.0
 11
372.070139923912
 21
465.0
 31
0.0
  0
LINE
  5
9D
330
29
100
AcDbEntity
  8
1
  6
Continuous
 62
     7
100
AcDbLine
 10
406.0701399239119
 20
425.0
 30
0.0
 11
378.070139923912
 21
425.0
 31
0.0
  0
LINE
  5
9C
330
29
100
AcDbEntity
  8
1
  6
Continuous
 62
     7
100
AcDbLine
 10
412.070139923912
 20
465.0
 30
0.0
 11
412.070139923912
 21
431.0
 31
0.0
  0
LINE
  5
9B
330
29
100
AcDbEntity
  8
1
  6
Continuous
 62
     7
100
AcDbLine
 10
397.470139923912
 20
466.0000000000001
 30
0.0
 11
411.0701399239119
 21
466.0000000000001
 31
0.0
  0
LINE
  5
9A
330
29
100
AcDbEntity
  8
1
  6
Continuous
 62
     7
100
AcDbLine
 10
397.470139923912
 20
449.4683683916503
 30
0.0
 11
397.470139923912
 21
466.0000000000001
 31
0.0
  0
LINE
  5
99
330
29
100
AcDbEntity
  8
1
  6
Continuous
 62
     7
100
AcDbLine
 10
385.670139923912
 20
465.0
 30
0.0
 11
385.670139923912
 21
450.0324473584465
 31
0.0
  0
LINE
  5
98
330
29
100
AcDbEntity
  8
1
  6
Continuous
 62
     7
100
AcDbLine
 10
373.070139923912
 20
465.0
 30
0.0
 11
385.670139923912
 21
465.0
 31
0.0
  0
LINE
  5
97
330
29
100
AcDbEntity
  8
1
  6
Continuous
 62
     7
100
AcDbLine
 10
373.070139923912
 20
431.0
 30
0.0
 11
373.070139923912
 21
465.0
 31
0.0
  0
LINE
  5
96
330
29
100
AcDbEntity
  8
1
  6
Continuous
 62
     7
100
AcDbLine
 10
406.0701399239119
 20
426.0
 30
0.0
 11
378.070139923912
 21
426.0
 31
0.0
  0
LINE
  5
95
330
29
100
AcDbEntity
  8
1
  6
Continuous
 62
     7
100
AcDbLine
 10
411.0701399239119
 20
465.0
 30
0.0
 11
411.0701399239119
 21
431.0
 31
0.0
  0
LINE
  5
94
330
29
100
AcDbEntity
  8
1
  6
Continuous
 62
     7
100
AcDbLine
 10
398.470139923912
 20
465.0
 30
0.0
 11
411.0701399239119
 21
465.0
 31
0.0
  0
LINE
  5
93
330
29
100
AcDbEntity
  8
1
  6
Continuous
 62
     7
100
AcDbLine
 10
398.470139923912
 20
450.0324473584465
 30
0.0
 11
398.470139923912
 21
465.0
 31
0.0
  0
LINE
  5
92
330
29
100
AcDbEntity
  8
1
  6
DOT_CENTER
 62
     2
100
AcDbLine
 10
376.570139923912
 20
459.5
 30
0.0
 11
376.570139923912
 21
448.5
 31
0.0
  0
LINE
  5
91
330
29
100
AcDbEntity
  8
1
  6
DOT_CENTER
 62
     2
100
AcDbLine
 10
382.070139923912
 20
454.0
 30
0.0
 11
371.070139923912
 21
454.0
 31
0.0
  0
LINE
  5
90
330
29
100
AcDbEntity
  8
1
  6
DOT_CENTER
 62
     2
100
AcDbLine
 10
407.570139923912
 20
459.5
 30
0.0
 11
407.570139923912
 21
448.5
 31
0.0
  0
LINE
  5
8F
330
29
100
AcDbEntity
  8
1
  6
DOT_CENTER
 62
     2
100
AcDbLine
 10
413.070139923912
 20
454.0
 30
0.0
 11
402.0701399239119
 21
454.0
 31
0.0
  0
ENDBLK
  5
10B
330
29
100
AcDbEntity
  8
0
100
AcDbBlockEnd
  0
BLOCK
  5
2C
330
2B
100
AcDbEntity
  8
0
100
AcDbBlockBegin
  2
_2
 70
     0
 10
-14.06044663033297
 20
429.2000000000001
 30
0.0
  3
_2
  1

  0
ARC
  5
135
330
2B
100
AcDbEntity
  8
1
  6
Continuous
 62
   133
100
AcDbCircle
 10
391.120139923912
 20
459.85
 30
0.0
 40
0.5
100
AcDbArc
 50
0.0
 51
90.0
  0
ARC
  5
134
330
2B
100
AcDbEntity
  8
1
  6
Continuous
 62
   133
100
AcDbCircle
 10
391.120139923912
 20
461.75
 30
0.0
 40
0.5
100
AcDbArc
 50
-90.0
 51
0.0
  0
ARC
  5
133
330
2B
100
AcDbEntity
  8
1
  6
Continuous
 62
   133
100
AcDbCircle
 10
393.020139923912
 20
461.75
 30
0.0
 40
0.5
100
AcDbArc
 50
180.0
 51
-90.0
  0
ARC
  5
132
330
2B
100
AcDbEntity
  8
1
  6
Continuous
 62
   133
100
AcDbCircle
 10
393.020139923912
 20
459.85
 30
0.0
 40
0.5
100
AcDbArc
 50
90.0
 51
180.0
  0
LWPOLYLINE
  5
131
330
2B
100
AcDbEntity
  8
1
  6
Continuous
 62
     7
100
AcDbPolyline
 90
        2
 70
     1
 43
0.0
 10
397.320139923912
 20
440.0
 42
1.0
 10
386.820139923912
 20
440.0
 42
1.0
  0
LWPOLYLINE
  5
130
330
2B
100
AcDbEntity
  8
1
  6
Continuous
 62
     7
100
AcDbPolyline
 90
        2
 70
     1
 43
0.0
 10
392.070139923912
 20
445.75
 42
1.0
 10
392.070139923912
 20
434.25
 42
1.0
  0
LWPOLYLINE
  5
12F
330
2B
100
AcDbEntity
  8
1
  6
Continuous
 62
     7
100
AcDbPolyline
 90
        2
 70
     1
 43
0.0
 10
399.820139923912
 20
440.0
 42
1.0
 10
384.320139923912
 20
440.0
 42
1.0
  0
LWPOLYLINE
  5
12E
330
2B
100
AcDbEntity
  8
1
  6
Continuous
 62
     7
100
AcDbPolyline
 90
        2
 70
     1
 43
0.0
 10
398.820139923912
 20
440.0
 42
1.0
 10
385.320139923912
 20
440.0
 42
1.0
  0
LWPOLYLINE
  5
12D
330
2B
100
AcDbEntity
  8
1
  6
Continuous
 62
     7
100
AcDbPolyline
 90
        2
 70
     1
 43
0.0
 10
392.070139923912
 20
464.5999999999999
 42
1.0
 10
392.070139923912
 20
457.0000000000002
 42
1.0
  0
ARC
  5
12C
330
2B
100
AcDbEntity
  8
1
  6
Continuous
 62
     7
100
AcDbCircle
 10
392.070139923912
 20
440.0
 30
0.0
 40
10.79999999999997
100
AcDbArc
 50
119.3892799478883
 51
60.6107200521107
  0
LINE
  5
12B
330
2B
100
AcDbEntity
  8
1
  6
Continuous
 62
     7
100
AcDbLine
 10
599.770139923912
 20
455.5
 30
0.0
 11
599.770139923912
 21
466.0000000000001
 31
0.0
  0
LINE
  5
12A
330
2B
100
AcDbEntity
  8
1
  6
Continuous
 62
     7
100
AcDbLine
 10
610.370139923912
 20
466.0000000000001
 30
0.0
 11
610.370139923912
 21
455.5
 31
0.0
  0
LINE
  5
129
330
2B
100
AcDbEntity
  8
1
  6
Continuous
 62
     7
100
AcDbLine
 10
599.770139923912
 20
466.0000000000001
 30
0.0
 11
610.370139923912
 21
466.0000000000001
 31
0.0
  0
LINE
  5
128
330
2B
100
AcDbEntity
  8
1
  6
Continuous
 62
   133
100
AcDbLine
 10
390.070139923912
 20
461.25
 30
0.0
 11
390.070139923912
 21
460.35
 31
0.0
  0
LINE
  5
127
330
2B
100
AcDbEntity
  8
1
  6
Continuous
 62
   133
100
AcDbLine
 10
391.620139923912
 20
461.75
 30
0.0
 11
391.620139923912
 21
462.8000000000001
 31
0.0
  0
LINE
  5
126
330
2B
100
AcDbEntity
  8
1
  6
Continuous
 62
   133
100
AcDbLine
 10
391.620139923912
 20
458.8
 30
0.0
 11
391.620139923912
 21
459.85
 31
0.0
  0
LINE
  5
125
330
2B
100
AcDbEntity
  8
1
  6
Continuous
 62
   133
100
AcDbLine
 10
392.520139923912
 20
459.85
 30
0.0
 11
392.520139923912
 21
458.8
 31
0.0
  0
LINE
  5
124
330
2B
100
AcDbEntity
  8
1
  6
Continuous
 62
   133
100
AcDbLine
 10
392.520139923912
 20
462.8000000000001
 30
0.0
 11
392.520139923912
 21
461.75
 31
0.0
  0
LINE
  5
123
330
2B
100
AcDbEntity
  8
1
  6
Continuous
 62
   133
100
AcDbLine
 10
394.070139923912
 20
461.25
 30
0.0
 11
394.070139923912
 21
460.35
 31
0.0
  0
LINE
  5
122
330
2B
100
AcDbEntity
  8
1
  6
Continuous
 62
   133
100
AcDbLine
 10
391.620139923912
 20
458.8
 30
0.0
 11
392.520139923912
 21
458.8
 31
0.0
  0
LINE
  5
121
330
2B
100
AcDbEntity
  8
1
  6
Continuous
 62
   133
100
AcDbLine
 10
391.120139923912
 20
460.35
 30
0.0
 11
390.070139923912
 21
460.35
 31
0.0
  0
LINE
  5
120
330
2B
100
AcDbEntity
  8
1
  6
Continuous
 62
   133
100
AcDbLine
 10
394.070139923912
 20
460.35
 30
0.0
 11
393.020139923912
 21
460.35
 31
0.0
  0
LINE
  5
11F
330
2B
100
AcDbEntity
  8
1
  6
Continuous
 62
   133
100
AcDbLine
 10
393.020139923912
 20
461.25
 30
0.0
 11
394.070139923912
 21
461.25
 31
0.0
  0
LINE
  5
11E
330
2B
100
AcDbEntity
  8
1
  6
Continuous
 62
   133
100
AcDbLine
 10
390.070139923912
 20
461.25
 30
0.0
 11
391.120139923912
 21
461.25
 31
0.0
  0
LINE
  5
11D
330
2B
100
AcDbEntity
  8
1
  6
Continuous
 62
   133
100
AcDbLine
 10
391.620139923912
 20
462.8000000000001
 30
0.0
 11
392.520139923912
 21
462.8000000000001
 31
0.0
  0
LINE
  5
11C
330
2B
100
AcDbEntity
  8
1
  6
Continuous
 62
   133
100
AcDbLine
 10
391.0368065905785
 20
441.0333333333333
 30
0.0
 11
391.450139923912
 21
443.1
 31
0.0
  0
LINE
  5
11B
330
2B
100
AcDbEntity
  8
1
  6
Continuous
 62
   133
100
AcDbLine
 10
388.970139923912
 20
440.6200000000001
 30
0.0
 11
391.0368065905785
 21
441.0333333333333
 31
0.0
  0
LINE
  5
11A
330
2B
100
AcDbEntity
  8
1
  6
Continuous
 62
   133
100
AcDbLine
 10
388.970139923912
 20
439.38
 30
0.0
 11
388.970139923912
 21
440.6200000000001
 31
0.0
  0
LINE
  5
119
330
2B
100
AcDbEntity
  8
1
  6
Continuous
 62
   133
100
AcDbLine
 10
391.0368065905785
 20
438.9666666666668
 30
0.0
 11
388.970139923912
 21
439.38
 31
0.0
  0
LINE
  5
118
330
2B
100
AcDbEntity
  8
1
  6
Continuous
 62
   133
100
AcDbLine
 10
391.450139923912
 20
436.9
 30
0.0
 11
391.0368065905785
 21
438.9666666666668
 31
0.0
  0
LINE
  5
117
330
2B
100
AcDbEntity
  8
1
  6
Continuous
 62
   133
100
AcDbLine
 10
392.690139923912
 20
436.9
 30
0.0
 11
391.450139923912
 21
436.9
 31
0.0
  0
LINE
  5
116
330
2B
100
AcDbEntity
  8
1
  6
Continuous
 62
   133
100
AcDbLine
 10
393.1034732572454
 20
438.9666666666668
 30
0.0
 11
392.690139923912
 21
436.9
 31
0.0
  0
LINE
  5
115
330
2B
100
AcDbEntity
  8
1
  6
Continuous
 62
   133
100
AcDbLine
 10
395.170139923912
 20
439.38
 30
0.0
 11
393.1034732572454
 21
438.9666666666668
 31
0.0
  0
LINE
  5
114
330
2B
100
AcDbEntity
  8
1
  6
Continuous
 62
   133
100
AcDbLine
 10
395.170139923912
 20
440.6200000000001
 30
0.0
 11
395.170139923912
 21
439.38
 31
0.0
  0
LINE
  5
113
330
2B
100
AcDbEntity
  8
1
  6
Continuous
 62
   133
100
AcDbLine
 10
393.1034732572454
 20
441.0333333333333
 30
0.0
 11
395.170139923912
 21
440.6200000000001
 31
0.0
  0
LINE
  5
112
330
2B
100
AcDbEntity
  8
1
  6
Continuous
 62
   133
100
AcDbLine
 10
392.690139923912
 20
443.1
 30
0.0
 11
393.1034732572454
 21
441.0333333333333
 31
0.0
  0
LINE
  5
111
330
2B
100
AcDbEntity
  8
1
  6
Continuous
 62
   133
100
AcDbLine
 10
391.450139923912
 20
443.1
 30
0.0
 11
392.690139923912
 21
443.1
 31
0.0
  0
LINE
  5
110
330
2B
100
AcDbEntity
  8
1
  6
DOT_CENTER
 62
     2
100
AcDbLine
 10
397.5590288128009
 20
460.8
 30
0.0
 11
386.5812510350231
 21
460.8
 31
0.0
  0
LINE
  5
10F
330
2B
100
AcDbEntity
  8
1
  6
Continuous
 62
     7
100
AcDbLine
 10
397.370139923912
 20
465.3
 30
0.0
 11
386.770139923912
 21
465.3
 31
0.0
  0
LINE
  5
10E
330
2B
100
AcDbEntity
  8
1
  6
Continuous
 62
     7
100
AcDbLine
 10
386.770139923912
 20
449.4101009558879
 30
0.0
 11
386.770139923912
 21
466.0000000000001
 31
0.0
  0
LINE
  5
10D
330
2B
100
AcDbEntity
  8
1
  6
Continuous
 62
     7
100
AcDbLine
 10
397.370139923912
 20
466.0000000000001
 30
0.0
 11
397.370139923912
 21
449.4101009558879
 31
0.0
  0
LINE
  5
10C
330
2B
100
AcDbEntity
  8
1
  6
Continuous
 62
     7
100
AcDbLine
 10
386.770139923912
 20
466.0000000000001
 30
0.0
 11
397.370139923912
 21
466.0000000000001
 31
0.0
  0
ENDBLK
  5
136
330
2B
100
AcDbEntity
  8
0
100
AcDbBlockEnd
  0
BLOCK
  5
2E
330
2D
100
AcDbEntity
  8
0
100
AcDbBlockBegin
  2
______
 70
     0
 10
740.3971724687566
 20
45.5327451201334
 30
0.0
  3
______
  1

  0
MTEXT
  5
2D1
102
{ACAD_XDICTIONARY
360
66A
102
}
330
2D
100
AcDbEntity
  8
1
 62
     3
100
AcDbMText
 10
653.8382236670529
 20
280.288958636575
 30
0.0
 40
5.0
 41
0.0
 71
     4
 72
     1
  1
\U+2018g%%d\U+00CF\U+0090}
  7
CONVERTER_1
 73
     1
 44
1.0
1001
ACAD
1000
MTEXTBEGIN
1070
    73
1070
     1
1070
    44
1040
1.0
1070
    74
1070
     0
1000
MTEXTEND
  0
MTEXT
  5
2D0
102
{ACAD_XDICTIONARY
360
668
102
}
330
2D
100
AcDbEntity
  8
1
 62
     3
100
AcDbMText
 10
617.3795926878009
 20
294.3703657621829
 30
0.0
 40
4.5
 41
0.0
 71
     4
 72
     1
  1
\U+02C6\U+00CF\U+008D\U+00E3
  7
CONVERTER_1
 73
     1
 44
1.0
1001
ACAD
1000
MTEXTBEGIN
1070
    73
1070
     1
1070
    44
1040
1.0
1070
    74
1070
     0
1000
MTEXTEND
  0
MTEXT
  5
2CF
102
{ACAD_XDICTIONARY
360
666
102
}
330
2D
100
AcDbEntity
  8
1
 62
     3
100
AcDbMText
 10
617.3795926878009
 20
287.3703657621829
 30
0.0
 40
4.5
 41
0.0
 71
     4
 72
     1
  1
\U+2019\U+2020\U+201C\U+2021
  7
CONVERTER_1
 73
     1
 44
1.0
1001
ACAD
1000
MTEXTBEGIN
1070
    73
1070
     1
1070
    44
1040
1.0
1070
    74
1070
     0
1000
MTEXTEND
  0
MTEXT
  5
2CE
102
{ACAD_XDICTIONARY
360
664
102
}
330
2D
100
AcDbEntity
  8
1
 62
     3
100
AcDbMText
 10
617.3795926878009
 20
280.370365762183
 30
0.0
 40
4.5
 41
0.0
 71
     4
 72
     1
  1
\U+0160\U+00F8\U+008D^ 
  7
CONVERTER_1
 73
     1
 44
1.0
1001
ACAD
1000
MTEXTBEGIN
1070
    73
1070
     1
1070
    44
1040
1.0
1070
    74
1070
     0
1000
MTEXTEND
  0
MTEXT
  5
2CD
330
2D
100
AcDbEntity
  8
1
 62
     3
100
AcDbMText
 10
628.6765083430859
 20
294.3703657621829
 30
0.0
 40
4.5
 41
0.0
 71
     4
 72
     1
  1
2000.11.6
  7
CONVERTER_1
 73
     1
 44
1.0
1001
ACAD
1000
MTEXTBEGIN
1070
    73
1070
     1
1070
    44
1040
1.0
1070
    74
1070
     0
1000
MTEXTEND
  0
MTEXT
  5
2CC
330
2D
100
AcDbEntity
  8
1
 62
     3
100
AcDbMText
 10
628.6765083430859
 20
287.3703657621829
 30
0.0
 40
4.5
 41
0.0
 71
     4
 72
     1
  1
2000.11.6
  7
CONVERTER_1
 73
     1
 44
1.0
1001
ACAD
1000
MTEXTBEGIN
1070
    73
1070
     1
1070
    44
1040
1.0
1070
    74
1070
     0
1000
MTEXTEND
  0
MTEXT
  5
2CB
330
2D
100
AcDbEntity
  8
1
 62
     3
100
AcDbMText
 10
628.6765083430859
 20
280.370365762183
 30
0.0
 40
4.5
 41
0.0
 71
     4
 72
     1
  1
2000.11.6
  7
CONVERTER_1
 73
     1
 44
1.0
1001
ACAD
1000
MTEXTBEGIN
1070
    73
1070
     1
1070
    44
1040
1.0
1070
    74
1070
     0
1000
MTEXTEND
  0
MTEXT
  5
2CA
102
{ACAD_XDICTIONARY
360
662
102
}
330
2D
100
AcDbEntity
  8
1
 62
     3
100
AcDbMText
 10
617.3795926878009
 20
273.370365762183
 30
0.0
 40
4.5
 41
0.0
 71
     4
 72
     1
  1
\U+0160\U+00F8\U+008D^ 
  7
CONVERTER_1
 73
     1
 44
1.0
1001
ACAD
1000
MTEXTBEGIN
1070
    73
1070
     1
1070
    44
1040
1.0
1070
    74
1070
     0
1000
MTEXTEND
  0
MTEXT
  5
2C9
330
2D
100
AcDbEntity
  8
1
 62
     3
100
AcDbMText
 10
628.6765083430859
 20
273.370365762183
 30
0.0
 40
4.5
 41
0.0
 71
     4
 72
     1
  1
2000.11.6
  7
CONVERTER_1
 73
     1
 44
1.0
1001
ACAD
1000
MTEXTBEGIN
1070
    73
1070
     1
1070
    44
1040
1.0
1070
    74
1070
     0
1000
MTEXTEND
  0
MTEXT
  5
2C8
330
2D
100
AcDbEntity
  8
1
 62
     3
100
AcDbMText
 10
561.1464656403
 20
294.29578804563
 30
0.0
 40
5.0
 41
0.0
 71
     4
 72
     1
  1
AFD-280-B
  7
CONVERTER_1
 73
     1
 44
1.0
1001
ACAD
1000
MTEXTBEGIN
1070
    73
1070
     1
1070
    44
1040
1.0
1070
    74
1070
     0
1000
MTEXTEND
  0
MTEXT
  5
2C7
330
2D
100
AcDbEntity
  8
1
 62
     3
100
AcDbMText
 10
540.8713550128991
 20
294.592859263614
 30
0.0
 40
5.0
 41
0.0
 71
     4
 72
     1
  1
1:1
  7
CONVERTER_1
 73
     1
 44
1.0
1001
ACAD
1000
MTEXTBEGIN
1070
    73
1070
     1
1070
    44
1040
1.0
1070
    74
1070
     0
1000
MTEXTEND
  0
MTEXT
  5
2C6
330
2D
100
AcDbEntity
  8
1
 62
     3
100
AcDbMText
 10
524.6466222054537
 20
329.4042896866095
 30
0.0
 40
3.5
 41
0.0
 71
     5
 72
     1
  1
4
  7
CONVERTER_1
 73
     1
 44
1.0
1001
ACAD
1000
MTEXTBEGIN
1070
    73
1070
     1
1070
    44
1040
1.0
1070
    74
1070
     0
1000
MTEXTEND
  0
MTEXT
  5
2C5
102
{ACAD_XDICTIONARY
360
660
102
}
330
2D
100
AcDbEntity
  8
1
 62
     3
100
AcDbMText
 10
616.1466222054541
 20
343.4042896866089
 30
0.0
 40
3.5
 41
0.0
 71
     4
 72
     1
  1
\U+0192N\U+0192\U+008D\U+0192\U+0081\U+0081[\U+0192g
  7
CONVERTER_1
 73
     1
 44
1.0
1001
ACAD
1000
MTEXTBEGIN
1070
    73
1070
     1
1070
    44
1040
1.0
1070
    74
1070
     0
1000
MTEXTEND
  0
MTEXT
  5
2C4
102
{ACAD_XDICTIONARY
360
65E
102
}
330
2D
100
AcDbEntity
  8
1
 62
     3
100
AcDbMText
 10
665.1466222054541
 20
350.4042896866089
 30
0.0
 40
3.5
 41
0.0
 71
     4
 72
     1
  1
\U+2022\U+00A7\U+008D\U+00E2\U+2039\U+00C1 \U+0192o\U+0192l\U+008D\U+00E2\U+2039\U+00C1\U+2022t M6
  7
CONVERTER_1
 73
     1
 44
1.0
1001
ACAD
1000
MTEXTBEGIN
1070
    73
1070
     1
1070
    44
1040
1.0
1070
    74
1070
     0
1000
MTEXTEND
  0
MTEXT
  5
2C3
102
{ACAD_XDICTIONARY
360
65C
102
}
330
2D
100
AcDbEntity
  8
1
 62
     3
100
AcDbMText
 10
665.1466222054541
 20
343.4042896866091
 30
0.0
 40
3.5
 41
0.0
 71
     4
 72
     1
  1
\U+201A\U+00E0\U+201A\U+00E6\U+008F~\U+201A\U+00F9\U+201A\U+00D1M4\U+0081~12
  7
CONVERTER_1
 73
     1
 44
1.0
1001
ACAD
1000
MTEXTBEGIN
1070
    73
1070
     1
1070
    44
1040
1.0
1070
    74
1070
     0
1000
MTEXTEND
  0
MTEXT
  5
2C2
102
{ACAD_XDICTIONARY
360
65A
102
}
330
2D
100
AcDbEntity
  8
1
 62
     3
100
AcDbMText
 10
616.1466222054541
 20
350.4042896866089
 30
0.0
 40
3.5
 41
0.0
 71
     4
 72
     1
  1
\U+02C6\U+0081\U+2030\U+201D\U+0192\U+0081\U+0192b\U+0192L
  7
CONVERTER_1
 73
     1
 44
1.0
1001
ACAD
1000
MTEXTBEGIN
1070
    73
1070
     1
1070
    44
1040
1.0
1070
    74
1070
     0
1000
MTEXTEND
  0
MTEXT
  5
2C1
330
2D
100
AcDbEntity
  8
1
 62
     3
100
AcDbMText
 10
609.6466222054541
 20
350.4042896866089
 30
0.0
 40
3.5
 41
0.0
 71
     5
 72
     1
  1
1
  7
CONVERTER_1
 73
     1
 44
1.0
1001
ACAD
1000
MTEXTBEGIN
1070
    73
1070
     1
1070
    44
1040
1.0
1070
    74
1070
     0
1000
MTEXTEND
  0
MTEXT
  5
2C0
330
2D
100
AcDbEntity
  8
1
 62
     3
100
AcDbMText
 10
609.6466222054541
 20
343.4042896866091
 30
0.0
 40
3.5
 41
0.0
 71
     5
 72
     1
  1
1
  7
CONVERTER_1
 73
     1
 44
1.0
1001
ACAD
1000
MTEXTBEGIN
1070
    73
1070
     1
1070
    44
1040
1.0
1070
    74
1070
     0
1000
MTEXTEND
  0
MTEXT
  5
2BF
330
2D
100
AcDbEntity
  8
1
 62
     3
100
AcDbMText
 10
580.1466222054541
 20
350.4042896866089
 30
0.0
 40
3.5
 41
0.0
 71
     4
 72
     1
  1
SWCH 10 A
  7
CONVERTER_1
 73
     1
 44
1.0
1001
ACAD
1000
MTEXTBEGIN
1070
    73
1070
     1
1070
    44
1040
1.0
1070
    74
1070
     0
1000
MTEXTEND
  0
MTEXT
  5
2BE
102
{ACAD_XDICTIONARY
360
658
102
}
330
2D
100
AcDbEntity
  8
1
 62
     3
100
AcDbMText
 10
580.1466222054541
 20
343.4042896866091
 30
0.0
 40
3.5
 41
0.0
 71
     4
 72
     1
  1
\U+017Ds\U+201D\U+00E4\U+2022i
  7
CONVERTER_1
 73
     1
 44
1.0
1001
ACAD
1000
MTEXTBEGIN
1070
    73
1070
     1
1070
    44
1040
1.0
1070
    74
1070
     0
1000
MTEXTEND
  0
MTEXT
  5
2BD
102
{ACAD_XDICTIONARY
360
656
102
}
330
2D
100
AcDbEntity
  8
1
 62
     3
100
AcDbMText
 10
529.146622205454
 20
350.4042896866089
 30
0.0
 40
3.5
 41
0.0
 71
     4
 72
     1
  1
\U+008D\U+00E2\U+2039\U+00C1\U+2022t\U+201A\U+00E0\U+201A\U+00E6\U+008F~\U+201A\U+00F9\U+201A\U+00D1
  7
CONVERTER_1
 73
     1
 44
1.0
1001
ACAD
1000
MTEXTBEGIN
1070
    73
1070
     1
1070
    44
1040
1.0
1070
    74
1070
     0
1000
MTEXTEND
  0
MTEXT
  5
2BC
102
{ACAD_XDICTIONARY
360
654
102
}
330
2D
100
AcDbEntity
  8
1
 62
     3
100
AcDbMText
 10
529.146622205454
 20
343.4042896866091
 30
0.0
 40
3.5
 41
0.0
 71
     4
 72
     1
  1
\U+2019\U+00EF\U+201A%%c\U+0192{\U+0192\U+2039\U+0192g\U+0152\U+00E9\U+2019%%c\U+201A\U+00F9\U+201A\U+00D1
  7
CONVERTER_1
 73
     1
 44
1.0
1001
ACAD
1000
MTEXTBEGIN
1070
    73
1070
     1
1070
    44
1040
1.0
1070
    74
1070
     0
1000
MTEXTEND
  0
MTEXT
  5
2BB
330
2D
100
AcDbEntity
  8
1
 62
     3
100
AcDbMText
 10
524.6466222054537
 20
350.404289686609
 30
0.0
 40
3.5
 41
0.0
 71
     5
 72
     1
  1
7
  7
CONVERTER_1
 73
     1
 44
1.0
1001
ACAD
1000
MTEXTBEGIN
1070
    73
1070
     1
1070
    44
1040
1.0
1070
    74
1070
     0
1000
MTEXTEND
  0
MTEXT
  5
2BA
330
2D
100
AcDbEntity
  8
1
 62
     3
100
AcDbMText
 10
609.6466222054541
 20
308.4042896866098
 30
0.0
 40
3.5
 41
0.0
 71
     5
 72
     1
  1
1
  7
CONVERTER_1
 73
     1
 44
1.0
1001
ACAD
1000
MTEXTBEGIN
1070
    73
1070
     1
1070
    44
1040
1.0
1070
    74
1070
     0
1000
MTEXTEND
  0
MTEXT
  5
2B9
330
2D
100
AcDbEntity
  8
1
 62
     3
100
AcDbMText
 10
524.6466222054537
 20
308.4042896866098
 30
0.0
 40
3.5
 41
0.0
 71
     5
 72
     1
  1
1
  7
CONVERTER_1
 73
     1
 44
1.0
1001
ACAD
1000
MTEXTBEGIN
1070
    73
1070
     1
1070
    44
1040
1.0
1070
    74
1070
     0
1000
MTEXTEND
  0
MTEXT
  5
2B8
102
{ACAD_XDICTIONARY
360
652
102
}
330
2D
100
AcDbEntity
  8
1
 62
     3
100
AcDbMText
 10
616.1466222054541
 20
315.4042896866097
 30
0.0
 40
3.5
 41
0.0
 71
     4
 72
     1
  1
\U+0192N\U+0192\U+008D\U+0192\U+0081\U+0081[\U+0192g\U+0152\U+00D0 \U+2022\\U+00B2%%d\U+008D\U+2022\U+0090F\U+201Ch\U+2018\U+2022
  7
CONVERTER_1
 73
     1
 44
1.0
1001
ACAD
1000
MTEXTBEGIN
1070
    73
1070
     1
1070
    44
1040
1.0
1070
    74
1070
     0
1000
MTEXTEND
  0
MTEXT
  5
2B7
102
{ACAD_XDICTIONARY
360
650
102
}
330
2D
100
AcDbEntity
  8
1
 62
     3
100
AcDbMText
 10
580.1466222054541
 20
308.4042896866098
 30
0.0
 40
3.5
 41
0.0
 71
     4
 72
     1
  1
6\U+0192i\U+0192C\U+0192\U+008D\U+0192\U+201C\U+2022\U+00C0\U+008D\U+2021\U+008D\U+00DF
  7
CONVERTER_1
 73
     1
 44
1.0
1001
ACAD
1000
MTEXTBEGIN
1070
    73
1070
     1
1070
    44
1040
1.0
1070
    74
1070
     0
1000
MTEXTEND
  0
MTEXT
  5
2B6
102
{ACAD_XDICTIONARY
360
64E
102
}
330
2D
100
AcDbEntity
  8
1
 62
     3
100
AcDbMText
 10
529.146622205454
 20
308.4042896866098
 30
0.0
 40
3.5
 41
0.0
 71
     4
 72
     1
  1
\U+0152\U+00E9\U+2019%%c\U+0192J\U+0192b\U+0192v
  7
CONVERTER_1
 73
     1
 44
1.0
1001
ACAD
1000
MTEXTBEGIN
1070
    73
1070
     1
1070
    44
1040
1.0
1070
    74
1070
     0
1000
MTEXTEND
  0
MTEXT
  5
2B5
330
2D
100
AcDbEntity
  8
1
 62
     3
100
AcDbMText
 10
524.6466222054537
 20
315.4042896866097
 30
0.0
 40
3.5
 41
0.0
 71
     5
 72
     1
  1
2
  7
CONVERTER_1
 73
     1
 44
1.0
1001
ACAD
1000
MTEXTBEGIN
1070
    73
1070
     1
1070
    44
1040
1.0
1070
    74
1070
     0
1000
MTEXTEND
  0
MTEXT
  5
2B4
330
2D
100
AcDbEntity
  8
1
 62
     3
100
AcDbMText
 10
524.6466222054537
 20
322.4042896866095
 30
0.0
 40
3.5
 41
0.0
 71
     5
 72
     1
  1
3
  7
CONVERTER_1
 73
     1
 44
1.0
1001
ACAD
1000
MTEXTBEGIN
1070
    73
1070
     1
1070
    44
1040
1.0
1070
    74
1070
     0
1000
MTEXTEND
  0
MTEXT
  5
2B3
330
2D
100
AcDbEntity
  8
1
 62
     3
100
AcDbMText
 10
524.6466222054537
 20
336.4042896866092
 30
0.0
 40
3.5
 41
0.0
 71
     5
 72
     1
  1
5
  7
CONVERTER_1
 73
     1
 44
1.0
1001
ACAD
1000
MTEXTBEGIN
1070
    73
1070
     1
1070
    44
1040
1.0
1070
    74
1070
     0
1000
MTEXTEND
  0
MTEXT
  5
2B2
102
{ACAD_XDICTIONARY
360
64C
102
}
330
2D
100
AcDbEntity
  8
1
 62
     3
100
AcDbMText
 10
529.146622205454
 20
315.4042896866097
 30
0.0
 40
3.5
 41
0.0
 71
     4
 72
     1
  1
\U+2019\U+2026\U+2019E\U+0192z\U+0192\U+2039\U+0192_\U+0081[
  7
CONVERTER_1
 73
     1
 44
1.0
1001
ACAD
1000
MTEXTBEGIN
1070
    73
1070
     1
1070
    44
1040
1.0
1070
    74
1070
     0
1000
MTEXTEND
  0
MTEXT
  5
2B1
102
{ACAD_XDICTIONARY
360
64A
102
}
330
2D
100
AcDbEntity
  8
1
 62
     3
100
AcDbMText
 10
529.146622205454
 20
322.4042896866095
 30
0.0
 40
3.5
 41
0.0
 71
     4
 72
     1
  1
\U+2019\U+00EF\U+201A%%c\U+0192{\U+0192\U+2039\U+0192g
  7
CONVERTER_1
 73
     1
 44
1.0
1001
ACAD
1000
MTEXTBEGIN
1070
    73
1070
     1
1070
    44
1040
1.0
1070
    74
1070
     0
1000
MTEXTEND
  0
MTEXT
  5
2B0
102
{ACAD_XDICTIONARY
360
648
102
}
330
2D
100
AcDbEntity
  8
1
 62
     3
100
AcDbMText
 10
529.146622205454
 20
329.4042896866093
 30
0.0
 40
3.5
 41
0.0
 71
     4
 72
     1
  1
\U+0192\U+2030\U+0192\U+201C\U+0192i\U+0081[\U+00B2{\U+2018\U+00E4
  7
CONVERTER_1
 73
     1
 44
1.0
1001
ACAD
1000
MTEXTBEGIN
1070
    73
1070
     1
1070
    44
1040
1.0
1070
    74
1070
     0
1000
MTEXTEND
  0
MTEXT
  5
2AF
102
{ACAD_XDICTIONARY
360
646
102
}
330
2D
100
AcDbEntity
  8
1
 62
     3
100
AcDbMText
 10
529.146622205454
 20
336.4042896866092
 30
0.0
 40
3.5
 41
0.0
 71
     4
 72
     1
  1
\U+0192x\U+0192A\U+0192\U+0160\U+0192\U+201C\U+0192O\U+201C*\U+201A%%c\U+017D\U+00E5%%d\U+00F8
  7
CONVERTER_1
 73
     1
 44
1.0
1001
ACAD
1000
MTEXTBEGIN
1070
    73
1070
     1
1070
    44
1040
1.0
1070
    74
1070
     0
1000
MTEXTEND
  0
MTEXT
  5
2AE
330
2D
100
AcDbEntity
  8
1
 62
     3
100
AcDbMText
 10
580.1466222054541
 20
315.4042896866097
 30
0.0
 40
3.5
 41
0.0
 71
     4
 72
     1
  1
ZDC 2
  7
CONVERTER_4
 73
     1
 44
1.0
1001
ACAD
1000
MTEXTBEGIN
1070
    73
1070
     1
1070
    44
1040
1.0
1070
    74
1070
     0
1000
MTEXTEND
  0
MTEXT
  5
2AC
330
2D
100
AcDbEntity
  8
1
 62
     3
100
AcDbMText
 10
580.1466222054541
 20
322.4042896866095
 30
0.0
 40
3.5
 41
0.0
 71
     4
 72
     1
  1
SWCH 10
  7
CONVERTER_1
 73
     1
 44
1.0
1001
ACAD
1000
MTEXTBEGIN
1070
    73
1070
     1
1070
    44
1040
1.0
1070
    74
1070
     0
1000
MTEXTEND
  0
MTEXT
  5
2AB
102
{ACAD_XDICTIONARY
360
644
102
}
330
2D
100
AcDbEntity
  8
1
 62
     3
100
AcDbMText
 10
580.1466222054541
 20
329.4042896866093
 30
0.0
 40
3.5
 41
0.0
 71
     4
 72
     1
  1
66\U+0192i\U+0192C\U+0192\U+008D\U+0192\U+201C\U+2022\U+00C0\U+008D\U+2021\U+008D\U+00DF
  7
CONVERTER_1
 73
     1
 44
1.0
1001
ACAD
1000
MTEXTBEGIN
1070
    73
1070
     1
1070
    44
1040
1.0
1070
    74
1070
     0
1000
MTEXTEND
  0
MTEXT
  5
2AA
102
{ACAD_XDICTIONARY
360
642
102
}
330
2D
100
AcDbEntity
  8
1
 62
     3
100
AcDbMText
 10
580.1466222054541
 20
336.4042896866092
 30
0.0
 40
3.5
 41
0.0
 71
     4
 72
     1
  1
\U+0192W\U+0192\U+2026\U+0192\U+2030\U+0192R\U+0192\U+201C\U+0081A\U+0192X\U+0192`\U+0081[\U+0192\U+2039\U+0192{\U+0081[\U+0192\U+2039,\U+2018\U+00A5
  7
CONVERTER_3
 73
     1
 44
1.0
1001
ACAD
1000
MTEXTBEGIN
1070
    73
1070
     1
1070
    44
1040
1.0
1070
    74
1070
     0
1000
MTEXTEND
  0
MTEXT
  5
2A8
330
2D
100
AcDbEntity
  8
1
 62
     3
100
AcDbMText
 10
609.6466222054541
 20
315.4042896866097
 30
0.0
 40
3.5
 41
0.0
 71
     5
 72
     1
  1
1
  7
CONVERTER_1
 73
     1
 44
1.0
1001
ACAD
1000
MTEXTBEGIN
1070
    73
1070
     1
1070
    44
1040
1.0
1070
    74
1070
     0
1000
MTEXTEND
  0
MTEXT
  5
2A7
330
2D
100
AcDbEntity
  8
1
 62
     3
100
AcDbMText
 10
609.6466222054541
 20
322.4042896866095
 30
0.0
 40
3.5
 41
0.0
 71
     5
 72
     1
  1
1
  7
CONVERTER_1
 73
     1
 44
1.0
1001
ACAD
1000
MTEXTBEGIN
1070
    73
1070
     1
1070
    44
1040
1.0
1070
    74
1070
     0
1000
MTEXTEND
  0
MTEXT
  5
2A6
330
2D
100
AcDbEntity
  8
1
 62
     3
100
AcDbMText
 10
609.6466222054541
 20
329.4042896866093
 30
0.0
 40
3.5
 41
0.0
 71
     5
 72
     1
  1
1
  7
CONVERTER_1
 73
     1
 44
1.0
1001
ACAD
1000
MTEXTBEGIN
1070
    73
1070
     1
1070
    44
1040
1.0
1070
    74
1070
     0
1000
MTEXTEND
  0
MTEXT
  5
2A5
330
2D
100
AcDbEntity
  8
1
 62
     3
100
AcDbMText
 10
609.6466222054541
 20
336.4042896866092
 30
0.0
 40
3.5
 41
0.0
 71
     5
 72
     1
  1
4
  7
CONVERTER_1
 73
     1
 44
1.0
1001
ACAD
1000
MTEXTBEGIN
1070
    73
1070
     1
1070
    44
1040
1.0
1070
    74
1070
     0
1000
MTEXTEND
  0
MTEXT
  5
2A4
102
{ACAD_XDICTIONARY
360
640
102
}
330
2D
100
AcDbEntity
  8
1
 62
     3
100
AcDbMText
 10
616.1466222054541
 20
308.4042896866098
 30
0.0
 40
3.5
 41
0.0
 71
     4
 72
     1
  1
\U+008D\U+2022\U+0090F
  7
CONVERTER_1
 73
     1
 44
1.0
1001
ACAD
1000
MTEXTBEGIN
1070
    73
1070
     1
1070
    44
1040
1.0
1070
    74
1070
     0
1000
MTEXTEND
  0
MTEXT
  5
2A3
102
{ACAD_XDICTIONARY
360
63E
102
}
330
2D
100
AcDbEntity
  8
1
 62
     3
100
AcDbMText
 10
616.1466222054541
 20
322.4042896866095
 30
0.0
 40
3.5
 41
0.0
 71
     4
 72
     1
  1
\U+0192N\U+0192\U+008D\U+0192\U+0081\U+0081[\U+0192g
  7
CONVERTER_1
 73
     1
 44
1.0
1001
ACAD
1000
MTEXTBEGIN
1070
    73
1070
     1
1070
    44
1040
1.0
1070
    74
1070
     0
1000
MTEXTEND
  0
MTEXT
  5
2A2
102
{ACAD_XDICTIONARY
360
63C
102
}
330
2D
100
AcDbEntity
  8
1
 62
     3
100
AcDbMText
 10
616.1466222054541
 20
329.4042896866093
 30
0.0
 40
3.5
 41
0.0
 71
     4
 72
     1
  1
\U+0192`\U+0192\U+2021\U+0192R\U+0090F
  7
CONVERTER_1
 73
     1
 44
1.0
1001
ACAD
1000
MTEXTBEGIN
1070
    73
1070
     1
1070
    44
1040
1.0
1070
    74
1070
     0
1000
MTEXTEND
  0
MTEXT
  5
2A1
102
{ACAD_XDICTIONARY
360
63A
102
}
330
2D
100
AcDbEntity
  8
1
 62
     3
100
AcDbMText
 10
616.1466222054541
 20
336.4042896866092
 30
0.0
 40
3.5
 41
0.0
 71
     4
 72
     1
  1
\U+201D\U+2019\U+0081A\U+2018\U+00A5
  7
CONVERTER_1
 73
     1
 44
1.0
1001
ACAD
1000
MTEXTBEGIN
1070
    73
1070
     1
1070
    44
1040
1.0
1070
    74
1070
     0
1000
MTEXTEND
  0
MTEXT
  5
2A0
330
2D
100
AcDbEntity
  8
1
 62
     3
100
AcDbMText
 10
524.6466222054537
 20
343.4042896866091
 30
0.0
 40
3.5
 41
0.0
 71
     5
 72
     1
  1
6
  7
CONVERTER_1
 73
     1
 44
1.0
1001
ACAD
1000
MTEXTBEGIN
1070
    73
1070
     1
1070
    44
1040
1.0
1070
    74
1070
     0
1000
MTEXTEND
  0
MTEXT
  5
29F
330
2D
100
AcDbEntity
  8
1
 62
     3
100
AcDbMText
 10
665.1466222054541
 20
357.4042896866087
 30
0.0
 40
3.5
 41
0.0
 71
     4
 72
     1
  1
M6
  7
CONVERTER_1
 73
     1
 44
1.0
1001
ACAD
1000
MTEXTBEGIN
1070
    73
1070
     1
1070
    44
1040
1.0
1070
    74
1070
     0
1000
MTEXTEND
  0
MTEXT
  5
29E
102
{ACAD_XDICTIONARY
360
638
102
}
330
2D
100
AcDbEntity
  8
1
 62
     3
100
AcDbMText
 10
665.1466222054541
 20
364.4042896866085
 30
0.0
 40
3.5
 41
0.0
 71
     4
 72
     1
  1
\U+0160\U+00DC\U+017DM\U+00B2\U+00C4\U+201A\U+00F9\U+201A\U+00D13.1\U+0081~20
  7
CONVERTER_1
 73
     1
 44
1.0
1001
ACAD
1000
MTEXTBEGIN
1070
    73
1070
     1
1070
    44
1040
1.0
1070
    74
1070
     0
1000
MTEXTEND
  0
MTEXT
  5
29D
102
{ACAD_XDICTIONARY
360
636
102
}
330
2D
100
AcDbEntity
  8
1
 62
     3
100
AcDbMText
 10
616.1466222054541
 20
357.4042896866087
 30
0.0
 40
3.5
 41
0.0
 71
     4
 72
     1
  1
\U+0192N\U+0192\U+008D\U+0192\U+0081\U+0081[\U+0192g
  7
CONVERTER_1
 73
     1
 44
1.0
1001
ACAD
1000
MTEXTBEGIN
1070
    73
1070
     1
1070
    44
1040
1.0
1070
    74
1070
     0
1000
MTEXTEND
  0
MTEXT
  5
29C
102
{ACAD_XDICTIONARY
360
634
102
}
330
2D
100
AcDbEntity
  8
1
 62
     3
100
AcDbMText
 10
616.1466222054541
 20
364.4042896866085
 30
0.0
 40
3.5
 41
0.0
 71
     4
 72
     1
  1
\U+02C6\U+0081\U+2030\U+201D\U+0192\U+0081\U+0192b\U+0192L
  7
CONVERTER_1
 73
     1
 44
1.0
1001
ACAD
1000
MTEXTBEGIN
1070
    73
1070
     1
1070
    44
1040
1.0
1070
    74
1070
     0
1000
MTEXTEND
  0
MTEXT
  5
29B
330
2D
100
AcDbEntity
  8
1
 62
     3
100
AcDbMText
 10
609.6466222054541
 20
357.4042896866087
 30
0.0
 40
3.5
 41
0.0
 71
     5
 72
     1
  1
1
  7
CONVERTER_1
 73
     1
 44
1.0
1001
ACAD
1000
MTEXTBEGIN
1070
    73
1070
     1
1070
    44
1040
1.0
1070
    74
1070
     0
1000
MTEXTEND
  0
MTEXT
  5
29A
330
2D
100
AcDbEntity
  8
1
 62
     3
100
AcDbMText
 10
609.6466222054541
 20
364.4042896866085
 30
0.0
 40
3.5
 41
0.0
 71
     5
 72
     1
  1
2
  7
CONVERTER_1
 73
     1
 44
1.0
1001
ACAD
1000
MTEXTBEGIN
1070
    73
1070
     1
1070
    44
1040
1.0
1070
    74
1070
     0
1000
MTEXTEND
  0
MTEXT
  5
299
102
{ACAD_XDICTIONARY
360
632
102
}
330
2D
100
AcDbEntity
  8
1
 62
     3
100
AcDbMText
 10
580.1466222054541
 20
357.4042896866087
 30
0.0
 40
3.5
 41
0.0
 71
     4
 72
     1
  1
\U+017Ds\U+201D\U+00E4\U+2022i \U+201C%%p\U+017D\U+00DA
  7
CONVERTER_1
 73
     1
 44
1.0
1001
ACAD
1000
MTEXTBEGIN
1070
    73
1070
     1
1070
    44
1040
1.0
1070
    74
1070
     0
1000
MTEXTEND
  0
MTEXT
  5
298
102
{ACAD_XDICTIONARY
360
630
102
}
330
2D
100
AcDbEntity
  8
1
 62
     3
100
AcDbMText
 10
580.1466222054541
 20
364.4042896866085
 30
0.0
 40
3.5
 41
0.0
 71
     4
 72
     1
  1
\U+017Ds\U+201D\U+00E4\U+2022i
  7
CONVERTER_1
 73
     1
 44
1.0
1001
ACAD
1000
MTEXTBEGIN
1070
    73
1070
     1
1070
    44
1040
1.0
1070
    74
1070
     0
1000
MTEXTEND
  0
MTEXT
  5
297
102
{ACAD_XDICTIONARY
360
62E
102
}
330
2D
100
AcDbEntity
  8
1
 62
     3
100
AcDbMText
 10
529.146622205454
 20
357.4042896866087
 30
0.0
 40
3.5
 41
0.0
 71
     4
 72
     1
  1
\U+0152\U+00E9\U+2019%%c\U+0192J\U+0192b\U+0192v\U+0192i\U+0192b\U+0192g
  7
CONVERTER_1
 73
     1
 44
1.0
1001
ACAD
1000
MTEXTBEGIN
1070
    73
1070
     1
1070
    44
1040
1.0
1070
    74
1070
     0
1000
MTEXTEND
  0
MTEXT
  5
296
102
{ACAD_XDICTIONARY
360
62C
102
}
330
2D
100
AcDbEntity
  8
1
 62
     3
100
AcDbMText
 10
529.146622205454
 20
364.4042896866085
 30
0.0
 40
3.5
 41
0.0
 71
     4
 72
     1
  1
\U+017D\U+00CC\U+2022t\U+201A\U+00A3%%dp\U+201CY\U+2022t\U+201A\U+00F9\U+201A\U+00D1
  7
CONVERTER_1
 73
     1
 44
1.0
1001
ACAD
1000
MTEXTBEGIN
1070
    73
1070
     1
1070
    44
1040
1.0
1070
    74
1070
     0
1000
MTEXTEND
  0
MTEXT
  5
295
330
2D
100
AcDbEntity
  8
1
 62
     3
100
AcDbMText
 10
524.6466222054537
 20
357.4042896866089
 30
0.0
 40
3.5
 41
0.0
 71
     5
 72
     1
  1
8
  7
CONVERTER_1
 73
     1
 44
1.0
1001
ACAD
1000
MTEXTBEGIN
1070
    73
1070
     1
1070
    44
1040
1.0
1070
    74
1070
     0
1000
MTEXTEND
  0
MTEXT
  5
294
330
2D
100
AcDbEntity
  8
1
 62
     3
100
AcDbMText
 10
524.6466222054537
 20
364.4042896866087
 30
0.0
 40
3.5
 41
0.0
 71
     5
 72
     1
  1
9
  7
CONVERTER_1
 73
     1
 44
1.0
1001
ACAD
1000
MTEXTBEGIN
1070
    73
1070
     1
1070
    44
1040
1.0
1070
    74
1070
     0
1000
MTEXTEND
  0
MTEXT
  5
293
102
{ACAD_XDICTIONARY
360
62A
102
}
330
2D
100
AcDbEntity
  8
1
 62
     3
100
AcDbMText
 10
688.9199547875435
 20
543.3660514585016
 30
0.0
 40
4.0
 41
0.0
 71
     4
 72
     1
  1
\U+2030*\U+0090\U+00B0\U+201C\U+00BA
  7
CONVERTER_1
 73
     1
 44
1.0
1001
ACAD
1000
MTEXTBEGIN
1070
    73
1070
     1
1070
    44
1040
1.0
1070
    74
1070
     0
1000
MTEXTEND
  0
MTEXT
  5
292
102
{ACAD_XDICTIONARY
360
628
102
}
330
2D
100
AcDbEntity
  8
1
 62
     3
100
AcDbMText
 10
522.2928567763566
 20
543.5197885604671
 30
0.0
 40
4.0
 41
0.0
 71
     4
 72
     1
  1
\U+2030*\U+201D\U+00E5
  7
CONVERTER_1
 73
     1
 44
1.0
1001
ACAD
1000
MTEXTBEGIN
1070
    73
1070
     1
1070
    44
1040
1.0
1070
    74
1070
     0
1000
MTEXTEND
  0
MTEXT
  5
291
102
{ACAD_XDICTIONARY
360
626
102
}
330
2D
100
AcDbEntity
  8
1
 62
     3
100
AcDbMText
 10
553.4883605362097
 20
543.2431799409141
 30
0.0
 40
4.0
 41
0.0
 71
     4
 72
     1
  1
\U+2030*     \U+0090\U+00B0      %%d\U+00B5      %%dR
  7
CONVERTER_1
 73
     1
 44
1.0
1001
ACAD
1000
MTEXTBEGIN
1070
    73
1070
     1
1070
    44
1040
1.0
1070
    74
1070
     0
1000
MTEXTEND
  0
MTEXT
  5
290
102
{ACAD_XDICTIONARY
360
624
102
}
330
2D
100
AcDbEntity
  8
1
 62
     3
100
AcDbMText
 10
667.4008580823721
 20
543.4551882105152
 30
0.0
 40
4.0
 41
0.0
 71
     4
 72
     1
  1
\U+2030*\U+0090\U+00B0\U+2019S\U+201C\U+00B2
  7
CONVERTER_1
 73
     1
 44
1.0
1001
ACAD
1000
MTEXTBEGIN
1070
    73
1070
     1
1070
    44
1040
1.0
1070
    74
1070
     0
1000
MTEXTEND
  0
MTEXT
  5
28F
102
{ACAD_XDICTIONARY
360
622
102
}
330
2D
100
AcDbEntity
  8
1
 62
     3
100
AcDbMText
 10
627.2334203573795
 20
543.1284753767312
 30
0.0
 40
4.0
 41
0.0
 71
     4
 72
     1
  1
\U+2030*\U+0090\U+00B0\U+008F\U+00B0\U+201DF
  7
CONVERTER_1
 73
     1
 44
1.0
1001
ACAD
1000
MTEXTBEGIN
1070
    73
1070
     1
1070
    44
1040
1.0
1070
    74
1070
     0
1000
MTEXTEND
  0
MTEXT
  5
28E
102
{ACAD_XDICTIONARY
360
620
102
}
330
2D
100
AcDbEntity
  8
1
 62
     3
100
AcDbMText
 10
646.1199547875434
 20
543.3660514585016
 30
0.0
 40
4.0
 41
0.0
 71
     4
 72
     1
  1
\U+2030*\U+0090\U+00B0\U+008F\U+00B0\U+201DF\U+201C\U+00BA
  7
CONVERTER_1
 73
     1
 44
1.0
1001
ACAD
1000
MTEXTBEGIN
1070
    73
1070
     1
1070
    44
1040
1.0
1070
    74
1070
     0
1000
MTEXTEND
  0
MTEXT
  5
28D
330
2D
100
AcDbEntity
  8
1
 62
     3
100
AcDbMText
 10
550.9405601350992
 20
294.3406224146157
 30
0.0
 40
3.5
 41
0.0
 71
     4
 72
     1
  1
A3
  7
CONVERTER_1
 73
     1
 44
1.0
1001
ACAD
1000
MTEXTBEGIN
1070
    73
1070
     1
1070
    44
1040
1.0
1070
    74
1070
     0
1000
MTEXTEND
  0
MTEXT
  5
28C
102
{ACAD_XDICTIONARY
360
61E
102
}
330
2D
100
AcDbEntity
  8
1
 62
     4
100
AcDbMText
 10
535.0741591170848
 20
295.9236426869255
 30
0.0
 40
3.0
 41
0.0
 71
     4
 72
     1
  1
\U+017D\U+00D6
  7
CONVERTER_1
 73
     1
 44
1.0
1001
ACAD
1000
MTEXTBEGIN
1070
    73
1070
     1
1070
    44
1040
1.0
1070
    74
1070
     0
1000
MTEXTEND
  0
MTEXT
  5
28B
102
{ACAD_XDICTIONARY
360
61C
102
}
330
2D
100
AcDbEntity
  8
1
 62
     4
100
AcDbMText
 10
535.0766112492951
 20
292.7732396214622
 30
0.0
 40
3.0
 41
0.0
 71
     4
 72
     1
  1
\U+201Cx
  7
CONVERTER_1
 73
     1
 44
1.0
1001
ACAD
1000
MTEXTBEGIN
1070
    73
1070
     1
1070
    44
1040
1.0
1070
    74
1070
     0
1000
MTEXTEND
  0
MTEXT
  5
28A
102
{ACAD_XDICTIONARY
360
61A
102
}
330
2D
100
AcDbEntity
  8
1
 62
     4
100
AcDbMText
 10
611.5741591170847
 20
295.9236426869255
 30
0.0
 40
3.0
 41
0.0
 71
     4
 72
     1
  1
\U+008F\U+00B0
  7
CONVERTER_1
 73
     1
 44
1.0
1001
ACAD
1000
MTEXTBEGIN
1070
    73
1070
     1
1070
    44
1040
1.0
1070
    74
1070
     0
1000
MTEXTEND
  0
MTEXT
  5
289
102
{ACAD_XDICTIONARY
360
618
102
}
330
2D
100
AcDbEntity
  8
1
 62
     4
100
AcDbMText
 10
611.5766112492949
 20
292.7732396214622
 30
0.0
 40
3.0
 41
0.0
 71
     4
 72
     1
  1
\U+201DF
  7
CONVERTER_1
 73
     1
 44
1.0
1001
ACAD
1000
MTEXTBEGIN
1070
    73
1070
     1
1070
    44
1040
1.0
1070
    74
1070
     0
1000
MTEXTEND
  0
MTEXT
  5
288
102
{ACAD_XDICTIONARY
360
616
102
}
330
2D
100
AcDbEntity
  8
1
 62
     4
100
AcDbMText
 10
611.5741591170847
 20
288.9236426869254
 30
0.0
 40
3.0
 41
0.0
 71
     4
 72
     1
  1
\U+0152\U+0081
  7
CONVERTER_1
 73
     1
 44
1.0
1001
ACAD
1000
MTEXTBEGIN
1070
    73
1070
     1
1070
    44
1040
1.0
1070
    74
1070
     0
1000
MTEXTEND
  0
MTEXT
  5
287
102
{ACAD_XDICTIONARY
360
614
102
}
330
2D
100
AcDbEntity
  8
1
 62
     4
100
AcDbMText
 10
611.5766112492949
 20
285.773239621462
 30
0.0
 40
3.0
 41
0.0
 71
     4
 72
     1
  1
\U+0090}
  7
CONVERTER_1
 73
     1
 44
1.0
1001
ACAD
1000
MTEXTBEGIN
1070
    73
1070
     1
1070
    44
1040
1.0
1070
    74
1070
     0
1000
MTEXTEND
  0
MTEXT
  5
286
102
{ACAD_XDICTIONARY
360
612
102
}
330
2D
100
AcDbEntity
  8
1
 62
     4
100
AcDbMText
 10
611.574159117085
 20
274.9236426869254
 30
0.0
 40
3.0
 41
0.0
 71
     4
 72
     1
  1
\U+008Ds
  7
CONVERTER_1
 73
     1
 44
1.0
1001
ACAD
1000
MTEXTBEGIN
1070
    73
1070
     1
1070
    44
1040
1.0
1070
    74
1070
     0
1000
MTEXTEND
  0
MTEXT
  5
285
102
{ACAD_XDICTIONARY
360
610
102
}
330
2D
100
AcDbEntity
  8
1
 62
     4
100
AcDbMText
 10
611.5766112492953
 20
271.773239621462
 30
0.0
 40
3.0
 41
0.0
 71
     4
 72
     1
  1
\U+0090}
  7
CONVERTER_1
 73
     1
 44
1.0
1001
ACAD
1000
MTEXTBEGIN
1070
    73
1070
     1
1070
    44
1040
1.0
1070
    74
1070
     0
1000
MTEXTEND
  0
MTEXT
  5
284
102
{ACAD_XDICTIONARY
360
60E
102
}
330
2D
100
AcDbEntity
  8
1
 62
     4
100
AcDbMText
 10
611.574159117085
 20
281.9236426869255
 30
0.0
 40
3.0
 41
0.0
 71
     4
 72
     1
  1
\U+0090\U+00EF
  7
CONVERTER_1
 73
     1
 44
1.0
1001
ACAD
1000
MTEXTBEGIN
1070
    73
1070
     1
1070
    44
1040
1.0
1070
    74
1070
     0
1000
MTEXTEND
  0
MTEXT
  5
283
102
{ACAD_XDICTIONARY
360
60C
102
}
330
2D
100
AcDbEntity
  8
1
 62
     4
100
AcDbMText
 10
611.5766112492953
 20
278.7732396214621
 30
0.0
 40
3.0
 41
0.0
 71
     4
 72
     1
  1
\U+0152v
  7
CONVERTER_1
 73
     1
 44
1.0
1001
ACAD
1000
MTEXTBEGIN
1070
    73
1070
     1
1070
    44
1040
1.0
1070
    74
1070
     0
1000
MTEXTEND
  0
MTEXT
  5
282
102
{ACAD_XDICTIONARY
360
60A
102
}
330
2D
100
AcDbEntity
  8
1
 62
     4
100
AcDbMText
 10
650.0766112492953
 20
292.7732396214622
 30
0.0
 40
3.0
 41
0.0
 71
     4
 72
     1
  1
\U+00B2\U+00A5
  7
CONVERTER_1
 73
     1
 44
1.0
1001
ACAD
1000
MTEXTBEGIN
1070
    73
1070
     1
1070
    44
1040
1.0
1070
    74
1070
     0
1000
MTEXTEND
  0
MTEXT
  5
281
102
{ACAD_XDICTIONARY
360
608
102
}
330
2D
100
AcDbEntity
  8
1
 62
     4
100
AcDbMText
 10
650.074159117085
 20
295.9236426869255
 30
0.0
 40
3.0
 41
0.0
 71
     4
 72
     1
  1
\U+2022i
  7
CONVERTER_1
 73
     1
 44
1.0
1001
ACAD
1000
MTEXTBEGIN
1070
    73
1070
     1
1070
    44
1040
1.0
1070
    74
1070
     0
1000
MTEXTEND
  0
MTEXT
  5
280
102
{ACAD_XDICTIONARY
360
606
102
}
330
2D
100
AcDbEntity
  8
1
 62
     4
100
AcDbMText
 10
557.0766112492951
 20
292.773239621462
 30
0.0
 40
3.0
 41
0.0
 71
     4
 72
     1
  1
\U+008F\U+00E4
  7
CONVERTER_1
 73
     1
 44
1.0
1001
ACAD
1000
MTEXTBEGIN
1070
    73
1070
     1
1070
    44
1040
1.0
1070
    74
1070
     0
1000
MTEXTEND
  0
MTEXT
  5
27F
102
{ACAD_XDICTIONARY
360
604
102
}
330
2D
100
AcDbEntity
  8
1
 62
     4
100
AcDbMText
 10
557.0741591170849
 20
295.9236426869254
 30
0.0
 40
3.0
 41
0.0
 71
     4
 72
     1
  1
\U+00B2\U+00A5
  7
CONVERTER_1
 73
     1
 44
1.0
1001
ACAD
1000
MTEXTBEGIN
1070
    73
1070
     1
1070
    44
1040
1.0
1070
    74
1070
     0
1000
MTEXTEND
  0
MTEXT
  5
27E
102
{ACAD_XDICTIONARY
360
602
102
}
330
2D
100
AcDbEntity
  8
1
 62
     4
100
AcDbMText
 10
650.0766112492953
 20
278.773239621462
 30
0.0
 40
3.0
 41
0.0
 71
     4
 72
     1
  1
\U+00B2\U+00A5
  7
CONVERTER_1
 73
     1
 44
1.0
1001
ACAD
1000
MTEXTBEGIN
1070
    73
1070
     1
1070
    44
1040
1.0
1070
    74
1070
     0
1000
MTEXTEND
  0
MTEXT
  5
27D
102
{ACAD_XDICTIONARY
360
600
102
}
330
2D
100
AcDbEntity
  8
1
 62
     4
100
AcDbMText
 10
650.074159117085
 20
281.9236426869254
 30
0.0
 40
3.0
 41
0.0
 71
     4
 72
     1
  1
\U+0090}
  7
CONVERTER_1
 73
     1
 44
1.0
1001
ACAD
1000
MTEXTBEGIN
1070
    73
1070
     1
1070
    44
1040
1.0
1070
    74
1070
     0
1000
MTEXTEND
  0
MTEXT
  5
27C
102
{ACAD_XDICTIONARY
360
5FE
102
}
330
2D
100
AcDbEntity
  8
1
 62
     4
100
AcDbMText
 10
650.0766112492953
 20
285.773239621462
 30
0.0
 40
3.0
 41
0.0
 71
     4
 72
     1
  1
\U+201D\U+00E5
  7
CONVERTER_1
 73
     1
 44
1.0
1001
ACAD
1000
MTEXTBEGIN
1070
    73
1070
     1
1070
    44
1040
1.0
1070
    74
1070
     0
1000
MTEXTEND
  0
MTEXT
  5
27B
102
{ACAD_XDICTIONARY
360
5FC
102
}
330
2D
100
AcDbEntity
  8
1
 62
     4
100
AcDbMText
 10
650.074159117085
 20
288.9236426869254
 30
0.0
 40
3.0
 41
0.0
 71
     4
 72
     1
  1
\U+2022i
  7
CONVERTER_1
 73
     1
 44
1.0
1001
ACAD
1000
MTEXTBEGIN
1070
    73
1070
     1
1070
    44
1040
1.0
1070
    74
1070
     0
1000
MTEXTEND
  0
MTEXT
  5
27A
102
{ACAD_XDICTIONARY
360
5FA
102
}
330
2D
100
AcDbEntity
  8
1
 62
     4
100
AcDbMText
 10
650.0766112492953
 20
271.773239621462
 30
0.0
 40
3.0
 41
0.0
 71
     4
 72
     1
  1
\U+201D\U+00E5
  7
CONVERTER_1
 73
     1
 44
1.0
1001
ACAD
1000
MTEXTBEGIN
1070
    73
1070
     1
1070
    44
1040
1.0
1070
    74
1070
     0
1000
MTEXTEND
  0
MTEXT
  5
279
102
{ACAD_XDICTIONARY
360
5F8
102
}
330
2D
100
AcDbEntity
  8
1
 62
     4
100
AcDbMText
 10
650.074159117085
 20
274.9236426869254
 30
0.0
 40
3.0
 41
0.0
 71
     4
 72
     1
  1
\U+0090}
  7
CONVERTER_1
 73
     1
 44
1.0
1001
ACAD
1000
MTEXTBEGIN
1070
    73
1070
     1
1070
    44
1040
1.0
1070
    74
1070
     0
1000
MTEXTEND
  0
MTEXT
  5
278
102
{ACAD_XDICTIONARY
360
5F6
102
}
330
2D
100
AcDbEntity
  8
1
 62
     4
100
AcDbMText
 10
524.7772087596983
 20
301.4042896866098
 30
0.0
 40
3.0
 41
0.0
 71
     5
 72
     1
  1
\U+2022\U+201D\U+201D\U+00E5
  7
CONVERTER_2
 73
     1
 44
1.0
1001
ACAD
1000
MTEXTBEGIN
1070
    73
1070
     1
1070
    44
1040
1.0
1070
    74
1070
     0
1000
MTEXTEND
  0
MTEXT
  5
277
102
{ACAD_XDICTIONARY
360
5F4
102
}
330
2D
100
AcDbEntity
  8
1
 62
     4
100
AcDbMText
 10
553.2772087596982
 20
301.4042896866098
 30
0.0
 40
3.0
 41
0.0
 71
     5
 72
     1
  1
\U+2022\U+201D     \U+2022i     \U+00B2\U+00A5
  7
CONVERTER_2
 73
     1
 44
1.0
1001
ACAD
1000
MTEXTBEGIN
1070
    73
1070
     1
1070
    44
1040
1.0
1070
    74
1070
     0
1000
MTEXTEND
  0
MTEXT
  5
276
102
{ACAD_XDICTIONARY
360
5F2
102
}
330
2D
100
AcDbEntity
  8
1
 62
     4
100
AcDbMText
 10
592.409709764788
 20
301.4042896866098
 30
0.0
 40
3.0
 41
0.0
 71
     5
 72
     1
  1
\U+008D\U+00DF   \U+017D\U+00A2
  7
CONVERTER_2
 73
     1
 44
1.0
1001
ACAD
1000
MTEXTBEGIN
1070
    73
1070
     1
1070
    44
1040
1.0
1070
    74
1070
     0
1000
MTEXTEND
  0
MTEXT
  5
275
102
{ACAD_XDICTIONARY
360
5F0
102
}
330
2D
100
AcDbEntity
  8
1
 62
     4
100
AcDbMText
 10
609.9772087596984
 20
301.4042896866098
 30
0.0
 40
3.0
 41
0.0
 71
     5
 72
     1
  1
\U+0090\U+201D%%d%%d
  7
CONVERTER_2
 73
     1
 44
1.0
1001
ACAD
1000
MTEXTBEGIN
1070
    73
1070
     1
1070
    44
1040
1.0
1070
    74
1070
     0
1000
MTEXTEND
  0
MTEXT
  5
274
102
{ACAD_XDICTIONARY
360
5EE
102
}
330
2D
100
AcDbEntity
  8
1
 62
     4
100
AcDbMText
 10
638.553692741812
 20
301.4042896866098
 30
0.0
 40
3.0
 41
0.0
 71
     5
 72
     1
  1
\U+2022\   \U+00B2%%d   \U+008F\U+02C6   %%d\U+00B5
  7
CONVERTER_2
 73
     1
 44
1.0
1001
ACAD
1000
MTEXTBEGIN
1070
    73
1070
     1
1070
    44
1040
1.0
1070
    74
1070
     0
1000
MTEXTEND
  0
MTEXT
  5
273
102
{ACAD_XDICTIONARY
360
5EC
102
}
330
2D
100
AcDbEntity
  8
1
 62
     4
100
AcDbMText
 10
684.236374888913
 20
301.6675609892538
 30
0.0
 40
3.0
 41
0.0
 71
     5
 72
     1
  1
\U+201D\U+00BE    \U+008Dl
  7
CONVERTER_2
 73
     1
 44
1.0
1001
ACAD
1000
MTEXTBEGIN
1070
    73
1070
     1
1070
    44
1040
1.0
1070
    74
1070
     0
1000
MTEXTEND
  0
MTEXT
  5
271
102
{ACAD_XDICTIONARY
360
5EA
102
}
330
2D
100
AcDbEntity
  8
1
 62
     3
100
AcDbMText
 10
581.3937245309525
 20
281.9431429586747
 30
0.0
 40
3.5
 41
0.0
 71
     4
 72
     1
  1
\U+0160J  \U+201D\U+00D9  \U+2022\U+201D
  7
CONVERTER_1
 73
     1
 44
1.0
1001
ACAD
1000
MTEXTBEGIN
1070
    73
1070
     1
1070
    44
1040
1.0
1070
    74
1070
     0
1000
MTEXTEND
  0
MTEXT
  5
270
102
{ACAD_XDICTIONARY
360
5E8
102
}
330
2D
100
AcDbEntity
  8
1
 62
     3
100
AcDbMText
 10
581.3305067209824
 20
273.544576178867
 30
0.0
 40
2.5
 41
0.0
 71
     4
 72
     1
  1
\U+201C\U+0152\U+2039\U+20AC\U+201Cs \U+2018\U+00F0\U+201C\U+0152\U+2039\U+00CC \U+201C*\U+2019J 1-27-4
  7
CONVERTER_1
 73
     1
 44
1.0
1001
ACAD
1000
MTEXTBEGIN
1070
    73
1070
     1
1070
    44
1040
1.0
1070
    74
1070
     0
1000
MTEXTEND
  0
MTEXT
  5
26F
102
{ACAD_XDICTIONARY
360
5E6
102
}
330
2D
100
AcDbEntity
  8
1
 62
     3
100
AcDbMText
 10
581.3471564240173
 20
277.3880689703389
 30
0.0
 40
2.5
 41
0.0
 71
     4
 72
     1
  1
\U+0081\U+00CF110-8680
  7
CONVERTER_1
 73
     1
 44
1.0
1001
ACAD
1000
MTEXTBEGIN
1070
    73
1070
     1
1070
    44
1040
1.0
1070
    74
1070
     0
1000
MTEXTEND
  0
MTEXT
  5
26E
102
{ACAD_XDICTIONARY
360
5E4
102
}
330
2D
100
AcDbEntity
  8
1
 62
     3
100
AcDbMText
 10
524.8857746161332
 20
274.0716192502023
 30
0.0
 40
5.0
 41
0.0
 71
     4
 72
     1
  1
\U+0192A\U+0192g\U+0192\U+20AC\U+0192\U+0160\U+0192r\U+0192\U+201C\U+0192e\U+0192b\U+0192N\U+0160\U+201D\U+017D\U+00DB\U+2030\U+00FF\U+017D\U+00C5
  7
CONVERTER_1
 73
     1
 44
1.0
1001
ACAD
1000
MTEXTBEGIN
1070
    73
1070
     1
1070
    44
1040
1.0
1070
    74
1070
     0
1000
MTEXTEND
  0
ARC
  5
26C
330
2D
100
AcDbEntity
  8
1
  6
Continuous
 62
     7
100
AcDbCircle
 10
531.1494948315471
 20
286.2247970411149
 30
0.0
 40
0.21739130434796
100
AcDbArc
 50
16.99999999994036
 51
163.0000000000421
  0
ARC
  5
26B
330
2D
100
AcDbEntity
  8
1
  6
Continuous
 62
     7
100
AcDbCircle
 10
530.163850498312
 20
283.0008996928591
 30
0.0
 40
0.21739130434775
100
AcDbArc
 50
163.0000000000421
 51
-90.0
  0
ARC
  5
26A
330
2D
100
AcDbEntity
  8
1
  6
Continuous
 62
     7
100
AcDbCircle
 10
532.1351391647819
 20
283.0008996928591
 30
0.0
 40
0.21739130434798
100
AcDbArc
 50
-90.0
 51
16.99999999994036
  0
ARC
  5
269
330
2D
100
AcDbEntity
  8
1
  6
Continuous
 62
     7
100
AcDbCircle
 10
529.8093801429976
 20
281.8414794030039
 30
0.0
 40
0.2173913043477
100
AcDbArc
 50
90.0
 51
162.9999999999792
  0
ARC
  5
268
330
2D
100
AcDbEntity
  8
1
  6
Continuous
 62
     7
100
AcDbCircle
 10
529.0561306379547
 20
279.377711287062
 30
0.0
 40
0.21739130434775
100
AcDbArc
 50
163.0000000000421
 51
-90.0
  0
ARC
  5
267
330
2D
100
AcDbEntity
  8
1
  6
Continuous
 62
     7
100
AcDbCircle
 10
532.4359891523407
 20
281.7690156348881
 30
0.0
 40
0.28985507246378
100
AcDbArc
 50
17.00000000000583
 51
90.0
  0
ARC
  5
266
330
2D
100
AcDbEntity
  8
1
  6
Continuous
 62
     7
100
AcDbCircle
 10
533.1449298629694
 20
279.4501750551777
 30
0.0
 40
0.28985507246358
100
AcDbArc
 50
-90.0
 51
17.00000000004225
  0
ARC
  5
265
330
2D
100
AcDbEntity
  8
1
  6
Continuous
 62
     7
100
AcDbCircle
 10
527.7364936630376
 20
279.5226388232937
 30
0.0
 40
0.3623188405795799
100
AcDbArc
 50
-90.0
 51
-16.99999999996918
  0
ARC
  5
264
330
2D
100
AcDbEntity
  8
1
  6
Continuous
 62
     7
100
AcDbCircle
 10
536.3053155942013
 20
279.5226388232937
 30
0.0
 40
0.3623188405795799
100
AcDbArc
 50
-163.0000000000203
 51
-90.0
  0
ARC
  5
263
330
2D
100
AcDbEntity
  8
1
  6
Continuous
 62
     7
100
AcDbCircle
 10
527.3813788895179
 20
279.0153924464822
 30
0.0
 40
0.14492753623188
100
AcDbArc
 50
90.0
 51
180.0
  0
ARC
  5
262
330
2D
100
AcDbEntity
  8
1
  6
Continuous
 62
     7
100
AcDbCircle
 10
529.4103643967644
 20
279.0153924464822
 30
0.0
 40
0.14492753623165
100
AcDbArc
 50
0.0
 51
90.0
  0
ARC
  5
261
330
2D
100
AcDbEntity
  8
1
  6
Continuous
 62
     7
100
AcDbCircle
 10
532.7436977300977
 20
279.0153924464822
 30
0.0
 40
0.14492753623188
100
AcDbArc
 50
90.0
 51
180.0
  0
ARC
  5
260
330
2D
100
AcDbEntity
  8
1
  6
Continuous
 62
     7
100
AcDbCircle
 10
536.8016687445905
 20
279.0153924464822
 30
0.0
 40
0.14492753623165
100
AcDbArc
 50
0.0
 51
90.0
  0
ARC
  5
25F
330
2D
100
AcDbEntity
  8
1
  6
Continuous
 62
     7
100
AcDbCircle
 10
538.4683354112572
 20
287.2037982435837
 30
0.0
 40
0.5072463768115102
100
AcDbArc
 50
0.0
 51
90.0
  0
ARC
  5
25E
330
2D
100
AcDbEntity
  8
1
  6
Continuous
 62
     7
100
AcDbCircle
 10
542.2364513532864
 20
287.2037982435837
 30
0.0
 40
0.50724637681157
100
AcDbArc
 50
90.0
 51
180.0
  0
ARC
  5
25D
330
2D
100
AcDbEntity
  8
1
  6
Continuous
 62
     7
100
AcDbCircle
 10
542.4449634196307
 20
286.696551866772
 30
0.0
 40
1.014492753623259
100
AcDbArc
 50
17.47288527030138
 51
90.0
  0
ARC
  5
25C
330
2D
100
AcDbEntity
  8
1
  6
Continuous
 62
     7
100
AcDbCircle
 10
538.2598233449128
 20
286.696551866772
 30
0.0
 40
1.014492753623299
100
AcDbArc
 50
90.0
 51
162.5271147297005
  0
ARC
  5
25B
330
2D
100
AcDbEntity
  8
1
  6
Continuous
 62
     7
100
AcDbCircle
 10
538.6132629474889
 20
279.5226388232937
 30
0.0
 40
0.3623188405795799
100
AcDbArc
 50
-90.0
 51
0.0
  0
ARC
  5
25A
330
2D
100
AcDbEntity
  8
1
  6
Continuous
 62
     7
100
AcDbCircle
 10
542.0915238170542
 20
279.5226388232937
 30
0.0
 40
0.36231884057975
100
AcDbArc
 50
180.0
 51
-90.0
  0
ARC
  5
259
330
2D
100
AcDbEntity
  8
1
  6
Continuous
 62
     7
100
AcDbCircle
 10
542.3813788895183
 20
279.0153924464822
 30
0.0
 40
0.14492753623165
100
AcDbArc
 50
0.0
 51
90.0
  0
ARC
  5
258
330
2D
100
AcDbEntity
  8
1
  6
Continuous
 62
     7
100
AcDbCircle
 10
538.3234078750253
 20
279.0153924464822
 30
0.0
 40
0.14492753623188
100
AcDbArc
 50
90.0
 51
180.0
  0
ARC
  5
257
330
2D
100
AcDbEntity
  8
1
  6
Continuous
 62
     7
100
AcDbCircle
 10
556.2219585996631
 20
287.8559721566272
 30
0.0
 40
0.14492753623199
100
AcDbArc
 50
180.0
 51
-90.0
  0
ARC
  5
256
330
2D
100
AcDbEntity
  8
1
  6
Continuous
 62
     7
100
AcDbCircle
 10
567.0915238170545
 20
287.8559721566272
 30
0.0
 40
0.14492753623193
100
AcDbArc
 50
-90.0
 51
0.0
  0
ARC
  5
255
330
2D
100
AcDbEntity
  8
1
  6
Continuous
 62
     7
100
AcDbCircle
 10
567.0915238170545
 20
279.0153924464822
 30
0.0
 40
0.14492753623165
100
AcDbArc
 50
0.0
 51
90.0
  0
ARC
  5
254
330
2D
100
AcDbEntity
  8
1
  6
Continuous
 62
     7
100
AcDbCircle
 10
563.3234078750253
 20
279.0153924464822
 30
0.0
 40
0.14492753623188
100
AcDbArc
 50
90.0
 51
180.0
  0
ARC
  5
253
330
2D
100
AcDbEntity
  8
1
  6
Continuous
 62
     7
100
AcDbCircle
 10
556.2219585996631
 20
279.0153924464822
 30
0.0
 40
0.14492753623188
100
AcDbArc
 50
90.0
 51
-179.9999999999551
  0
ARC
  5
252
330
2D
100
AcDbEntity
  8
1
  6
Continuous
 62
     7
100
AcDbCircle
 10
557.9610890344456
 20
279.0153924464822
 30
0.0
 40
0.14492753623199
100
AcDbArc
 50
0.0
 51
90.0
  0
ARC
  5
251
330
2D
100
AcDbEntity
  8
1
  6
Continuous
 62
     7
100
AcDbCircle
 10
556.5842774402429
 20
287.4936533160475
 30
0.0
 40
0.21739130434776
100
AcDbArc
 50
0.0
 51
90.0
  0
ARC
  5
250
330
2D
100
AcDbEntity
  8
1
  6
Continuous
 62
     7
100
AcDbCircle
 10
556.5842774402429
 20
279.377711287062
 30
0.0
 40
0.21739130434793
100
AcDbArc
 50
-90.0
 51
0.0
  0
ARC
  5
24F
330
2D
100
AcDbEntity
  8
1
  6
Continuous
 62
     7
100
AcDbCircle
 10
557.7436977300977
 20
279.377711287062
 30
0.0
 40
0.21739130434764
100
AcDbArc
 50
180.0
 51
-90.0
  0
ARC
  5
24E
330
2D
100
AcDbEntity
  8
1
  6
Continuous
 62
     7
100
AcDbCircle
 10
557.7436977300977
 20
287.5418240388103
 30
0.0
 40
0.21739130434775
100
AcDbArc
 50
14.99999999999607
 51
180.0
  0
ARC
  5
24D
330
2D
100
AcDbEntity
  8
1
  6
Continuous
 62
     7
100
AcDbCircle
 10
561.6567412083589
 20
284.1372869806605
 30
0.0
 40
0.21739130434795
100
AcDbArc
 50
-165.0000000000339
 51
-14.9999999999816
  0
ARC
  5
24C
330
2D
100
AcDbEntity
  8
1
  6
Continuous
 62
     7
100
AcDbCircle
 10
563.7581904837209
 20
287.5003464398631
 30
0.0
 40
0.21739130434798
100
AcDbArc
 50
0.0
 51
164.9999999999672
  0
ARC
  5
24B
330
2D
100
AcDbEntity
  8
1
  6
Continuous
 62
     7
100
AcDbCircle
 10
566.8016687445907
 20
287.3487257798156
 30
0.0
 40
0.36231884057969
100
AcDbArc
 50
90.0
 51
180.0
  0
ARC
  5
24A
330
2D
100
AcDbEntity
  8
1
  6
Continuous
 62
     7
100
AcDbCircle
 10
563.6132629474893
 20
279.5226388232937
 30
0.0
 40
0.3623188405795799
100
AcDbArc
 50
-90.0
 51
0.0
  0
ARC
  5
249
330
2D
100
AcDbEntity
  8
1
  6
Continuous
 62
     7
100
AcDbCircle
 10
566.8016687445907
 20
279.5226388232937
 30
0.0
 40
0.36231884057975
100
AcDbArc
 50
180.0
 51
-90.0
  0
CIRCLE
  5
248
330
2D
100
AcDbEntity
  8
1
  6
Continuous
 62
     7
100
AcDbCircle
 10
525.1757843734871
 20
294.2395530233998
 30
0.0
 40
2.31072808551397
  0
CIRCLE
  5
247
330
2D
100
AcDbEntity
  8
1
  6
Continuous
 62
     7
100
AcDbCircle
 10
525.1757843734871
 20
294.2395530233998
 30
0.0
 40
1.123977615884199
  0
CIRCLE
  5
246
330
2D
100
AcDbEntity
  8
1
  6
Continuous
 62
     7
100
AcDbCircle
 10
550.062538309808
 20
283.5356823015545
 30
0.0
 40
5.289855072463639
  0
ARC
  5
245
330
2D
100
AcDbEntity
  8
1
  6
Continuous
 62
     7
100
AcDbCircle
 10
544.0480455561848
 20
286.1893054899605
 30
0.0
 40
0.36231884057953
100
AcDbArc
 50
-162.5271147296817
 51
1.852437285321649
  0
ARC
  5
244
330
2D
100
AcDbEntity
  8
1
  6
Continuous
 62
     7
100
AcDbCircle
 10
536.6567412083586
 20
286.1893054899605
 30
0.0
 40
0.36231884057994
100
AcDbArc
 50
178.1475627146795
 51
-17.4728852703129
  0
ARC
  5
243
330
2D
100
AcDbEntity
  8
1
  6
Continuous
 62
     7
100
AcDbCircle
 10
552.4708005355882
 20
285.843944527335
 30
0.0
 40
1.15942028985505
100
AcDbArc
 50
-45.0
 51
134.999999999996
  0
ARC
  5
242
330
2D
100
AcDbEntity
  8
1
  6
Continuous
 62
     7
100
AcDbCircle
 10
547.6542760840276
 20
281.0274200757742
 30
0.0
 40
1.159420289855169
100
AcDbArc
 50
135.000000000002
 51
-44.99999999999206
  0
LINE
  5
241
330
2D
100
AcDbEntity
  8
1
  6
Continuous
 62
     5
100
AcDbLine
 10
613.4772087596984
 20
367.9042896866097
 30
0.0
 11
663.4772087596984
 21
367.9042896866097
 31
0.0
  0
LINE
  5
240
330
2D
100
AcDbEntity
  8
1
  6
Continuous
 62
     5
100
AcDbLine
 10
613.4772087596984
 20
360.9042896866097
 30
0.0
 11
663.4772087596984
 21
360.9042896866097
 31
0.0
  0
LINE
  5
23F
330
2D
100
AcDbEntity
  8
1
  6
Continuous
 62
     5
100
AcDbLine
 10
613.4772087596984
 20
353.9042896866097
 30
0.0
 11
663.4772087596984
 21
353.9042896866097
 31
0.0
  0
LINE
  5
23E
330
2D
100
AcDbEntity
  8
1
  6
Continuous
 62
     5
100
AcDbLine
 10
613.4772087596984
 20
346.9042896866097
 30
0.0
 11
663.4772087596984
 21
346.9042896866097
 31
0.0
  0
LINE
  5
23D
330
2D
100
AcDbEntity
  8
1
  6
Continuous
 62
     5
100
AcDbLine
 10
613.4772087596984
 20
339.9042896866098
 30
0.0
 11
663.4772087596984
 21
339.9042896866098
 31
0.0
  0
LINE
  5
23C
330
2D
100
AcDbEntity
  8
1
  6
Continuous
 62
     5
100
AcDbLine
 10
613.4772087596984
 20
332.9042896866098
 30
0.0
 11
663.4772087596984
 21
332.9042896866098
 31
0.0
  0
LINE
  5
23B
330
2D
100
AcDbEntity
  8
1
  6
Continuous
 62
     5
100
AcDbLine
 10
663.4772087596984
 20
367.9042896866097
 30
0.0
 11
663.4772087596984
 21
360.9042896866097
 31
0.0
  0
LINE
  5
23A
330
2D
100
AcDbEntity
  8
1
  6
Continuous
 62
     5
100
AcDbLine
 10
663.4772087596984
 20
360.9042896866097
 30
0.0
 11
663.4772087596984
 21
353.9042896866097
 31
0.0
  0
LINE
  5
239
330
2D
100
AcDbEntity
  8
1
  6
Continuous
 62
     5
100
AcDbLine
 10
663.4772087596984
 20
353.9042896866097
 30
0.0
 11
663.4772087596984
 21
346.9042896866097
 31
0.0
  0
LINE
  5
238
330
2D
100
AcDbEntity
  8
1
  6
Continuous
 62
     5
100
AcDbLine
 10
663.4772087596984
 20
346.9042896866097
 30
0.0
 11
663.4772087596984
 21
339.9042896866098
 31
0.0
  0
LINE
  5
237
330
2D
100
AcDbEntity
  8
1
  6
Continuous
 62
     5
100
AcDbLine
 10
663.4772087596984
 20
339.9042896866098
 30
0.0
 11
663.4772087596984
 21
332.9042896866098
 31
0.0
  0
LINE
  5
236
330
2D
100
AcDbEntity
  8
1
  6
Continuous
 62
     5
100
AcDbLine
 10
663.4772087596984
 20
332.9042896866098
 30
0.0
 11
663.4772087596984
 21
325.9042896866098
 31
0.0
  0
LINE
  5
235
330
2D
100
AcDbEntity
  8
1
  6
Continuous
 62
     5
100
AcDbLine
 10
663.4772087596984
 20
325.9042896866098
 30
0.0
 11
663.4772087596984
 21
318.9042896866098
 31
0.0
  0
LINE
  5
234
330
2D
100
AcDbEntity
  8
1
  6
Continuous
 62
     5
100
AcDbLine
 10
613.4772087596984
 20
325.9042896866098
 30
0.0
 11
663.4772087596984
 21
325.9042896866098
 31
0.0
  0
LINE
  5
233
330
2D
100
AcDbEntity
  8
1
  6
Continuous
 62
     5
100
AcDbLine
 10
613.4772087596984
 20
318.9042896866098
 30
0.0
 11
663.4772087596984
 21
318.9042896866098
 31
0.0
  0
LINE
  5
232
330
2D
100
AcDbEntity
  8
1
  6
Continuous
 62
     5
100
AcDbLine
 10
606.4772087596984
 20
367.9042896866097
 30
0.0
 11
613.4772087596984
 21
367.9042896866097
 31
0.0
  0
LINE
  5
231
330
2D
100
AcDbEntity
  8
1
  6
Continuous
 62
     5
100
AcDbLine
 10
613.4772087596984
 20
367.9042896866097
 30
0.0
 11
613.4772087596984
 21
360.9042896866097
 31
0.0
  0
LINE
  5
230
330
2D
100
AcDbEntity
  8
1
  6
Continuous
 62
     5
100
AcDbLine
 10
606.4772087596984
 20
360.9042896866097
 30
0.0
 11
613.4772087596984
 21
360.9042896866097
 31
0.0
  0
LINE
  5
22F
330
2D
100
AcDbEntity
  8
1
  6
Continuous
 62
     5
100
AcDbLine
 10
613.4772087596984
 20
360.9042896866097
 30
0.0
 11
613.4772087596984
 21
353.9042896866097
 31
0.0
  0
LINE
  5
22E
330
2D
100
AcDbEntity
  8
1
  6
Continuous
 62
     5
100
AcDbLine
 10
613.4772087596984
 20
353.9042896866097
 30
0.0
 11
613.4772087596984
 21
346.9042896866097
 31
0.0
  0
LINE
  5
22D
330
2D
100
AcDbEntity
  8
1
  6
Continuous
 62
     5
100
AcDbLine
 10
606.4772087596984
 20
353.9042896866097
 30
0.0
 11
613.4772087596984
 21
353.9042896866097
 31
0.0
  0
LINE
  5
22C
330
2D
100
AcDbEntity
  8
1
  6
Continuous
 62
     5
100
AcDbLine
 10
606.4772087596984
 20
346.9042896866097
 30
0.0
 11
613.4772087596984
 21
346.9042896866097
 31
0.0
  0
LINE
  5
22B
330
2D
100
AcDbEntity
  8
1
  6
Continuous
 62
     5
100
AcDbLine
 10
613.4772087596984
 20
346.9042896866097
 30
0.0
 11
613.4772087596984
 21
339.9042896866098
 31
0.0
  0
LINE
  5
22A
330
2D
100
AcDbEntity
  8
1
  6
Continuous
 62
     5
100
AcDbLine
 10
613.4772087596984
 20
339.9042896866098
 30
0.0
 11
613.4772087596984
 21
332.9042896866098
 31
0.0
  0
LINE
  5
229
330
2D
100
AcDbEntity
  8
1
  6
Continuous
 62
     5
100
AcDbLine
 10
613.4772087596984
 20
332.9042896866098
 30
0.0
 11
613.4772087596984
 21
325.9042896866098
 31
0.0
  0
LINE
  5
228
330
2D
100
AcDbEntity
  8
1
  6
Continuous
 62
     5
100
AcDbLine
 10
613.4772087596984
 20
325.9042896866098
 30
0.0
 11
613.4772087596984
 21
318.9042896866098
 31
0.0
  0
LINE
  5
227
330
2D
100
AcDbEntity
  8
1
  6
Continuous
 62
     5
100
AcDbLine
 10
613.4772087596984
 20
318.9042896866098
 30
0.0
 11
613.4772087596984
 21
311.9042896866098
 31
0.0
  0
LINE
  5
226
330
2D
100
AcDbEntity
  8
1
  6
Continuous
 62
     5
100
AcDbLine
 10
606.4772087596984
 20
339.9042896866098
 30
0.0
 11
613.4772087596984
 21
339.9042896866098
 31
0.0
  0
LINE
  5
225
330
2D
100
AcDbEntity
  8
1
  6
Continuous
 62
     5
100
AcDbLine
 10
606.4772087596984
 20
332.9042896866098
 30
0.0
 11
613.4772087596984
 21
332.9042896866098
 31
0.0
  0
LINE
  5
224
330
2D
100
AcDbEntity
  8
1
  6
Continuous
 62
     5
100
AcDbLine
 10
606.4772087596984
 20
325.9042896866098
 30
0.0
 11
613.4772087596984
 21
325.9042896866098
 31
0.0
  0
LINE
  5
223
330
2D
100
AcDbEntity
  8
1
  6
Continuous
 62
     5
100
AcDbLine
 10
606.4772087596984
 20
367.9042896866097
 30
0.0
 11
606.4772087596984
 21
360.9042896866097
 31
0.0
  0
LINE
  5
222
330
2D
100
AcDbEntity
  8
1
  6
Continuous
 62
     5
100
AcDbLine
 10
606.4772087596984
 20
360.9042896866097
 30
0.0
 11
606.4772087596984
 21
353.9042896866097
 31
0.0
  0
LINE
  5
221
330
2D
100
AcDbEntity
  8
1
  6
Continuous
 62
     5
100
AcDbLine
 10
606.4772087596984
 20
353.9042896866097
 30
0.0
 11
606.4772087596984
 21
346.9042896866097
 31
0.0
  0
LINE
  5
220
330
2D
100
AcDbEntity
  8
1
  6
Continuous
 62
     5
100
AcDbLine
 10
606.4772087596984
 20
346.9042896866097
 30
0.0
 11
606.4772087596984
 21
339.9042896866098
 31
0.0
  0
LINE
  5
21F
330
2D
100
AcDbEntity
  8
1
  6
Continuous
 62
     5
100
AcDbLine
 10
606.4772087596984
 20
339.9042896866098
 30
0.0
 11
606.4772087596984
 21
332.9042896866098
 31
0.0
  0
LINE
  5
21E
330
2D
100
AcDbEntity
  8
1
  6
Continuous
 62
     5
100
AcDbLine
 10
606.4772087596984
 20
332.9042896866098
 30
0.0
 11
606.4772087596984
 21
325.9042896866098
 31
0.0
  0
LINE
  5
21D
330
2D
100
AcDbEntity
  8
1
  6
Continuous
 62
     5
100
AcDbLine
 10
578.4772087596984
 20
367.9042896866097
 30
0.0
 11
606.4772087596984
 21
367.9042896866097
 31
0.0
  0
LINE
  5
21C
330
2D
100
AcDbEntity
  8
1
  6
Continuous
 62
     5
100
AcDbLine
 10
578.4772087596984
 20
360.9042896866097
 30
0.0
 11
606.4772087596984
 21
360.9042896866097
 31
0.0
  0
LINE
  5
21B
330
2D
100
AcDbEntity
  8
1
  6
Continuous
 62
     5
100
AcDbLine
 10
578.4772087596984
 20
353.9042896866097
 30
0.0
 11
606.4772087596984
 21
353.9042896866097
 31
0.0
  0
LINE
  5
21A
330
2D
100
AcDbEntity
  8
1
  6
Continuous
 62
     5
100
AcDbLine
 10
578.4772087596984
 20
346.9042896866097
 30
0.0
 11
606.4772087596984
 21
346.9042896866097
 31
0.0
  0
LINE
  5
219
330
2D
100
AcDbEntity
  8
1
  6
Continuous
 62
     5
100
AcDbLine
 10
578.4772087596984
 20
339.9042896866098
 30
0.0
 11
606.4772087596984
 21
339.9042896866098
 31
0.0
  0
LINE
  5
218
330
2D
100
AcDbEntity
  8
1
  6
Continuous
 62
     5
100
AcDbLine
 10
578.4772087596984
 20
332.9042896866098
 30
0.0
 11
606.4772087596984
 21
332.9042896866098
 31
0.0
  0
LINE
  5
217
330
2D
100
AcDbEntity
  8
1
  6
Continuous
 62
     5
100
AcDbLine
 10
578.4772087596984
 20
325.9042896866098
 30
0.0
 11
606.4772087596984
 21
325.9042896866098
 31
0.0
  0
LINE
  5
216
330
2D
100
AcDbEntity
  8
1
  6
Continuous
 62
     5
100
AcDbLine
 10
578.4772087596984
 20
318.9042896866098
 30
0.0
 11
606.4772087596984
 21
318.9042896866098
 31
0.0
  0
LINE
  5
215
330
2D
100
AcDbEntity
  8
1
  6
Continuous
 62
     5
100
AcDbLine
 10
606.4772087596984
 20
318.9042896866098
 30
0.0
 11
613.4772087596984
 21
318.9042896866098
 31
0.0
  0
LINE
  5
214
330
2D
100
AcDbEntity
  8
1
  6
Continuous
 62
     5
100
AcDbLine
 10
606.4772087596984
 20
325.9042896866098
 30
0.0
 11
606.4772087596984
 21
318.9042896866098
 31
0.0
  0
LINE
  5
213
330
2D
100
AcDbEntity
  8
1
  6
Continuous
 62
     5
100
AcDbLine
 10
606.4772087596984
 20
318.9042896866098
 30
0.0
 11
606.4772087596984
 21
311.9042896866098
 31
0.0
  0
LINE
  5
212
330
2D
100
AcDbEntity
  8
1
  6
Continuous
 62
     5
100
AcDbLine
 10
528.4772087596983
 20
367.9042896866097
 30
0.0
 11
578.4772087596984
 21
367.9042896866097
 31
0.0
  0
LINE
  5
211
330
2D
100
AcDbEntity
  8
1
  6
Continuous
 62
     5
100
AcDbLine
 10
528.4772087596983
 20
360.9042896866097
 30
0.0
 11
578.4772087596984
 21
360.9042896866097
 31
0.0
  0
LINE
  5
210
330
2D
100
AcDbEntity
  8
1
  6
Continuous
 62
     5
100
AcDbLine
 10
528.4772087596983
 20
353.9042896866097
 30
0.0
 11
578.4772087596984
 21
353.9042896866097
 31
0.0
  0
LINE
  5
20F
330
2D
100
AcDbEntity
  8
1
  6
Continuous
 62
     5
100
AcDbLine
 10
528.4772087596983
 20
346.9042896866097
 30
0.0
 11
578.4772087596984
 21
346.9042896866097
 31
0.0
  0
LINE
  5
20E
330
2D
100
AcDbEntity
  8
1
  6
Continuous
 62
     5
100
AcDbLine
 10
528.4772087596983
 20
339.9042896866098
 30
0.0
 11
578.4772087596984
 21
339.9042896866098
 31
0.0
  0
LINE
  5
20D
330
2D
100
AcDbEntity
  8
1
  6
Continuous
 62
     5
100
AcDbLine
 10
528.4772087596983
 20
332.9042896866098
 30
0.0
 11
578.4772087596984
 21
332.9042896866098
 31
0.0
  0
LINE
  5
20C
330
2D
100
AcDbEntity
  8
1
  6
Continuous
 62
     5
100
AcDbLine
 10
528.4772087596983
 20
325.9042896866098
 30
0.0
 11
578.4772087596984
 21
325.9042896866098
 31
0.0
  0
LINE
  5
20B
330
2D
100
AcDbEntity
  8
1
  6
Continuous
 62
     5
100
AcDbLine
 10
528.4772087596983
 20
318.9042896866098
 30
0.0
 11
578.4772087596984
 21
318.9042896866098
 31
0.0
  0
LINE
  5
20A
330
2D
100
AcDbEntity
  8
1
  6
Continuous
 62
     5
100
AcDbLine
 10
528.4772087596983
 20
367.9042896866097
 30
0.0
 11
528.4772087596983
 21
360.9042896866097
 31
0.0
  0
LINE
  5
209
330
2D
100
AcDbEntity
  8
1
  6
Continuous
 62
     5
100
AcDbLine
 10
528.4772087596983
 20
360.9042896866097
 30
0.0
 11
528.4772087596983
 21
353.9042896866097
 31
0.0
  0
LINE
  5
208
330
2D
100
AcDbEntity
  8
1
  6
Continuous
 62
     5
100
AcDbLine
 10
521.4772087596982
 20
360.9042896866097
 30
0.0
 11
521.4772087596982
 21
367.9042896866097
 31
0.0
  0
LINE
  5
207
330
2D
100
AcDbEntity
  8
1
  6
Continuous
 62
     5
100
AcDbLine
 10
521.4772087596982
 20
353.9042896866097
 30
0.0
 11
521.4772087596982
 21
360.9042896866097
 31
0.0
  0
LINE
  5
206
330
2D
100
AcDbEntity
  8
1
  6
Continuous
 62
     5
100
AcDbLine
 10
521.4772087596982
 20
346.9042896866097
 30
0.0
 11
521.4772087596982
 21
353.9042896866097
 31
0.0
  0
LINE
  5
205
330
2D
100
AcDbEntity
  8
1
  6
Continuous
 62
     5
100
AcDbLine
 10
521.4772087596982
 20
339.9042896866098
 30
0.0
 11
521.4772087596982
 21
346.9042896866097
 31
0.0
  0
LINE
  5
204
330
2D
100
AcDbEntity
  8
1
  6
Continuous
 62
     5
100
AcDbLine
 10
521.4772087596982
 20
332.9042896866098
 30
0.0
 11
521.4772087596982
 21
339.9042896866098
 31
0.0
  0
LINE
  5
203
330
2D
100
AcDbEntity
  8
1
  6
Continuous
 62
     5
100
AcDbLine
 10
521.4772087596982
 20
325.9042896866098
 30
0.0
 11
521.4772087596982
 21
332.9042896866098
 31
0.0
  0
LINE
  5
202
330
2D
100
AcDbEntity
  8
1
  6
Continuous
 62
     5
100
AcDbLine
 10
521.4772087596982
 20
318.9042896866098
 30
0.0
 11
521.4772087596982
 21
325.9042896866098
 31
0.0
  0
LINE
  5
201
330
2D
100
AcDbEntity
  8
1
  6
Continuous
 62
     5
100
AcDbLine
 10
521.4772087596982
 20
311.9042896866098
 30
0.0
 11
521.4772087596982
 21
318.9042896866098
 31
0.0
  0
LINE
  5
200
330
2D
100
AcDbEntity
  8
1
  6
Continuous
 62
     5
100
AcDbLine
 10
521.4772087596982
 20
367.9042896866097
 30
0.0
 11
528.4772087596983
 21
367.9042896866097
 31
0.0
  0
LINE
  5
1FF
330
2D
100
AcDbEntity
  8
1
  6
Continuous
 62
     5
100
AcDbLine
 10
521.4772087596982
 20
360.9042896866097
 30
0.0
 11
528.4772087596983
 21
360.9042896866097
 31
0.0
  0
LINE
  5
1FE
330
2D
100
AcDbEntity
  8
1
  6
Continuous
 62
     5
100
AcDbLine
 10
521.4772087596982
 20
353.9042896866097
 30
0.0
 11
528.4772087596983
 21
353.9042896866097
 31
0.0
  0
LINE
  5
1FD
330
2D
100
AcDbEntity
  8
1
  6
Continuous
 62
     5
100
AcDbLine
 10
521.4772087596982
 20
346.9042896866097
 30
0.0
 11
528.4772087596983
 21
346.9042896866097
 31
0.0
  0
LINE
  5
1FC
330
2D
100
AcDbEntity
  8
1
  6
Continuous
 62
     5
100
AcDbLine
 10
521.4772087596982
 20
339.9042896866098
 30
0.0
 11
528.4772087596983
 21
339.9042896866098
 31
0.0
  0
LINE
  5
1FB
330
2D
100
AcDbEntity
  8
1
  6
Continuous
 62
     5
100
AcDbLine
 10
528.4772087596983
 20
353.9042896866097
 30
0.0
 11
528.4772087596983
 21
346.9042896866097
 31
0.0
  0
LINE
  5
1FA
330
2D
100
AcDbEntity
  8
1
  6
Continuous
 62
     5
100
AcDbLine
 10
528.4772087596983
 20
346.9042896866097
 30
0.0
 11
528.4772087596983
 21
339.9042896866098
 31
0.0
  0
LINE
  5
1F9
330
2D
100
AcDbEntity
  8
1
  6
Continuous
 62
     5
100
AcDbLine
 10
528.4772087596983
 20
339.9042896866098
 30
0.0
 11
528.4772087596983
 21
332.9042896866098
 31
0.0
  0
LINE
  5
1F8
330
2D
100
AcDbEntity
  8
1
  6
Continuous
 62
     5
100
AcDbLine
 10
528.4772087596983
 20
332.9042896866098
 30
0.0
 11
528.4772087596983
 21
325.9042896866098
 31
0.0
  0
LINE
  5
1F7
330
2D
100
AcDbEntity
  8
1
  6
Continuous
 62
     5
100
AcDbLine
 10
521.4772087596982
 20
332.9042896866098
 30
0.0
 11
528.4772087596983
 21
332.9042896866098
 31
0.0
  0
LINE
  5
1F6
330
2D
100
AcDbEntity
  8
1
  6
Continuous
 62
     5
100
AcDbLine
 10
521.4772087596982
 20
325.9042896866098
 30
0.0
 11
528.4772087596983
 21
325.9042896866098
 31
0.0
  0
LINE
  5
1F5
330
2D
100
AcDbEntity
  8
1
  6
Continuous
 62
     5
100
AcDbLine
 10
521.4772087596982
 20
318.9042896866098
 30
0.0
 11
528.4772087596983
 21
318.9042896866098
 31
0.0
  0
LINE
  5
1F4
330
2D
100
AcDbEntity
  8
1
  6
Continuous
 62
     5
100
AcDbLine
 10
528.4772087596983
 20
325.9042896866098
 30
0.0
 11
528.4772087596983
 21
318.9042896866098
 31
0.0
  0
LINE
  5
1F3
330
2D
100
AcDbEntity
  8
1
  6
Continuous
 62
     5
100
AcDbLine
 10
528.4772087596983
 20
318.9042896866098
 30
0.0
 11
528.4772087596983
 21
311.9042896866098
 31
0.0
  0
LINE
  5
1F2
330
2D
100
AcDbEntity
  8
1
  6
Continuous
 62
     5
100
AcDbLine
 10
578.4772087596984
 20
367.9042896866097
 30
0.0
 11
578.4772087596984
 21
360.9042896866097
 31
0.0
  0
LINE
  5
1F1
330
2D
100
AcDbEntity
  8
1
  6
Continuous
 62
     5
100
AcDbLine
 10
578.4772087596984
 20
360.9042896866097
 30
0.0
 11
578.4772087596984
 21
353.9042896866097
 31
0.0
  0
LINE
  5
1F0
330
2D
100
AcDbEntity
  8
1
  6
Continuous
 62
     5
100
AcDbLine
 10
578.4772087596984
 20
353.9042896866097
 30
0.0
 11
578.4772087596984
 21
346.9042896866097
 31
0.0
  0
LINE
  5
1EF
330
2D
100
AcDbEntity
  8
1
  6
Continuous
 62
     5
100
AcDbLine
 10
578.4772087596984
 20
346.9042896866097
 30
0.0
 11
578.4772087596984
 21
339.9042896866098
 31
0.0
  0
LINE
  5
1EE
330
2D
100
AcDbEntity
  8
1
  6
Continuous
 62
     5
100
AcDbLine
 10
578.4772087596984
 20
339.9042896866098
 30
0.0
 11
578.4772087596984
 21
332.9042896866098
 31
0.0
  0
LINE
  5
1ED
330
2D
100
AcDbEntity
  8
1
  6
Continuous
 62
     5
100
AcDbLine
 10
578.4772087596984
 20
332.9042896866098
 30
0.0
 11
578.4772087596984
 21
325.9042896866098
 31
0.0
  0
LINE
  5
1EC
330
2D
100
AcDbEntity
  8
1
  6
Continuous
 62
     5
100
AcDbLine
 10
578.4772087596984
 20
325.9042896866098
 30
0.0
 11
578.4772087596984
 21
318.9042896866098
 31
0.0
  0
LINE
  5
1EB
330
2D
100
AcDbEntity
  8
1
  6
Continuous
 62
     5
100
AcDbLine
 10
578.4772087596984
 20
318.9042896866098
 30
0.0
 11
578.4772087596984
 21
311.9042896866098
 31
0.0
  0
LINE
  5
1EA
330
2D
100
AcDbEntity
  8
1
  6
Continuous
 62
     5
100
AcDbLine
 10
663.4772087596984
 20
367.9042896866097
 30
0.0
 11
705.4772087596983
 21
367.9042896866097
 31
0.0
  0
LINE
  5
1E9
330
2D
100
AcDbEntity
  8
1
  6
Continuous
 62
     5
100
AcDbLine
 10
663.4772087596984
 20
360.9042896866097
 30
0.0
 11
705.4772087596983
 21
360.9042896866097
 31
0.0
  0
LINE
  5
1E8
330
2D
100
AcDbEntity
  8
1
  6
Continuous
 62
     5
100
AcDbLine
 10
663.4772087596984
 20
353.9042896866097
 30
0.0
 11
705.4772087596983
 21
353.9042896866097
 31
0.0
  0
LINE
  5
1E7
330
2D
100
AcDbEntity
  8
1
  6
Continuous
 62
     5
100
AcDbLine
 10
663.4772087596984
 20
346.9042896866097
 30
0.0
 11
705.4772087596983
 21
346.9042896866097
 31
0.0
  0
LINE
  5
1E6
330
2D
100
AcDbEntity
  8
1
  6
Continuous
 62
     5
100
AcDbLine
 10
663.4772087596984
 20
339.9042896866098
 30
0.0
 11
705.4772087596983
 21
339.9042896866098
 31
0.0
  0
LINE
  5
1E5
330
2D
100
AcDbEntity
  8
1
  6
Continuous
 62
     5
100
AcDbLine
 10
663.4772087596984
 20
332.9042896866098
 30
0.0
 11
705.4772087596983
 21
332.9042896866098
 31
0.0
  0
LINE
  5
1E4
330
2D
100
AcDbEntity
  8
1
  6
Continuous
 62
     5
100
AcDbLine
 10
663.4772087596984
 20
325.9042896866098
 30
0.0
 11
705.4772087596983
 21
325.9042896866098
 31
0.0
  0
LINE
  5
1E3
330
2D
100
AcDbEntity
  8
1
  6
Continuous
 62
     5
100
AcDbLine
 10
663.4772087596984
 20
318.9042896866098
 30
0.0
 11
663.4772087596984
 21
311.9042896866098
 31
0.0
  0
LINE
  5
1E2
330
2D
100
AcDbEntity
  8
1
  6
Continuous
 62
     5
100
AcDbLine
 10
663.4772087596984
 20
318.9042896866098
 30
0.0
 11
705.4772087596983
 21
318.9042896866098
 31
0.0
  0
LINE
  5
1E1
330
2D
100
AcDbEntity
  8
1
  6
Continuous
 62
     5
100
AcDbLine
 10
680.4772087596984
 20
532.9042896866097
 30
0.0
 11
705.4772087596984
 21
532.9042896866098
 31
0.0
  0
LINE
  5
1E0
330
2D
100
AcDbEntity
  8
1
  6
Continuous
 62
     7
100
AcDbLine
 10
680.4772087596984
 20
539.9042896866096
 30
0.0
 11
705.4772087596984
 21
539.9042896866096
 31
0.0
  0
LINE
  5
1DF
330
2D
100
AcDbEntity
  8
1
  6
Continuous
 62
     5
100
AcDbLine
 10
680.4772087596984
 20
539.9042896866096
 30
0.0
 11
680.4772087596984
 21
532.9042896866097
 31
0.0
  0
LINE
  5
1DE
330
2D
100
AcDbEntity
  8
1
  6
Continuous
 62
     7
100
AcDbLine
 10
680.4772087596984
 20
546.9042896866096
 30
0.0
 11
680.4772087596984
 21
539.9042896866096
 31
0.0
  0
LINE
  5
1DD
330
2D
100
AcDbEntity
  8
1
  6
Continuous
 62
     7
100
AcDbLine
 10
521.4772087596982
 20
546.9042896866096
 30
0.0
 11
521.4772087596982
 21
539.9042896866096
 31
0.0
  0
LINE
  5
1DC
330
2D
100
AcDbEntity
  8
1
  6
Continuous
 62
     7
100
AcDbLine
 10
521.4772087596982
 20
539.9042896866096
 30
0.0
 11
528.4772087596983
 21
539.9042896866096
 31
0.0
  0
LINE
  5
1DB
330
2D
100
AcDbEntity
  8
1
  6
Continuous
 62
     7
100
AcDbLine
 10
528.4772087596983
 20
539.9042896866096
 30
0.0
 11
625.4772087596984
 21
539.9042896866096
 31
0.0
  0
LINE
  5
1DA
330
2D
100
AcDbEntity
  8
1
  6
Continuous
 62
     7
100
AcDbLine
 10
528.4772087596983
 20
546.9042896866096
 30
0.0
 11
528.4772087596983
 21
539.9042896866096
 31
0.0
  0
LINE
  5
1D9
330
2D
100
AcDbEntity
  8
1
  6
Continuous
 62
     7
100
AcDbLine
 10
665.4772087596984
 20
546.9042896866096
 30
0.0
 11
665.4772087596984
 21
539.9042896866096
 31
0.0
  0
LINE
  5
1D8
330
2D
100
AcDbEntity
  8
1
  6
Continuous
 62
     7
100
AcDbLine
 10
665.4772087596984
 20
539.9042896866096
 30
0.0
 11
680.4772087596984
 21
539.9042896866096
 31
0.0
  0
LINE
  5
1D7
330
2D
100
AcDbEntity
  8
1
  6
Continuous
 62
     7
100
AcDbLine
 10
640.4772087596984
 20
546.9042896866096
 30
0.0
 11
640.4772087596984
 21
539.9042896866096
 31
0.0
  0
LINE
  5
1D6
330
2D
100
AcDbEntity
  8
1
  6
Continuous
 62
     7
100
AcDbLine
 10
640.4772087596984
 20
539.9042896866096
 30
0.0
 11
665.4772087596984
 21
539.9042896866096
 31
0.0
  0
LINE
  5
1D5
330
2D
100
AcDbEntity
  8
1
  6
Continuous
 62
     7
100
AcDbLine
 10
625.4772087596984
 20
546.9042896866096
 30
0.0
 11
625.4772087596984
 21
539.9042896866096
 31
0.0
  0
LINE
  5
1D4
330
2D
100
AcDbEntity
  8
1
  6
Continuous
 62
     5
100
AcDbLine
 10
521.4772087596982
 20
539.9042896866096
 30
0.0
 11
521.4772087596982
 21
532.9042896866097
 31
0.0
  0
LINE
  5
1D3
330
2D
100
AcDbEntity
  8
1
  6
Continuous
 62
     5
100
AcDbLine
 10
521.4772087596982
 20
532.9042896866097
 30
0.0
 11
528.4772087596983
 21
532.9042896866097
 31
0.0
  0
LINE
  5
1D2
330
2D
100
AcDbEntity
  8
1
  6
Continuous
 62
     5
100
AcDbLine
 10
665.4772087596984
 20
539.9042896866096
 30
0.0
 11
665.4772087596984
 21
532.9042896866097
 31
0.0
  0
LINE
  5
1D1
330
2D
100
AcDbEntity
  8
1
  6
Continuous
 62
     5
100
AcDbLine
 10
665.4772087596984
 20
532.9042896866097
 30
0.0
 11
680.4772087596984
 21
532.9042896866097
 31
0.0
  0
LINE
  5
1D0
330
2D
100
AcDbEntity
  8
1
  6
Continuous
 62
     5
100
AcDbLine
 10
640.4772087596984
 20
539.9042896866096
 30
0.0
 11
640.4772087596984
 21
532.9042896866097
 31
0.0
  0
LINE
  5
1CF
330
2D
100
AcDbEntity
  8
1
  6
Continuous
 62
     5
100
AcDbLine
 10
640.4772087596984
 20
532.9042896866097
 30
0.0
 11
665.4772087596984
 21
532.9042896866097
 31
0.0
  0
LINE
  5
1CE
330
2D
100
AcDbEntity
  8
1
  6
Continuous
 62
     5
100
AcDbLine
 10
625.4772087596984
 20
539.9042896866096
 30
0.0
 11
625.4772087596984
 21
532.9042896866097
 31
0.0
  0
LINE
  5
1CD
330
2D
100
AcDbEntity
  8
1
  6
Continuous
 62
     7
100
AcDbLine
 10
625.4772087596984
 20
539.9042896866096
 30
0.0
 11
640.4772087596984
 21
539.9042896866096
 31
0.0
  0
LINE
  5
1CC
330
2D
100
AcDbEntity
  8
1
  6
Continuous
 62
     5
100
AcDbLine
 10
625.4772087596984
 20
532.9042896866097
 30
0.0
 11
640.4772087596984
 21
532.9042896866097
 31
0.0
  0
LINE
  5
1CB
330
2D
100
AcDbEntity
  8
1
  6
Continuous
 62
     5
100
AcDbLine
 10
528.4772087596983
 20
539.9042896866096
 30
0.0
 11
528.4772087596983
 21
532.9042896866097
 31
0.0
  0
LINE
  5
1CA
330
2D
100
AcDbEntity
  8
1
  6
Continuous
 62
     5
100
AcDbLine
 10
528.4772087596983
 20
532.9042896866097
 30
0.0
 11
625.4772087596984
 21
532.9042896866097
 31
0.0
  0
LINE
  5
1C9
330
2D
100
AcDbEntity
  8
1
  6
Continuous
 62
     7
100
AcDbLine
 10
549.4772087596983
 20
297.9042896866097
 30
0.0
 11
549.4772087596984
 21
290.9042896866098
 31
0.0
  0
LINE
  5
1C8
330
2D
100
AcDbEntity
  8
1
  6
Continuous
 62
     7
100
AcDbLine
 10
559.4772087596984
 20
290.9042896866098
 30
0.0
 11
610.9772087596982
 21
290.9042896866098
 31
0.0
  0
LINE
  5
1C7
330
2D
100
AcDbEntity
  8
1
  6
Continuous
 62
     7
100
AcDbLine
 10
556.4772087596984
 20
290.9042896866098
 30
0.0
 11
559.4772087596984
 21
290.9042896866098
 31
0.0
  0
LINE
  5
1C6
330
2D
100
AcDbEntity
  8
1
  6
Continuous
 62
     7
100
AcDbLine
 10
537.4772087596983
 20
290.9042896866099
 30
0.0
 11
556.4772087596984
 21
290.9042896866098
 31
0.0
  0
LINE
  5
1C5
330
2D
100
AcDbEntity
  8
1
  6
Continuous
 62
     7
100
AcDbLine
 10
613.9772087596984
 20
269.9042896866097
 30
0.0
 11
649.4772087596984
 21
269.9042896866098
 31
0.0
  0
LINE
  5
1C4
330
2D
100
AcDbEntity
  8
1
  6
Continuous
 62
     7
100
AcDbLine
 10
613.9772087596984
 20
276.9042896866098
 30
0.0
 11
649.4772087596984
 21
276.9042896866099
 31
0.0
  0
LINE
  5
1C3
330
2D
100
AcDbEntity
  8
1
  6
Continuous
 62
     7
100
AcDbLine
 10
613.9772087596984
 20
276.9042896866098
 30
0.0
 11
613.9772087596984
 21
269.9042896866097
 31
0.0
  0
LINE
  5
1C2
330
2D
100
AcDbEntity
  8
1
  6
Continuous
 62
     7
100
AcDbLine
 10
610.9772087596984
 20
276.9042896866098
 30
0.0
 11
613.9772087596984
 21
276.9042896866098
 31
0.0
  0
LINE
  5
1C1
330
2D
100
AcDbEntity
  8
1
  6
Continuous
 62
     7
100
AcDbLine
 10
613.9772087596984
 20
283.9042896866098
 30
0.0
 11
649.4772087596984
 21
283.9042896866098
 31
0.0
  0
LINE
  5
1C0
330
2D
100
AcDbEntity
  8
1
  6
Continuous
 62
     7
100
AcDbLine
 10
613.9772087596984
 20
283.9042896866098
 30
0.0
 11
613.9772087596984
 21
276.9042896866098
 31
0.0
  0
LINE
  5
1BF
330
2D
100
AcDbEntity
  8
1
  6
Continuous
 62
     7
100
AcDbLine
 10
610.9772087596982
 20
283.9042896866098
 30
0.0
 11
613.9772087596984
 21
283.9042896866098
 31
0.0
  0
LINE
  5
1BE
330
2D
100
AcDbEntity
  8
1
  6
Continuous
 62
     7
100
AcDbLine
 10
613.9772087596981
 20
290.9042896866098
 30
0.0
 11
613.9772087596984
 21
283.9042896866098
 31
0.0
  0
LINE
  5
1BD
330
2D
100
AcDbEntity
  8
1
  6
Continuous
 62
     7
100
AcDbLine
 10
613.9772087596981
 20
290.9042896866098
 30
0.0
 11
649.4772087596984
 21
290.9042896866098
 31
0.0
  0
LINE
  5
1BC
330
2D
100
AcDbEntity
  8
1
  6
Continuous
 62
     7
100
AcDbLine
 10
521.4772087596982
 20
297.9042896866098
 30
0.0
 11
521.4772087596982
 21
269.9042896866094
 31
0.0
  0
LINE
  5
1BB
330
2D
100
AcDbEntity
  8
1
  6
Continuous
 62
     7
100
AcDbLine
 10
521.4772087596982
 20
297.9042896866098
 30
0.0
 11
648.9772087596984
 21
297.9042896866098
 31
0.0
  0
LINE
  5
1BA
330
2D
100
AcDbEntity
  8
1
  6
Continuous
 62
     7
100
AcDbLine
 10
521.4772087596982
 20
269.9042896866094
 30
0.0
 11
610.9772087596984
 21
269.9042896866097
 31
0.0
  0
LINE
  5
1B9
330
2D
100
AcDbEntity
  8
1
  6
Continuous
 62
     7
100
AcDbLine
 10
705.4772087596983
 20
304.9042896866098
 30
0.0
 11
705.4772087596983
 21
311.9042896866098
 31
0.0
  0
LINE
  5
1B8
330
2D
100
AcDbEntity
  8
1
  6
Continuous
 62
     7
100
AcDbLine
 10
649.4772087596984
 20
269.9042896866098
 30
0.0
 11
694.9772087596983
 21
269.9042896866098
 31
0.0
  0
LINE
  5
1B7
330
2D
100
AcDbEntity
  8
1
  6
Continuous
 62
     7
100
AcDbLine
 10
649.4772087596984
 20
276.9042896866099
 30
0.0
 11
694.9772087596983
 21
276.9042896866098
 31
0.0
  0
LINE
  5
1B6
330
2D
100
AcDbEntity
  8
1
  6
Continuous
 62
     7
100
AcDbLine
 10
649.4772087596984
 20
276.9042896866099
 30
0.0
 11
694.9772087596983
 21
276.9042896866098
 31
0.0
  0
LINE
  5
1B5
330
2D
100
AcDbEntity
  8
1
  6
Continuous
 62
     7
100
AcDbLine
 10
705.4772087596983
 20
283.9042896866098
 30
0.0
 11
705.4772087596983
 21
276.9042896866098
 31
0.0
  0
LINE
  5
1B4
330
2D
100
AcDbEntity
  8
1
  6
Continuous
 62
     7
100
AcDbLine
 10
649.4772087596984
 20
283.9042896866098
 30
0.0
 11
705.4772087596983
 21
283.9042896866098
 31
0.0
  0
LINE
  5
1B3
330
2D
100
AcDbEntity
  8
1
  6
Continuous
 62
     7
100
AcDbLine
 10
705.4772087596983
 20
290.9042896866098
 30
0.0
 11
705.4772087596983
 21
283.9042896866098
 31
0.0
  0
LINE
  5
1B2
330
2D
100
AcDbEntity
  8
1
  6
Continuous
 62
     7
100
AcDbLine
 10
649.4772087596984
 20
290.9042896866098
 30
0.0
 11
705.4772087596983
 21
290.9042896866098
 31
0.0
  0
LINE
  5
1B1
330
2D
100
AcDbEntity
  8
1
  6
Continuous
 62
     7
100
AcDbLine
 10
705.4772087596983
 20
297.9042896866098
 30
0.0
 11
705.4772087596983
 21
290.9042896866098
 31
0.0
  0
LINE
  5
1B0
330
2D
100
AcDbEntity
  8
1
  6
Continuous
 62
     7
100
AcDbLine
 10
649.4772087596984
 20
297.9042896866098
 30
0.0
 11
705.4772087596983
 21
297.9042896866098
 31
0.0
  0
LINE
  5
1AF
330
2D
100
AcDbEntity
  8
1
  6
Continuous
 62
     7
100
AcDbLine
 10
521.4772087596982
 20
290.9042896866098
 30
0.0
 11
534.4772087596983
 21
290.9042896866099
 31
0.0
  0
LINE
  5
1AE
330
2D
100
AcDbEntity
  8
1
  6
Continuous
 62
     7
100
AcDbLine
 10
705.4772087596983
 20
304.9042896866098
 30
0.0
 11
705.4772087596983
 21
297.9042896866098
 31
0.0
  0
LINE
  5
1AD
330
2D
100
AcDbEntity
  8
1
  6
Continuous
 62
     7
100
AcDbLine
 10
648.9772087596984
 20
297.9042896866098
 30
0.0
 11
649.4772087596984
 21
297.9042896866098
 31
0.0
  0
LINE
  5
1AC
330
2D
100
AcDbEntity
  8
1
  6
Continuous
 62
     7
100
AcDbLine
 10
578.4772087596984
 20
297.9042896866098
 30
0.0
 11
578.4772087596984
 21
304.9042896866098
 31
0.0
  0
LINE
  5
1AB
330
2D
100
AcDbEntity
  8
1
  6
DASH_CENTER
 62
     2
100
AcDbLine
 10
525.1757843734871
 20
297.0662595739703
 30
0.0
 11
525.1757843734871
 21
291.2615018420854
 31
0.0
  0
LINE
  5
1AA
330
2D
100
AcDbEntity
  8
1
  6
DASH_CENTER
 62
     2
100
AcDbLine
 10
522.2772087596982
 20
294.2395530233998
 30
0.0
 11
533.6772087596983
 21
294.2395530233998
 31
0.0
  0
LINE
  5
1A9
330
2D
100
AcDbEntity
  8
1
  6
Continuous
 62
     7
100
AcDbLine
 10
533.0772087596982
 20
291.9288249378857
 30
0.0
 11
529.2540867208786
 21
293.0794806043301
 31
0.0
  0
LINE
  5
1A8
330
2D
100
AcDbEntity
  8
1
  6
Continuous
 62
     7
100
AcDbLine
 10
533.0772087596982
 20
296.5502811089137
 30
0.0
 11
533.0772087596982
 21
291.9288249378857
 31
0.0
  0
LINE
  5
1A7
330
2D
100
AcDbEntity
  8
1
  6
Continuous
 62
     7
100
AcDbLine
 10
529.0714217846634
 20
295.363530639284
 30
0.0
 11
533.0772087596982
 21
296.5502811089137
 31
0.0
  0
LINE
  5
1A6
330
2D
100
AcDbEntity
  8
1
  6
Continuous
 62
     7
100
AcDbLine
 10
529.0714217846634
 20
293.1155754075156
 30
0.0
 11
529.0714217846634
 21
295.363530639284
 31
0.0
  0
LINE
  5
1A5
330
2D
100
AcDbEntity
  8
1
  6
Continuous
 62
     7
100
AcDbLine
 10
537.4772087596983
 20
290.9042896866099
 30
0.0
 11
537.4772087596983
 21
297.9042896866099
 31
0.0
  0
LINE
  5
1A4
330
2D
100
AcDbEntity
  8
1
  6
Continuous
 62
     7
100
AcDbLine
 10
534.4772087596983
 20
290.9042896866099
 30
0.0
 11
537.4772087596983
 21
290.9042896866099
 31
0.0
  0
LINE
  5
1A3
330
2D
100
AcDbEntity
  8
1
  6
Continuous
 62
     7
100
AcDbLine
 10
534.4772087596983
 20
297.9042896866099
 30
0.0
 11
534.4772087596983
 21
290.9042896866099
 31
0.0
  0
LINE
  5
1A2
330
2D
100
AcDbEntity
  8
1
  6
Continuous
 62
     7
100
AcDbLine
 10
610.9772087596982
 20
290.9042896866098
 30
0.0
 11
613.9772087596981
 21
290.9042896866098
 31
0.0
  0
LINE
  5
1A1
330
2D
100
AcDbEntity
  8
1
  6
Continuous
 62
     7
100
AcDbLine
 10
610.9772087596982
 20
297.9042896866098
 30
0.0
 11
610.9772087596982
 21
290.9042896866098
 31
0.0
  0
LINE
  5
1A0
330
2D
100
AcDbEntity
  8
1
  6
Continuous
 62
     7
100
AcDbLine
 10
610.9772087596982
 20
290.9042896866098
 30
0.0
 11
610.9772087596982
 21
283.9042896866098
 31
0.0
  0
LINE
  5
19F
330
2D
100
AcDbEntity
  8
1
  6
Continuous
 62
     7
100
AcDbLine
 10
613.9772087596984
 20
297.9042896866098
 30
0.0
 11
613.9772087596981
 21
290.9042896866098
 31
0.0
  0
LINE
  5
19E
330
2D
100
AcDbEntity
  8
1
  6
Continuous
 62
     4
100
AcDbLine
 10
627.4772087596982
 20
297.9042896866098
 30
0.0
 11
627.4772087596984
 21
269.9042896866098
 31
0.0
  0
LINE
  5
19D
330
2D
100
AcDbEntity
  8
1
  6
Continuous
 62
     7
100
AcDbLine
 10
610.9772087596984
 20
276.9042896866098
 30
0.0
 11
610.9772087596984
 21
269.9042896866097
 31
0.0
  0
LINE
  5
19C
330
2D
100
AcDbEntity
  8
1
  6
Continuous
 62
     7
100
AcDbLine
 10
610.9772087596984
 20
269.9042896866097
 30
0.0
 11
613.9772087596984
 21
269.9042896866097
 31
0.0
  0
LINE
  5
19B
330
2D
100
AcDbEntity
  8
1
  6
Continuous
 62
     7
100
AcDbLine
 10
610.9772087596982
 20
283.9042896866098
 30
0.0
 11
610.9772087596984
 21
276.9042896866098
 31
0.0
  0
LINE
  5
19A
330
2D
100
AcDbEntity
  8
1
  6
Continuous
 62
     7
100
AcDbLine
 10
652.4772087596984
 20
297.9042896866098
 30
0.0
 11
652.4772087596984
 21
290.9042896866098
 31
0.0
  0
LINE
  5
199
330
2D
100
AcDbEntity
  8
1
  6
Continuous
 62
     7
100
AcDbLine
 10
556.4772087596983
 20
297.9042896866098
 30
0.0
 11
556.4772087596984
 21
290.9042896866098
 31
0.0
  0
LINE
  5
198
330
2D
100
AcDbEntity
  8
1
  6
Continuous
 62
     7
100
AcDbLine
 10
559.4772087596984
 20
297.9042896866098
 30
0.0
 11
559.4772087596984
 21
290.9042896866098
 31
0.0
  0
LINE
  5
197
330
2D
100
AcDbEntity
  8
1
  6
Continuous
 62
     7
100
AcDbLine
 10
648.9772087596984
 20
297.9042896866098
 30
0.0
 11
649.4772087596984
 21
297.9042896866098
 31
0.0
  0
LINE
  5
196
330
2D
100
AcDbEntity
  8
1
  6
Continuous
 62
     7
100
AcDbLine
 10
649.4772087596984
 20
297.9042896866098
 30
0.0
 11
649.4772087596984
 21
290.9042896866098
 31
0.0
  0
LINE
  5
195
330
2D
100
AcDbEntity
  8
1
  6
Continuous
 62
     7
100
AcDbLine
 10
649.4772087596984
 20
276.9042896866099
 30
0.0
 11
649.4772087596984
 21
283.9042896866098
 31
0.0
  0
LINE
  5
194
330
2D
100
AcDbEntity
  8
1
  6
Continuous
 62
     7
100
AcDbLine
 10
694.9772087596983
 20
269.9042896866098
 30
0.0
 11
705.4772087596983
 21
269.9042896866094
 31
0.0
  0
LINE
  5
193
330
2D
100
AcDbEntity
  8
1
  6
Continuous
 62
     7
100
AcDbLine
 10
694.9772087596983
 20
276.9042896866098
 30
0.0
 11
705.4772087596983
 21
276.9042896866098
 31
0.0
  0
LINE
  5
192
330
2D
100
AcDbEntity
  8
1
  6
Continuous
 62
     4
100
AcDbLine
 10
694.9772087596983
 20
269.9042896866098
 30
0.0
 11
694.9772087596983
 21
276.9042896866098
 31
0.0
  0
LINE
  5
191
330
2D
100
AcDbEntity
  8
1
  6
Continuous
 62
     7
100
AcDbLine
 10
649.4772087596984
 20
283.9042896866098
 30
0.0
 11
649.4772087596984
 21
290.9042896866098
 31
0.0
  0
LINE
  5
190
330
2D
100
AcDbEntity
  8
1
  6
Continuous
 62
     7
100
AcDbLine
 10
652.4772087596984
 20
283.9042896866098
 30
0.0
 11
652.4772087596984
 21
290.9042896866098
 31
0.0
  0
LINE
  5
18F
330
2D
100
AcDbEntity
  8
1
  6
Continuous
 62
     7
100
AcDbLine
 10
652.4772087596984
 20
276.9042896866099
 30
0.0
 11
652.4772087596984
 21
283.9042896866098
 31
0.0
  0
LINE
  5
18E
330
2D
100
AcDbEntity
  8
1
  6
Continuous
 62
     7
100
AcDbLine
 10
649.4772087596984
 20
269.9042896866098
 30
0.0
 11
649.4772087596984
 21
276.9042896866099
 31
0.0
  0
LINE
  5
18D
330
2D
100
AcDbEntity
  8
1
  6
Continuous
 62
     7
100
AcDbLine
 10
652.4772087596984
 20
269.9042896866098
 30
0.0
 11
652.4772087596984
 21
276.9042896866099
 31
0.0
  0
LINE
  5
18C
330
2D
100
AcDbEntity
  8
1
  6
Continuous
 62
     7
100
AcDbLine
 10
521.4772087596982
 20
304.9042896866098
 30
0.0
 11
521.4772087596982
 21
297.9042896866098
 31
0.0
  0
LINE
  5
18B
330
2D
100
AcDbEntity
  8
1
  6
Continuous
 62
     7
100
AcDbLine
 10
663.4772087596984
 20
304.9042896866098
 30
0.0
 11
663.4772087596984
 21
297.9042896866098
 31
0.0
  0
LINE
  5
18A
330
2D
100
AcDbEntity
  8
1
  6
Continuous
 62
     7
100
AcDbLine
 10
663.4772087596984
 20
304.9042896866098
 30
0.0
 11
613.4772087596984
 21
304.9042896866098
 31
0.0
  0
LINE
  5
189
330
2D
100
AcDbEntity
  8
1
  6
Continuous
 62
     7
100
AcDbLine
 10
613.4772087596984
 20
304.9042896866098
 30
0.0
 11
613.4772087596984
 21
297.9042896866098
 31
0.0
  0
LINE
  5
188
330
2D
100
AcDbEntity
  8
1
  6
Continuous
 62
     7
100
AcDbLine
 10
613.4772087596984
 20
304.9042896866098
 30
0.0
 11
606.4772087596984
 21
304.9042896866098
 31
0.0
  0
LINE
  5
187
330
2D
100
AcDbEntity
  8
1
  6
Continuous
 62
     7
100
AcDbLine
 10
606.4772087596984
 20
304.9042896866098
 30
0.0
 11
606.4772087596984
 21
297.9042896866098
 31
0.0
  0
LINE
  5
186
330
2D
100
AcDbEntity
  8
1
  6
Continuous
 62
     7
100
AcDbLine
 10
606.4772087596984
 20
304.9042896866098
 30
0.0
 11
578.4772087596984
 21
304.9042896866098
 31
0.0
  0
LINE
  5
185
330
2D
100
AcDbEntity
  8
1
  6
Continuous
 62
     7
100
AcDbLine
 10
578.4772087596984
 20
304.9042896866098
 30
0.0
 11
528.4772087596983
 21
304.9042896866098
 31
0.0
  0
LINE
  5
184
330
2D
100
AcDbEntity
  8
1
  6
Continuous
 62
     7
100
AcDbLine
 10
528.4772087596983
 20
304.9042896866098
 30
0.0
 11
528.4772087596983
 21
297.9042896866098
 31
0.0
  0
LINE
  5
183
330
2D
100
AcDbEntity
  8
1
  6
Continuous
 62
     7
100
AcDbLine
 10
528.4772087596983
 20
304.9042896866098
 30
0.0
 11
521.4772087596982
 21
304.9042896866098
 31
0.0
  0
LINE
  5
182
330
2D
100
AcDbEntity
  8
1
  6
Continuous
 62
     5
100
AcDbLine
 10
521.4772087596982
 20
304.9042896866098
 30
0.0
 11
521.4772087596982
 21
311.9042896866098
 31
0.0
  0
LINE
  5
181
330
2D
100
AcDbEntity
  8
1
  6
Continuous
 62
     5
100
AcDbLine
 10
521.4772087596982
 20
311.9042896866098
 30
0.0
 11
528.4772087596983
 21
311.9042896866098
 31
0.0
  0
LINE
  5
180
330
2D
100
AcDbEntity
  8
1
  6
Continuous
 62
     5
100
AcDbLine
 10
663.4772087596984
 20
311.9042896866098
 30
0.0
 11
663.4772087596984
 21
304.9042896866098
 31
0.0
  0
LINE
  5
17F
330
2D
100
AcDbEntity
  8
1
  6
Continuous
 62
     5
100
AcDbLine
 10
613.4772087596984
 20
311.9042896866098
 30
0.0
 11
613.4772087596984
 21
304.9042896866098
 31
0.0
  0
LINE
  5
17E
330
2D
100
AcDbEntity
  8
1
  6
Continuous
 62
     5
100
AcDbLine
 10
613.4772087596984
 20
311.9042896866098
 30
0.0
 11
663.4772087596984
 21
311.9042896866098
 31
0.0
  0
LINE
  5
17D
330
2D
100
AcDbEntity
  8
1
  6
Continuous
 62
     5
100
AcDbLine
 10
606.4772087596984
 20
311.9042896866098
 30
0.0
 11
606.4772087596984
 21
304.9042896866098
 31
0.0
  0
LINE
  5
17C
330
2D
100
AcDbEntity
  8
1
  6
Continuous
 62
     5
100
AcDbLine
 10
606.4772087596984
 20
311.9042896866098
 30
0.0
 11
613.4772087596984
 21
311.9042896866098
 31
0.0
  0
LINE
  5
17B
330
2D
100
AcDbEntity
  8
1
  6
Continuous
 62
     5
100
AcDbLine
 10
578.4772087596984
 20
311.9042896866098
 30
0.0
 11
578.4772087596984
 21
304.9042896866098
 31
0.0
  0
LINE
  5
17A
330
2D
100
AcDbEntity
  8
1
  6
Continuous
 62
     5
100
AcDbLine
 10
578.4772087596984
 20
311.9042896866098
 30
0.0
 11
606.4772087596984
 21
311.9042896866098
 31
0.0
  0
LINE
  5
179
330
2D
100
AcDbEntity
  8
1
  6
Continuous
 62
     5
100
AcDbLine
 10
528.4772087596983
 20
311.9042896866098
 30
0.0
 11
528.4772087596983
 21
304.9042896866098
 31
0.0
  0
LINE
  5
178
330
2D
100
AcDbEntity
  8
1
  6
Continuous
 62
     5
100
AcDbLine
 10
528.4772087596983
 20
311.9042896866098
 30
0.0
 11
578.4772087596984
 21
311.9042896866098
 31
0.0
  0
LINE
  5
177
330
2D
100
AcDbEntity
  8
1
  6
Continuous
 62
     7
100
AcDbLine
 10
705.4772087596983
 20
276.9042896866098
 30
0.0
 11
705.4772087596983
 21
269.9042896866094
 31
0.0
  0
LINE
  5
176
330
2D
100
AcDbEntity
  8
1
  6
Continuous
 62
     7
100
AcDbLine
 10
663.4772087596984
 20
304.9042896866098
 30
0.0
 11
705.4772087596983
 21
304.9042896866098
 31
0.0
  0
LINE
  5
175
330
2D
100
AcDbEntity
  8
1
  6
Continuous
 62
     5
100
AcDbLine
 10
663.4772087596984
 20
311.9042896866098
 30
0.0
 11
705.4772087596983
 21
311.9042896866098
 31
0.0
  0
LINE
  5
174
330
2D
100
AcDbEntity
  8
1
  6
Continuous
 62
     7
100
AcDbLine
 10
529.555291932996
 20
278.4356823015546
 30
0.0
 11
527.2364513532862
 21
278.4356823015547
 31
0.0
  0
LINE
  5
173
330
2D
100
AcDbEntity
  8
1
  6
Continuous
 62
     7
100
AcDbLine
 10
527.2364513532862
 20
278.4356823015547
 30
0.0
 11
527.2364513532862
 21
279.0153924464822
 31
0.0
  0
LINE
  5
172
330
2D
100
AcDbEntity
  8
1
  6
Continuous
 62
     7
100
AcDbLine
 10
527.3813788895179
 20
279.1603199827141
 30
0.0
 11
527.7364936630376
 21
279.1603199827141
 31
0.0
  0
LINE
  5
171
330
2D
100
AcDbEntity
  8
1
  6
Continuous
 62
     7
100
AcDbLine
 10
528.0829808934591
 20
279.4167070462204
 30
0.0
 11
530.8403583443312
 21
288.4356823015547
 31
0.0
  0
LINE
  5
170
330
2D
100
AcDbEntity
  8
1
  6
Continuous
 62
     7
100
AcDbLine
 10
530.8403583443312
 20
288.4356823015547
 30
0.0
 11
533.201450912908
 21
288.4356823015547
 31
0.0
  0
LINE
  5
16F
330
2D
100
AcDbEntity
  8
1
  6
Continuous
 62
     7
100
AcDbLine
 10
533.201450912908
 20
288.4356823015547
 30
0.0
 11
535.95882836378
 21
279.4167070462204
 31
0.0
  0
LINE
  5
16E
330
2D
100
AcDbEntity
  8
1
  6
Continuous
 62
     7
100
AcDbLine
 10
536.3053155942013
 20
279.1603199827141
 30
0.0
 11
536.8016687445905
 21
279.1603199827141
 31
0.0
  0
LINE
  5
16D
330
2D
100
AcDbEntity
  8
1
  6
Continuous
 62
     7
100
AcDbLine
 10
536.9465962808221
 20
279.0153924464822
 30
0.0
 11
536.9465962808221
 21
278.4356823015547
 31
0.0
  0
LINE
  5
16C
330
2D
100
AcDbEntity
  8
1
  6
Continuous
 62
     7
100
AcDbLine
 10
536.9465962808221
 20
278.4356823015547
 30
0.0
 11
532.5987701938657
 21
278.4356823015547
 31
0.0
  0
LINE
  5
16B
330
2D
100
AcDbEntity
  8
1
  6
Continuous
 62
     7
100
AcDbLine
 10
532.5987701938657
 20
278.4356823015547
 30
0.0
 11
532.5987701938657
 21
279.0153924464822
 31
0.0
  0
LINE
  5
16A
330
2D
100
AcDbEntity
  8
1
  6
Continuous
 62
     7
100
AcDbLine
 10
532.7436977300977
 20
279.1603199827141
 30
0.0
 11
533.1449298629694
 21
279.1603199827141
 31
0.0
  0
LINE
  5
169
330
2D
100
AcDbEntity
  8
1
  6
Continuous
 62
     7
100
AcDbLine
 10
533.4221196473065
 20
279.5349204768367
 30
0.0
 11
532.7131789366777
 21
281.8537610565469
 31
0.0
  0
LINE
  5
168
330
2D
100
AcDbEntity
  8
1
  6
Continuous
 62
     7
100
AcDbLine
 10
532.4359891523407
 20
282.0588707073516
 30
0.0
 11
529.8093801429976
 21
282.0588707073516
 31
0.0
  0
LINE
  5
167
330
2D
100
AcDbEntity
  8
1
  6
Continuous
 62
     7
100
AcDbLine
 10
529.6014878047448
 20
281.9050384692481
 30
0.0
 11
528.848238299702
 21
279.4412703533059
 31
0.0
  0
LINE
  5
166
330
2D
100
AcDbEntity
  8
1
  6
Continuous
 62
     7
100
AcDbLine
 10
529.0561306379547
 20
279.1603199827141
 30
0.0
 11
529.4103643967644
 21
279.1603199827141
 31
0.0
  0
LINE
  5
165
330
2D
100
AcDbEntity
  8
1
  6
Continuous
 62
     7
100
AcDbLine
 10
529.555291932996
 20
279.0153924464822
 30
0.0
 11
529.555291932996
 21
278.4356823015546
 31
0.0
  0
LINE
  5
164
330
2D
100
AcDbEntity
  8
1
  6
Continuous
 62
     7
100
AcDbLine
 10
530.9416024932942
 20
286.2883561073588
 30
0.0
 11
529.9559581600592
 21
283.0644587591029
 31
0.0
  0
LINE
  5
163
330
2D
100
AcDbEntity
  8
1
  6
Continuous
 62
     7
100
AcDbLine
 10
530.163850498312
 20
282.7835083885112
 30
0.0
 11
532.1351391647819
 21
282.7835083885111
 31
0.0
  0
LINE
  5
162
330
2D
100
AcDbEntity
  8
1
  6
Continuous
 62
     7
100
AcDbLine
 10
532.343031503035
 20
283.0644587591029
 30
0.0
 11
531.3573871698
 21
286.2883561073588
 31
0.0
  0
LINE
  5
161
330
2D
100
AcDbEntity
  8
1
  6
Continuous
 62
     7
100
AcDbLine
 10
540.3523933822716
 20
288.4356823015547
 30
0.0
 11
544.3379006286485
 21
288.4356823015547
 31
0.0
  0
LINE
  5
160
330
2D
100
AcDbEntity
  8
1
  6
Continuous
 62
     7
100
AcDbLine
 10
544.3379006286485
 20
288.4356823015547
 30
0.0
 11
544.4101750469631
 21
286.2010176267278
 31
0.0
  0
LINE
  5
15F
330
2D
100
AcDbEntity
  8
1
  6
Continuous
 62
     7
100
AcDbLine
 10
543.7024444147526
 20
286.080517653877
 30
0.0
 11
543.4126466156413
 21
287.0011578078056
 31
0.0
  0
LINE
  5
15E
330
2D
100
AcDbEntity
  8
1
  6
Continuous
 62
     7
100
AcDbLine
 10
542.4449634196307
 20
287.7110446203952
 30
0.0
 11
542.2364513532864
 21
287.7110446203952
 31
0.0
  0
LINE
  5
15D
330
2D
100
AcDbEntity
  8
1
  6
Continuous
 62
     7
100
AcDbLine
 10
541.7292049764745
 20
287.2037982435837
 30
0.0
 11
541.7292049764745
 21
279.5226388232937
 31
0.0
  0
LINE
  5
15C
330
2D
100
AcDbEntity
  8
1
  6
Continuous
 62
     7
100
AcDbLine
 10
542.0915238170542
 20
279.1603199827141
 30
0.0
 11
542.3813788895183
 21
279.1603199827141
 31
0.0
  0
LINE
  5
15B
330
2D
100
AcDbEntity
  8
1
  6
Continuous
 62
     7
100
AcDbLine
 10
542.5263064257499
 20
279.0153924464822
 30
0.0
 11
542.5263064257499
 21
278.4356823015547
 31
0.0
  0
LINE
  5
15A
330
2D
100
AcDbEntity
  8
1
  6
Continuous
 62
     7
100
AcDbLine
 10
542.5263064257499
 20
278.4356823015547
 30
0.0
 11
540.3523933822716
 21
278.4356823015547
 31
0.0
  0
LINE
  5
159
330
2D
100
AcDbEntity
  8
1
  6
Continuous
 62
     7
100
AcDbLine
 10
536.3668861358946
 20
288.4356823015547
 30
0.0
 11
540.3523933822716
 21
288.4356823015547
 31
0.0
  0
LINE
  5
158
330
2D
100
AcDbEntity
  8
1
  6
Continuous
 62
     7
100
AcDbLine
 10
536.2946117175801
 20
286.2010176267278
 30
0.0
 11
536.3668861358946
 21
288.4356823015547
 31
0.0
  0
LINE
  5
157
330
2D
100
AcDbEntity
  8
1
  6
Continuous
 62
     7
100
AcDbLine
 10
537.292140148902
 20
287.0011578078056
 30
0.0
 11
537.0023423497908
 21
286.080517653877
 31
0.0
  0
LINE
  5
156
330
2D
100
AcDbEntity
  8
1
  6
Continuous
 62
     7
100
AcDbLine
 10
538.4683354112572
 20
287.7110446203952
 30
0.0
 11
538.2598233449128
 21
287.7110446203952
 31
0.0
  0
LINE
  5
155
330
2D
100
AcDbEntity
  8
1
  6
Continuous
 62
     7
100
AcDbLine
 10
538.9755817880687
 20
279.5226388232937
 30
0.0
 11
538.9755817880687
 21
287.2037982435837
 31
0.0
  0
LINE
  5
154
330
2D
100
AcDbEntity
  8
1
  6
Continuous
 62
     7
100
AcDbLine
 10
538.3234078750253
 20
279.1603199827141
 30
0.0
 11
538.6132629474889
 21
279.1603199827141
 31
0.0
  0
LINE
  5
153
330
2D
100
AcDbEntity
  8
1
  6
Continuous
 62
     7
100
AcDbLine
 10
538.1784803387931
 20
278.4356823015547
 30
0.0
 11
538.1784803387931
 21
279.0153924464822
 31
0.0
  0
LINE
  5
152
330
2D
100
AcDbEntity
  8
1
  6
Continuous
 62
     7
100
AcDbLine
 10
540.3523933822716
 20
278.4356823015547
 30
0.0
 11
538.1784803387931
 21
278.4356823015547
 31
0.0
  0
LINE
  5
151
330
2D
100
AcDbEntity
  8
1
  6
Continuous
 62
     7
100
AcDbLine
 10
553.29063448479
 20
285.0241105781332
 30
0.0
 11
548.4741100332294
 21
280.2075861265727
 31
0.0
  0
LINE
  5
150
330
2D
100
AcDbEntity
  8
1
  6
Continuous
 62
     7
100
AcDbLine
 10
546.8344421348257
 20
281.8472540249761
 30
0.0
 11
551.6509665863865
 21
286.6637784765369
 31
0.0
  0
LINE
  5
14F
330
2D
100
AcDbEntity
  8
1
  6
Continuous
 62
     7
100
AcDbLine
 10
560.2799296141557
 20
288.4356823015547
 30
0.0
 11
561.4467573330784
 21
284.0810219708556
 31
0.0
  0
LINE
  5
14E
330
2D
100
AcDbEntity
  8
1
  6
Continuous
 62
     7
100
AcDbLine
 10
561.8667250836388
 20
284.0810219708556
 30
0.0
 11
563.0335528025618
 21
288.4356823015547
 31
0.0
  0
LINE
  5
14D
330
2D
100
AcDbEntity
  8
1
  6
Continuous
 62
     7
100
AcDbLine
 10
557.7436977300977
 20
279.1603199827141
 30
0.0
 11
557.9610890344456
 21
279.1603199827141
 31
0.0
  0
LINE
  5
14C
330
2D
100
AcDbEntity
  8
1
  6
Continuous
 62
     7
100
AcDbLine
 10
558.1060165706775
 20
279.0153924464822
 30
0.0
 11
558.1060165706775
 21
278.4356823015547
 31
0.0
  0
LINE
  5
14B
330
2D
100
AcDbEntity
  8
1
  6
Continuous
 62
     7
100
AcDbLine
 10
558.1060165706775
 20
278.4356823015547
 30
0.0
 11
556.077031063431
 21
278.4356823015547
 31
0.0
  0
LINE
  5
14A
330
2D
100
AcDbEntity
  8
1
  6
Continuous
 62
     7
100
AcDbLine
 10
556.077031063431
 20
278.4356823015547
 30
0.0
 11
556.0770310634312
 21
279.0153924464821
 31
0.0
  0
LINE
  5
149
330
2D
100
AcDbEntity
  8
1
  6
Continuous
 62
     7
100
AcDbLine
 10
556.2219585996631
 20
279.1603199827141
 30
0.0
 11
556.5842774402429
 21
279.1603199827141
 31
0.0
  0
LINE
  5
148
330
2D
100
AcDbEntity
  8
1
  6
Continuous
 62
     7
100
AcDbLine
 10
556.8016687445905
 20
279.377711287062
 30
0.0
 11
556.8016687445905
 21
287.4936533160475
 31
0.0
  0
LINE
  5
147
330
2D
100
AcDbEntity
  8
1
  6
Continuous
 62
     7
100
AcDbLine
 10
556.5842774402429
 20
287.7110446203952
 30
0.0
 11
556.2219585996631
 21
287.7110446203952
 31
0.0
  0
LINE
  5
146
330
2D
100
AcDbEntity
  8
1
  6
Continuous
 62
     7
100
AcDbLine
 10
556.077031063431
 20
287.8559721566272
 30
0.0
 11
556.077031063431
 21
288.4356823015547
 31
0.0
  0
LINE
  5
145
330
2D
100
AcDbEntity
  8
1
  6
Continuous
 62
     7
100
AcDbLine
 10
556.077031063431
 20
288.4356823015547
 30
0.0
 11
560.2799296141557
 21
288.4356823015547
 31
0.0
  0
LINE
  5
144
330
2D
100
AcDbEntity
  8
1
  6
Continuous
 62
     7
100
AcDbLine
 10
563.0335528025618
 20
288.4356823015547
 30
0.0
 11
567.2364513532861
 21
288.4356823015547
 31
0.0
  0
LINE
  5
143
330
2D
100
AcDbEntity
  8
1
  6
Continuous
 62
     7
100
AcDbLine
 10
567.2364513532861
 20
288.4356823015547
 30
0.0
 11
567.2364513532861
 21
287.8559721566272
 31
0.0
  0
LINE
  5
142
330
2D
100
AcDbEntity
  8
1
  6
Continuous
 62
     7
100
AcDbLine
 10
567.0915238170545
 20
287.7110446203952
 30
0.0
 11
566.8016687445907
 21
287.7110446203952
 31
0.0
  0
LINE
  5
141
330
2D
100
AcDbEntity
  8
1
  6
Continuous
 62
     7
100
AcDbLine
 10
566.439349904011
 20
287.3487257798156
 30
0.0
 11
566.439349904011
 21
279.5226388232937
 31
0.0
  0
LINE
  5
140
330
2D
100
AcDbEntity
  8
1
  6
Continuous
 62
     7
100
AcDbLine
 10
566.8016687445907
 20
279.1603199827141
 30
0.0
 11
567.0915238170545
 21
279.1603199827141
 31
0.0
  0
LINE
  5
13F
330
2D
100
AcDbEntity
  8
1
  6
Continuous
 62
     7
100
AcDbLine
 10
567.2364513532861
 20
279.0153924464822
 30
0.0
 11
567.2364513532861
 21
278.4356823015547
 31
0.0
  0
LINE
  5
13E
330
2D
100
AcDbEntity
  8
1
  6
Continuous
 62
     7
100
AcDbLine
 10
567.2364513532861
 20
278.4356823015547
 30
0.0
 11
563.1784803387935
 21
278.4356823015547
 31
0.0
  0
LINE
  5
13D
330
2D
100
AcDbEntity
  8
1
  6
Continuous
 62
     7
100
AcDbLine
 10
563.1784803387935
 20
278.4356823015547
 30
0.0
 11
563.1784803387935
 21
279.0153924464822
 31
0.0
  0
LINE
  5
13C
330
2D
100
AcDbEntity
  8
1
  6
Continuous
 62
     7
100
AcDbLine
 10
563.3234078750253
 20
279.1603199827141
 30
0.0
 11
563.6132629474893
 21
279.1603199827141
 31
0.0
  0
LINE
  5
13B
330
2D
100
AcDbEntity
  8
1
  6
Continuous
 62
     7
100
AcDbLine
 10
561.1042610089822
 20
278.4356823015547
 30
0.0
 11
560.4087410939784
 21
278.4356823015547
 31
0.0
  0
LINE
  5
13A
330
2D
100
AcDbEntity
  8
1
  6
Continuous
 62
     7
100
AcDbLine
 10
557.52630642575
 20
279.377711287062
 30
0.0
 11
557.52630642575
 21
287.5418240388103
 31
0.0
  0
LINE
  5
139
330
2D
100
AcDbEntity
  8
1
  6
Continuous
 62
     7
100
AcDbLine
 10
557.9536816053779
 20
287.5980890486152
 30
0.0
 11
560.4087410939784
 21
278.4356823015547
 31
0.0
  0
LINE
  5
138
330
2D
100
AcDbEntity
  8
1
  6
Continuous
 62
     7
100
AcDbLine
 10
561.1042610089822
 20
278.4356823015547
 30
0.0
 11
563.5482066084408
 21
287.556611449668
 31
0.0
  0
LINE
  5
137
330
2D
100
AcDbEntity
  8
1
  6
Continuous
 62
     7
100
AcDbLine
 10
563.9755817880689
 20
287.5003464398631
 30
0.0
 11
563.975581788069
 21
279.5226388232937
 31
0.0
  0
ENDBLK
  5
2D2
330
2D
100
AcDbEntity
  8
0
100
AcDbBlockEnd
  0
BLOCK
  5
30
330
2F
100
AcDbEntity
  8
0
100
AcDbBlockBegin
  2
FORMAT_A3
 70
     0
 10
343.977208759698
 20
67.40428968660899
 30
0.0
  3
FORMAT_A3
  1

  0
LINE
  5
2D6
330
2F
100
AcDbEntity
  8
1
  6
Continuous
 62
     7
100
AcDbLine
 10
305.4772087596985
 20
546.9042896866096
 30
0.0
 11
305.4772087596984
 21
269.9042896866103
 31
0.0
  0
LINE
  5
2D5
330
2F
100
AcDbEntity
  8
1
  6
Continuous
 62
     7
100
AcDbLine
 10
705.4772087596984
 20
546.9042896866096
 30
0.0
 11
305.4772087596985
 21
546.9042896866096
 31
0.0
  0
LINE
  5
2D4
330
2F
100
AcDbEntity
  8
1
  6
Continuous
 62
     7
100
AcDbLine
 10
705.4772087596983
 20
311.9042896866098
 30
0.0
 11
705.4772087596984
 21
546.9042896866096
 31
0.0
  0
LINE
  5
2D3
330
2F
100
AcDbEntity
  8
1
  6
Continuous
 62
     7
100
AcDbLine
 10
521.4772087596982
 20
269.9042896866098
 30
0.0
 11
305.4772087596984
 21
269.9042896866103
 31
0.0
  0
INSERT
  5
31
330
2F
100
AcDbEntity
  8
0
100
AcDbBlockReference
  2
______
 10
740.3971724687566
 20
45.5327451201334
 30
0.0
  0
ENDBLK
  5
2D7
330
2F
100
AcDbEntity
  8
0
100
AcDbBlockEnd
  0
BLOCK
  5
33A
330
339
100
AcDbEntity
  8
0
100
AcDbBlockBegin
  2
*D6
 70
     1
 10
0.0
 20
0.0
 30
0.0
  3
*D6
  1

  0
LINE
  5
33B
330
339
100
AcDbEntity
  8
0
  6
Continuous
 62
     2
100
AcDbLine
 10
504.0485746006673
 20
507.4999999999999
 30
0.0
 11
520.0485746006672
 21
507.4999999999999
 31
0.0
  0
LINE
  5
33C
330
339
100
AcDbEntity
  8
0
  6
Continuous
 62
     2
100
AcDbLine
 10
504.0485746006673
 20
486.4999999999999
 30
0.0
 11
504.0485746006673
 21
508.4999999999999
 31
0.0
  0
LINE
  5
33D
330
339
100
AcDbEntity
  8
0
  6
Continuous
 62
     2
100
AcDbLine
 10
520.0485746006672
 20
486.4999999999999
 30
0.0
 11
520.0485746006672
 21
508.4999999999999
 31
0.0
  0
LINE
  5
33E
330
339
100
AcDbEntity
  8
0
 62
     2
100
AcDbLine
 10
520.0485746006672
 20
507.4999999999999
 30
0.0
 11
517.5985746006672
 21
506.8435244785437
 31
0.0
  0
LINE
  5
33F
330
339
100
AcDbEntity
  8
0
 62
     2
100
AcDbLine
 10
520.0485746006672
 20
507.4999999999999
 30
0.0
 11
517.5985746006672
 21
508.156475521456
 31
0.0
  0
LINE
  5
340
330
339
100
AcDbEntity
  8
0
 62
     2
100
AcDbLine
 10
504.0485746006673
 20
507.4999999999999
 30
0.0
 11
506.4985746006673
 21
508.156475521456
 31
0.0
  0
LINE
  5
341
330
339
100
AcDbEntity
  8
0
 62
     2
100
AcDbLine
 10
504.0485746006673
 20
507.4999999999999
 30
0.0
 11
506.4985746006673
 21
506.8435244785437
 31
0.0
  0
MTEXT
  5
343
330
339
100
AcDbEntity
  8
0
 62
     3
100
AcDbMText
 10
510.5785746006673
 20
508.4999999999999
 30
0.0
 40
3.5
 41
0.0
 71
     7
 72
     1
  1
16
  7
CONVERTER_5
 11
0.999999999997062
 21
0.00000242406841
 31
0.0
 73
     1
 44
1.0
1001
ACAD
1000
MTEXTBEGIN
1070
    73
1070
     1
1070
    44
1040
1.0
1070
    74
1070
     0
1000
MTEXTEND
  0
ENDBLK
  5
344
330
339
100
AcDbEntity
  8
0
100
AcDbBlockEnd
  0
BLOCK
  5
346
330
345
100
AcDbEntity
  8
0
 62
     0
100
AcDbBlockBegin
  2
_OPEN30
 70
     0
 10
0.0
 20
0.0
 30
0.0
  3
_OPEN30
  1

  0
LINE
  5
347
330
345
100
AcDbEntity
  8
0
  6
ByBlock
 62
     0
100
AcDbLine
 10
-1.0
 20
0.267949
 30
0.0
 11
0.0
 21
0.0
 31
0.0
  0
LINE
  5
348
330
345
100
AcDbEntity
  8
0
  6
ByBlock
 62
     0
100
AcDbLine
 10
0.0
 20
0.0
 30
0.0
 11
-1.0
 21
-0.267949
 31
0.0
  0
LINE
  5
349
330
345
100
AcDbEntity
  8
0
  6
ByBlock
 62
     0
100
AcDbLine
 10
0.0
 20
0.0
 30
0.0
 11
-1.0
 21
0.0
 31
0.0
  0
ENDBLK
  5
34A
330
345
100
AcDbEntity
  8
0
 62
     0
100
AcDbBlockEnd
  0
BLOCK
  5
34E
330
34D
100
AcDbEntity
  8
0
100
AcDbBlockBegin
  2
*D8
 70
     1
 10
0.0
 20
0.0
 30
0.0
  3
*D8
  1

  0
LINE
  5
34F
330
34D
100
AcDbEntity
  8
0
  6
Continuous
 62
     2
100
AcDbLine
 10
490.1485746006673
 20
470.2000000000001
 30
0.0
 11
490.1485746006673
 21
486.4999999999999
 31
0.0
  0
LINE
  5
350
330
34D
100
AcDbEntity
  8
0
  6
Continuous
 62
     2
100
AcDbLine
 10
504.0485746006673
 20
470.2000000000001
 30
0.0
 11
489.1485746006673
 21
470.2000000000001
 31
0.0
  0
LINE
  5
351
330
34D
100
AcDbEntity
  8
0
  6
Continuous
 62
     2
100
AcDbLine
 10
504.0485746006673
 20
486.4999999999999
 30
0.0
 11
489.1485746006673
 21
486.4999999999999
 31
0.0
  0
LINE
  5
352
330
34D
100
AcDbEntity
  8
0
 62
     2
100
AcDbLine
 10
490.1485746006673
 20
470.2000000000001
 30
0.0
 11
489.4920990792112
 21
472.65
 31
0.0
  0
LINE
  5
353
330
34D
100
AcDbEntity
  8
0
 62
     2
100
AcDbLine
 10
490.1485746006673
 20
470.2000000000001
 30
0.0
 11
490.8050501221237
 21
472.65
 31
0.0
  0
LINE
  5
354
330
34D
100
AcDbEntity
  8
0
 62
     2
100
AcDbLine
 10
490.1485746006673
 20
486.4999999999999
 30
0.0
 11
490.8050501221237
 21
484.0499999999998
 31
0.0
  0
LINE
  5
355
330
34D
100
AcDbEntity
  8
0
 62
     2
100
AcDbLine
 10
490.1485746006673
 20
486.4999999999999
 30
0.0
 11
489.4920990792112
 21
484.0499999999998
 31
0.0
  0
MTEXT
  5
356
330
34D
100
AcDbEntity
  8
0
 62
     3
100
AcDbMText
 10
489.1485746006673
 20
471.34125
 30
0.0
 40
3.5
 41
0.0
 71
     7
 72
     1
  1
\C3;{\Fgdt;n}\C3;16.3
  7
CONVERTER_5
 11
0.0
 21
1.0
 31
0.0
 73
     1
 44
1.0
1001
ACAD
1000
MTEXTBEGIN
1070
    73
1070
     1
1070
    44
1040
1.0
1070
    74
1070
     0
1000
MTEXTEND
  0
ENDBLK
  5
357
330
34D
100
AcDbEntity
  8
0
100
AcDbBlockEnd
  0
BLOCK
  5
35B
330
35A
100
AcDbEntity
  8
0
100
AcDbBlockBegin
  2
*D9
 70
     1
 10
0.0
 20
0.0
 30
0.0
  3
*D9
  1

  0
LINE
  5
35C
330
35A
100
AcDbEntity
  8
0
  6
Continuous
 62
     2
100
AcDbLine
 10
392.070139923912
 20
507.4999999999999
 30
0.0
 11
407.0701399239119
 21
507.4999999999999
 31
0.0
  0
LINE
  5
35D
330
35A
100
AcDbEntity
  8
0
  6
Continuous
 62
     2
100
AcDbLine
 10
392.070139923912
 20
489.4999999999999
 30
0.0
 11
392.070139923912
 21
508.4999999999999
 31
0.0
  0
LINE
  5
35E
330
35A
100
AcDbEntity
  8
0
  6
Continuous
 62
     2
100
AcDbLine
 10
407.0701399239119
 20
489.4999999999999
 30
0.0
 11
407.0701399239119
 21
508.4999999999999
 31
0.0
  0
LINE
  5
35F
330
35A
100
AcDbEntity
  8
0
 62
     2
100
AcDbLine
 10
407.0701399239119
 20
507.4999999999999
 30
0.0
 11
404.6201399239119
 21
506.8435244785437
 31
0.0
  0
LINE
  5
360
330
35A
100
AcDbEntity
  8
0
 62
     2
100
AcDbLine
 10
407.0701399239119
 20
507.4999999999999
 30
0.0
 11
404.6201399239119
 21
508.156475521456
 31
0.0
  0
LINE
  5
361
330
35A
100
AcDbEntity
  8
0
 62
     2
100
AcDbLine
 10
392.070139923912
 20
507.4999999999999
 30
0.0
 11
394.520139923912
 21
508.156475521456
 31
0.0
  0
LINE
  5
362
330
35A
100
AcDbEntity
  8
0
 62
     2
100
AcDbLine
 10
392.070139923912
 20
507.4999999999999
 30
0.0
 11
394.520139923912
 21
506.8435244785437
 31
0.0
  0
MTEXT
  5
363
330
35A
100
AcDbEntity
  8
0
 62
     3
100
AcDbMText
 10
398.1001399239119
 20
508.4999999999999
 30
0.0
 40
3.5
 41
0.0
 71
     7
 72
     1
  1
15
  7
CONVERTER_5
 11
0.999999999997062
 21
0.00000242406841
 31
0.0
 73
     1
 44
1.0
1001
ACAD
1000
MTEXTBEGIN
1070
    73
1070
     1
1070
    44
1040
1.0
1070
    74
1070
     0
1000
MTEXTEND
  0
ENDBLK
  5
364
330
35A
100
AcDbEntity
  8
0
100
AcDbBlockEnd
  0
BLOCK
  5
368
330
367
100
AcDbEntity
  8
0
100
AcDbBlockBegin
  2
*D10
 70
     1
 10
0.0
 20
0.0
 30
0.0
  3
*D10
  1

  0
LINE
  5
369
330
367
100
AcDbEntity
  8
0
  6
Continuous
 62
     2
100
AcDbLine
 10
377.070139923912
 20
507.4999999999999
 30
0.0
 11
392.070139923912
 21
507.4999999999999
 31
0.0
  0
LINE
  5
36A
330
367
100
AcDbEntity
  8
0
  6
Continuous
 62
     2
100
AcDbLine
 10
377.070139923912
 20
489.4999999999999
 30
0.0
 11
377.070139923912
 21
508.4999999999999
 31
0.0
  0
LINE
  5
36B
330
367
100
AcDbEntity
  8
0
  6
Continuous
 62
     2
100
AcDbLine
 10
392.070139923912
 20
489.4999999999999
 30
0.0
 11
392.070139923912
 21
508.4999999999999
 31
0.0
  0
LINE
  5
36C
330
367
100
AcDbEntity
  8
0
 62
     2
100
AcDbLine
 10
392.070139923912
 20
507.4999999999999
 30
0.0
 11
389.6201399239119
 21
506.8435244785437
 31
0.0
  0
LINE
  5
36D
330
367
100
AcDbEntity
  8
0
 62
     2
100
AcDbLine
 10
392.070139923912
 20
507.4999999999999
 30
0.0
 11
389.6201399239119
 21
508.156475521456
 31
0.0
  0
LINE
  5
36E
330
367
100
AcDbEntity
  8
0
 62
     2
100
AcDbLine
 10
377.070139923912
 20
507.4999999999999
 30
0.0
 11
379.520139923912
 21
508.156475521456
 31
0.0
  0
LINE
  5
36F
330
367
100
AcDbEntity
  8
0
 62
     2
100
AcDbLine
 10
377.070139923912
 20
507.4999999999999
 30
0.0
 11
379.520139923912
 21
506.8435244785437
 31
0.0
  0
MTEXT
  5
370
330
367
100
AcDbEntity
  8
0
 62
     3
100
AcDbMText
 10
383.100139923912
 20
508.4999999999999
 30
0.0
 40
3.5
 41
0.0
 71
     7
 72
     1
  1
15
  7
CONVERTER_5
 11
0.999999999997062
 21
0.00000242406841
 31
0.0
 73
     1
 44
1.0
1001
ACAD
1000
MTEXTBEGIN
1070
    73
1070
     1
1070
    44
1040
1.0
1070
    74
1070
     0
1000
MTEXTEND
  0
ENDBLK
  5
371
330
367
100
AcDbEntity
  8
0
100
AcDbBlockEnd
  0
BLOCK
  5
375
330
374
100
AcDbEntity
  8
0
100
AcDbBlockBegin
  2
*D11
 70
     1
 10
0.0
 20
0.0
 30
0.0
  3
*D11
  1

  0
LINE
  5
376
330
374
100
AcDbEntity
  8
0
  6
Continuous
 62
     2
100
AcDbLine
 10
376.570139923912
 20
404.0
 30
0.0
 11
407.570139923912
 21
404.0
 31
0.0
  0
LINE
  5
377
330
374
100
AcDbEntity
  8
0
  6
Continuous
 62
     2
100
AcDbLine
 10
376.570139923912
 20
447.5
 30
0.0
 11
376.570139923912
 21
403.0
 31
0.0
  0
LINE
  5
378
330
374
100
AcDbEntity
  8
0
  6
Continuous
 62
     2
100
AcDbLine
 10
407.570139923912
 20
447.5
 30
0.0
 11
407.570139923912
 21
403.0
 31
0.0
  0
LINE
  5
379
330
374
100
AcDbEntity
  8
0
 62
     2
100
AcDbLine
 10
407.570139923912
 20
404.0
 30
0.0
 11
405.1201399239119
 21
403.3435244785439
 31
0.0
  0
LINE
  5
37A
330
374
100
AcDbEntity
  8
0
 62
     2
100
AcDbLine
 10
407.570139923912
 20
404.0
 30
0.0
 11
405.1201399239119
 21
404.6564755214562
 31
0.0
  0
LINE
  5
37B
330
374
100
AcDbEntity
  8
0
 62
     2
100
AcDbLine
 10
376.570139923912
 20
404.0
 30
0.0
 11
379.020139923912
 21
404.6564755214562
 31
0.0
  0
LINE
  5
37C
330
374
100
AcDbEntity
  8
0
 62
     2
100
AcDbLine
 10
376.570139923912
 20
404.0
 30
0.0
 11
379.020139923912
 21
403.3435244785439
 31
0.0
  0
MTEXT
  5
37D
330
374
100
AcDbEntity
  8
0
 62
     3
100
AcDbMText
 10
390.600139923912
 20
405.0
 30
0.0
 40
3.5
 41
0.0
 71
     7
 72
     1
  1
31
  7
CONVERTER_5
 11
0.999999999997062
 21
0.00000242406841
 31
0.0
 73
     1
 44
1.0
1001
ACAD
1000
MTEXTBEGIN
1070
    73
1070
     1
1070
    44
1040
1.0
1070
    74
1070
     0
1000
MTEXTEND
  0
ENDBLK
  5
37E
330
374
100
AcDbEntity
  8
0
100
AcDbBlockEnd
  0
BLOCK
  5
382
330
381
100
AcDbEntity
  8
0
100
AcDbBlockBegin
  2
*D12
 70
     1
 10
0.0
 20
0.0
 30
0.0
  3
*D12
  1

  0
LINE
  5
383
330
381
100
AcDbEntity
  8
0
  6
Continuous
 62
     2
100
AcDbLine
 10
402.670139923912
 20
404.0
 30
0.0
 11
407.570139923912
 21
404.0
 31
0.0
  0
LINE
  5
384
330
381
100
AcDbEntity
  8
0
  6
Continuous
 62
     2
100
AcDbLine
 10
407.570139923912
 20
404.0
 30
0.0
 11
412.070139923912
 21
404.0
 31
0.0
  0
LINE
  5
385
330
381
100
AcDbEntity
  8
0
  6
Continuous
 62
     2
100
AcDbLine
 10
412.070139923912
 20
404.0
 30
0.0
 11
419.3620711029031
 21
404.0
 31
0.0
  0
LINE
  5
386
330
381
100
AcDbEntity
  8
0
  6
Continuous
 62
     2
100
AcDbLine
 10
407.570139923912
 20
447.5
 30
0.0
 11
407.570139923912
 21
403.0
 31
0.0
  0
LINE
  5
387
330
381
100
AcDbEntity
  8
0
  6
Continuous
 62
     2
100
AcDbLine
 10
412.070139923912
 20
430.0
 30
0.0
 11
412.070139923912
 21
403.0
 31
0.0
  0
LINE
  5
388
330
381
100
AcDbEntity
  8
0
 62
     2
100
AcDbLine
 10
407.570139923912
 20
404.0
 30
0.0
 11
405.120139923912
 21
403.3435244785439
 31
0.0
  0
LINE
  5
389
330
381
100
AcDbEntity
  8
0
 62
     2
100
AcDbLine
 10
407.570139923912
 20
404.0
 30
0.0
 11
405.120139923912
 21
404.6564755214562
 31
0.0
  0
LINE
  5
38A
330
381
100
AcDbEntity
  8
0
 62
     2
100
AcDbLine
 10
412.070139923912
 20
404.0
 30
0.0
 11
414.520139923912
 21
404.6564755214562
 31
0.0
  0
LINE
  5
38B
330
381
100
AcDbEntity
  8
0
 62
     2
100
AcDbLine
 10
412.070139923912
 20
404.0
 30
0.0
 11
414.520139923912
 21
403.3435244785439
 31
0.0
  0
MTEXT
  5
38C
330
381
100
AcDbEntity
  8
0
 62
     3
100
AcDbMText
 10
414.829571102903
 20
405.0
 30
0.0
 40
3.5
 41
0.0
 71
     7
 72
     1
  1
4.5
  7
CONVERTER_5
 11
0.999999999997062
 21
0.00000242406841
 31
0.0
 73
     1
 44
1.0
1001
ACAD
1000
MTEXTBEGIN
1070
    73
1070
     1
1070
    44
1040
1.0
1070
    74
1070
     0
1000
MTEXTEND
  0
ENDBLK
  5
38D
330
381
100
AcDbEntity
  8
0
100
AcDbBlockEnd
  0
BLOCK
  5
391
330
390
100
AcDbEntity
  8
0
100
AcDbBlockBegin
  2
*D13
 70
     1
 10
0.0
 20
0.0
 30
0.0
  3
*D13
  1

  0
LINE
  5
392
330
390
100
AcDbEntity
  8
0
  6
Continuous
 62
     2
100
AcDbLine
 10
381.470139923912
 20
404.0
 30
0.0
 11
376.570139923912
 21
404.0
 31
0.0
  0
LINE
  5
393
330
390
100
AcDbEntity
  8
0
  6
Continuous
 62
     2
100
AcDbLine
 10
372.070139923912
 20
404.0
 30
0.0
 11
376.570139923912
 21
404.0
 31
0.0
  0
LINE
  5
394
330
390
100
AcDbEntity
  8
0
  6
Continuous
 62
     2
100
AcDbLine
 10
372.070139923912
 20
404.0
 30
0.0
 11
364.6686529316145
 21
404.0
 31
0.0
  0
LINE
  5
395
330
390
100
AcDbEntity
  8
0
  6
Continuous
 62
     2
100
AcDbLine
 10
372.070139923912
 20
430.0
 30
0.0
 11
372.070139923912
 21
403.0
 31
0.0
  0
LINE
  5
396
330
390
100
AcDbEntity
  8
0
  6
Continuous
 62
     2
100
AcDbLine
 10
376.570139923912
 20
447.5
 30
0.0
 11
376.570139923912
 21
403.0
 31
0.0
  0
LINE
  5
397
330
390
100
AcDbEntity
  8
0
 62
     2
100
AcDbLine
 10
376.570139923912
 20
404.0
 30
0.0
 11
379.020139923912
 21
404.6564755214562
 31
0.0
  0
LINE
  5
398
330
390
100
AcDbEntity
  8
0
 62
     2
100
AcDbLine
 10
376.570139923912
 20
404.0
 30
0.0
 11
379.020139923912
 21
403.3435244785439
 31
0.0
  0
LINE
  5
399
330
390
100
AcDbEntity
  8
0
 62
     2
100
AcDbLine
 10
372.070139923912
 20
404.0
 30
0.0
 11
369.6201399239119
 21
403.3435244785439
 31
0.0
  0
LINE
  5
39A
330
390
100
AcDbEntity
  8
0
 62
     2
100
AcDbLine
 10
372.070139923912
 20
404.0
 30
0.0
 11
369.6201399239119
 21
404.6564755214562
 31
0.0
  0
MTEXT
  5
39B
330
390
100
AcDbEntity
  8
0
 62
     3
100
AcDbMText
 10
364.6686529316145
 20
405.0
 30
0.0
 40
3.5
 41
0.0
 71
     7
 72
     1
  1
4.5
  7
CONVERTER_5
 11
0.999999999997062
 21
0.00000242406841
 31
0.0
 73
     1
 44
1.0
1001
ACAD
1000
MTEXTBEGIN
1070
    73
1070
     1
1070
    44
1040
1.0
1070
    74
1070
     0
1000
MTEXTEND
  0
ENDBLK
  5
39C
330
390
100
AcDbEntity
  8
0
100
AcDbBlockEnd
  0
BLOCK
  5
3A0
330
39F
100
AcDbEntity
  8
0
100
AcDbBlockBegin
  2
*D14
 70
     1
 10
0.0
 20
0.0
 30
0.0
  3
*D14
  1

  0
LINE
  5
3A1
330
39F
100
AcDbEntity
  8
0
  6
Continuous
 62
     2
100
AcDbLine
 10
433.070139923912
 20
454.0
 30
0.0
 11
433.070139923912
 21
466.0000000000001
 31
0.0
  0
LINE
  5
3A2
330
39F
100
AcDbEntity
  8
0
  6
Continuous
 62
     2
100
AcDbLine
 10
414.0701399239119
 20
454.0
 30
0.0
 11
434.070139923912
 21
454.0
 31
0.0
  0
LINE
  5
3A3
330
39F
100
AcDbEntity
  8
0
  6
Continuous
 62
     2
100
AcDbLine
 10
412.070139923912
 20
466.0000000000001
 30
0.0
 11
434.070139923912
 21
466.0000000000001
 31
0.0
  0
LINE
  5
3A4
330
39F
100
AcDbEntity
  8
0
 62
     2
100
AcDbLine
 10
433.070139923912
 20
454.0
 30
0.0
 11
432.4136644024556
 21
456.4500000000001
 31
0.0
  0
LINE
  5
3A5
330
39F
100
AcDbEntity
  8
0
 62
     2
100
AcDbLine
 10
433.070139923912
 20
454.0
 30
0.0
 11
433.726615445368
 21
456.4500000000001
 31
0.0
  0
LINE
  5
3A6
330
39F
100
AcDbEntity
  8
0
 62
     2
100
AcDbLine
 10
433.070139923912
 20
466.0000000000001
 30
0.0
 11
433.726615445368
 21
463.55
 31
0.0
  0
LINE
  5
3A7
330
39F
100
AcDbEntity
  8
0
 62
     2
100
AcDbLine
 10
433.070139923912
 20
466.0000000000001
 30
0.0
 11
432.4136644024556
 21
463.55
 31
0.0
  0
MTEXT
  5
3A8
330
39F
100
AcDbEntity
  8
0
 62
     3
100
AcDbMText
 10
432.0701399239119
 20
458.5300000000001
 30
0.0
 40
3.5
 41
0.0
 71
     7
 72
     1
  1
12
  7
CONVERTER_5
 11
0.0
 21
1.0
 31
0.0
 73
     1
 44
1.0
1001
ACAD
1000
MTEXTBEGIN
1070
    73
1070
     1
1070
    44
1040
1.0
1070
    74
1070
     0
1000
MTEXTEND
  0
ENDBLK
  5
3A9
330
39F
100
AcDbEntity
  8
0
100
AcDbBlockEnd
  0
BLOCK
  5
3AD
330
3AC
100
AcDbEntity
  8
0
100
AcDbBlockBegin
  2
*D15
 70
     1
 10
0.0
 20
0.0
 30
0.0
  3
*D15
  1

  0
LINE
  5
3AE
330
3AC
100
AcDbEntity
  8
0
  6
Continuous
 62
     2
100
AcDbLine
 10
433.070139923912
 20
440.0
 30
0.0
 11
433.070139923912
 21
454.0
 31
0.0
  0
LINE
  5
3AF
330
3AC
100
AcDbEntity
  8
0
  6
Continuous
 62
     2
100
AcDbLine
 10
406.970139923912
 20
440.0
 30
0.0
 11
434.070139923912
 21
440.0
 31
0.0
  0
LINE
  5
3B0
330
3AC
100
AcDbEntity
  8
0
  6
Continuous
 62
     2
100
AcDbLine
 10
414.0701399239119
 20
454.0
 30
0.0
 11
434.070139923912
 21
454.0
 31
0.0
  0
LINE
  5
3B1
330
3AC
100
AcDbEntity
  8
0
 62
     2
100
AcDbLine
 10
433.070139923912
 20
454.0
 30
0.0
 11
433.726615445368
 21
451.5500000000001
 31
0.0
  0
LINE
  5
3B2
330
3AC
100
AcDbEntity
  8
0
 62
     2
100
AcDbLine
 10
433.070139923912
 20
454.0
 30
0.0
 11
432.4136644024556
 21
451.5500000000001
 31
0.0
  0
LINE
  5
3B3
330
3AC
100
AcDbEntity
  8
0
 62
     2
100
AcDbLine
 10
433.070139923912
 20
440.0
 30
0.0
 11
432.4136644024556
 21
442.4500000000001
 31
0.0
  0
LINE
  5
3B4
330
3AC
100
AcDbEntity
  8
0
 62
     2
100
AcDbLine
 10
433.070139923912
 20
440.0
 30
0.0
 11
433.726615445368
 21
442.4500000000001
 31
0.0
  0
MTEXT
  5
3B5
330
3AC
100
AcDbEntity
  8
0
 62
     3
100
AcDbMText
 10
432.0701399239119
 20
445.5300000000001
 30
0.0
 40
3.5
 41
0.0
 71
     7
 72
     1
  1
14
  7
CONVERTER_5
 11
0.0
 21
1.0
 31
0.0
 73
     1
 44
1.0
1001
ACAD
1000
MTEXTBEGIN
1070
    73
1070
     1
1070
    44
1040
1.0
1070
    74
1070
     0
1000
MTEXTEND
  0
ENDBLK
  5
3B6
330
3AC
100
AcDbEntity
  8
0
100
AcDbBlockEnd
  0
BLOCK
  5
3BA
330
3B9
100
AcDbEntity
  8
0
100
AcDbBlockBegin
  2
*D16
 70
     1
 10
0.0
 20
0.0
 30
0.0
  3
*D16
  1

  0
LINE
  5
3BB
330
3B9
100
AcDbEntity
  8
0
  6
Continuous
 62
     2
100
AcDbLine
 10
433.070139923912
 20
425.0
 30
0.0
 11
433.070139923912
 21
440.0
 31
0.0
  0
LINE
  5
3BC
330
3B9
100
AcDbEntity
  8
0
  6
Continuous
 62
     2
100
AcDbLine
 10
407.0701399239119
 20
425.0
 30
0.0
 11
434.070139923912
 21
425.0
 31
0.0
  0
LINE
  5
3BD
330
3B9
100
AcDbEntity
  8
0
  6
Continuous
 62
     2
100
AcDbLine
 10
406.970139923912
 20
440.0
 30
0.0
 11
434.070139923912
 21
440.0
 31
0.0
  0
LINE
  5
3BE
330
3B9
100
AcDbEntity
  8
0
 62
     2
100
AcDbLine
 10
433.070139923912
 20
440.0
 30
0.0
 11
433.726615445368
 21
437.55
 31
0.0
  0
LINE
  5
3BF
330
3B9
100
AcDbEntity
  8
0
 62
     2
100
AcDbLine
 10
433.070139923912
 20
440.0
 30
0.0
 11
432.4136644024556
 21
437.55
 31
0.0
  0
LINE
  5
3C0
330
3B9
100
AcDbEntity
  8
0
 62
     2
100
AcDbLine
 10
433.070139923912
 20
425.0
 30
0.0
 11
432.4136644024556
 21
427.4500000000001
 31
0.0
  0
LINE
  5
3C1
330
3B9
100
AcDbEntity
  8
0
 62
     2
100
AcDbLine
 10
433.070139923912
 20
425.0
 30
0.0
 11
433.726615445368
 21
427.4500000000001
 31
0.0
  0
MTEXT
  5
3C2
330
3B9
100
AcDbEntity
  8
0
 62
     3
100
AcDbMText
 10
432.0701399239119
 20
431.03
 30
0.0
 40
3.5
 41
0.0
 71
     7
 72
     1
  1
15
  7
CONVERTER_5
 11
0.0
 21
1.0
 31
0.0
 73
     1
 44
1.0
1001
ACAD
1000
MTEXTBEGIN
1070
    73
1070
     1
1070
    44
1040
1.0
1070
    74
1070
     0
1000
MTEXTEND
  0
ENDBLK
  5
3C3
330
3B9
100
AcDbEntity
  8
0
100
AcDbBlockEnd
  0
BLOCK
  5
3C7
330
3C6
100
AcDbEntity
  8
0
100
AcDbBlockBegin
  2
*D17
 70
     1
 10
0.0
 20
0.0
 30
0.0
  3
*D17
  1

  0
LINE
  5
3C8
330
3C6
100
AcDbEntity
  8
0
  6
Continuous
 62
     2
100
AcDbLine
 10
358.9444340090389
 20
460.8
 30
0.0
 11
358.9444340090389
 21
466.0000000000001
 31
0.0
  0
LINE
  5
3C9
330
3C6
100
AcDbEntity
  8
0
  6
Continuous
 62
     2
100
AcDbLine
 10
358.9444340090389
 20
460.8
 30
0.0
 11
358.9444340090389
 21
455.9000000000001
 31
0.0
  0
LINE
  5
3CA
330
3C6
100
AcDbEntity
  8
0
  6
Continuous
 62
     2
100
AcDbLine
 10
358.9444340090389
 20
466.0000000000001
 30
0.0
 11
358.9444340090389
 21
470.9000000000001
 31
0.0
  0
LINE
  5
3CB
330
3C6
100
AcDbEntity
  8
0
  6
Continuous
 62
     2
100
AcDbLine
 10
385.5812510350231
 20
460.8
 30
0.0
 11
357.9444340090388
 21
460.8
 31
0.0
  0
LINE
  5
3CC
330
3C6
100
AcDbEntity
  8
0
  6
Continuous
 62
     2
100
AcDbLine
 10
372.070139923912
 20
466.0000000000001
 30
0.0
 11
357.9444340090388
 21
466.0000000000001
 31
0.0
  0
LINE
  5
3CD
330
3C6
100
AcDbEntity
  8
0
 62
     2
100
AcDbLine
 10
358.9444340090389
 20
460.8
 30
0.0
 11
359.6009095304952
 21
458.35
 31
0.0
  0
LINE
  5
3CE
330
3C6
100
AcDbEntity
  8
0
 62
     2
100
AcDbLine
 10
358.9444340090389
 20
460.8
 30
0.0
 11
358.2879584875827
 21
458.35
 31
0.0
  0
LINE
  5
3CF
330
3C6
100
AcDbEntity
  8
0
 62
     2
100
AcDbLine
 10
358.9444340090389
 20
466.0000000000001
 30
0.0
 11
358.2879584875827
 21
468.4500000000001
 31
0.0
  0
LINE
  5
3D0
330
3C6
100
AcDbEntity
  8
0
 62
     2
100
AcDbLine
 10
358.9444340090389
 20
466.0000000000001
 30
0.0
 11
359.6009095304952
 21
468.4500000000001
 31
0.0
  0
MTEXT
  5
3D1
330
3C6
100
AcDbEntity
  8
0
 62
     3
100
AcDbMText
 10
357.9444340090388
 20
461.1337500000001
 30
0.0
 40
3.5
 41
0.0
 71
     7
 72
     1
  1
5.2
  7
CONVERTER_5
 11
0.0
 21
1.0
 31
0.0
 73
     1
 44
1.0
1001
ACAD
1000
MTEXTBEGIN
1070
    73
1070
     1
1070
    44
1040
1.0
1070
    74
1070
     0
1000
MTEXTEND
  0
ENDBLK
  5
3D2
330
3C6
100
AcDbEntity
  8
0
100
AcDbBlockEnd
  0
BLOCK
  5
3D6
330
3D5
100
AcDbEntity
  8
0
100
AcDbBlockBegin
  2
*D18
 70
     1
 10
0.0
 20
0.0
 30
0.0
  3
*D18
  1

  0
LINE
  5
3D7
330
3D5
100
AcDbEntity
  8
0
  6
Continuous
 62
     2
100
AcDbLine
 10
497.0485746006673
 20
404.0
 30
0.0
 11
512.0485746006673
 21
404.0
 31
0.0
  0
LINE
  5
3D8
330
3D5
100
AcDbEntity
  8
0
  6
Continuous
 62
     2
100
AcDbLine
 10
497.0485746006673
 20
424.0
 30
0.0
 11
497.0485746006673
 21
403.0
 31
0.0
  0
LINE
  5
3D9
330
3D5
100
AcDbEntity
  8
0
  6
Continuous
 62
     2
100
AcDbLine
 10
512.0485746006673
 20
421.1915986383223
 30
0.0
 11
512.0485746006673
 21
403.0
 31
0.0
  0
LINE
  5
3DA
330
3D5
100
AcDbEntity
  8
0
 62
     2
100
AcDbLine
 10
497.0485746006673
 20
404.0
 30
0.0
 11
499.4985746006673
 21
404.6564755214562
 31
0.0
  0
LINE
  5
3DB
330
3D5
100
AcDbEntity
  8
0
 62
     2
100
AcDbLine
 10
497.0485746006673
 20
404.0
 30
0.0
 11
499.4985746006673
 21
403.3435244785439
 31
0.0
  0
LINE
  5
3DC
330
3D5
100
AcDbEntity
  8
0
 62
     2
100
AcDbLine
 10
512.0485746006673
 20
404.0
 30
0.0
 11
509.5985746006673
 21
403.3435244785439
 31
0.0
  0
LINE
  5
3DD
330
3D5
100
AcDbEntity
  8
0
 62
     2
100
AcDbLine
 10
512.0485746006673
 20
404.0
 30
0.0
 11
509.5985746006673
 21
404.6564755214562
 31
0.0
  0
MTEXT
  5
3DE
330
3D5
100
AcDbEntity
  8
0
 62
     3
100
AcDbMText
 10
503.0785746006674
 20
405.0
 30
0.0
 40
3.5
 41
0.0
 71
     7
 72
     1
  1
15
  7
CONVERTER_5
 11
0.999999999997062
 21
0.00000242406841
 31
0.0
 73
     1
 44
1.0
1001
ACAD
1000
MTEXTBEGIN
1070
    73
1070
     1
1070
    44
1040
1.0
1070
    74
1070
     0
1000
MTEXTEND
  0
ENDBLK
  5
3DF
330
3D5
100
AcDbEntity
  8
0
100
AcDbBlockEnd
  0
BLOCK
  5
3E3
330
3E2
100
AcDbEntity
  8
0
100
AcDbBlockBegin
  2
*D19
 70
     1
 10
0.0
 20
0.0
 30
0.0
  3
*D19
  1

  0
LINE
  5
3E4
330
3E2
100
AcDbEntity
  8
0
  6
Continuous
 62
     2
100
AcDbLine
 10
512.0485746006673
 20
404.0
 30
0.0
 11
517.0485746006674
 21
404.0
 31
0.0
  0
LINE
  5
3E5
330
3E2
100
AcDbEntity
  8
0
  6
Continuous
 62
     2
100
AcDbLine
 10
512.0485746006673
 20
404.0
 30
0.0
 11
507.1485746006673
 21
404.0
 31
0.0
  0
LINE
  5
3E6
330
3E2
100
AcDbEntity
  8
0
  6
Continuous
 62
     2
100
AcDbLine
 10
517.0485746006674
 20
404.0
 30
0.0
 11
521.9485746006673
 21
404.0
 31
0.0
  0
LINE
  5
3E7
330
3E2
100
AcDbEntity
  8
0
  6
Continuous
 62
     2
100
AcDbLine
 10
512.0485746006673
 20
421.1915986383223
 30
0.0
 11
512.0485746006673
 21
403.0
 31
0.0
  0
LINE
  5
3E8
330
3E2
100
AcDbEntity
  8
0
  6
Continuous
 62
     2
100
AcDbLine
 10
517.0485746006674
 20
427.28375
 30
0.0
 11
517.0485746006674
 21
403.0
 31
0.0
  0
LINE
  5
3E9
330
3E2
100
AcDbEntity
  8
0
 62
     2
100
AcDbLine
 10
512.0485746006673
 20
404.0
 30
0.0
 11
509.5985746006673
 21
403.3435244785439
 31
0.0
  0
LINE
  5
3EA
330
3E2
100
AcDbEntity
  8
0
 62
     2
100
AcDbLine
 10
512.0485746006673
 20
404.0
 30
0.0
 11
509.5985746006673
 21
404.6564755214562
 31
0.0
  0
LINE
  5
3EB
330
3E2
100
AcDbEntity
  8
0
 62
     2
100
AcDbLine
 10
517.0485746006674
 20
404.0
 30
0.0
 11
519.4985746006673
 21
404.6564755214562
 31
0.0
  0
LINE
  5
3EC
330
3E2
100
AcDbEntity
  8
0
 62
     2
100
AcDbLine
 10
517.0485746006674
 20
404.0
 30
0.0
 11
519.4985746006673
 21
403.3435244785439
 31
0.0
  0
MTEXT
  5
3ED
330
3E2
100
AcDbEntity
  8
0
 62
     3
100
AcDbMText
 10
513.8135746006674
 20
405.0
 30
0.0
 40
3.5
 41
0.0
 71
     7
 72
     1
  1
5
  7
CONVERTER_5
 11
0.999999999997062
 21
0.00000242406841
 31
0.0
 73
     1
 44
1.0
1001
ACAD
1000
MTEXTBEGIN
1070
    73
1070
     1
1070
    44
1040
1.0
1070
    74
1070
     0
1000
MTEXTEND
  0
ENDBLK
  5
3EE
330
3E2
100
AcDbEntity
  8
0
100
AcDbBlockEnd
  0
BLOCK
  5
3F2
330
3F1
100
AcDbEntity
  8
0
100
AcDbBlockBegin
  2
*D20
 70
     1
 10
0.0
 20
0.0
 30
0.0
  3
*D20
  1

  0
LINE
  5
3F3
330
3F1
100
AcDbEntity
  8
0
  6
Continuous
 62
     2
100
AcDbLine
 10
494.0485746006673
 20
397.0
 30
0.0
 11
497.0485746006673
 21
397.0
 31
0.0
  0
LINE
  5
3F4
330
3F1
100
AcDbEntity
  8
0
  6
Continuous
 62
     2
100
AcDbLine
 10
494.0485746006673
 20
397.0
 30
0.0
 11
489.1485746006673
 21
397.0
 31
0.0
  0
LINE
  5
3F5
330
3F1
100
AcDbEntity
  8
0
  6
Continuous
 62
     2
100
AcDbLine
 10
497.0485746006673
 20
397.0
 30
0.0
 11
501.9485746006673
 21
397.0
 31
0.0
  0
LINE
  5
3F6
330
3F1
100
AcDbEntity
  8
0
  6
Continuous
 62
     2
100
AcDbLine
 10
494.0485746006673
 20
425.0
 30
0.0
 11
494.0485746006673
 21
396.0000000000001
 31
0.0
  0
LINE
  5
3F7
330
3F1
100
AcDbEntity
  8
0
  6
Continuous
 62
     2
100
AcDbLine
 10
497.0485746006673
 20
424.0
 30
0.0
 11
497.0485746006673
 21
396.0000000000001
 31
0.0
  0
LINE
  5
3F8
330
3F1
100
AcDbEntity
  8
0
 62
     2
100
AcDbLine
 10
497.0485746006673
 20
397.0
 30
0.0
 11
499.4985746006673
 21
397.6564755214563
 31
0.0
  0
LINE
  5
3F9
330
3F1
100
AcDbEntity
  8
0
 62
     2
100
AcDbLine
 10
497.0485746006673
 20
397.0
 30
0.0
 11
499.4985746006673
 21
396.343524478544
 31
0.0
  0
LINE
  5
3FA
330
3F1
100
AcDbEntity
  8
0
 62
     2
100
AcDbLine
 10
494.0485746006673
 20
397.0
 30
0.0
 11
491.5985746006673
 21
396.343524478544
 31
0.0
  0
LINE
  5
3FB
330
3F1
100
AcDbEntity
  8
0
 62
     2
100
AcDbLine
 10
494.0485746006673
 20
397.0
 30
0.0
 11
491.5985746006673
 21
397.6564755214563
 31
0.0
  0
MTEXT
  5
3FC
330
3F1
100
AcDbEntity
  8
0
 62
     3
100
AcDbMText
 10
494.8135746006673
 20
398.0000000000001
 30
0.0
 40
3.5
 41
0.0
 71
     7
 72
     1
  1
3
  7
CONVERTER_5
 11
0.999999999997062
 21
0.00000242406841
 31
0.0
 73
     1
 44
1.0
1001
ACAD
1000
MTEXTBEGIN
1070
    73
1070
     1
1070
    44
1040
1.0
1070
    74
1070
     0
1000
MTEXTEND
  0
ENDBLK
  5
3FD
330
3F1
100
AcDbEntity
  8
0
100
AcDbBlockEnd
  0
BLOCK
  5
401
330
400
100
AcDbEntity
  8
0
100
AcDbBlockBegin
  2
*D21
 70
     1
 10
0.0
 20
0.0
 30
0.0
  3
*D21
  1

  0
LINE
  5
402
330
400
100
AcDbEntity
  8
0
  6
Continuous
 62
     2
100
AcDbLine
 10
497.0485746006673
 20
397.0
 30
0.0
 11
517.0485746006674
 21
397.0
 31
0.0
  0
LINE
  5
403
330
400
100
AcDbEntity
  8
0
  6
Continuous
 62
     2
100
AcDbLine
 10
497.0485746006673
 20
424.0
 30
0.0
 11
497.0485746006673
 21
396.0000000000001
 31
0.0
  0
LINE
  5
404
330
400
100
AcDbEntity
  8
0
  6
Continuous
 62
     2
100
AcDbLine
 10
517.0485746006674
 20
427.28375
 30
0.0
 11
517.0485746006674
 21
396.0000000000001
 31
0.0
  0
LINE
  5
405
330
400
100
AcDbEntity
  8
0
 62
     2
100
AcDbLine
 10
497.0485746006673
 20
397.0
 30
0.0
 11
499.4985746006673
 21
397.6564755214563
 31
0.0
  0
LINE
  5
406
330
400
100
AcDbEntity
  8
0
 62
     2
100
AcDbLine
 10
497.0485746006673
 20
397.0
 30
0.0
 11
499.4985746006673
 21
396.343524478544
 31
0.0
  0
LINE
  5
407
330
400
100
AcDbEntity
  8
0
 62
     2
100
AcDbLine
 10
517.0485746006674
 20
397.0
 30
0.0
 11
514.5985746006673
 21
396.343524478544
 31
0.0
  0
LINE
  5
408
330
400
100
AcDbEntity
  8
0
 62
     2
100
AcDbLine
 10
517.0485746006674
 20
397.0
 30
0.0
 11
514.5985746006673
 21
397.6564755214563
 31
0.0
  0
MTEXT
  5
409
330
400
100
AcDbEntity
  8
0
 62
     3
100
AcDbMText
 10
505.2110746006674
 20
398.0000000000001
 30
0.0
 40
3.5
 41
0.0
 71
     7
 72
     1
  1
20
  7
CONVERTER_5
 11
0.999999999997062
 21
0.00000242406841
 31
0.0
 73
     1
 44
1.0
1001
ACAD
1000
MTEXTBEGIN
1070
    73
1070
     1
1070
    44
1040
1.0
1070
    74
1070
     0
1000
MTEXTEND
  0
ENDBLK
  5
40A
330
400
100
AcDbEntity
  8
0
100
AcDbBlockEnd
  0
BLOCK
  5
40E
330
40D
100
AcDbEntity
  8
0
100
AcDbBlockBegin
  2
*D22
 70
     1
 10
0.0
 20
0.0
 30
0.0
  3
*D22
  1

  0
LINE
  5
40F
330
40D
100
AcDbEntity
  8
0
  6
Continuous
 62
     2
100
AcDbLine
 10
585.0701399239119
 20
404.0
 30
0.0
 11
625.0701399239119
 21
404.0
 31
0.0
  0
LINE
  5
410
330
40D
100
AcDbEntity
  8
0
  6
Continuous
 62
     2
100
AcDbLine
 10
585.0701399239119
 20
430.0
 30
0.0
 11
585.0701399239119
 21
403.0
 31
0.0
  0
LINE
  5
411
330
40D
100
AcDbEntity
  8
0
  6
Continuous
 62
     2
100
AcDbLine
 10
625.0701399239119
 20
430.0
 30
0.0
 11
625.0701399239119
 21
403.0
 31
0.0
  0
LINE
  5
412
330
40D
100
AcDbEntity
  8
0
 62
     2
100
AcDbLine
 10
585.0701399239119
 20
404.0
 30
0.0
 11
587.5201399239119
 21
404.6564755214562
 31
0.0
  0
LINE
  5
413
330
40D
100
AcDbEntity
  8
0
 62
     2
100
AcDbLine
 10
585.0701399239119
 20
404.0
 30
0.0
 11
587.5201399239119
 21
403.3435244785439
 31
0.0
  0
LINE
  5
414
330
40D
100
AcDbEntity
  8
0
 62
     2
100
AcDbLine
 10
625.0701399239119
 20
404.0
 30
0.0
 11
622.6201399239118
 21
403.3435244785439
 31
0.0
  0
LINE
  5
415
330
40D
100
AcDbEntity
  8
0
 62
     2
100
AcDbLine
 10
625.0701399239119
 20
404.0
 30
0.0
 11
622.6201399239118
 21
404.6564755214562
 31
0.0
  0
MTEXT
  5
416
330
40D
100
AcDbEntity
  8
0
 62
     3
100
AcDbMText
 10
603.2326399239119
 20
405.0
 30
0.0
 40
3.5
 41
0.0
 71
     7
 72
     1
  1
40
  7
CONVERTER_5
 11
0.999999999997062
 21
0.00000242406841
 31
0.0
 73
     1
 44
1.0
1001
ACAD
1000
MTEXTBEGIN
1070
    73
1070
     1
1070
    44
1040
1.0
1070
    74
1070
     0
1000
MTEXTEND
  0
ENDBLK
  5
417
330
40D
100
AcDbEntity
  8
0
100
AcDbBlockEnd
  0
BLOCK
  5
41B
330
41A
100
AcDbEntity
  8
0
100
AcDbBlockBegin
  2
*D23
 70
     1
 10
0.0
 20
0.0
 30
0.0
  3
*D23
  1

  0
LINE
  5
41C
330
41A
100
AcDbEntity
  8
0
  6
Continuous
 62
     2
100
AcDbLine
 10
646.0701399239119
 20
425.0
 30
0.0
 11
646.0701399239119
 21
466.0000000000001
 31
0.0
  0
LINE
  5
41D
330
41A
100
AcDbEntity
  8
0
  6
Continuous
 62
     2
100
AcDbLine
 10
620.0701399239119
 20
425.0
 30
0.0
 11
647.0701399239119
 21
425.0
 31
0.0
  0
LINE
  5
41E
330
41A
100
AcDbEntity
  8
0
  6
Continuous
 62
     2
100
AcDbLine
 10
625.0701399239119
 20
466.0000000000001
 30
0.0
 11
647.0701399239119
 21
466.0000000000001
 31
0.0
  0
LINE
  5
41F
330
41A
100
AcDbEntity
  8
0
 62
     2
100
AcDbLine
 10
646.0701399239119
 20
425.0
 30
0.0
 11
645.4136644024556
 21
427.4500000000001
 31
0.0
  0
LINE
  5
420
330
41A
100
AcDbEntity
  8
0
 62
     2
100
AcDbLine
 10
646.0701399239119
 20
425.0
 30
0.0
 11
646.7266154453681
 21
427.4500000000001
 31
0.0
  0
LINE
  5
421
330
41A
100
AcDbEntity
  8
0
 62
     2
100
AcDbLine
 10
646.0701399239119
 20
466.0000000000001
 30
0.0
 11
646.7266154453681
 21
463.55
 31
0.0
  0
LINE
  5
422
330
41A
100
AcDbEntity
  8
0
 62
     2
100
AcDbLine
 10
646.0701399239119
 20
466.0000000000001
 30
0.0
 11
645.4136644024556
 21
463.55
 31
0.0
  0
MTEXT
  5
423
330
41A
100
AcDbEntity
  8
0
 62
     3
100
AcDbMText
 10
645.0701399239119
 20
444.03
 30
0.0
 40
3.5
 41
0.0
 71
     7
 72
     1
  1
41
  7
CONVERTER_5
 11
0.0
 21
1.0
 31
0.0
 73
     1
 44
1.0
1001
ACAD
1000
MTEXTBEGIN
1070
    73
1070
     1
1070
    44
1040
1.0
1070
    74
1070
     0
1000
MTEXTEND
  0
ENDBLK
  5
424
330
41A
100
AcDbEntity
  8
0
100
AcDbBlockEnd
  0
BLOCK
  5
428
330
427
100
AcDbEntity
  8
0
100
AcDbBlockBegin
  2
*D24
 70
     1
 10
0.0
 20
0.0
 30
0.0
  3
*D24
  1

  0
LINE
  5
429
330
427
100
AcDbEntity
  8
0
  6
Continuous
 62
     2
100
AcDbLine
 10
597.6701399239119
 20
507.4999999999999
 30
0.0
 11
612.4701399239119
 21
507.4999999999999
 31
0.0
  0
LINE
  5
42A
330
427
100
AcDbEntity
  8
0
  6
Continuous
 62
     2
100
AcDbLine
 10
597.6701399239119
 20
467.0
 30
0.0
 11
597.6701399239119
 21
508.4999999999999
 31
0.0
  0
LINE
  5
42B
330
427
100
AcDbEntity
  8
0
  6
Continuous
 62
     2
100
AcDbLine
 10
612.4701399239119
 20
467.0
 30
0.0
 11
612.4701399239119
 21
508.4999999999999
 31
0.0
  0
LINE
  5
42C
330
427
100
AcDbEntity
  8
0
 62
     2
100
AcDbLine
 10
612.4701399239119
 20
507.4999999999999
 30
0.0
 11
610.0201399239118
 21
506.8435244785437
 31
0.0
  0
LINE
  5
42D
330
427
100
AcDbEntity
  8
0
 62
     2
100
AcDbLine
 10
612.4701399239119
 20
507.4999999999999
 30
0.0
 11
610.0201399239118
 21
508.156475521456
 31
0.0
  0
LINE
  5
42E
330
427
100
AcDbEntity
  8
0
 62
     2
100
AcDbLine
 10
597.6701399239119
 20
507.4999999999999
 30
0.0
 11
600.1201399239119
 21
508.156475521456
 31
0.0
  0
LINE
  5
42F
330
427
100
AcDbEntity
  8
0
 62
     2
100
AcDbLine
 10
597.6701399239119
 20
507.4999999999999
 30
0.0
 11
600.1201399239119
 21
506.8435244785437
 31
0.0
  0
MTEXT
  5
430
330
427
100
AcDbEntity
  8
0
 62
     3
100
AcDbMText
 10
602.0688899239119
 20
508.4999999999999
 30
0.0
 40
3.5
 41
0.0
 71
     7
 72
     1
  1
14.8
  7
CONVERTER_5
 11
0.999999999997062
 21
0.00000242406841
 31
0.0
 73
     1
 44
1.0
1001
ACAD
1000
MTEXTBEGIN
1070
    73
1070
     1
1070
    44
1040
1.0
1070
    74
1070
     0
1000
MTEXTEND
  0
ENDBLK
  5
431
330
427
100
AcDbEntity
  8
0
100
AcDbBlockEnd
  0
BLOCK
  5
435
330
434
100
AcDbEntity
  8
0
100
AcDbBlockBegin
  2
*D25
 70
     1
 10
0.0
 20
0.0
 30
0.0
  3
*D25
  1

  0
LINE
  5
436
330
434
100
AcDbEntity
  8
0
  6
Continuous
 62
     2
100
AcDbLine
 10
646.0701399239119
 20
461.1000000000001
 30
0.0
 11
646.0701399239119
 21
466.0000000000001
 31
0.0
  0
LINE
  5
437
330
434
100
AcDbEntity
  8
0
  6
Continuous
 62
     2
100
AcDbLine
 10
646.0701399239119
 20
466.0000000000001
 30
0.0
 11
646.0701399239119
 21
470.2000000000001
 31
0.0
  0
LINE
  5
438
330
434
100
AcDbEntity
  8
0
  6
Continuous
 62
     2
100
AcDbLine
 10
646.0701399239119
 20
470.2000000000001
 30
0.0
 11
646.0701399239119
 21
489.4027612585662
 31
0.0
  0
LINE
  5
439
330
434
100
AcDbEntity
  8
0
  6
Continuous
 62
     2
100
AcDbLine
 10
625.0701399239119
 20
466.0000000000001
 30
0.0
 11
647.0701399239119
 21
466.0000000000001
 31
0.0
  0
LINE
  5
43A
330
434
100
AcDbEntity
  8
0
  6
Continuous
 62
     2
100
AcDbLine
 10
621.0701399239119
 20
470.2000000000001
 30
0.0
 11
647.0701399239119
 21
470.2000000000001
 31
0.0
  0
LINE
  5
43B
330
434
100
AcDbEntity
  8
0
 62
     2
100
AcDbLine
 10
646.0701399239119
 20
470.2000000000001
 30
0.0
 11
645.4136644024556
 21
472.65
 31
0.0
  0
LINE
  5
43C
330
434
100
AcDbEntity
  8
0
 62
     2
100
AcDbLine
 10
646.0701399239119
 20
470.2000000000001
 30
0.0
 11
646.7266154453681
 21
472.65
 31
0.0
  0
LINE
  5
43D
330
434
100
AcDbEntity
  8
0
 62
     2
100
AcDbLine
 10
646.0701399239119
 20
466.0000000000001
 30
0.0
 11
646.7266154453681
 21
463.55
 31
0.0
  0
LINE
  5
43E
330
434
100
AcDbEntity
  8
0
 62
     2
100
AcDbLine
 10
646.0701399239119
 20
466.0000000000001
 30
0.0
 11
645.4136644024556
 21
463.55
 31
0.0
  0
MTEXT
  5
43F
102
{ACAD_XDICTIONARY
360
66C
102
}
330
434
100
AcDbEntity
  8
0
 62
     3
100
AcDbMText
 10
645.0701399239119
 20
474.2354083173897
 30
0.0
 40
3.5
 41
0.0
 71
     7
 72
     1
  1
\C3;4.2\C3;\U+0081`10.2
  7
CONVERTER_5
 11
0.0
 21
1.0
 31
0.0
 73
     1
 44
1.0
1001
ACAD
1000
MTEXTBEGIN
1070
    73
1070
     1
1070
    44
1040
1.0
1070
    74
1070
     0
1000
MTEXTEND
  0
ENDBLK
  5
440
330
434
100
AcDbEntity
  8
0
100
AcDbBlockEnd
  0
BLOCK
  5
444
330
443
100
AcDbEntity
  8
0
100
AcDbBlockBegin
  2
*D26
 70
     1
 10
0.0
 20
0.0
 30
0.0
  3
*D26
  1

  0
LINE
  5
445
330
443
100
AcDbEntity
  8
0
  6
Continuous
 62
     2
100
AcDbLine
 10
564.9315062843417
 20
451.0417836598111
 30
0.0
 11
592.6321803154997
 21
443.4215728517018
 31
0.0
  0
LINE
  5
446
330
443
100
AcDbEntity
  8
0
  6
Continuous
 62
     2
100
AcDbLine
 10
621.0514717463488
 20
435.6036767428716
 30
0.0
 11
617.5080995323244
 21
436.5784271482983
 31
0.0
  0
LINE
  5
447
330
443
100
AcDbEntity
  8
0
 62
     2
100
AcDbLine
 10
592.6321803154997
 20
443.4215728517018
 30
0.0
 11
590.0958097835127
 21
443.4384439731657
 31
0.0
  0
LINE
  5
448
330
443
100
AcDbEntity
  8
0
 62
     2
100
AcDbLine
 10
592.6321803154997
 20
443.4215728517018
 30
0.0
 11
590.4440545621206
 21
444.7043689374734
 31
0.0
  0
LINE
  5
449
330
443
100
AcDbEntity
  8
0
 62
     2
100
AcDbLine
 10
617.5080995323244
 20
436.5784271482983
 30
0.0
 11
620.0444700643112
 21
436.5615560268343
 31
0.0
  0
LINE
  5
44A
330
443
100
AcDbEntity
  8
0
 62
     2
100
AcDbLine
 10
617.5080995323244
 20
436.5784271482983
 30
0.0
 11
619.6962252857034
 21
435.2956310625266
 31
0.0
  0
MTEXT
  5
44B
330
443
100
AcDbEntity
  8
0
 62
     3
100
AcDbMText
 10
563.0032283574085
 20
452.6093834928369
 30
0.0
 40
3.5
 41
0.0
 71
     7
 72
     1
  1
\C3;{\Fgdt;n}\C3;25.8
  7
CONVERTER_5
 11
0.9641829153808023
 21
-0.2652382055582807
 31
0.0
 73
     1
 44
1.0
1001
ACAD
1000
MTEXTBEGIN
1070
    73
1070
     1
1070
    44
1040
1.0
1070
    74
1070
     0
1000
MTEXTEND
  0
ENDBLK
  5
44C
330
443
100
AcDbEntity
  8
0
100
AcDbBlockEnd
  0
ENDSEC
  0
SECTION
  2
ENTITIES
  0
LINE
  5
310
330
A
100
AcDbEntity
  8
1
  6
Continuous
 62
     7
100
AcDbLine
 10
515.4735746006674
 20
471.6499999999999
 30
0.0
 11
514.9924890550789
 21
471.6499999999999
 31
0.0
  0
LINE
  5
30F
330
A
100
AcDbEntity
  8
1
  6
Continuous
 62
     7
100
AcDbLine
 10
515.9485746006672
 20
471.6499999999999
 30
0.0
 11
515.4735746006674
 21
471.6499999999999
 31
0.0
  0
LINE
  5
30E
330
A
100
AcDbEntity
  8
1
  6
Continuous
 62
     7
100
AcDbLine
 10
507.3279974640731
 20
470.65
 30
0.0
 11
508.6235746006673
 21
470.65
 31
0.0
  0
LINE
  5
30D
330
A
100
AcDbEntity
  8
1
  6
Continuous
 62
     7
100
AcDbLine
 10
509.0903170311717
 20
471.6499999999999
 30
0.0
 11
508.6235746006673
 21
471.6499999999999
 31
0.0
  0
LINE
  5
30C
330
A
100
AcDbEntity
  8
1
  6
Continuous
 62
     7
100
AcDbLine
 10
511.1548246006676
 20
466.0000000000001
 30
0.0
 11
514.7985746006674
 21
468.6499999999999
 31
0.0
  0
LINE
  5
30B
330
A
100
AcDbEntity
  8
1
  6
Continuous
 62
     7
100
AcDbLine
 10
512.9423246006672
 20
466.0000000000001
 30
0.0
 11
509.2985746006673
 21
468.6499999999999
 31
0.0
  0
LINE
  5
30A
330
A
100
AcDbEntity
  8
1
  6
Continuous
 62
     7
100
AcDbLine
 10
514.7985746006674
 20
468.6499999999999
 30
0.0
 11
515.4735746006674
 21
468.6499999999999
 31
0.0
  0
LINE
  5
309
330
A
100
AcDbEntity
  8
1
  6
Continuous
 62
     7
100
AcDbLine
 10
514.7985746006674
 20
468.6499999999999
 30
0.0
 11
514.7985746006674
 21
466.0000000000001
 31
0.0
  0
LINE
  5
308
330
A
100
AcDbEntity
  8
1
  6
Continuous
 62
     7
100
AcDbLine
 10
509.2985746006673
 20
468.6499999999999
 30
0.0
 11
514.7985746006674
 21
468.6499999999999
 31
0.0
  0
LINE
  5
307
330
A
100
AcDbEntity
  8
1
  6
Continuous
 62
     7
100
AcDbLine
 10
509.2985746006673
 20
468.6499999999999
 30
0.0
 11
509.2985746006673
 21
466.0000000000001
 31
0.0
  0
LINE
  5
306
330
A
100
AcDbEntity
  8
1
  6
Continuous
 62
     7
100
AcDbLine
 10
508.6235746006673
 20
468.6499999999999
 30
0.0
 11
509.2985746006673
 21
468.6499999999999
 31
0.0
  0
LINE
  5
305
330
A
100
AcDbEntity
  8
1
  6
Continuous
 62
     7
100
AcDbLine
 10
515.4735746006674
 20
470.65
 30
0.0
 11
516.7691517372613
 21
470.65
 31
0.0
  0
LINE
  5
304
330
A
100
AcDbEntity
  8
1
  6
Continuous
 62
     7
100
AcDbLine
 10
515.4735746006674
 20
470.65
 30
0.0
 11
515.4735746006674
 21
468.6499999999999
 31
0.0
  0
LINE
  5
303
330
A
100
AcDbEntity
  8
1
  6
Continuous
 62
     7
100
AcDbLine
 10
508.6235746006673
 20
470.65
 30
0.0
 11
515.4735746006674
 21
470.65
 31
0.0
  0
LINE
  5
302
330
A
100
AcDbEntity
  8
1
  6
Continuous
 62
     7
100
AcDbLine
 10
508.6235746006673
 20
470.65
 30
0.0
 11
508.6235746006673
 21
468.6499999999999
 31
0.0
  0
LINE
  5
301
330
A
100
AcDbEntity
  8
1
  6
Continuous
 62
     7
100
AcDbLine
 10
515.4735746006674
 20
472.6499999999999
 30
0.0
 11
515.4735746006674
 21
471.6499999999999
 31
0.0
  0
LINE
  5
300
330
A
100
AcDbEntity
  8
1
  6
Continuous
 62
     7
100
AcDbLine
 10
508.6235746006673
 20
471.6499999999999
 30
0.0
 11
508.1485746006674
 21
471.6499999999999
 31
0.0
  0
LINE
  5
2FF
330
A
100
AcDbEntity
  8
1
  6
Continuous
 62
     7
100
AcDbLine
 10
508.6235746006673
 20
472.6499999999999
 30
0.0
 11
508.6235746006673
 21
471.6499999999999
 31
0.0
  0
LINE
  5
2EB
330
A
100
AcDbEntity
  8
1
  6
Continuous
 62
     7
100
AcDbLine
 10
391.1763899239121
 20
466.0000000000001
 30
0.0
 11
394.820139923912
 21
468.6499999999999
 31
0.0
  0
LINE
  5
2EA
330
A
100
AcDbEntity
  8
1
  6
Continuous
 62
     7
100
AcDbLine
 10
392.9638899239117
 20
466.0000000000001
 30
0.0
 11
389.320139923912
 21
468.6499999999999
 31
0.0
  0
LINE
  5
2E9
330
A
100
AcDbEntity
  8
1
  6
Continuous
 62
     7
100
AcDbLine
 10
394.820139923912
 20
468.6499999999999
 30
0.0
 11
395.4951399239119
 21
468.6499999999999
 31
0.0
  0
LINE
  5
2E8
330
A
100
AcDbEntity
  8
1
  6
Continuous
 62
     7
100
AcDbLine
 10
394.820139923912
 20
468.6499999999999
 30
0.0
 11
394.820139923912
 21
466.0000000000001
 31
0.0
  0
LINE
  5
2E7
330
A
100
AcDbEntity
  8
1
  6
Continuous
 62
     7
100
AcDbLine
 10
389.320139923912
 20
468.6499999999999
 30
0.0
 11
394.820139923912
 21
468.6499999999999
 31
0.0
  0
LINE
  5
2E6
330
A
100
AcDbEntity
  8
1
  6
Continuous
 62
     7
100
AcDbLine
 10
389.320139923912
 20
468.6499999999999
 30
0.0
 11
389.320139923912
 21
466.0000000000001
 31
0.0
  0
LINE
  5
2E5
330
A
100
AcDbEntity
  8
1
  6
Continuous
 62
     7
100
AcDbLine
 10
388.645139923912
 20
468.6499999999999
 30
0.0
 11
389.320139923912
 21
468.6499999999999
 31
0.0
  0
LINE
  5
2E4
330
A
100
AcDbEntity
  8
1
  6
Continuous
 62
     7
100
AcDbLine
 10
395.4951399239119
 20
470.65
 30
0.0
 11
397.070139923912
 21
470.65
 31
0.0
  0
LINE
  5
2E3
330
A
100
AcDbEntity
  8
1
  6
Continuous
 62
     7
100
AcDbLine
 10
395.4951399239119
 20
470.65
 30
0.0
 11
395.4951399239119
 21
468.6499999999999
 31
0.0
  0
LINE
  5
2E2
330
A
100
AcDbEntity
  8
1
  6
Continuous
 62
     7
100
AcDbLine
 10
388.645139923912
 20
470.65
 30
0.0
 11
395.4951399239119
 21
470.65
 31
0.0
  0
LINE
  5
2E1
330
A
100
AcDbEntity
  8
1
  6
Continuous
 62
     7
100
AcDbLine
 10
388.645139923912
 20
470.65
 30
0.0
 11
388.645139923912
 21
468.6499999999999
 31
0.0
  0
LINE
  5
2E0
330
A
100
AcDbEntity
  8
1
  6
Continuous
 62
     7
100
AcDbLine
 10
395.4951399239119
 20
471.6499999999999
 30
0.0
 11
388.645139923912
 21
471.6499999999999
 31
0.0
  0
LINE
  5
2DF
330
A
100
AcDbEntity
  8
1
  6
Continuous
 62
     7
100
AcDbLine
 10
395.4951399239119
 20
472.6499999999999
 30
0.0
 11
395.4951399239119
 21
471.6499999999999
 31
0.0
  0
LINE
  5
2DE
330
A
100
AcDbEntity
  8
1
  6
Continuous
 62
     7
100
AcDbLine
 10
388.645139923912
 20
471.6499999999999
 30
0.0
 11
387.070139923912
 21
471.6499999999999
 31
0.0
  0
LINE
  5
2DD
330
A
100
AcDbEntity
  8
1
  6
Continuous
 62
     7
100
AcDbLine
 10
388.645139923912
 20
472.6499999999999
 30
0.0
 11
388.645139923912
 21
471.6499999999999
 31
0.0
  0
LINE
  5
2DC
330
A
100
AcDbEntity
  8
1
  6
Continuous
 62
     7
100
AcDbLine
 10
387.070139923912
 20
471.6499999999999
 30
0.0
 11
387.070139923912
 21
470.65
 31
0.0
  0
LINE
  5
2DB
330
A
100
AcDbEntity
  8
1
  6
Continuous
 62
     7
100
AcDbLine
 10
397.070139923912
 20
471.6499999999999
 30
0.0
 11
395.4951399239119
 21
471.6499999999999
 31
0.0
  0
LINE
  5
2DA
330
A
100
AcDbEntity
  8
1
  6
Continuous
 62
     7
100
AcDbLine
 10
397.070139923912
 20
470.65
 30
0.0
 11
397.070139923912
 21
471.6499999999999
 31
0.0
  0
LINE
  5
2D9
330
A
100
AcDbEntity
  8
1
  6
Continuous
 62
     7
100
AcDbLine
 10
387.070139923912
 20
470.65
 30
0.0
 11
388.645139923912
 21
470.65
 31
0.0
  0
ARC
  5
4D5
330
A
100
AcDbEntity
  8
1
  6
Continuous
 62
   133
100
AcDbCircle
 10
391.120139923912
 20
459.85
 30
0.0
 40
0.5
100
AcDbArc
 50
0.0
 51
90.0
  0
ARC
  5
4D6
330
A
100
AcDbEntity
  8
1
  6
Continuous
 62
   133
100
AcDbCircle
 10
391.120139923912
 20
461.75
 30
0.0
 40
0.5
100
AcDbArc
 50
270.0
 51
0.0
  0
ARC
  5
4D7
330
A
100
AcDbEntity
  8
1
  6
Continuous
 62
   133
100
AcDbCircle
 10
393.020139923912
 20
461.75
 30
0.0
 40
0.5
100
AcDbArc
 50
180.0
 51
270.0
  0
ARC
  5
4D8
330
A
100
AcDbEntity
  8
1
  6
Continuous
 62
   133
100
AcDbCircle
 10
393.020139923912
 20
459.85
 30
0.0
 40
0.5
100
AcDbArc
 50
90.0
 51
180.0
  0
LWPOLYLINE
  5
4D9
330
A
100
AcDbEntity
  8
1
  6
Continuous
 62
     7
100
AcDbPolyline
 90
        2
 70
     1
 43
0.0
 10
397.320139923912
 20
440.0
 42
1.0
 10
386.820139923912
 20
440.0
 42
1.0
  0
LWPOLYLINE
  5
4DA
330
A
100
AcDbEntity
  8
1
  6
Continuous
 62
     7
100
AcDbPolyline
 90
        2
 70
     1
 43
0.0
 10
392.070139923912
 20
445.75
 42
1.0
 10
392.070139923912
 20
434.25
 42
1.0
  0
LWPOLYLINE
  5
4DB
330
A
100
AcDbEntity
  8
1
  6
Continuous
 62
     7
100
AcDbPolyline
 90
        2
 70
     1
 43
0.0
 10
399.820139923912
 20
440.0
 42
1.0
 10
384.320139923912
 20
440.0
 42
1.0
  0
LWPOLYLINE
  5
4DC
330
A
100
AcDbEntity
  8
1
  6
Continuous
 62
     7
100
AcDbPolyline
 90
        2
 70
     1
 43
0.0
 10
398.820139923912
 20
440.0
 42
1.0
 10
385.320139923912
 20
440.0
 42
1.0
  0
LWPOLYLINE
  5
4DD
330
A
100
AcDbEntity
  8
1
  6
Continuous
 62
     7
100
AcDbPolyline
 90
        2
 70
     1
 43
0.0
 10
392.070139923912
 20
464.5999999999999
 42
1.0
 10
392.070139923912
 20
457.0000000000002
 42
1.0
  0
ARC
  5
4DE
330
A
100
AcDbEntity
  8
1
  6
Continuous
 62
     7
100
AcDbCircle
 10
392.070139923912
 20
440.0
 30
0.0
 40
10.79999999999997
100
AcDbArc
 50
119.3892799478883
 51
60.6107200521107
  0
LINE
  5
4E2
330
A
100
AcDbEntity
  8
1
  6
Continuous
 62
   133
100
AcDbLine
 10
390.070139923912
 20
461.25
 30
0.0
 11
390.070139923912
 21
460.35
 31
0.0
  0
LINE
  5
4E3
330
A
100
AcDbEntity
  8
1
  6
Continuous
 62
   133
100
AcDbLine
 10
391.620139923912
 20
461.75
 30
0.0
 11
391.620139923912
 21
462.8000000000001
 31
0.0
  0
LINE
  5
4E4
330
A
100
AcDbEntity
  8
1
  6
Continuous
 62
   133
100
AcDbLine
 10
391.620139923912
 20
458.8
 30
0.0
 11
391.620139923912
 21
459.85
 31
0.0
  0
LINE
  5
4E5
330
A
100
AcDbEntity
  8
1
  6
Continuous
 62
   133
100
AcDbLine
 10
392.520139923912
 20
459.85
 30
0.0
 11
392.520139923912
 21
458.8
 31
0.0
  0
LINE
  5
4E6
330
A
100
AcDbEntity
  8
1
  6
Continuous
 62
   133
100
AcDbLine
 10
392.520139923912
 20
462.8000000000001
 30
0.0
 11
392.520139923912
 21
461.75
 31
0.0
  0
LINE
  5
4E7
330
A
100
AcDbEntity
  8
1
  6
Continuous
 62
   133
100
AcDbLine
 10
394.070139923912
 20
461.25
 30
0.0
 11
394.070139923912
 21
460.35
 31
0.0
  0
LINE
  5
4E8
330
A
100
AcDbEntity
  8
1
  6
Continuous
 62
   133
100
AcDbLine
 10
391.620139923912
 20
458.8
 30
0.0
 11
392.520139923912
 21
458.8
 31
0.0
  0
LINE
  5
4E9
330
A
100
AcDbEntity
  8
1
  6
Continuous
 62
   133
100
AcDbLine
 10
391.120139923912
 20
460.35
 30
0.0
 11
390.070139923912
 21
460.35
 31
0.0
  0
LINE
  5
4EA
330
A
100
AcDbEntity
  8
1
  6
Continuous
 62
   133
100
AcDbLine
 10
394.070139923912
 20
460.35
 30
0.0
 11
393.020139923912
 21
460.35
 31
0.0
  0
LINE
  5
4EB
330
A
100
AcDbEntity
  8
1
  6
Continuous
 62
   133
100
AcDbLine
 10
393.020139923912
 20
461.25
 30
0.0
 11
394.070139923912
 21
461.25
 31
0.0
  0
LINE
  5
4EC
330
A
100
AcDbEntity
  8
1
  6
Continuous
 62
   133
100
AcDbLine
 10
390.070139923912
 20
461.25
 30
0.0
 11
391.120139923912
 21
461.25
 31
0.0
  0
LINE
  5
4ED
330
A
100
AcDbEntity
  8
1
  6
Continuous
 62
   133
100
AcDbLine
 10
391.620139923912
 20
462.8000000000001
 30
0.0
 11
392.520139923912
 21
462.8000000000001
 31
0.0
  0
LINE
  5
4EE
330
A
100
AcDbEntity
  8
1
  6
Continuous
 62
   133
100
AcDbLine
 10
391.0368065905785
 20
441.0333333333333
 30
0.0
 11
391.450139923912
 21
443.1
 31
0.0
  0
LINE
  5
4EF
330
A
100
AcDbEntity
  8
1
  6
Continuous
 62
   133
100
AcDbLine
 10
388.970139923912
 20
440.6200000000001
 30
0.0
 11
391.0368065905785
 21
441.0333333333333
 31
0.0
  0
LINE
  5
4F0
330
A
100
AcDbEntity
  8
1
  6
Continuous
 62
   133
100
AcDbLine
 10
388.970139923912
 20
439.38
 30
0.0
 11
388.970139923912
 21
440.6200000000001
 31
0.0
  0
LINE
  5
4F1
330
A
100
AcDbEntity
  8
1
  6
Continuous
 62
   133
100
AcDbLine
 10
391.0368065905785
 20
438.9666666666668
 30
0.0
 11
388.970139923912
 21
439.38
 31
0.0
  0
LINE
  5
4F2
330
A
100
AcDbEntity
  8
1
  6
Continuous
 62
   133
100
AcDbLine
 10
391.450139923912
 20
436.9
 30
0.0
 11
391.0368065905785
 21
438.9666666666668
 31
0.0
  0
LINE
  5
4F3
330
A
100
AcDbEntity
  8
1
  6
Continuous
 62
   133
100
AcDbLine
 10
392.690139923912
 20
436.9
 30
0.0
 11
391.450139923912
 21
436.9
 31
0.0
  0
LINE
  5
4F4
330
A
100
AcDbEntity
  8
1
  6
Continuous
 62
   133
100
AcDbLine
 10
393.1034732572454
 20
438.9666666666668
 30
0.0
 11
392.690139923912
 21
436.9
 31
0.0
  0
LINE
  5
4F5
330
A
100
AcDbEntity
  8
1
  6
Continuous
 62
   133
100
AcDbLine
 10
395.170139923912
 20
439.38
 30
0.0
 11
393.1034732572454
 21
438.9666666666668
 31
0.0
  0
LINE
  5
4F6
330
A
100
AcDbEntity
  8
1
  6
Continuous
 62
   133
100
AcDbLine
 10
395.170139923912
 20
440.6200000000001
 30
0.0
 11
395.170139923912
 21
439.38
 31
0.0
  0
LINE
  5
4F7
330
A
100
AcDbEntity
  8
1
  6
Continuous
 62
   133
100
AcDbLine
 10
393.1034732572454
 20
441.0333333333333
 30
0.0
 11
395.170139923912
 21
440.6200000000001
 31
0.0
  0
LINE
  5
4F8
330
A
100
AcDbEntity
  8
1
  6
Continuous
 62
   133
100
AcDbLine
 10
392.690139923912
 20
443.1
 30
0.0
 11
393.1034732572454
 21
441.0333333333333
 31
0.0
  0
LINE
  5
4F9
330
A
100
AcDbEntity
  8
1
  6
Continuous
 62
   133
100
AcDbLine
 10
391.450139923912
 20
443.1
 30
0.0
 11
392.690139923912
 21
443.1
 31
0.0
  0
LINE
  5
4FA
330
A
100
AcDbEntity
  8
1
  6
DOT_CENTER
 62
     2
100
AcDbLine
 10
397.5590288128009
 20
460.8
 30
0.0
 11
386.5812510350231
 21
460.8
 31
0.0
  0
LINE
  5
4FB
330
A
100
AcDbEntity
  8
1
  6
Continuous
 62
     7
100
AcDbLine
 10
397.370139923912
 20
465.3
 30
0.0
 11
386.770139923912
 21
465.3
 31
0.0
  0
LINE
  5
4FC
330
A
100
AcDbEntity
  8
1
  6
Continuous
 62
     7
100
AcDbLine
 10
386.770139923912
 20
449.4101009558879
 30
0.0
 11
386.770139923912
 21
466.0000000000001
 31
0.0
  0
LINE
  5
4FD
330
A
100
AcDbEntity
  8
1
  6
Continuous
 62
     7
100
AcDbLine
 10
397.370139923912
 20
466.0000000000001
 30
0.0
 11
397.370139923912
 21
449.4101009558879
 31
0.0
  0
LINE
  5
4FE
330
A
100
AcDbEntity
  8
1
  6
Continuous
 62
     7
100
AcDbLine
 10
386.770139923912
 20
466.0000000000001
 30
0.0
 11
397.370139923912
 21
466.0000000000001
 31
0.0
  0
ARC
  5
511
330
A
100
AcDbEntity
  8
1
  6
Continuous
 62
     7
100
AcDbCircle
 10
378.070139923912
 20
431.0
 30
0.0
 40
5.0
100
AcDbArc
 50
180.0
 51
270.0
  0
ARC
  5
512
330
A
100
AcDbEntity
  8
1
  6
Continuous
 62
     7
100
AcDbCircle
 10
406.0701399239119
 20
431.0
 30
0.0
 40
5.0
100
AcDbArc
 50
270.0
 51
0.0
  0
ARC
  5
513
330
A
100
AcDbEntity
  8
1
  6
Continuous
 62
     7
100
AcDbCircle
 10
378.070139923912
 20
431.0
 30
0.0
 40
6.0
100
AcDbArc
 50
180.0
 51
270.0
  0
ARC
  5
514
330
A
100
AcDbEntity
  8
1
  6
Continuous
 62
     7
100
AcDbCircle
 10
406.0701399239119
 20
431.0
 30
0.0
 40
6.0
100
AcDbArc
 50
270.0
 51
0.0
  0
ARC
  5
515
330
A
100
AcDbEntity
  8
1
  6
Continuous
 62
     7
100
AcDbCircle
 10
373.070139923912
 20
465.0
 30
0.0
 40
1.0
100
AcDbArc
 50
90.0
 51
180.0
  0
ARC
  5
516
330
A
100
AcDbEntity
  8
1
  6
Continuous
 62
     7
100
AcDbCircle
 10
411.0701399239119
 20
465.0
 30
0.0
 40
1.0
100
AcDbArc
 50
0.0
 51
90.0
  0
ARC
  5
529
330
A
100
AcDbEntity
  8
1
  6
Continuous
 62
     7
100
AcDbCircle
 10
392.070139923912
 20
440.0
 30
0.0
 40
10.89999999999995
100
AcDbArc
 50
119.6969774237637
 51
60.30302257623525
  0
ARC
  5
52A
330
A
100
AcDbEntity
  8
1
  6
Continuous
 62
     7
100
AcDbCircle
 10
392.070139923912
 20
440.0
 30
0.0
 40
11.8999999999999
100
AcDbArc
 50
122.5350285076238
 51
57.46497149237522
  0
LWPOLYLINE
  5
52B
330
A
100
AcDbEntity
  8
1
  6
Continuous
 62
     7
100
AcDbPolyline
 90
        2
 70
     1
 43
0.0
 10
380.070139923912
 20
454.0
 42
1.0
 10
373.070139923912
 20
454.0
 42
1.0
  0
LWPOLYLINE
  5
52C
330
A
100
AcDbEntity
  8
1
  6
Continuous
 62
     7
100
AcDbPolyline
 90
        2
 70
     1
 43
0.0
 10
378.570139923912
 20
454.0
 42
1.0
 10
374.570139923912
 20
454.0
 42
1.0
  0
LWPOLYLINE
  5
52D
330
A
100
AcDbEntity
  8
1
  6
Continuous
 62
     7
100
AcDbPolyline
 90
        2
 70
     1
 43
0.0
 10
411.0701399239119
 20
454.0
 42
1.0
 10
404.070139923912
 20
454.0
 42
1.0
  0
LWPOLYLINE
  5
52E
330
A
100
AcDbEntity
  8
1
  6
Continuous
 62
     7
100
AcDbPolyline
 90
        2
 70
     1
 43
0.0
 10
409.570139923912
 20
454.0
 42
1.0
 10
405.5701399239119
 20
454.0
 42
1.0
  0
LINE
  5
552
330
A
100
AcDbEntity
  8
1
  6
DOT_CENTER
 62
     2
100
AcDbLine
 10
512.0485746006673
 20
422.1915986383223
 30
0.0
 11
512.0485746006673
 21
488.4999999999999
 31
0.0
  0
LINE
  5
553
330
A
100
AcDbEntity
  8
1
  6
DOT_CENTER
 62
     2
100
AcDbLine
 10
519.0485746006674
 20
440.0
 30
0.0
 11
492.0485746006673
 21
440.0
 31
0.0
  0
LINE
  5
555
330
A
100
AcDbEntity
  8
1
  6
Continuous
 62
     7
100
AcDbLine
 10
517.0485746006674
 20
450.0324473584465
 30
0.0
 11
516.0485746006673
 21
450.5664563596316
 31
0.0
  0
LINE
  5
556
330
A
100
AcDbEntity
  8
1
  6
Continuous
 62
     7
100
AcDbLine
 10
516.0485746006673
 20
450.5664563596316
 30
0.0
 11
497.0485746006673
 21
450.5664563596316
 31
0.0
  0
LINE
  5
557
330
A
100
AcDbEntity
  8
1
  6
Continuous
 62
     7
100
AcDbLine
 10
517.0485746006674
 20
428.28375
 30
0.0
 11
516.0486128797193
 21
427.2750003349417
 31
0.0
  0
LINE
  5
558
330
A
100
AcDbEntity
  8
1
  6
Continuous
 62
     7
100
AcDbLine
 10
516.0486128797193
 20
427.2750003349417
 30
0.0
 11
516.0485746006673
 21
427.2750000000001
 31
0.0
  0
LINE
  5
559
330
A
100
AcDbEntity
  8
1
  6
Continuous
 62
     7
100
AcDbLine
 10
516.0485746006673
 20
427.2750000000001
 30
0.0
 11
516.0485746006673
 21
466.0000000000001
 31
0.0
  0
LINE
  5
55A
330
A
100
AcDbEntity
  8
1
  6
Continuous
 62
     7
100
AcDbLine
 10
517.0485746006674
 20
428.28375
 30
0.0
 11
517.0485746006674
 21
466.0000000000001
 31
0.0
  0
LINE
  5
55B
330
A
100
AcDbEntity
  8
1
  6
Continuous
 62
     7
100
AcDbLine
 10
516.0485746006673
 20
427.2750000000001
 30
0.0
 11
497.0485746006673
 21
427.1
 31
0.0
  0
LINE
  5
55C
330
A
100
AcDbEntity
  8
1
  6
Continuous
 62
     7
100
AcDbLine
 10
398.470139923912
 20
465.0
 30
0.0
 11
397.470139923912
 21
466.0000000000001
 31
0.0
  0
LINE
  5
55D
330
A
100
AcDbEntity
  8
1
  6
Continuous
 62
     7
100
AcDbLine
 10
397.470139923912
 20
449.4683683916503
 30
0.0
 11
398.470139923912
 21
450.0324473584465
 31
0.0
  0
LINE
  5
55E
330
A
100
AcDbEntity
  8
1
  6
Continuous
 62
     7
100
AcDbLine
 10
386.6701399239119
 20
449.4683683916503
 30
0.0
 11
385.670139923912
 21
450.0324473584465
 31
0.0
  0
LINE
  5
55F
330
A
100
AcDbEntity
  8
1
  6
Continuous
 62
     7
100
AcDbLine
 10
385.670139923912
 20
465.0
 30
0.0
 11
386.6701399239119
 21
466.0000000000001
 31
0.0
  0
LINE
  5
560
330
A
100
AcDbEntity
  8
1
  6
Continuous
 62
     7
100
AcDbLine
 10
495.0485746006673
 20
425.0
 30
0.0
 11
495.0485746006673
 21
466.0000000000001
 31
0.0
  0
LINE
  5
561
330
A
100
AcDbEntity
  8
1
  6
Continuous
 62
     7
100
AcDbLine
 10
495.0485746006673
 20
466.0000000000001
 30
0.0
 11
494.0485746006673
 21
465.0
 31
0.0
  0
LINE
  5
562
330
A
100
AcDbEntity
  8
1
  6
Continuous
 62
     7
100
AcDbLine
 10
495.0485746006673
 20
425.0
 30
0.0
 11
494.0485746006673
 21
426.0
 31
0.0
  0
LINE
  5
563
330
A
100
AcDbEntity
  8
1
  6
Continuous
 62
     7
100
AcDbLine
 10
494.0485746006673
 20
465.0
 30
0.0
 11
494.0485746006673
 21
426.0
 31
0.0
  0
LINE
  5
564
330
A
100
AcDbEntity
  8
1
  6
Continuous
 62
     7
100
AcDbLine
 10
495.0485746006673
 20
425.0
 30
0.0
 11
497.0485746006673
 21
425.0
 31
0.0
  0
LINE
  5
565
330
A
100
AcDbEntity
  8
1
  6
Continuous
 62
     7
100
AcDbLine
 10
497.0485746006673
 20
425.0
 30
0.0
 11
497.0485746006673
 21
466.0000000000001
 31
0.0
  0
LINE
  5
566
330
A
100
AcDbEntity
  8
1
  6
Continuous
 62
     7
100
AcDbLine
 10
517.0485746006674
 20
466.0000000000001
 30
0.0
 11
495.0485746006673
 21
466.0000000000001
 31
0.0
  0
LINE
  5
567
330
A
100
AcDbEntity
  8
1
  6
DOT_CENTER
 62
     2
100
AcDbLine
 10
405.9701399239119
 20
440.0
 30
0.0
 11
378.1701399239119
 21
440.0
 31
0.0
  0
LINE
  5
568
330
A
100
AcDbEntity
  8
1
  6
DOT_CENTER
 62
     2
100
AcDbLine
 10
392.070139923912
 20
488.4999999999999
 30
0.0
 11
392.070139923912
 21
422.1915986383223
 31
0.0
  0
LINE
  5
569
330
A
100
AcDbEntity
  8
1
  6
Continuous
 62
     7
100
AcDbLine
 10
386.6701399239119
 20
466.0000000000001
 30
0.0
 11
386.6701399239119
 21
449.4683683916503
 31
0.0
  0
LINE
  5
56A
330
A
100
AcDbEntity
  8
1
  6
Continuous
 62
     7
100
AcDbLine
 10
373.070139923912
 20
466.0000000000001
 30
0.0
 11
386.6701399239119
 21
466.0000000000001
 31
0.0
  0
LINE
  5
56B
330
A
100
AcDbEntity
  8
1
  6
Continuous
 62
     7
100
AcDbLine
 10
372.070139923912
 20
431.0
 30
0.0
 11
372.070139923912
 21
465.0
 31
0.0
  0
LINE
  5
56C
330
A
100
AcDbEntity
  8
1
  6
Continuous
 62
     7
100
AcDbLine
 10
406.0701399239119
 20
425.0
 30
0.0
 11
378.070139923912
 21
425.0
 31
0.0
  0
LINE
  5
56D
330
A
100
AcDbEntity
  8
1
  6
Continuous
 62
     7
100
AcDbLine
 10
412.070139923912
 20
465.0
 30
0.0
 11
412.070139923912
 21
431.0
 31
0.0
  0
LINE
  5
56E
330
A
100
AcDbEntity
  8
1
  6
Continuous
 62
     7
100
AcDbLine
 10
397.470139923912
 20
466.0000000000001
 30
0.0
 11
411.0701399239119
 21
466.0000000000001
 31
0.0
  0
LINE
  5
56F
330
A
100
AcDbEntity
  8
1
  6
Continuous
 62
     7
100
AcDbLine
 10
397.470139923912
 20
449.4683683916503
 30
0.0
 11
397.470139923912
 21
466.0000000000001
 31
0.0
  0
LINE
  5
570
330
A
100
AcDbEntity
  8
1
  6
Continuous
 62
     7
100
AcDbLine
 10
385.670139923912
 20
465.0
 30
0.0
 11
385.670139923912
 21
450.0324473584465
 31
0.0
  0
LINE
  5
571
330
A
100
AcDbEntity
  8
1
  6
Continuous
 62
     7
100
AcDbLine
 10
373.070139923912
 20
465.0
 30
0.0
 11
385.670139923912
 21
465.0
 31
0.0
  0
LINE
  5
572
330
A
100
AcDbEntity
  8
1
  6
Continuous
 62
     7
100
AcDbLine
 10
373.070139923912
 20
431.0
 30
0.0
 11
373.070139923912
 21
465.0
 31
0.0
  0
LINE
  5
573
330
A
100
AcDbEntity
  8
1
  6
Continuous
 62
     7
100
AcDbLine
 10
406.0701399239119
 20
426.0
 30
0.0
 11
378.070139923912
 21
426.0
 31
0.0
  0
LINE
  5
574
330
A
100
AcDbEntity
  8
1
  6
Continuous
 62
     7
100
AcDbLine
 10
411.0701399239119
 20
465.0
 30
0.0
 11
411.0701399239119
 21
431.0
 31
0.0
  0
LINE
  5
575
330
A
100
AcDbEntity
  8
1
  6
Continuous
 62
     7
100
AcDbLine
 10
398.470139923912
 20
465.0
 30
0.0
 11
411.0701399239119
 21
465.0
 31
0.0
  0
LINE
  5
576
330
A
100
AcDbEntity
  8
1
  6
Continuous
 62
     7
100
AcDbLine
 10
398.470139923912
 20
450.0324473584465
 30
0.0
 11
398.470139923912
 21
465.0
 31
0.0
  0
LINE
  5
577
330
A
100
AcDbEntity
  8
1
  6
DOT_CENTER
 62
     2
100
AcDbLine
 10
376.570139923912
 20
459.5
 30
0.0
 11
376.570139923912
 21
448.5
 31
0.0
  0
LINE
  5
578
330
A
100
AcDbEntity
  8
1
  6
DOT_CENTER
 62
     2
100
AcDbLine
 10
382.070139923912
 20
454.0
 30
0.0
 11
371.070139923912
 21
454.0
 31
0.0
  0
LINE
  5
579
330
A
100
AcDbEntity
  8
1
  6
DOT_CENTER
 62
     2
100
AcDbLine
 10
407.570139923912
 20
459.5
 30
0.0
 11
407.570139923912
 21
448.5
 31
0.0
  0
LINE
  5
57A
330
A
100
AcDbEntity
  8
1
  6
DOT_CENTER
 62
     2
100
AcDbLine
 10
413.070139923912
 20
454.0
 30
0.0
 11
402.0701399239119
 21
454.0
 31
0.0
  0
ARC
  5
57F
330
A
100
AcDbEntity
  8
1
  6
Continuous
 62
     7
100
AcDbCircle
 10
400.570139923912
 20
471.85
 30
0.0
 40
0.5
100
AcDbArc
 50
180.0
 51
270.0
  0
ARC
  5
580
330
A
100
AcDbEntity
  8
1
  6
Continuous
 62
     7
100
AcDbCircle
 10
399.570139923912
 20
472.1499999999999
 30
0.0
 40
0.5
100
AcDbArc
 50
0.0
 51
90.0
  0
ARC
  5
581
330
A
100
AcDbEntity
  8
1
  6
Continuous
 62
     7
100
AcDbCircle
 10
384.570139923912
 20
472.1499999999999
 30
0.0
 40
0.5
100
AcDbArc
 50
90.0
 51
180.0
  0
ARC
  5
582
330
A
100
AcDbEntity
  8
1
  6
Continuous
 62
     7
100
AcDbCircle
 10
383.570139923912
 20
471.85
 30
0.0
 40
0.5
100
AcDbArc
 50
270.0
 51
0.0
  0
ARC
  5
583
330
A
100
AcDbEntity
  8
1
  6
Continuous
 62
     7
100
AcDbCircle
 10
509.5485746006672
 20
471.85
 30
0.0
 40
0.5
100
AcDbArc
 50
180.0
 51
270.0
  0
ARC
  5
584
330
A
100
AcDbEntity
  8
1
  6
Continuous
 62
     7
100
AcDbCircle
 10
514.5485746006673
 20
471.85
 30
0.0
 40
0.5
100
AcDbArc
 50
270.0
 51
0.0
  0
ARC
  5
585
330
A
100
AcDbEntity
  8
1
  6
Continuous
 62
     7
100
AcDbCircle
 10
392.070139923912
 20
476.35
 30
0.0
 40
6.50000000000007
100
AcDbArc
 50
79.61889609883172
 51
100.3811039011657
  0
LWPOLYLINE
  5
587
330
A
100
AcDbEntity
  8
1
  6
Continuous
 62
     7
100
AcDbPolyline
 90
        2
 70
     1
 43
0.0
 10
392.070139923912
 20
483.8250000000001
 42
1.0
 10
392.070139923912
 20
481.4749999999999
 42
1.0
  0
ARC
  5
58A
330
A
100
AcDbEntity
  8
1
  6
Continuous
 62
     7
100
AcDbCircle
 10
392.070139923912
 20
480.1499999999999
 30
0.0
 40
5.000000000000089
100
AcDbArc
 50
57.1401196211102
 51
122.8598803788887
  0
LINE
  5
592
330
A
100
AcDbEntity
  8
1
  6
Continuous
 62
     7
100
AcDbLine
 10
389.3572079306618
 20
484.35
 30
0.0
 11
382.5857994492996
 21
484.35
 31
0.0
  0
LINE
  5
593
330
A
100
AcDbEntity
  8
1
  6
Continuous
 62
     7
100
AcDbLine
 10
399.570139923912
 20
472.6499999999999
 30
0.0
 11
384.570139923912
 21
472.6499999999999
 31
0.0
  0
LINE
  5
594
330
A
100
AcDbEntity
  8
1
  6
Continuous
 62
     7
100
AcDbLine
 10
383.570139923912
 20
471.35
 30
0.0
 11
381.2441667566
 21
471.35
 31
0.0
  0
LINE
  5
595
330
A
100
AcDbEntity
  8
1
  6
Continuous
 62
     7
100
AcDbLine
 10
400.570139923912
 20
471.35
 30
0.0
 11
402.8961130912239
 21
471.35
 31
0.0
  0
LINE
  5
596
330
A
100
AcDbEntity
  8
1
  6
Continuous
 62
     7
100
AcDbLine
 10
400.070139923912
 20
471.85
 30
0.0
 11
400.070139923912
 21
472.1499999999999
 31
0.0
  0
LINE
  5
597
330
A
100
AcDbEntity
  8
1
  6
Continuous
 62
     7
100
AcDbLine
 10
384.070139923912
 20
472.1499999999999
 30
0.0
 11
384.070139923912
 21
471.85
 31
0.0
  0
LINE
  5
598
330
A
100
AcDbEntity
  8
1
  6
Continuous
 62
     7
100
AcDbLine
 10
509.0485746006672
 20
484.35
 30
0.0
 11
515.0485746006673
 21
484.35
 31
0.0
  0
LINE
  5
599
330
A
100
AcDbEntity
  8
1
  6
Continuous
 62
     7
100
AcDbLine
 10
509.0485746006672
 20
471.85
 30
0.0
 11
509.0485746006672
 21
484.35
 31
0.0
  0
LINE
  5
59A
330
A
100
AcDbEntity
  8
1
  6
Continuous
 62
     7
100
AcDbLine
 10
514.5485746006673
 20
471.35
 30
0.0
 11
509.5485746006672
 21
471.35
 31
0.0
  0
LINE
  5
59B
330
A
100
AcDbEntity
  8
1
  6
Continuous
 62
     7
100
AcDbLine
 10
515.0485746006673
 20
484.35
 30
0.0
 11
515.0485746006673
 21
471.85
 31
0.0
  0
LINE
  5
59C
330
A
100
AcDbEntity
  8
1
  6
Continuous
 62
     7
100
AcDbLine
 10
515.9485746006672
 20
472.6499999999999
 30
0.0
 11
515.0485746006673
 21
472.6499999999999
 31
0.0
  0
LINE
  5
59D
330
A
100
AcDbEntity
  8
1
  6
Continuous
 62
     7
100
AcDbLine
 10
509.0485746006672
 20
472.6499999999999
 30
0.0
 11
508.1485746006674
 21
472.6499999999999
 31
0.0
  0
LINE
  5
59E
330
A
100
AcDbEntity
  8
1
  6
Continuous
 62
     7
100
AcDbLine
 10
515.9485746006672
 20
484.3500000000012
 30
0.0
 11
508.1485746006674
 21
484.35
 31
0.0
  0
LINE
  5
59F
330
A
100
AcDbEntity
  8
1
  6
Continuous
 62
     7
100
AcDbLine
 10
401.5544803985242
 20
484.35
 30
0.0
 11
394.7830719171621
 21
484.35
 31
0.0
  0
ARC
  5
5A0
330
A
100
AcDbEntity
  8
1
  6
Continuous
 62
     7
100
AcDbCircle
 10
505.0485746006673
 20
485.4999999999999
 30
0.0
 40
1.0
100
AcDbArc
 50
90.0
 51
180.0
  0
ARC
  5
5A1
330
A
100
AcDbEntity
  8
1
  6
Continuous
 62
     7
100
AcDbCircle
 10
505.0485746006673
 20
471.2000000000001
 30
0.0
 40
1.0
100
AcDbArc
 50
180.0
 51
270.0
  0
ARC
  5
5A2
330
A
100
AcDbEntity
  8
1
  6
Continuous
 62
     7
100
AcDbCircle
 10
519.0485746006673
 20
485.4999999999999
 30
0.0
 40
1.0
100
AcDbArc
 50
0.0
 51
90.0
  0
ARC
  5
5A3
330
A
100
AcDbEntity
  8
1
  6
Continuous
 62
     7
100
AcDbCircle
 10
519.0485746006674
 20
471.2000000000001
 30
0.0
 40
1.0
100
AcDbArc
 50
269.9999999999935
 51
0.0
  0
CIRCLE
  5
5A5
330
A
100
AcDbEntity
  8
1
  6
Continuous
 62
     7
100
AcDbCircle
 10
407.0701399239119
 20
478.35
 30
0.0
 40
8.15000000000003
  0
LWPOLYLINE
  5
5AB
330
A
100
AcDbEntity
  8
1
  6
Continuous
 62
     7
100
AcDbPolyline
 90
        2
 70
     1
 43
0.0
 10
377.070139923912
 20
486.4999999999999
 42
1.0
 10
377.070139923912
 20
470.2000000000001
 42
1.0
  0
LWPOLYLINE
  5
5AC
330
A
100
AcDbEntity
  8
1
  6
Continuous
 62
     7
100
AcDbPolyline
 90
        2
 70
     1
 43
0.0
 10
377.070139923912
 20
482.1
 42
1.0
 10
377.070139923912
 20
474.6
 42
1.0
  0
LWPOLYLINE
  5
5AD
330
A
100
AcDbEntity
  8
1
  6
Continuous
 62
     7
100
AcDbPolyline
 90
        2
 70
     1
 43
0.0
 10
377.070139923912
 20
484.05
 42
1.0
 10
377.070139923912
 20
472.6499999999999
 42
1.0
  0
LWPOLYLINE
  5
5AE
330
A
100
AcDbEntity
  8
1
  6
Continuous
 62
     7
100
AcDbPolyline
 90
        2
 70
     1
 43
0.0
 10
407.0701399239119
 20
482.1
 42
1.0
 10
407.0701399239119
 20
474.6
 42
1.0
  0
LWPOLYLINE
  5
5AF
330
A
100
AcDbEntity
  8
1
  6
Continuous
 62
     7
100
AcDbPolyline
 90
        2
 70
     1
 43
0.0
 10
407.0701399239119
 20
484.05
 42
1.0
 10
407.0701399239119
 20
472.6499999999999
 42
1.0
  0
LINE
  5
5B4
330
A
100
AcDbEntity
  8
1
  6
Continuous
 62
     7
100
AcDbLine
 10
508.1485746006674
 20
483.85
 30
0.0
 11
509.0485746006673
 21
483.85
 31
0.0
  0
LINE
  5
5B5
330
A
100
AcDbEntity
  8
1
  6
Continuous
 62
     7
100
AcDbLine
 10
509.0485746006673
 20
483.85
 30
0.0
 11
509.0485746006673
 21
472.85
 31
0.0
  0
LINE
  5
5B6
330
A
100
AcDbEntity
  8
1
  6
Continuous
 62
     7
100
AcDbLine
 10
508.1485746006674
 20
472.85
 30
0.0
 11
509.0485746006673
 21
472.85
 31
0.0
  0
LINE
  5
5B7
330
A
100
AcDbEntity
  8
1
  6
Continuous
 62
     7
100
AcDbLine
 10
508.1485746006674
 20
472.85
 30
0.0
 11
508.1485746006674
 21
483.85
 31
0.0
  0
LINE
  5
5B8
330
A
100
AcDbEntity
  8
1
  6
Continuous
 62
     7
100
AcDbLine
 10
506.5485746006673
 20
486.4999999999999
 30
0.0
 11
505.0485746006673
 21
486.4999999999999
 31
0.0
  0
LINE
  5
5B9
330
A
100
AcDbEntity
  8
1
  6
Continuous
 62
     7
100
AcDbLine
 10
506.5485746006673
 20
470.2000000000001
 30
0.0
 11
506.5485746006673
 21
486.4999999999999
 31
0.0
  0
LINE
  5
5BA
330
A
100
AcDbEntity
  8
1
  6
Continuous
 62
     7
100
AcDbLine
 10
505.0485746006673
 20
470.2000000000001
 30
0.0
 11
506.5485746006673
 21
470.2000000000001
 31
0.0
  0
LINE
  5
5BB
330
A
100
AcDbEntity
  8
1
  6
Continuous
 62
     7
100
AcDbLine
 10
504.0485746006673
 20
485.4999999999999
 30
0.0
 11
504.0485746006673
 21
471.2000000000001
 31
0.0
  0
LINE
  5
5BC
330
A
100
AcDbEntity
  8
1
  6
Continuous
 62
     7
100
AcDbLine
 10
508.1485746006674
 20
485.5762395692966
 30
0.0
 11
506.5485746006673
 21
486.4999999999999
 31
0.0
  0
LINE
  5
5BD
330
A
100
AcDbEntity
  8
1
  6
Continuous
 62
     7
100
AcDbLine
 10
506.5485746006673
 20
470.2000000000001
 30
0.0
 11
508.1485746006674
 21
471.1237604307033
 31
0.0
  0
LINE
  5
5BE
330
A
100
AcDbEntity
  8
1
  6
Continuous
 62
     7
100
AcDbLine
 10
508.1485746006674
 20
471.1237604307033
 30
0.0
 11
508.1485746006674
 21
485.5762395692966
 31
0.0
  0
LINE
  5
5BF
330
A
100
AcDbEntity
  8
1
  6
DOT_CENTER
 62
     2
100
AcDbLine
 10
522.0485746006672
 20
478.35
 30
0.0
 11
502.0485746006673
 21
478.35
 31
0.0
  0
LINE
  5
5C0
330
A
100
AcDbEntity
  8
1
  6
DOT_CENTER
 62
     2
100
AcDbLine
 10
387.220139923912
 20
478.35
 30
0.0
 11
366.920139923912
 21
478.35
 31
0.0
  0
LINE
  5
5C1
330
A
100
AcDbEntity
  8
1
  6
DOT_CENTER
 62
     2
100
AcDbLine
 10
377.070139923912
 20
488.4999999999999
 30
0.0
 11
377.070139923912
 21
468.2000000000001
 31
0.0
  0
LINE
  5
5C2
330
A
100
AcDbEntity
  8
1
  6
Continuous
 62
     7
100
AcDbLine
 10
515.0485746006673
 20
483.85
 30
0.0
 11
515.9485746006672
 21
483.85
 31
0.0
  0
LINE
  5
5C3
330
A
100
AcDbEntity
  8
1
  6
Continuous
 62
     7
100
AcDbLine
 10
515.0485746006673
 20
472.85
 30
0.0
 11
515.0485746006673
 21
483.85
 31
0.0
  0
LINE
  5
5C4
330
A
100
AcDbEntity
  8
1
  6
Continuous
 62
     7
100
AcDbLine
 10
515.0485746006673
 20
472.85
 30
0.0
 11
515.9485746006672
 21
472.85
 31
0.0
  0
LINE
  5
5C5
330
A
100
AcDbEntity
  8
1
  6
Continuous
 62
     7
100
AcDbLine
 10
515.9485746006672
 20
483.85
 30
0.0
 11
515.9485746006672
 21
472.85
 31
0.0
  0
LINE
  5
5C6
330
A
100
AcDbEntity
  8
1
  6
Continuous
 62
     7
100
AcDbLine
 10
519.0485746006673
 20
486.4999999999999
 30
0.0
 11
517.5485746006672
 21
486.4999999999999
 31
0.0
  0
LINE
  5
5C7
330
A
100
AcDbEntity
  8
1
  6
Continuous
 62
     7
100
AcDbLine
 10
517.5485746006672
 20
486.4999999999999
 30
0.0
 11
517.5485746006672
 21
470.2000000000001
 31
0.0
  0
LINE
  5
5C8
330
A
100
AcDbEntity
  8
1
  6
Continuous
 62
     7
100
AcDbLine
 10
517.5485746006672
 20
470.2000000000001
 30
0.0
 11
519.0485746006673
 21
470.2000000000001
 31
0.0
  0
LINE
  5
5C9
330
A
100
AcDbEntity
  8
1
  6
Continuous
 62
     7
100
AcDbLine
 10
520.0485746006672
 20
471.2000000000001
 30
0.0
 11
520.0485746006672
 21
485.4999999999999
 31
0.0
  0
LINE
  5
5CA
330
A
100
AcDbEntity
  8
1
  6
Continuous
 62
     7
100
AcDbLine
 10
517.5485746006672
 20
486.4999999999999
 30
0.0
 11
515.9485746006672
 21
485.5762395692966
 31
0.0
  0
LINE
  5
5CB
330
A
100
AcDbEntity
  8
1
  6
Continuous
 62
     7
100
AcDbLine
 10
515.9485746006672
 20
471.1237604307033
 30
0.0
 11
517.5485746006672
 21
470.2000000000001
 31
0.0
  0
LINE
  5
5CC
330
A
100
AcDbEntity
  8
1
  6
Continuous
 62
     7
100
AcDbLine
 10
515.9485746006672
 20
485.5762395692966
 30
0.0
 11
515.9485746006672
 21
471.1237604307033
 31
0.0
  0
LINE
  5
5CD
330
A
100
AcDbEntity
  8
1
  6
DOT_CENTER
 62
     2
100
AcDbLine
 10
417.2201399239119
 20
478.35
 30
0.0
 11
396.9201399239119
 21
478.35
 31
0.0
  0
LINE
  5
5CE
330
A
100
AcDbEntity
  8
1
  6
DOT_CENTER
 62
     2
100
AcDbLine
 10
407.0701399239119
 20
488.4999999999999
 30
0.0
 11
407.0701399239119
 21
468.2000000000001
 31
0.0
  0
ENDSEC
  0
SECTION
  2
OBJECTS
  0
DICTIONARY
  5
19
330
0
100
AcDbDictionary
281
     1
  3
ACAD_CIP_PREVIOUS_PRODUCT_INFO
350
4A2
  3
ACAD_COLOR
350
485
  3
ACAD_GROUP
350
1A
  3
ACAD_LAYOUT
350
49C
  3
ACAD_MATERIAL
350
453
  3
ACAD_MLEADERSTYLE
350
49A
  3
ACAD_MLINESTYLE
350
1B
  3
ACAD_PLOTSETTINGS
350
49D
  3
ACAD_PLOTSTYLENAME
350
451
  3
ACAD_SCALELIST
350
488
  3
ACAD_TABLESTYLE
350
486
  3
ACAD_VISUALSTYLE
350
46C
  3
ACDB_RECOMPOSE_DATA
350
5E2
  3
AcDbVariableDictionary
350
5D7
  3
ASE_INDEX_DICTIONARY
350
5D4
  3
DWGPROPS
350
5E3
  0
DICTIONARY
  5
5CF
330
14
100
AcDbDictionary
280
     1
281
     1
  3
ADSK_XREC_LAYER_RECONCILED
360
5D0
  0
DICTIONARY
  5
5D1
330
24
100
AcDbDictionary
280
     1
281
     1
  3
ADSK_XREC_LAYER_RECONCILED
360
5D2
  0
DICTIONARY
  5
4AD
330
A
100
AcDbDictionary
280
     1
281
     1
  3
ACAD_SORTENTS
360
4AE
  0
DICTIONARY
  5
66A
330
2D1
100
AcDbDictionary
280
     1
281
     1
  3
ACAD_MTEXT_RT
360
66B
  0
DICTIONARY
  5
668
330
2D0
100
AcDbDictionary
280
     1
281
     1
  3
ACAD_MTEXT_RT
360
669
  0
DICTIONARY
  5
666
330
2CF
100
AcDbDictionary
280
     1
281
     1
  3
ACAD_MTEXT_RT
360
667
  0
DICTIONARY
  5
664
330
2CE
100
AcDbDictionary
280
     1
281
     1
  3
ACAD_MTEXT_RT
360
665
  0
DICTIONARY
  5
662
330
2CA
100
AcDbDictionary
280
     1
281
     1
  3
ACAD_MTEXT_RT
360
663
  0
DICTIONARY
  5
660
330
2C5
100
AcDbDictionary
280
     1
281
     1
  3
ACAD_MTEXT_RT
360
661
  0
DICTIONARY
  5
65E
330
2C4
100
AcDbDictionary
280
     1
281
     1
  3
ACAD_MTEXT_RT
360
65F
  0
DICTIONARY
  5
65C
330
2C3
100
AcDbDictionary
280
     1
281
     1
  3
ACAD_MTEXT_RT
360
65D
  0
DICTIONARY
  5
65A
330
2C2
100
AcDbDictionary
280
     1
281
     1
  3
ACAD_MTEXT_RT
360
65B
  0
DICTIONARY
  5
658
330
2BE
100
AcDbDictionary
280
     1
281
     1
  3
ACAD_MTEXT_RT
360
659
  0
DICTIONARY
  5
656
330
2BD
100
AcDbDictionary
280
     1
281
     1
  3
ACAD_MTEXT_RT
360
657
  0
DICTIONARY
  5
654
330
2BC
100
AcDbDictionary
280
     1
281
     1
  3
ACAD_MTEXT_RT
360
655
  0
DICTIONARY
  5
652
330
2B8
100
AcDbDictionary
280
     1
281
     1
  3
ACAD_MTEXT_RT
360
653
  0
DICTIONARY
  5
650
330
2B7
100
AcDbDictionary
280
     1
281
     1
  3
ACAD_MTEXT_RT
360
651
  0
DICTIONARY
  5
64E
330
2B6
100
AcDbDictionary
280
     1
281
     1
  3
ACAD_MTEXT_RT
360
64F
  0
DICTIONARY
  5
64C
330
2B2
100
AcDbDictionary
280
     1
281
     1
  3
ACAD_MTEXT_RT
360
64D
  0
DICTIONARY
  5
64A
330
2B1
100
AcDbDictionary
280
     1
281
     1
  3
ACAD_MTEXT_RT
360
64B
  0
DICTIONARY
  5
648
330
2B0
100
AcDbDictionary
280
     1
281
     1
  3
ACAD_MTEXT_RT
360
649
  0
DICTIONARY
  5
646
330
2AF
100
AcDbDictionary
280
     1
281
     1
  3
ACAD_MTEXT_RT
360
647
  0
DICTIONARY
  5
644
330
2AB
100
AcDbDictionary
280
     1
281
     1
  3
ACAD_MTEXT_RT
360
645
  0
DICTIONARY
  5
642
330
2AA
100
AcDbDictionary
280
     1
281
     1
  3
ACAD_MTEXT_RT
360
643
  0
DICTIONARY
  5
640
330
2A4
100
AcDbDictionary
280
     1
281
     1
  3
ACAD_MTEXT_RT
360
641
  0
DICTIONARY
  5
63E
330
2A3
100
AcDbDictionary
280
     1
281
     1
  3
ACAD_MTEXT_RT
360
63F
  0
DICTIONARY
  5
63C
330
2A2
100
AcDbDictionary
280
     1
281
     1
  3
ACAD_MTEXT_RT
360
63D
  0
DICTIONARY
  5
63A
330
2A1
100
AcDbDictionary
280
     1
281
     1
  3
ACAD_MTEXT_RT
360
63B
  0
DICTIONARY
  5
638
330
29E
100
AcDbDictionary
280
     1
281
     1
  3
ACAD_MTEXT_RT
360
639
  0
DICTIONARY
  5
636
330
29D
100
AcDbDictionary
280
     1
281
     1
  3
ACAD_MTEXT_RT
360
637
  0
DICTIONARY
  5
634
330
29C
100
AcDbDictionary
280
     1
281
     1
  3
ACAD_MTEXT_RT
360
635
  0
DICTIONARY
  5
632
330
299
100
AcDbDictionary
280
     1
281
     1
  3
ACAD_MTEXT_RT
360
633
  0
DICTIONARY
  5
630
330
298
100
AcDbDictionary
280
     1
281
     1
  3
ACAD_MTEXT_RT
360
631
  0
DICTIONARY
  5
62E
330
297
100
AcDbDictionary
280
     1
281
     1
  3
ACAD_MTEXT_RT
360
62F
  0
DICTIONARY
  5
62C
330
296
100
AcDbDictionary
280
     1
281
     1
  3
ACAD_MTEXT_RT
360
62D
  0
DICTIONARY
  5
62A
330
293
100
AcDbDictionary
280
     1
281
     1
  3
ACAD_MTEXT_RT
360
62B
  0
DICTIONARY
  5
628
330
292
100
AcDbDictionary
280
     1
281
     1
  3
ACAD_MTEXT_RT
360
629
  0
DICTIONARY
  5
626
330
291
100
AcDbDictionary
280
     1
281
     1
  3
ACAD_MTEXT_RT
360
627
  0
DICTIONARY
  5
624
330
290
100
AcDbDictionary
280
     1
281
     1
  3
ACAD_MTEXT_RT
360
625
  0
DICTIONARY
  5
622
330
28F
100
AcDbDictionary
280
     1
281
     1
  3
ACAD_MTEXT_RT
360
623
  0
DICTIONARY
  5
620
330
28E
100
AcDbDictionary
280
     1
281
     1
  3
ACAD_MTEXT_RT
360
621
  0
DICTIONARY
  5
61E
330
28C
100
AcDbDictionary
280
     1
281
     1
  3
ACAD_MTEXT_RT
360
61F
  0
DICTIONARY
  5
61C
330
28B
100
AcDbDictionary
280
     1
281
     1
  3
ACAD_MTEXT_RT
360
61D
  0
DICTIONARY
  5
61A
330
28A
100
AcDbDictionary
280
     1
281
     1
  3
ACAD_MTEXT_RT
360
61B
  0
DICTIONARY
  5
618
330
289
100
AcDbDictionary
280
     1
281
     1
  3
ACAD_MTEXT_RT
360
619
  0
DICTIONARY
  5
616
330
288
100
AcDbDictionary
280
     1
281
     1
  3
ACAD_MTEXT_RT
360
617
  0
DICTIONARY
  5
614
330
287
100
AcDbDictionary
280
     1
281
     1
  3
ACAD_MTEXT_RT
360
615
  0
DICTIONARY
  5
612
330
286
100
AcDbDictionary
280
     1
281
     1
  3
ACAD_MTEXT_RT
360
613
  0
DICTIONARY
  5
610
330
285
100
AcDbDictionary
280
     1
281
     1
  3
ACAD_MTEXT_RT
360
611
  0
DICTIONARY
  5
60E
330
284
100
AcDbDictionary
280
     1
281
     1
  3
ACAD_MTEXT_RT
360
60F
  0
DICTIONARY
  5
60C
330
283
100
AcDbDictionary
280
     1
281
     1
  3
ACAD_MTEXT_RT
360
60D
  0
DICTIONARY
  5
60A
330
282
100
AcDbDictionary
280
     1
281
     1
  3
ACAD_MTEXT_RT
360
60B
  0
DICTIONARY
  5
608
330
281
100
AcDbDictionary
280
     1
281
     1
  3
ACAD_MTEXT_RT
360
609
  0
DICTIONARY
  5
606
330
280
100
AcDbDictionary
280
     1
281
     1
  3
ACAD_MTEXT_RT
360
607
  0
DICTIONARY
  5
604
330
27F
100
AcDbDictionary
280
     1
281
     1
  3
ACAD_MTEXT_RT
360
605
  0
DICTIONARY
  5
602
330
27E
100
AcDbDictionary
280
     1
281
     1
  3
ACAD_MTEXT_RT
360
603
  0
DICTIONARY
  5
600
330
27D
100
AcDbDictionary
280
     1
281
     1
  3
ACAD_MTEXT_RT
360
601
  0
DICTIONARY
  5
5FE
330
27C
100
AcDbDictionary
280
     1
281
     1
  3
ACAD_MTEXT_RT
360
5FF
  0
DICTIONARY
  5
5FC
330
27B
100
AcDbDictionary
280
     1
281
     1
  3
ACAD_MTEXT_RT
360
5FD
  0
DICTIONARY
  5
5FA
330
27A
100
AcDbDictionary
280
     1
281
     1
  3
ACAD_MTEXT_RT
360
5FB
  0
DICTIONARY
  5
5F8
330
279
100
AcDbDictionary
280
     1
281
     1
  3
ACAD_MTEXT_RT
360
5F9
  0
DICTIONARY
  5
5F6
330
278
100
AcDbDictionary
280
     1
281
     1
  3
ACAD_MTEXT_RT
360
5F7
  0
DICTIONARY
  5
5F4
330
277
100
AcDbDictionary
280
     1
281
     1
  3
ACAD_MTEXT_RT
360
5F5
  0
DICTIONARY
  5
5F2
330
276
100
AcDbDictionary
280
     1
281
     1
  3
ACAD_MTEXT_RT
360
5F3
  0
DICTIONARY
  5
5F0
330
275
100
AcDbDictionary
280
     1
281
     1
  3
ACAD_MTEXT_RT
360
5F1
  0
DICTIONARY
  5
5EE
330
274
100
AcDbDictionary
280
     1
281
     1
  3
ACAD_MTEXT_RT
360
5EF
  0
DICTIONARY
  5
5EC
330
273
100
AcDbDictionary
280
     1
281
     1
  3
ACAD_MTEXT_RT
360
5ED
  0
DICTIONARY
  5
5EA
330
271
100
AcDbDictionary
280
     1
281
     1
  3
ACAD_MTEXT_RT
360
5EB
  0
DICTIONARY
  5
5E8
330
270
100
AcDbDictionary
280
     1
281
     1
  3
ACAD_MTEXT_RT
360
5E9
  0
DICTIONARY
  5
5E6
330
26F
100
AcDbDictionary
280
     1
281
     1
  3
ACAD_MTEXT_RT
360
5E7
  0
DICTIONARY
  5
5E4
330
26E
100
AcDbDictionary
280
     1
281
     1
  3
ACAD_MTEXT_RT
360
5E5
  0
DICTIONARY
  5
66C
330
43F
100
AcDbDictionary
280
     1
281
     1
  3
ACAD_MTEXT_RT
360
66D
  0
XRECORD
  5
4A2
102
{ACAD_REACTORS
330
19
102
}
330
19
100
AcDbXrecord
280
     1
300
ACD
300
2012
300
ACD_F_S
  0
DICTIONARY
  5
485
102
{ACAD_REACTORS
330
19
102
}
330
19
100
AcDbDictionary
281
     1
  0
DICTIONARY
  5
1A
102
{ACAD_REACTORS
330
19
102
}
330
19
100
AcDbDictionary
281
     1
  0
DICTIONARY
  5
49C
102
{ACAD_REACTORS
330
19
102
}
330
19
100
AcDbDictionary
281
     1
  3
Model
350
49E
  3
レイアウト1
350
49F
  0
DICTIONARY
  5
453
102
{ACAD_REACTORS
330
19
102
}
330
19
100
AcDbDictionary
281
     1
  3
ByBlock
350
45C
  3
ByLayer
350
454
  3
Global
350
464
  0
DICTIONARY
  5
49A
102
{ACAD_REACTORS
330
19
102
}
330
19
100
AcDbDictionary
281
     1
  3
Standard
350
49B
  0
DICTIONARY
  5
1B
102
{ACAD_REACTORS
330
19
102
}
330
19
100
AcDbDictionary
281
     1
  3
STANDARD
350
1C
  0
DICTIONARY
  5
49D
102
{ACAD_REACTORS
330
19
102
}
330
19
100
AcDbDictionary
281
     1
  0
ACDBDICTIONARYWDFLT
  5
451
102
{ACAD_REACTORS
330
19
102
}
330
19
100
AcDbDictionary
281
     1
  3
Normal
350
452
100
AcDbDictionaryWithDefault
340
452
  0
DICTIONARY
  5
488
102
{ACAD_REACTORS
330
19
102
}
330
19
100
AcDbDictionary
281
     1
  3
A0
350
489
  3
A1
350
48A
  3
A2
350
48B
  3
A3
350
48C
  3
A4
350
48D
  3
A5
350
48E
  3
A6
350
48F
  3
A7
350
490
  3
A8
350
491
  3
A9
350
492
  3
B0
350
493
  3
B1
350
494
  3
B2
350
495
  3
B3
350
496
  3
B4
350
497
  3
B5
350
498
  3
B6
350
499
  0
DICTIONARY
  5
486
102
{ACAD_REACTORS
330
19
102
}
330
19
100
AcDbDictionary
281
     1
  3
Standard
350
487
  0
DICTIONARY
  5
46C
102
{ACAD_REACTORS
330
19
102
}
330
19
100
AcDbDictionary
281
     1
  3
2dWireframe
350
472
  3
Basic
350
471
  3
Brighten
350
478
  3
ColorChange
350
47C
  3
Conceptual
350
475
  3
Dim
350
477
  3
EdgeColorOff
350
484
  3
Facepattern
350
47B
  3
Flat
350
46D
  3
FlatWithEdges
350
46E
  3
Gouraud
350
46F
  3
GouraudWithEdges
350
470
  3
Hidden
350
474
  3
JitterOff
350
482
  3
Linepattern
350
47A
  3
OverhangOff
350
483
  3
Realistic
350
476
  3
Shaded
350
481
  3
Shaded with edges
350
480
  3
Shades of Gray
350
47D
  3
Sketchy
350
47E
  3
Thicken
350
479
  3
Wireframe
350
473
  3
X-Ray
350
47F
  0
XRECORD
  5
5E2
102
{ACAD_REACTORS
330
19
102
}
330
19
100
AcDbXrecord
280
     1
 90
        1
330
487
  0
DICTIONARY
  5
5D7
102
{ACAD_REACTORS
330
19
102
}
330
19
100
AcDbDictionary
281
     1
  3
CANNOSCALE
350
5DA
  3
CMLEADERSTYLE
350
5D9
  3
CTABLESTYLE
350
5D8
  3
DIMASSOC
350
5DD
  3
INDEXCTL
350
5DC
  3
SORTENTS
350
5DB
  3
XCLIPFRAME
350
5DE
  0
DICTIONARY
  5
5D4
102
{ACAD_REACTORS
330
19
102
}
330
19
100
AcDbDictionary
281
     1
  3
ASEBlockHierarchyIndexRecord
350
5D6
1001
DCO15
1040
1882592887.986
  0
XRECORD
  5
5E3
102
{ACAD_REACTORS
330
19
102
}
330
19
100
AcDbXrecord
280
     1
  1
DWGPROPS COOKIE
  2

  3

  4

  6

  7

  8
0035sekine
  9

300
=
301
=
302
=
303
=
304
=
305
=
306
=
307
=
308
=
309
=
 40
0.0013955092592593
 41
2305814.417110764
 42
2457592.481388727
  1

 90
        0
  0
XRECORD
  5
5D0
102
{ACAD_REACTORS
330
5CF
102
}
330
5CF
100
AcDbXrecord
280
     1
290
     1
  0
XRECORD
  5
5D2
102
{ACAD_REACTORS
330
5D1
102
}
330
5D1
100
AcDbXrecord
280
     1
290
     1
  0
SORTENTSTABLE
  5
4AE
102
{ACAD_REACTORS
330
4AD
102
}
330
4AD
100
AcDbSortentsTable
330
A
331
52C
  5
4BC
331
570
  5
500
331
4DD
  5
513
331
5AC
  5
2E4
331
5CE
  5
306
331
30B
  5
568
331
592
  5
320
331
55F
  5
4EF
331
2DE
  5
53B
331
4EE
  5
524
331
5BD
  5
2F5
331
581
  5
30D
331
52A
  5
4BA
331
56E
  5
4FE
331
2EB
  5
548
331
4DB
  5
511
331
4FD
  5
533
331
5CC
  5
304
331
309
  5
566
331
55D
  5
4ED
331
57F
  5
30B
331
2DC
  5
539
331
4EC
  5
522
331
5BB
  5
2F3
331
56C
  5
4FC
331
2E9
  5
546
331
4D9
  5
50F
331
4FB
  5
531
331
5CA
  5
302
331
55B
  5
4EB
331
59F
  5
32D
331
2DA
  5
537
331
4EA
  5
520
331
5B9
  5
2F1
331
56A
  5
4FA
331
4D7
  5
50D
331
4F9
  5
52F
331
5C8
  5
300
331
559
  5
4E9
331
59D
  5
32B
331
4E8
  5
51E
331
5B7
  5
2EF
331
306
  5
563
331
568
  5
4F8
331
58A
  5
317
331
4D5
  5
50B
331
4F7
  5
52D
331
5C6
  5
2FE
331
557
  5
4E7
331
579
  5
509
331
304
  5
561
331
2E6
  5
543
331
4E6
  5
51C
331
5B5
  5
2ED
331
59B
  5
329
331
5A2
  5
2DA
331
4F5
  5
52B
331
5C4
  5
2FC
331
555
  5
4E5
331
577
  5
507
331
302
  5
55F
331
2E4
  5
541
331
4E4
  5
51A
331
599
  5
327
331
566
  5
4F6
331
5A0
  5
38
331
4F3
  5
529
331
5C2
  5
2FA
331
515
  5
3F0
331
553
  5
4E3
331
597
  5
325
331
300
  5
55D
331
2E2
  5
53F
331
4E2
  5
518
331
564
  5
4F4
331
575
  5
505
331
4F1
  5
527
331
5C0
  5
2F8
331
513
  5
3D4
331
573
  5
503
331
2E0
  5
53D
331
5AF
  5
2E7
331
595
  5
323
331
562
  5
4F2
331
30E
  5
56B
331
2FF
  5
55C
331
584
  5
310
331
52D
  5
4BD
331
511
  5
3B8
331
571
  5
501
331
593
  5
321
331
4DE
  5
514
331
30C
  5
569
331
5AD
  5
2E5
331
560
  5
4F0
331
582
  5
30E
331
2DF
  5
53C
331
4EF
  5
525
331
5BE
  5
2F6
331
56F
  5
4FF
331
52B
  5
4BB
331
4DC
  5
512
331
4FE
  5
534
331
5CD
  5
305
331
5AB
  5
2E3
331
30A
  5
567
331
55E
  5
4EE
331
580
  5
30C
331
2DD
  5
53A
331
4ED
  5
523
331
5BC
  5
2F4
331
529
  5
4B9
331
56D
  5
4FD
331
2EA
  5
547
331
4DA
  5
510
331
4FC
  5
532
331
5CB
  5
303
331
308
  5
565
331
55C
  5
4EC
331
2DB
  5
538
331
4EB
  5
521
331
5BA
  5
2F2
331
56B
  5
4FB
331
2E8
  5
545
331
4D8
  5
50E
331
4FA
  5
530
331
5C9
  5
301
331
55A
  5
4EA
331
59E
  5
32C
331
2D9
  5
536
331
4E9
  5
51F
331
5B8
  5
2F0
331
307
  5
564
331
569
  5
4F9
331
4D6
  5
50C
331
4F8
  5
52E
331
5C7
  5
2FF
331
5A5
  5
2DD
331
558
  5
4E8
331
57A
  5
50A
331
305
  5
562
331
2E7
  5
544
331
4E7
  5
51D
331
5B6
  5
2EE
331
59C
  5
32A
331
5A3
  5
2DB
331
4F6
  5
52C
331
5C5
  5
2FD
331
556
  5
4E6
331
59A
  5
328
331
578
  5
508
331
2E5
  5
542
331
4E5
  5
51B
331
5B4
  5
2EC
331
303
  5
560
331
567
  5
4F7
331
5A1
  5
2D9
331
4F4
  5
52A
331
5C3
  5
2FB
331
310
  5
56D
331
516
  5
3FF
331
598
  5
326
331
2E3
  5
540
331
4E3
  5
519
331
301
  5
55E
331
576
  5
506
331
565
  5
4F5
331
587
  5
314
331
4F2
  5
528
331
5C1
  5
2F9
331
514
  5
3E1
331
552
  5
4E2
331
596
  5
324
331
2E1
  5
53E
331
30F
  5
56C
331
563
  5
4F3
331
585
  5
312
331
574
  5
504
331
4F0
  5
526
331
512
  5
3C5
331
52E
  5
4BE
331
572
  5
502
331
5AE
  5
2E6
331
30D
  5
56A
331
594
  5
322
331
561
  5
4F1
331
583
  5
30F
331
5BF
  5
2F7
  0
XRECORD
  5
66B
102
{ACAD_REACTORS
330
66A
102
}
330
66A
100
AcDbXrecord
280
     1
 40
23171.0
  1
\U+2018g%%d\U+00CF\U+0090}
  0
XRECORD
  5
669
102
{ACAD_REACTORS
330
668
102
}
330
668
100
AcDbXrecord
280
     1
 40
25044.0
  1
\U+02C6\U+00CF\U+008D\U+00E3
  0
XRECORD
  5
667
102
{ACAD_REACTORS
330
666
102
}
330
666
100
AcDbXrecord
280
     1
 40
23804.0
  1
\U+2019\U+2020\U+201C\U+2021
  0
XRECORD
  5
665
102
{ACAD_REACTORS
330
664
102
}
330
664
100
AcDbXrecord
280
     1
 40
16080.0
  1
\U+0160\U+00F8\U+008D^ 
  0
XRECORD
  5
663
102
{ACAD_REACTORS
330
662
102
}
330
662
100
AcDbXrecord
280
     1
 40
16080.0
  1
\U+0160\U+00F8\U+008D^ 
  0
XRECORD
  5
661
102
{ACAD_REACTORS
330
660
102
}
330
660
100
AcDbXrecord
280
     1
 40
86044.0
  1
\U+0192N\U+0192\U+008D\U+0192\U+0081\U+0081[\U+0192g
  0
XRECORD
  5
65F
102
{ACAD_REACTORS
330
65E
102
}
330
65E
100
AcDbXrecord
280
     1
 40
302459.0
  1
\U+2022\U+00A7\U+008D\U+00E2\U+2039\U+00C1 \U+0192o\U+0192l\U+008D\U+00E2\U+2039\U+00C1\U+2022t M6
  0
XRECORD
  5
65D
102
{ACAD_REACTORS
330
65C
102
}
330
65C
100
AcDbXrecord
280
     1
 40
184989.0
  1
\U+201A\U+00E0\U+201A\U+00E6\U+008F~\U+201A\U+00F9\U+201A\U+00D1M4\U+0081~12
  0
XRECORD
  5
65B
102
{ACAD_REACTORS
330
65A
102
}
330
65A
100
AcDbXrecord
280
     1
 40
105094.0
  1
\U+02C6\U+0081\U+2030\U+201D\U+0192\U+0081\U+0192b\U+0192L
  0
XRECORD
  5
659
102
{ACAD_REACTORS
330
658
102
}
330
658
100
AcDbXrecord
280
     1
 40
29618.0
  1
\U+017Ds\U+201D\U+00E4\U+2022i
  0
XRECORD
  5
657
102
{ACAD_REACTORS
330
656
102
}
330
656
100
AcDbXrecord
280
     1
 40
317817.0
  1
\U+008D\U+00E2\U+2039\U+00C1\U+2022t\U+201A\U+00E0\U+201A\U+00E6\U+008F~\U+201A\U+00F9\U+201A\U+00D1
  0
XRECORD
  5
655
102
{ACAD_REACTORS
330
654
102
}
330
654
100
AcDbXrecord
280
     1
 40
350412.0
  1
\U+2019\U+00EF\U+201A%%c\U+0192{\U+0192\U+2039\U+0192g\U+0152\U+00E9\U+2019%%c\U+201A\U+00F9\U+201A\U+00D1
  0
XRECORD
  5
653
102
{ACAD_REACTORS
330
652
102
}
330
652
100
AcDbXrecord
280
     1
 40
515887.0
  1
\U+0192N\U+0192\U+008D\U+0192\U+0081\U+0081[\U+0192g\U+0152\U+00D0 \U+2022\\U+00B2%%d\U+008D\U+2022\U+0090F\U+201Ch\U+2018\U+2022
  0
XRECORD
  5
651
102
{ACAD_REACTORS
330
650
102
}
330
650
100
AcDbXrecord
280
     1
 40
235742.0
  1
6\U+0192i\U+0192C\U+0192\U+008D\U+0192\U+201C\U+2022\U+00C0\U+008D\U+2021\U+008D\U+00DF
  0
XRECORD
  5
64F
102
{ACAD_REACTORS
330
64E
102
}
330
64E
100
AcDbXrecord
280
     1
 40
74943.0
  1
\U+0152\U+00E9\U+2019%%c\U+0192J\U+0192b\U+0192v
  0
XRECORD
  5
64D
102
{ACAD_REACTORS
330
64C
102
}
330
64C
100
AcDbXrecord
280
     1
 40
114981.0
  1
\U+2019\U+2026\U+2019E\U+0192z\U+0192\U+2039\U+0192_\U+0081[
  0
XRECORD
  5
64B
102
{ACAD_REACTORS
330
64A
102
}
330
64A
100
AcDbXrecord
280
     1
 40
93561.0
  1
\U+2019\U+00EF\U+201A%%c\U+0192{\U+0192\U+2039\U+0192g
  0
XRECORD
  5
649
102
{ACAD_REACTORS
330
648
102
}
330
648
100
AcDbXrecord
280
     1
 40
139780.0
  1
\U+0192\U+2030\U+0192\U+201C\U+0192i\U+0081[\U+00B2{\U+2018\U+00E4
  0
XRECORD
  5
647
102
{ACAD_REACTORS
330
646
102
}
330
646
100
AcDbXrecord
280
     1
 40
273102.0
  1
\U+0192x\U+0192A\U+0192\U+0160\U+0192\U+201C\U+0192O\U+201C*\U+201A%%c\U+017D\U+00E5%%d\U+00F8
  0
XRECORD
  5
645
102
{ACAD_REACTORS
330
644
102
}
330
644
100
AcDbXrecord
280
     1
 40
241192.0
  1
66\U+0192i\U+0192C\U+0192\U+008D\U+0192\U+201C\U+2022\U+00C0\U+008D\U+2021\U+008D\U+00DF
  0
XRECORD
  5
643
102
{ACAD_REACTORS
330
642
102
}
330
642
100
AcDbXrecord
280
     1
 40
692201.0
  1
\U+0192W\U+0192\U+2026\U+0192\U+2030\U+0192R\U+0192\U+201C\U+0081A\U+0192X\U+0192`\U+0081[\U+0192\U+2039\U+0192{\U+0081[\U+0192\U+2039,\U+2018\U+00A5
  0
XRECORD
  5
641
102
{ACAD_REACTORS
330
640
102
}
330
640
100
AcDbXrecord
280
     1
 40
14977.0
  1
\U+008D\U+2022\U+0090F
  0
XRECORD
  5
63F
102
{ACAD_REACTORS
330
63E
102
}
330
63E
100
AcDbXrecord
280
     1
 40
86044.0
  1
\U+0192N\U+0192\U+008D\U+0192\U+0081\U+0081[\U+0192g
  0
XRECORD
  5
63D
102
{ACAD_REACTORS
330
63C
102
}
330
63C
100
AcDbXrecord
280
     1
 40
45028.0
  1
\U+0192`\U+0192\U+2021\U+0192R\U+0090F
  0
XRECORD
  5
63B
102
{ACAD_REACTORS
330
63A
102
}
330
63A
100
AcDbXrecord
280
     1
 40
39912.0
  1
\U+201D\U+2019\U+0081A\U+2018\U+00A5
  0
XRECORD
  5
639
102
{ACAD_REACTORS
330
638
102
}
330
638
100
AcDbXrecord
280
     1
 40
184657.0
  1
\U+0160\U+00DC\U+017DM\U+00B2\U+00C4\U+201A\U+00F9\U+201A\U+00D13.1\U+0081~20
  0
XRECORD
  5
637
102
{ACAD_REACTORS
330
636
102
}
330
636
100
AcDbXrecord
280
     1
 40
86044.0
  1
\U+0192N\U+0192\U+008D\U+0192\U+0081\U+0081[\U+0192g
  0
XRECORD
  5
635
102
{ACAD_REACTORS
330
634
102
}
330
634
100
AcDbXrecord
280
     1
 40
105094.0
  1
\U+02C6\U+0081\U+2030\U+201D\U+0192\U+0081\U+0192b\U+0192L
  0
XRECORD
  5
633
102
{ACAD_REACTORS
330
632
102
}
330
632
100
AcDbXrecord
280
     1
 40
96085.0
  1
\U+017Ds\U+201D\U+00E4\U+2022i \U+201C%%p\U+017D\U+00DA
  0
XRECORD
  5
631
102
{ACAD_REACTORS
330
630
102
}
330
630
100
AcDbXrecord
280
     1
 40
29618.0
  1
\U+017Ds\U+201D\U+00E4\U+2022i
  0
XRECORD
  5
62F
102
{ACAD_REACTORS
330
62E
102
}
330
62E
100
AcDbXrecord
280
     1
 40
170303.0
  1
\U+0152\U+00E9\U+2019%%c\U+0192J\U+0192b\U+0192v\U+0192i\U+0192b\U+0192g
  0
XRECORD
  5
62D
102
{ACAD_REACTORS
330
62C
102
}
330
62C
100
AcDbXrecord
280
     1
 40
226025.0
  1
\U+017D\U+00CC\U+2022t\U+201A\U+00A3%%dp\U+201CY\U+2022t\U+201A\U+00F9\U+201A\U+00D1
  0
XRECORD
  5
62B
102
{ACAD_REACTORS
330
62A
102
}
330
62A
100
AcDbXrecord
280
     1
 40
40462.0
  1
\U+2030*\U+0090\U+00B0\U+201C\U+00BA
  0
XRECORD
  5
629
102
{ACAD_REACTORS
330
628
102
}
330
628
100
AcDbXrecord
280
     1
 40
15068.0
  1
\U+2030*\U+201D\U+00E5
  0
XRECORD
  5
627
102
{ACAD_REACTORS
330
626
102
}
330
626
100
AcDbXrecord
280
     1
 40
72168.0
  1
\U+2030*     \U+0090\U+00B0      %%d\U+00B5      %%dR
  0
XRECORD
  5
625
102
{ACAD_REACTORS
330
624
102
}
330
624
100
AcDbXrecord
280
     1
 40
60192.0
  1
\U+2030*\U+0090\U+00B0\U+2019S\U+201C\U+00B2
  0
XRECORD
  5
623
102
{ACAD_REACTORS
330
622
102
}
330
622
100
AcDbXrecord
280
     1
 40
60422.0
  1
\U+2030*\U+0090\U+00B0\U+008F\U+00B0\U+201DF
  0
XRECORD
  5
621
102
{ACAD_REACTORS
330
620
102
}
330
620
100
AcDbXrecord
280
     1
 40
105583.0
  1
\U+2030*\U+0090\U+00B0\U+008F\U+00B0\U+201DF\U+201C\U+00BA
  0
XRECORD
  5
61F
102
{ACAD_REACTORS
330
61E
102
}
330
61E
100
AcDbXrecord
280
     1
 40
6309.0
  1
\U+017D\U+00D6
  0
XRECORD
  5
61D
102
{ACAD_REACTORS
330
61C
102
}
330
61C
100
AcDbXrecord
280
     1
 40
2554.0
  1
\U+201Cx
  0
XRECORD
  5
61B
102
{ACAD_REACTORS
330
61A
102
}
330
61A
100
AcDbXrecord
280
     1
 40
6214.0
  1
\U+008F\U+00B0
  0
XRECORD
  5
619
102
{ACAD_REACTORS
330
618
102
}
330
618
100
AcDbXrecord
280
     1
 40
2161.0
  1
\U+201DF
  0
XRECORD
  5
617
102
{ACAD_REACTORS
330
616
102
}
330
616
100
AcDbXrecord
280
     1
 40
5945.0
  1
\U+0152\U+0081
  0
XRECORD
  5
615
102
{ACAD_REACTORS
330
614
102
}
330
614
100
AcDbXrecord
280
     1
 40
2501.0
  1
\U+0090}
  0
XRECORD
  5
613
102
{ACAD_REACTORS
330
612
102
}
330
612
100
AcDbXrecord
280
     1
 40
2555.0
  1
\U+008Ds
  0
XRECORD
  5
611
102
{ACAD_REACTORS
330
610
102
}
330
610
100
AcDbXrecord
280
     1
 40
2501.0
  1
\U+0090}
  0
XRECORD
  5
60F
102
{ACAD_REACTORS
330
60E
102
}
330
60E
100
AcDbXrecord
280
     1
 40
6413.0
  1
\U+0090\U+00EF
  0
XRECORD
  5
60D
102
{ACAD_REACTORS
330
60C
102
}
330
60C
100
AcDbXrecord
280
     1
 40
2440.0
  1
\U+0152v
  0
XRECORD
  5
60B
102
{ACAD_REACTORS
330
60A
102
}
330
60A
100
AcDbXrecord
280
     1
 40
6191.0
  1
\U+00B2\U+00A5
  0
XRECORD
  5
609
102
{ACAD_REACTORS
330
608
102
}
330
608
100
AcDbXrecord
280
     1
 40
2321.0
  1
\U+2022i
  0
XRECORD
  5
607
102
{ACAD_REACTORS
330
606
102
}
330
606
100
AcDbXrecord
280
     1
 40
6309.0
  1
\U+008F\U+00E4
  0
XRECORD
  5
605
102
{ACAD_REACTORS
330
604
102
}
330
604
100
AcDbXrecord
280
     1
 40
6191.0
  1
\U+00B2\U+00A5
  0
XRECORD
  5
603
102
{ACAD_REACTORS
330
602
102
}
330
602
100
AcDbXrecord
280
     1
 40
6191.0
  1
\U+00B2\U+00A5
  0
XRECORD
  5
601
102
{ACAD_REACTORS
330
600
102
}
330
600
100
AcDbXrecord
280
     1
 40
2501.0
  1
\U+0090}
  0
XRECORD
  5
5FF
102
{ACAD_REACTORS
330
5FE
102
}
330
5FE
100
AcDbXrecord
280
     1
 40
6275.0
  1
\U+201D\U+00E5
  0
XRECORD
  5
5FD
102
{ACAD_REACTORS
330
5FC
102
}
330
5FC
100
AcDbXrecord
280
     1
 40
2321.0
  1
\U+2022i
  0
XRECORD
  5
5FB
102
{ACAD_REACTORS
330
5FA
102
}
330
5FA
100
AcDbXrecord
280
     1
 40
6275.0
  1
\U+201D\U+00E5
  0
XRECORD
  5
5F9
102
{ACAD_REACTORS
330
5F8
102
}
330
5F8
100
AcDbXrecord
280
     1
 40
2501.0
  1
\U+0090}
  0
XRECORD
  5
5F7
102
{ACAD_REACTORS
330
5F6
102
}
330
5F6
100
AcDbXrecord
280
     1
 40
24624.0
  1
\U+2022\U+201D\U+201D\U+00E5
  0
XRECORD
  5
5F5
102
{ACAD_REACTORS
330
5F4
102
}
330
5F4
100
AcDbXrecord
280
     1
 40
59808.0
  1
\U+2022\U+201D     \U+2022i     \U+00B2\U+00A5
  0
XRECORD
  5
5F3
102
{ACAD_REACTORS
330
5F2
102
}
330
5F2
100
AcDbXrecord
280
     1
 40
29091.0
  1
\U+008D\U+00DF   \U+017D\U+00A2
  0
XRECORD
  5
5F1
102
{ACAD_REACTORS
330
5F0
102
}
330
5F0
100
AcDbXrecord
280
     1
 40
12363.0
  1
\U+0090\U+201D%%d%%d
  0
XRECORD
  5
5EF
102
{ACAD_REACTORS
330
5EE
102
}
330
5EE
100
AcDbXrecord
280
     1
 40
74843.0
  1
\U+2022\   \U+00B2%%d   \U+008F\U+02C6   %%d\U+00B5
  0
XRECORD
  5
5ED
102
{ACAD_REACTORS
330
5EC
102
}
330
5EC
100
AcDbXrecord
280
     1
 40
20935.0
  1
\U+201D\U+00BE    \U+008Dl
  0
XRECORD
  5
5EB
102
{ACAD_REACTORS
330
5EA
102
}
330
5EA
100
AcDbXrecord
280
     1
 40
47703.0
  1
\U+0160J  \U+201D\U+00D9  \U+2022\U+201D
  0
XRECORD
  5
5E9
102
{ACAD_REACTORS
330
5E8
102
}
330
5E8
100
AcDbXrecord
280
     1
 40
315859.0
  1
\U+201C\U+0152\U+2039\U+20AC\U+201Cs \U+2018\U+00F0\U+201C\U+0152\U+2039\U+00CC \U+201C*\U+2019J 1-27-4
  0
XRECORD
  5
5E7
102
{ACAD_REACTORS
330
5E6
102
}
330
5E6
100
AcDbXrecord
280
     1
 40
13909.0
  1
\U+0081\U+00CF110-8680
  0
XRECORD
  5
5E5
102
{ACAD_REACTORS
330
5E4
102
}
330
5E4
100
AcDbXrecord
280
     1
 40
671622.0
  1
\U+0192A\U+0192g\U+0192\U+20AC\U+0192\U+0160\U+0192r\U+0192\U+201C\U+0192e\U+0192b\U+0192N\U+0160\U+201D\U+017D\U+00DB\U+2030\U+00FF\U+017D\U+00C5
  0
XRECORD
  5
66D
102
{ACAD_REACTORS
330
66C
102
}
330
66C
100
AcDbXrecord
280
     1
 40
16106.0
  1
\C3;4.2\C3;\U+0081`10.2
  0
LAYOUT
  5
49E
102
{ACAD_XDICTIONARY
360
6A3
102
}
102
{ACAD_REACTORS
330
49C
102
}
330
49C
100
AcDbPlotSettings
  1

  2
\\asrv0030\DocuCentre 230 - 本社９階　開発部
  4

  6

 40
0.0
 41
0.0
 42
0.0
 43
0.0
 44
0.0
 45
0.0
 46
0.0
 47
0.0
 48
0.0
 49
0.0
140
0.0
141
0.0
142
1.0
143
1.0
 70
  1712
 72
     0
 73
     0
 74
     0
  7

 75
     0
147
1.0
148
0.0
149
0.0
100
AcDbLayout
  1
Model
 70
     1
 71
     0
 10
0.0
 20
0.0
 11
12.0
 21
9.0
 12
0.0
 22
0.0
 32
0.0
 14
0.0
 24
0.0
 34
0.0
 15
0.0
 25
0.0
 35
0.0
146
0.0
 13
0.0
 23
0.0
 33
0.0
 16
1.0
 26
0.0
 36
0.0
 17
0.0
 27
1.0
 37
0.0
 76
     0
330
A
331
15
  0
LAYOUT
  5
49F
102
{ACAD_XDICTIONARY
360
6A5
102
}
102
{ACAD_REACTORS
330
49C
102
}
330
49C
100
AcDbPlotSettings
  1

  2
\\asrv0030\DocuCentre 230 - 本社９階　開発部
  4

  6

 40
0.0
 41
0.0
 42
0.0
 43
0.0
 44
0.0
 45
0.0
 46
0.0
 47
0.0
 48
0.0
 49
0.0
140
0.0
141
0.0
142
1.0
143
1.0
 70
   688
 72
     0
 73
     0
 74
     5
  7

 75
    16
147
1.0
148
0.0
149
0.0
100
AcDbLayout
  1
レイアウト1
 70
     0
 71
     1
 10
0.0
 20
0.0
 11
12.0
 21
9.0
 12
0.0
 22
0.0
 32
0.0
 14
1.000000000000000E+20
 24
1.000000000000000E+20
 34
1.000000000000000E+20
 15
-1.000000000000000E+20
 25
-1.000000000000000E+20
 35
-1.000000000000000E+20
146
0.0
 13
0.0
 23
0.0
 33
0.0
 16
1.0
 26
0.0
 36
0.0
 17
0.0
 27
1.0
 37
0.0
 76
     0
330
B
  0
MATERIAL
  5
45C
102
{ACAD_XDICTIONARY
360
45D
102
}
102
{ACAD_REACTORS
330
453
102
}
330
453
100
AcDbMaterial
  1
ByBlock
 72
     0
 43
0.0208333333333333
 43
0.0
 43
0.0
 43
0.0
 43
0.0
 43
0.0208333333333333
 43
0.0
 43
0.0
 43
0.0
 43
0.0
 43
1.0
 43
0.0
 43
0.0
 43
0.0
 43
0.0
 43
1.0
 77
     0
 47
0.0208333333333333
 47
0.0
 47
0.0
 47
0.0
 47
0.0
 47
0.0208333333333333
 47
0.0
 47
0.0
 47
0.0
 47
0.0
 47
1.0
 47
0.0
 47
0.0
 47
0.0
 47
0.0
 47
1.0
171
     0
 49
0.0208333333333333
 49
0.0
 49
0.0
 49
0.0
 49
0.0
 49
0.0208333333333333
 49
0.0
 49
0.0
 49
0.0
 49
0.0
 49
1.0
 49
0.0
 49
0.0
 49
0.0
 49
0.0
 49
1.0
175
     0
142
0.0208333333333333
142
0.0
142
0.0
142
0.0
142
0.0
142
0.0208333333333333
142
0.0
142
0.0
142
0.0
142
0.0
142
1.0
142
0.0
142
0.0
142
0.0
142
0.0
142
1.0
179
     0
144
0.0208333333333333
144
0.0
144
0.0
144
0.0
144
0.0
144
0.0208333333333333
144
0.0
144
0.0
144
0.0
144
0.0
144
1.0
144
0.0
144
0.0
144
0.0
144
0.0
144
1.0
147
0.0208333333333333
147
0.0
147
0.0
147
0.0
147
0.0
147
0.0208333333333333
147
0.0
147
0.0
147
0.0
147
0.0
147
1.0
147
0.0
147
0.0
147
0.0
147
0.0
147
1.0
  0
MATERIAL
  5
454
102
{ACAD_XDICTIONARY
360
455
102
}
102
{ACAD_REACTORS
330
453
102
}
330
453
100
AcDbMaterial
  1
ByLayer
 72
     0
 43
0.0208333333333333
 43
0.0
 43
0.0
 43
0.0
 43
0.0
 43
0.0208333333333333
 43
0.0
 43
0.0
 43
0.0
 43
0.0
 43
1.0
 43
0.0
 43
0.0
 43
0.0
 43
0.0
 43
1.0
 77
     0
 47
0.0208333333333333
 47
0.0
 47
0.0
 47
0.0
 47
0.0
 47
0.0208333333333333
 47
0.0
 47
0.0
 47
0.0
 47
0.0
 47
1.0
 47
0.0
 47
0.0
 47
0.0
 47
0.0
 47
1.0
171
     0
 49
0.0208333333333333
 49
0.0
 49
0.0
 49
0.0
 49
0.0
 49
0.0208333333333333
 49
0.0
 49
0.0
 49
0.0
 49
0.0
 49
1.0
 49
0.0
 49
0.0
 49
0.0
 49
0.0
 49
1.0
175
     0
142
0.0208333333333333
142
0.0
142
0.0
142
0.0
142
0.0
142
0.0208333333333333
142
0.0
142
0.0
142
0.0
142
0.0
142
1.0
142
0.0
142
0.0
142
0.0
142
0.0
142
1.0
179
     0
144
0.0208333333333333
144
0.0
144
0.0
144
0.0
144
0.0
144
0.0208333333333333
144
0.0
144
0.0
144
0.0
144
0.0
144
1.0
144
0.0
144
0.0
144
0.0
144
0.0
144
1.0
147
0.0208333333333333
147
0.0
147
0.0
147
0.0
147
0.0
147
0.0208333333333333
147
0.0
147
0.0
147
0.0
147
0.0
147
1.0
147
0.0
147
0.0
147
0.0
147
0.0
147
1.0
  0
MATERIAL
  5
464
102
{ACAD_XDICTIONARY
360
465
102
}
102
{ACAD_REACTORS
330
453
102
}
330
453
100
AcDbMaterial
  1
Global
 72
     0
 43
0.0208333333333333
 43
0.0
 43
0.0
 43
0.0
 43
0.0
 43
0.0208333333333333
 43
0.0
 43
0.0
 43
0.0
 43
0.0
 43
1.0
 43
0.0
 43
0.0
 43
0.0
 43
0.0
 43
1.0
 77
     0
 47
0.0208333333333333
 47
0.0
 47
0.0
 47
0.0
 47
0.0
 47
0.0208333333333333
 47
0.0
 47
0.0
 47
0.0
 47
0.0
 47
1.0
 47
0.0
 47
0.0
 47
0.0
 47
0.0
 47
1.0
171
     0
 49
0.0208333333333333
 49
0.0
 49
0.0
 49
0.0
 49
0.0
 49
0.0208333333333333
 49
0.0
 49
0.0
 49
0.0
 49
0.0
 49
1.0
 49
0.0
 49
0.0
 49
0.0
 49
0.0
 49
1.0
175
     0
142
0.0208333333333333
142
0.0
142
0.0
142
0.0
142
0.0
142
0.0208333333333333
142
0.0
142
0.0
142
0.0
142
0.0
142
1.0
142
0.0
142
0.0
142
0.0
142
0.0
142
1.0
179
     0
144
0.0208333333333333
144
0.0
144
0.0
144
0.0
144
0.0
144
0.0208333333333333
144
0.0
144
0.0
144
0.0
144
0.0
144
1.0
144
0.0
144
0.0
144
0.0
144
0.0
144
1.0
147
0.0208333333333333
147
0.0
147
0.0
147
0.0
147
0.0
147
0.0208333333333333
147
0.0
147
0.0
147
0.0
147
0.0
147
1.0
147
0.0
147
0.0
147
0.0
147
0.0
147
1.0
  0
MLEADERSTYLE
  5
49B
102
{ACAD_REACTORS
330
49A
102
}
330
49A
100
AcDbMLeaderStyle
170
     2
171
     1
172
     0
 90
        2
 40
0.0
 41
0.0
173
     1
 91
-1056964608
340
11
 92
       -2
290
     1
 42
2.0
291
     1
 43
0.36
  3
Standard
 44
4.0
300

342
17
174
     1
178
     6
175
     1
176
     0
 93
-1056964608
 45
4.0
292
     0
297
     0
 46
4.0
 94
-1056964608
 47
1.0
 49
1.0
140
1.0
293
     1
141
0.0
294
     1
177
     0
142
1.0
295
     0
296
     0
143
0.125
1001
ACAD_MLEADERVER
1070
     2
  0
MLINESTYLE
  5
1C
102
{ACAD_REACTORS
330
1B
102
}
330
1B
100
AcDbMlineStyle
  2
STANDARD
 70
     0
  3

 62
     0
 51
90.0
 52
90.0
 71
     2
 49
0.5
 62
   256
  6
BYLAYER
 49
-0.5
 62
   256
  6
BYLAYER
  0
ACDBPLACEHOLDER
  5
452
102
{ACAD_REACTORS
330
451
102
}
330
451
  0
SCALE
  5
489
102
{ACAD_REACTORS
330
488
102
}
330
488
100
AcDbScale
 70
     0
300
1:1
140
1.0
141
1.0
290
     1
  0
SCALE
  5
48A
102
{ACAD_REACTORS
330
488
102
}
330
488
100
AcDbScale
 70
     0
300
1:2
140
1.0
141
2.0
290
     0
  0
SCALE
  5
48B
102
{ACAD_REACTORS
330
488
102
}
330
488
100
AcDbScale
 70
     0
300
1:4
140
1.0
141
4.0
290
     0
  0
SCALE
  5
48C
102
{ACAD_REACTORS
330
488
102
}
330
488
100
AcDbScale
 70
     0
300
1:5
140
1.0
141
5.0
290
     0
  0
SCALE
  5
48D
102
{ACAD_REACTORS
330
488
102
}
330
488
100
AcDbScale
 70
     0
300
1:8
140
1.0
141
8.0
290
     0
  0
SCALE
  5
48E
102
{ACAD_REACTORS
330
488
102
}
330
488
100
AcDbScale
 70
     0
300
1:10
140
1.0
141
10.0
290
     0
  0
SCALE
  5
48F
102
{ACAD_REACTORS
330
488
102
}
330
488
100
AcDbScale
 70
     0
300
1:16
140
1.0
141
16.0
290
     0
  0
SCALE
  5
490
102
{ACAD_REACTORS
330
488
102
}
330
488
100
AcDbScale
 70
     0
300
1:20
140
1.0
141
20.0
290
     0
  0
SCALE
  5
491
102
{ACAD_REACTORS
330
488
102
}
330
488
100
AcDbScale
 70
     0
300
1:30
140
1.0
141
30.0
290
     0
  0
SCALE
  5
492
102
{ACAD_REACTORS
330
488
102
}
330
488
100
AcDbScale
 70
     0
300
1:40
140
1.0
141
40.0
290
     0
  0
SCALE
  5
493
102
{ACAD_REACTORS
330
488
102
}
330
488
100
AcDbScale
 70
     0
300
1:50
140
1.0
141
50.0
290
     0
  0
SCALE
  5
494
102
{ACAD_REACTORS
330
488
102
}
330
488
100
AcDbScale
 70
     0
300
1:100
140
1.0
141
100.0
290
     0
  0
SCALE
  5
495
102
{ACAD_REACTORS
330
488
102
}
330
488
100
AcDbScale
 70
     0
300
2:1
140
2.0
141
1.0
290
     0
  0
SCALE
  5
496
102
{ACAD_REACTORS
330
488
102
}
330
488
100
AcDbScale
 70
     0
300
4:1
140
4.0
141
1.0
290
     0
  0
SCALE
  5
497
102
{ACAD_REACTORS
330
488
102
}
330
488
100
AcDbScale
 70
     0
300
8:1
140
8.0
141
1.0
290
     0
  0
SCALE
  5
498
102
{ACAD_REACTORS
330
488
102
}
330
488
100
AcDbScale
 70
     0
300
10:1
140
10.0
141
1.0
290
     0
  0
SCALE
  5
499
102
{ACAD_REACTORS
330
488
102
}
330
488
100
AcDbScale
 70
     0
300
100:1
140
100.0
141
1.0
290
     0
  0
TABLESTYLE
  5
487
102
{ACAD_XDICTIONARY
360
5E0
102
}
102
{ACAD_REACTORS
330
486
102
}
330
486
100
AcDbTableStyle
  3
Standard
 70
     0
 71
     0
 40
1.5
 41
1.5
280
     0
281
     0
  7
STANDARD
140
4.5
170
     2
 62
     0
 63
     7
283
     0
274
    -2
284
     1
 64
     0
275
    -2
285
     1
 65
     0
276
    -2
286
     1
 66
     0
277
    -2
287
     1
 67
     0
278
    -2
288
     1
 68
     0
279
    -2
289
     1
 69
     0
  7
STANDARD
140
6.0
170
     5
 62
     0
 63
     7
283
     0
274
    -2
284
     1
 64
     0
275
    -2
285
     1
 65
     0
276
    -2
286
     1
 66
     0
277
    -2
287
     1
 67
     0
278
    -2
288
     1
 68
     0
279
    -2
289
     1
 69
     0
  7
STANDARD
140
4.5
170
     5
 62
     0
 63
     7
283
     0
274
    -2
284
     1
 64
     0
275
    -2
285
     1
 65
     0
276
    -2
286
     1
 66
     0
277
    -2
287
     1
 67
     0
278
    -2
288
     1
 68
     0
279
    -2
289
     1
 69
     0
  0
VISUALSTYLE
  5
472
102
{ACAD_XDICTIONARY
360
67B
102
}
102
{ACAD_REACTORS
330
46C
102
}
330
46C
100
AcDbVisualStyle
  2
2dWireframe
 70
     4
 71
     0
 72
     2
 73
     0
 90
        0
 40
-0.6
 41
-30.0
 62
     5
 63
     7
 74
     1
 91
        4
 64
     7
 65
   257
 75
     1
175
     1
 42
1.0
 92
        0
 66
   257
 43
1.0
 76
     1
 77
     6
 78
     2
 67
     7
 79
     5
170
     0
171
     0
290
     0
174
     0
 93
        1
 44
0.0
173
     0
291
     0
 45
0.0
1001
ACAD
1000
AcDbSavedByObjectVersion
1070
     0
  0
VISUALSTYLE
  5
471
102
{ACAD_XDICTIONARY
360
679
102
}
102
{ACAD_REACTORS
330
46C
102
}
330
46C
100
AcDbVisualStyle
  2
Basic
 70
     7
 71
     1
 72
     0
 73
     1
 90
        0
 40
-0.6
 41
-30.0
 62
     5
 63
     7
 74
     0
 91
        4
 64
     7
 65
   257
 75
     1
175
     1
 42
1.0
 92
        8
 66
     7
 43
1.0
 76
     1
 77
     6
 78
     2
 67
     7
 79
     5
170
     0
171
     0
290
     0
174
     0
 93
        1
 44
0.0
173
     0
291
     1
 45
0.0
1001
ACAD
1000
AcDbSavedByObjectVersion
1070
     0
  0
VISUALSTYLE
  5
478
102
{ACAD_XDICTIONARY
360
687
102
}
102
{ACAD_REACTORS
330
46C
102
}
330
46C
100
AcDbVisualStyle
  2
Brighten
 70
    12
 71
     2
 72
     2
 73
     0
 90
        0
 40
-0.6
 41
-30.0
 62
     5
 63
     7
 74
     1
 91
        4
 64
     7
 65
   257
 75
     1
175
     1
 42
1.0
 92
        8
 66
     7
 43
1.0
 76
     1
 77
     6
 78
     2
 67
     7
 79
     5
170
     0
171
     0
290
     0
174
     0
 93
        1
 44
50.0
173
     0
291
     1
 45
0.0
1001
ACAD
1000
AcDbSavedByObjectVersion
1070
     0
  0
VISUALSTYLE
  5
47C
102
{ACAD_XDICTIONARY
360
68F
102
}
102
{ACAD_REACTORS
330
46C
102
}
330
46C
100
AcDbVisualStyle
  2
ColorChange
 70
    16
 71
     2
 72
     2
 73
     3
 90
        0
 40
-0.6
 41
-30.0
 62
     5
 63
     8
 74
     1
 91
        4
 64
     7
 65
   257
 75
     1
175
     1
 42
1.0
 92
        8
 66
     8
 43
1.0
 76
     1
 77
     6
 78
     2
 67
     7
 79
     5
170
     0
171
     0
290
     0
174
     0
 93
        1
 44
0.0
173
     0
291
     1
 45
0.0
1001
ACAD
1000
AcDbSavedByObjectVersion
1070
     0
  0
VISUALSTYLE
  5
475
102
{ACAD_XDICTIONARY
360
681
102
}
102
{ACAD_REACTORS
330
46C
102
}
330
46C
100
AcDbVisualStyle
  2
Conceptual
 70
     9
 71
     3
 72
     2
 73
     0
 90
        0
 40
-0.6
 41
-30.0
 62
     5
 63
     7
 74
     2
 91
        2
 64
     7
 65
   257
 75
     1
175
     1
 42
179.0
 92
        8
 66
     7
 43
1.0
 76
     1
 77
     6
 78
     2
 67
     7
 79
     3
170
     0
171
     0
290
     0
174
     0
 93
        1
 44
0.0
173
     0
291
     0
 45
0.0
1001
ACAD
1000
AcDbSavedByObjectVersion
1070
     0
  0
VISUALSTYLE
  5
477
102
{ACAD_XDICTIONARY
360
685
102
}
102
{ACAD_REACTORS
330
46C
102
}
330
46C
100
AcDbVisualStyle
  2
Dim
 70
    11
 71
     2
 72
     2
 73
     0
 90
        0
 40
-0.6
 41
-30.0
 62
     5
 63
     7
 74
     1
 91
        4
 64
     7
 65
   257
 75
     1
175
     1
 42
1.0
 92
        8
 66
     7
 43
1.0
 76
     1
 77
     6
 78
     2
 67
     7
 79
     5
170
     0
171
     0
290
     0
174
     0
 93
        1
 44
-50.0
173
     0
291
     1
 45
0.0
1001
ACAD
1000
AcDbSavedByObjectVersion
1070
     0
  0
VISUALSTYLE
  5
484
102
{ACAD_XDICTIONARY
360
69F
102
}
102
{ACAD_REACTORS
330
46C
102
}
330
46C
100
AcDbVisualStyle
  2
EdgeColorOff
 70
    22
 71
     2
 72
     2
 73
     0
 90
        0
 40
-0.6
 41
-30.0
 62
     5
 63
     7
 74
     1
 91
        4
 64
     7
 65
   257
 75
     1
175
     1
 42
1.0
 92
        8
 66
     7
 43
1.0
 76
     1
 77
     6
 78
     2
 67
     7
 79
     5
170
     0
171
     0
290
     0
174
     0
 93
        1
 44
0.0
173
     0
291
     1
 45
0.0
1001
ACAD
1000
AcDbSavedByObjectVersion
1070
     0
  0
VISUALSTYLE
  5
47B
102
{ACAD_XDICTIONARY
360
68D
102
}
102
{ACAD_REACTORS
330
46C
102
}
330
46C
100
AcDbVisualStyle
  2
Facepattern
 70
    15
 71
     2
 72
     2
 73
     0
 90
        0
 40
-0.6
 41
-30.0
 62
     5
 63
     7
 74
     1
 91
        4
 64
     7
 65
   257
 75
     1
175
     1
 42
1.0
 92
        8
 66
     7
 43
1.0
 76
     1
 77
     6
 78
     2
 67
     7
 79
     5
170
     0
171
     0
290
     0
174
     0
 93
        1
 44
0.0
173
     0
291
     1
 45
0.0
1001
ACAD
1000
AcDbSavedByObjectVersion
1070
     0
  0
VISUALSTYLE
  5
46D
102
{ACAD_XDICTIONARY
360
671
102
}
102
{ACAD_REACTORS
330
46C
102
}
330
46C
100
AcDbVisualStyle
  2
Flat
 70
     0
 71
     2
 72
     1
 73
     1
 90
        2
 40
-0.6
 41
30.0
 62
     5
 63
     7
 74
     0
 91
        0
 64
     7
 65
   257
 75
     1
175
     1
 42
1.0
 92
        8
 66
     7
 43
1.0
 76
     1
 77
     6
 78
     2
 67
     7
 79
     5
170
     0
171
     0
290
     0
174
     0
 93
       13
 44
0.0
173
     0
291
     1
 45
0.0
1001
ACAD
1000
AcDbSavedByObjectVersion
1070
     0
  0
VISUALSTYLE
  5
46E
102
{ACAD_XDICTIONARY
360
673
102
}
102
{ACAD_REACTORS
330
46C
102
}
330
46C
100
AcDbVisualStyle
  2
FlatWithEdges
 70
     1
 71
     2
 72
     1
 73
     1
 90
        2
 40
-0.6
 41
30.0
 62
     5
 63
     7
 74
     1
 91
        0
 64
     7
 65
   257
 75
     1
175
     1
 42
1.0
 92
        0
 66
   257
 43
1.0
 76
     1
 77
     6
 78
     2
 67
     7
 79
     5
170
     0
171
     0
290
     0
174
     0
 93
       13
 44
0.0
173
     0
291
     1
 45
0.0
1001
ACAD
1000
AcDbSavedByObjectVersion
1070
     0
  0
VISUALSTYLE
  5
46F
102
{ACAD_XDICTIONARY
360
675
102
}
102
{ACAD_REACTORS
330
46C
102
}
330
46C
100
AcDbVisualStyle
  2
Gouraud
 70
     2
 71
     2
 72
     2
 73
     1
 90
        2
 40
-0.6
 41
30.0
 62
     5
 63
     7
 74
     0
 91
        0
 64
     7
 65
   257
 75
     1
175
     1
 42
1.0
 92
        0
 66
     7
 43
1.0
 76
     1
 77
     6
 78
     2
 67
     7
 79
     5
170
     0
171
     0
290
     0
174
     0
 93
       13
 44
0.0
173
     0
291
     1
 45
0.0
1001
ACAD
1000
AcDbSavedByObjectVersion
1070
     0
  0
VISUALSTYLE
  5
470
102
{ACAD_XDICTIONARY
360
677
102
}
102
{ACAD_REACTORS
330
46C
102
}
330
46C
100
AcDbVisualStyle
  2
GouraudWithEdges
 70
     3
 71
     2
 72
     2
 73
     1
 90
        2
 40
-0.6
 41
30.0
 62
     5
 63
     7
 74
     1
 91
        0
 64
     7
 65
   257
 75
     1
175
     1
 42
1.0
 92
        0
 66
   257
 43
1.0
 76
     1
 77
     6
 78
     2
 67
     7
 79
     5
170
     0
171
     0
290
     0
174
     0
 93
       13
 44
0.0
173
     0
291
     1
 45
0.0
1001
ACAD
1000
AcDbSavedByObjectVersion
1070
     0
  0
VISUALSTYLE
  5
474
102
{ACAD_XDICTIONARY
360
67F
102
}
102
{ACAD_REACTORS
330
46C
102
}
330
46C
100
AcDbVisualStyle
  2
Hidden
 70
     6
 71
     1
 72
     2
 73
     2
 90
        0
 40
-0.6
 41
-30.0
 62
     5
 63
     7
 74
     2
 91
        2
 64
     7
 65
   257
 75
     2
175
     1
 42
40.0
 92
        0
 66
   257
 43
1.0
 76
     1
 77
     6
 78
     2
 67
     7
 79
     3
170
     0
171
     0
290
     0
174
     0
 93
        1
 44
0.0
173
     0
291
     0
 45
0.0
1001
ACAD
1000
AcDbSavedByObjectVersion
1070
     0
  0
VISUALSTYLE
  5
482
102
{ACAD_XDICTIONARY
360
69B
102
}
102
{ACAD_REACTORS
330
46C
102
}
330
46C
100
AcDbVisualStyle
  2
JitterOff
 70
    20
 71
     2
 72
     2
 73
     0
 90
        0
 40
-0.6
 41
-30.0
 62
     5
 63
     7
 74
     1
 91
        4
 64
     7
 65
   257
 75
     1
175
     1
 42
1.0
 92
       10
 66
     7
 43
1.0
 76
     1
 77
     6
 78
     2
 67
     7
 79
     5
170
     0
171
     0
290
     0
174
     0
 93
        1
 44
0.0
173
     0
291
     1
 45
0.0
1001
ACAD
1000
AcDbSavedByObjectVersion
1070
     0
  0
VISUALSTYLE
  5
47A
102
{ACAD_XDICTIONARY
360
68B
102
}
102
{ACAD_REACTORS
330
46C
102
}
330
46C
100
AcDbVisualStyle
  2
Linepattern
 70
    14
 71
     2
 72
     2
 73
     0
 90
        0
 40
-0.6
 41
-30.0
 62
     5
 63
     7
 74
     1
 91
        4
 64
     7
 65
   257
 75
     7
175
     7
 42
1.0
 92
        8
 66
     7
 43
1.0
 76
     1
 77
     6
 78
     2
 67
     7
 79
     5
170
     0
171
     0
290
     0
174
     0
 93
        1
 44
0.0
173
     0
291
     1
 45
0.0
1001
ACAD
1000
AcDbSavedByObjectVersion
1070
     0
  0
VISUALSTYLE
  5
483
102
{ACAD_XDICTIONARY
360
69D
102
}
102
{ACAD_REACTORS
330
46C
102
}
330
46C
100
AcDbVisualStyle
  2
OverhangOff
 70
    21
 71
     2
 72
     2
 73
     0
 90
        0
 40
-0.6
 41
-30.0
 62
     5
 63
     7
 74
     1
 91
        4
 64
     7
 65
   257
 75
     1
175
     1
 42
1.0
 92
        9
 66
     7
 43
1.0
 76
     1
 77
     6
 78
     2
 67
     7
 79
     5
170
     0
171
     0
290
     0
174
     0
 93
        1
 44
0.0
173
     0
291
     1
 45
0.0
1001
ACAD
1000
AcDbSavedByObjectVersion
1070
     0
  0
VISUALSTYLE
  5
476
102
{ACAD_XDICTIONARY
360
683
102
}
102
{ACAD_REACTORS
330
46C
102
}
330
46C
100
AcDbVisualStyle
  2
Realistic
 70
     8
 71
     2
 72
     3
 73
     0
 90
        2
 40
-0.6
 41
30.0
 62
     5
 63
     7
 74
     0
 91
        0
 64
     7
 65
   257
 75
     1
175
     1
 42
1.0
 92
        8
 66
   257
 43
1.0
 76
     1
 77
     6
 78
     2
 67
     7
 79
     3
170
     0
171
     0
290
     0
174
     0
 93
       13
 44
0.0
173
     0
291
     0
 45
0.0
1001
ACAD
1000
AcDbSavedByObjectVersion
1070
     0
  0
VISUALSTYLE
  5
481
102
{ACAD_XDICTIONARY
360
699
102
}
102
{ACAD_REACTORS
330
46C
102
}
330
46C
100
AcDbVisualStyle
  2
Shaded
 70
    27
 71
     2
 72
     2
 73
     1
 90
        2
 40
-0.6
 41
30.0
 62
     5
 63
     7
 74
     0
 91
        4
 64
     7
 65
   257
 75
     1
175
     1
 42
1.0
 92
        8
 66
   257
 43
1.0
 76
     1
 77
     6
 78
     2
 67
     8
 79
     3
170
     0
171
     0
290
     0
174
     0
 93
        5
 44
0.0
173
     0
291
     0
 45
0.0
1001
ACAD
1000
AcDbSavedByObjectVersion
1070
     0
  0
VISUALSTYLE
  5
480
102
{ACAD_XDICTIONARY
360
697
102
}
102
{ACAD_REACTORS
330
46C
102
}
330
46C
100
AcDbVisualStyle
  2
Shaded with edges
 70
    26
 71
     2
 72
     2
 73
     1
 90
        2
 40
-0.6
 41
30.0
 62
     5
 63
     7
 74
     1
 91
       10
 64
     7
 65
   257
 75
     2
175
     1
 42
1.0
 92
        8
 66
   257
 43
1.0
 76
     1
 77
     6
 78
     2
 67
     7
 79
     3
170
     0
171
     0
290
     0
174
     0
 93
        5
 44
0.0
173
     0
291
     0
 45
0.0
1001
ACAD
1000
AcDbSavedByObjectVersion
1070
     0
  0
VISUALSTYLE
  5
47D
102
{ACAD_XDICTIONARY
360
691
102
}
102
{ACAD_REACTORS
330
46C
102
}
330
46C
100
AcDbVisualStyle
  2
Shades of Gray
 70
    23
 71
     2
 72
     2
 73
     3
 90
        0
 40
-0.6
 41
-30.0
 62
     5
 63
     7
 74
     2
 91
        2
 64
     7
 65
     7
 75
     1
175
     1
 42
40.0
 92
        8
 66
     7
 43
1.0
 76
     1
 77
     6
 78
     2
 67
     7
 79
     3
170
     0
171
     0
290
     0
174
     0
 93
        1
 44
0.0
173
     0
291
     0
 45
0.0
1001
ACAD
1000
AcDbSavedByObjectVersion
1070
     0
  0
VISUALSTYLE
  5
47E
102
{ACAD_XDICTIONARY
360
693
102
}
102
{ACAD_REACTORS
330
46C
102
}
330
46C
100
AcDbVisualStyle
  2
Sketchy
 70
    24
 71
     1
 72
     2
 73
     2
 90
        0
 40
-0.6
 41
-30.0
 62
     5
 63
     7
 74
     2
 91
        2
 64
     7
 65
     7
 75
     1
175
     1
 42
40.0
 92
       11
 66
     7
 43
1.0
 76
     1
 77
     6
 78
     2
 67
     7
 79
     6
170
     0
171
     0
290
     0
174
     0
 93
        1
 44
0.0
173
     0
291
     0
 45
0.0
1001
ACAD
1000
AcDbSavedByObjectVersion
1070
     0
  0
VISUALSTYLE
  5
479
102
{ACAD_XDICTIONARY
360
689
102
}
102
{ACAD_REACTORS
330
46C
102
}
330
46C
100
AcDbVisualStyle
  2
Thicken
 70
    13
 71
     2
 72
     2
 73
     0
 90
        0
 40
-0.6
 41
-30.0
 62
     5
 63
     7
 74
     1
 91
        4
 64
     7
 65
   257
 75
     1
175
     1
 42
1.0
 92
       12
 66
     7
 43
1.0
 76
     1
 77
     6
 78
     2
 67
     7
 79
     5
170
     0
171
     0
290
     0
174
     0
 93
        1
 44
0.0
173
     0
291
     1
 45
0.0
1001
ACAD
1000
AcDbSavedByObjectVersion
1070
     0
  0
VISUALSTYLE
  5
473
102
{ACAD_XDICTIONARY
360
67D
102
}
102
{ACAD_REACTORS
330
46C
102
}
330
46C
100
AcDbVisualStyle
  2
Wireframe
 70
     5
 71
     0
 72
     2
 73
     0
 90
        0
 40
-0.6
 41
-30.0
 62
     5
 63
     7
 74
     1
 91
        4
 64
     7
 65
   257
 75
     1
175
     1
 42
1.0
 92
        0
 66
   257
 43
1.0
 76
     1
 77
     6
 78
     2
 67
     7
 79
     3
170
     0
171
     0
290
     0
174
     0
 93
        1
 44
0.0
173
     0
291
     0
 45
0.0
1001
ACAD
1000
AcDbSavedByObjectVersion
1070
     0
  0
VISUALSTYLE
  5
47F
102
{ACAD_XDICTIONARY
360
695
102
}
102
{ACAD_REACTORS
330
46C
102
}
330
46C
100
AcDbVisualStyle
  2
X-Ray
 70
    25
 71
     2
 72
     2
 73
     1
 90
        1
 40
0.5
 41
-30.0
 62
     5
 63
     7
 74
     1
 91
        0
 64
     7
 65
   257
 75
     1
175
     1
 42
1.0
 92
        8
 66
     7
 43
1.0
 76
     1
 77
     6
 78
     2
 67
     7
 79
     3
170
     0
171
     0
290
     0
174
     0
 93
       13
 44
0.0
173
     0
291
     0
 45
0.0
1001
ACAD
1000
AcDbSavedByObjectVersion
1070
     0
  0
DICTIONARYVAR
  5
5DA
102
{ACAD_REACTORS
330
5D7
102
}
330
5D7
100
DictionaryVariables
280
     0
  1
1:1
  0
DICTIONARYVAR
  5
5D9
102
{ACAD_REACTORS
330
5D7
102
}
330
5D7
100
DictionaryVariables
280
     0
  1
STANDARD
  0
DICTIONARYVAR
  5
5D8
102
{ACAD_REACTORS
330
5D7
102
}
330
5D7
100
DictionaryVariables
280
     0
  1
STANDARD
  0
DICTIONARYVAR
  5
5DD
102
{ACAD_REACTORS
330
5D7
102
}
330
5D7
100
DictionaryVariables
280
     0
  1
1
  0
DICTIONARYVAR
  5
5DC
102
{ACAD_REACTORS
330
5D7
102
}
330
5D7
100
DictionaryVariables
280
     0
  1
0
  0
DICTIONARYVAR
  5
5DB
102
{ACAD_REACTORS
330
5D7
102
}
330
5D7
100
DictionaryVariables
280
     0
  1
127
  0
DICTIONARYVAR
  5
5DE
102
{ACAD_REACTORS
330
5D7
102
}
330
5D7
100
DictionaryVariables
280
     0
  1
2
  0
XRECORD
  5
5D6
102
{ACAD_REACTORS
330
5D4
102
}
330
5D4
100
AcDbXrecord
280
     1
330
31
  0
DICTIONARY
  5
6A3
330
49E
100
AcDbDictionary
280
     1
281
     1
  3
ACAD_XREC_ROUNDTRIP
360
6A4
  0
DICTIONARY
  5
6A5
330
49F
100
AcDbDictionary
280
     1
281
     1
  3
ACAD_XREC_ROUNDTRIP
360
6A6
  0
DICTIONARY
  5
45D
330
45C
100
AcDbDictionary
280
     1
281
     1
  3
ACAD_XREC_ROUNDTRIP
360
66F
  3
BUMPTILE
360
45F
  3
DIFFUSETILE
360
45E
  3
OPACITYTILE
360
462
  3
REFLECTIONTILE
360
461
  3
REFRACTIONTILE
360
463
  3
SPECULARTILE
360
460
  0
DICTIONARY
  5
455
330
454
100
AcDbDictionary
280
     1
281
     1
  3
ACAD_XREC_ROUNDTRIP
360
66E
  3
BUMPTILE
360
457
  3
DIFFUSETILE
360
456
  3
OPACITYTILE
360
45A
  3
REFLECTIONTILE
360
459
  3
REFRACTIONTILE
360
45B
  3
SPECULARTILE
360
458
  0
DICTIONARY
  5
465
330
464
100
AcDbDictionary
280
     1
281
     1
  3
ACAD_XREC_ROUNDTRIP
360
670
  3
BUMPTILE
360
467
  3
DIFFUSETILE
360
466
  3
OPACITYTILE
360
46A
  3
REFLECTIONTILE
360
469
  3
REFRACTIONTILE
360
46B
  3
SPECULARTILE
360
468
  0
DICTIONARY
  5
5E0
330
487
100
AcDbDictionary
280
     1
281
     1
  3
ACAD_ROUNDTRIP_2008_TABLESTYLE_CELLSTYLEMAP
360
5E1
  3
ACAD_XREC_ROUNDTRIP
360
6A1
  0
DICTIONARY
  5
67B
330
472
100
AcDbDictionary
280
     1
281
     1
  3
ACAD_XREC_ROUNDTRIP
360
67C
  0
DICTIONARY
  5
679
330
471
100
AcDbDictionary
280
     1
281
     1
  3
ACAD_XREC_ROUNDTRIP
360
67A
  0
DICTIONARY
  5
687
330
478
100
AcDbDictionary
280
     1
281
     1
  3
ACAD_XREC_ROUNDTRIP
360
688
  0
DICTIONARY
  5
68F
330
47C
100
AcDbDictionary
280
     1
281
     1
  3
ACAD_XREC_ROUNDTRIP
360
690
  0
DICTIONARY
  5
681
330
475
100
AcDbDictionary
280
     1
281
     1
  3
ACAD_XREC_ROUNDTRIP
360
682
  0
DICTIONARY
  5
685
330
477
100
AcDbDictionary
280
     1
281
     1
  3
ACAD_XREC_ROUNDTRIP
360
686
  0
DICTIONARY
  5
69F
330
484
100
AcDbDictionary
280
     1
281
     1
  3
ACAD_XREC_ROUNDTRIP
360
6A0
  0
DICTIONARY
  5
68D
330
47B
100
AcDbDictionary
280
     1
281
     1
  3
ACAD_XREC_ROUNDTRIP
360
68E
  0
DICTIONARY
  5
671
330
46D
100
AcDbDictionary
280
     1
281
     1
  3
ACAD_XREC_ROUNDTRIP
360
672
  0
DICTIONARY
  5
673
330
46E
100
AcDbDictionary
280
     1
281
     1
  3
ACAD_XREC_ROUNDTRIP
360
674
  0
DICTIONARY
  5
675
330
46F
100
AcDbDictionary
280
     1
281
     1
  3
ACAD_XREC_ROUNDTRIP
360
676
  0
DICTIONARY
  5
677
330
470
100
AcDbDictionary
280
     1
281
     1
  3
ACAD_XREC_ROUNDTRIP
360
678
  0
DICTIONARY
  5
67F
330
474
100
AcDbDictionary
280
     1
281
     1
  3
ACAD_XREC_ROUNDTRIP
360
680
  0
DICTIONARY
  5
69B
330
482
100
AcDbDictionary
280
     1
281
     1
  3
ACAD_XREC_ROUNDTRIP
360
69C
  0
DICTIONARY
  5
68B
330
47A
100
AcDbDictionary
280
     1
281
     1
  3
ACAD_XREC_ROUNDTRIP
360
68C
  0
DICTIONARY
  5
69D
330
483
100
AcDbDictionary
280
     1
281
     1
  3
ACAD_XREC_ROUNDTRIP
360
69E
  0
DICTIONARY
  5
683
330
476
100
AcDbDictionary
280
     1
281
     1
  3
ACAD_XREC_ROUNDTRIP
360
684
  0
DICTIONARY
  5
699
330
481
100
AcDbDictionary
280
     1
281
     1
  3
ACAD_XREC_ROUNDTRIP
360
69A
  0
DICTIONARY
  5
697
330
480
100
AcDbDictionary
280
     1
281
     1
  3
ACAD_XREC_ROUNDTRIP
360
698
  0
DICTIONARY
  5
691
330
47D
100
AcDbDictionary
280
     1
281
     1
  3
ACAD_XREC_ROUNDTRIP
360
692
  0
DICTIONARY
  5
693
330
47E
100
AcDbDictionary
280
     1
281
     1
  3
ACAD_XREC_ROUNDTRIP
360
694
  0
DICTIONARY
  5
689
330
479
100
AcDbDictionary
280
     1
281
     1
  3
ACAD_XREC_ROUNDTRIP
360
68A
  0
DICTIONARY
  5
67D
330
473
100
AcDbDictionary
280
     1
281
     1
  3
ACAD_XREC_ROUNDTRIP
360
67E
  0
DICTIONARY
  5
695
330
47F
100
AcDbDictionary
280
     1
281
     1
  3
ACAD_XREC_ROUNDTRIP
360
696
  0
XRECORD
  5
6A4
102
{ACAD_REACTORS
330
6A3
102
}
330
6A3
100
AcDbXrecord
280
     1
102
SHADEPLOT
 70
     0
102
SHADEPLOTRESLEVEL
 70
     2
102
SHADEPLOTCUSTOMDPI
 70
   300
  0
XRECORD
  5
6A6
102
{ACAD_REACTORS
330
6A5
102
}
330
6A5
100
AcDbXrecord
280
     1
102
SHADEPLOT
 70
     0
102
SHADEPLOTRESLEVEL
 70
     2
102
SHADEPLOTCUSTOMDPI
 70
   300
  0
XRECORD
  5
66F
102
{ACAD_REACTORS
330
45D
102
}
330
45D
100
AcDbXrecord
280
     1
102
MATERIAL
148
0.0
149
0.0
149
0.0
 93
        0
 94
      127
282
     0
 72
     0
 77
     0
171
     0
175
     0
179
     0
273
     0
  0
XRECORD
  5
45F
102
{ACAD_REACTORS
330
45D
102
}
330
45D
100
AcDbXrecord
280
     1
270
     1
271
     1
  0
XRECORD
  5
45E
102
{ACAD_REACTORS
330
45D
102
}
330
45D
100
AcDbXrecord
280
     1
270
     1
271
     1
  0
XRECORD
  5
462
102
{ACAD_REACTORS
330
45D
102
}
330
45D
100
AcDbXrecord
280
     1
270
     1
271
     1
  0
XRECORD
  5
461
102
{ACAD_REACTORS
330
45D
102
}
330
45D
100
AcDbXrecord
280
     1
270
     1
271
     1
  0
XRECORD
  5
463
102
{ACAD_REACTORS
330
45D
102
}
330
45D
100
AcDbXrecord
280
     1
270
     1
271
     1
  0
XRECORD
  5
460
102
{ACAD_REACTORS
330
45D
102
}
330
45D
100
AcDbXrecord
280
     1
270
     1
271
     1
  0
XRECORD
  5
66E
102
{ACAD_REACTORS
330
455
102
}
330
455
100
AcDbXrecord
280
     1
102
MATERIAL
148
0.0
149
0.0
149
0.0
 93
        0
 94
      127
282
     0
 72
     0
 77
     0
171
     0
175
     0
179
     0
273
     0
  0
XRECORD
  5
457
102
{ACAD_REACTORS
330
455
102
}
330
455
100
AcDbXrecord
280
     1
270
     1
271
     1
  0
XRECORD
  5
456
102
{ACAD_REACTORS
330
455
102
}
330
455
100
AcDbXrecord
280
     1
270
     1
271
     1
  0
XRECORD
  5
45A
102
{ACAD_REACTORS
330
455
102
}
330
455
100
AcDbXrecord
280
     1
270
     1
271
     1
  0
XRECORD
  5
459
102
{ACAD_REACTORS
330
455
102
}
330
455
100
AcDbXrecord
280
     1
270
     1
271
     1
  0
XRECORD
  5
45B
102
{ACAD_REACTORS
330
455
102
}
330
455
100
AcDbXrecord
280
     1
270
     1
271
     1
  0
XRECORD
  5
458
102
{ACAD_REACTORS
330
455
102
}
330
455
100
AcDbXrecord
280
     1
270
     1
271
     1
  0
XRECORD
  5
670
102
{ACAD_REACTORS
330
465
102
}
330
465
100
AcDbXrecord
280
     1
102
MATERIAL
148
0.0
149
0.0
149
0.0
 93
        0
 94
      127
282
     0
 72
     0
 77
     0
171
     0
175
     0
179
     0
273
     0
  0
XRECORD
  5
467
102
{ACAD_REACTORS
330
465
102
}
330
465
100
AcDbXrecord
280
     1
270
     1
271
     1
  0
XRECORD
  5
466
102
{ACAD_REACTORS
330
465
102
}
330
465
100
AcDbXrecord
280
     1
270
     1
271
     1
  0
XRECORD
  5
46A
102
{ACAD_REACTORS
330
465
102
}
330
465
100
AcDbXrecord
280
     1
270
     1
271
     1
  0
XRECORD
  5
469
102
{ACAD_REACTORS
330
465
102
}
330
465
100
AcDbXrecord
280
     1
270
     1
271
     1
  0
XRECORD
  5
46B
102
{ACAD_REACTORS
330
465
102
}
330
465
100
AcDbXrecord
280
     1
270
     1
271
     1
  0
XRECORD
  5
468
102
{ACAD_REACTORS
330
465
102
}
330
465
100
AcDbXrecord
280
     1
270
     1
271
     1
  0
CELLSTYLEMAP
  5
5E1
102
{ACAD_REACTORS
330
5E0
102
}
330
5E0
100
AcDbCellStyleMap
 90
        3
300
CELLSTYLE
  1
TABLEFORMAT_BEGIN
 90
        5
170
     1
 91
        0
 92
    32768
 62
   257
 93
        1
300
CONTENTFORMAT
  1
CONTENTFORMAT_BEGIN
 90
        0
 91
        0
 92
      512
 93
        0
300

 40
0.0
140
1.0
 94
        5
 62
     0
340
17
144
6.0
309
CONTENTFORMAT_END
171
     1
301
MARGIN
  1
CELLMARGIN_BEGIN
 40
1.5
 40
1.5
 40
1.5
 40
1.5
 40
4.5
 40
4.5
309
CELLMARGIN_END
 94
        6
 95
        1
302
GRIDFORMAT
  1
GRIDFORMAT_BEGIN
 90
        0
 91
        1
 62
     0
 92
       -2
340
0
 93
        0
 40
1.125
309
GRIDFORMAT_END
 95
        2
302
GRIDFORMAT
  1
GRIDFORMAT_BEGIN
 90
        0
 91
        1
 62
     0
 92
       -2
340
0
 93
        0
 40
1.125
309
GRIDFORMAT_END
 95
        4
302
GRIDFORMAT
  1
GRIDFORMAT_BEGIN
 90
        0
 91
        1
 62
     0
 92
       -2
340
0
 93
        0
 40
1.125
309
GRIDFORMAT_END
 95
        8
302
GRIDFORMAT
  1
GRIDFORMAT_BEGIN
 90
        0
 91
        1
 62
     0
 92
       -2
340
0
 93
        0
 40
1.125
309
GRIDFORMAT_END
 95
       16
302
GRIDFORMAT
  1
GRIDFORMAT_BEGIN
 90
        0
 91
        1
 62
     0
 92
       -2
340
0
 93
        0
 40
1.125
309
GRIDFORMAT_END
 95
       32
302
GRIDFORMAT
  1
GRIDFORMAT_BEGIN
 90
        0
 91
        1
 62
     0
 92
       -2
340
0
 93
        0
 40
1.125
309
GRIDFORMAT_END
309
TABLEFORMAT_END
  1
CELLSTYLE_BEGIN
 90
        1
 91
        1
300
_TITLE
309
CELLSTYLE_END
300
CELLSTYLE
  1
TABLEFORMAT_BEGIN
 90
        5
170
     1
 91
        0
 92
        0
 62
   257
 93
        1
300
CONTENTFORMAT
  1
CONTENTFORMAT_BEGIN
 90
        0
 91
        0
 92
      512
 93
        0
300

 40
0.0
140
1.0
 94
        5
 62
     0
340
17
144
4.5
309
CONTENTFORMAT_END
171
     1
301
MARGIN
  1
CELLMARGIN_BEGIN
 40
1.5
 40
1.5
 40
1.5
 40
1.5
 40
4.5
 40
4.5
309
CELLMARGIN_END
 94
        6
 95
        1
302
GRIDFORMAT
  1
GRIDFORMAT_BEGIN
 90
        0
 91
        1
 62
     0
 92
       -2
340
0
 93
        0
 40
1.125
309
GRIDFORMAT_END
 95
        2
302
GRIDFORMAT
  1
GRIDFORMAT_BEGIN
 90
        0
 91
        1
 62
     0
 92
       -2
340
0
 93
        0
 40
1.125
309
GRIDFORMAT_END
 95
        4
302
GRIDFORMAT
  1
GRIDFORMAT_BEGIN
 90
        0
 91
        1
 62
     0
 92
       -2
340
0
 93
        0
 40
1.125
309
GRIDFORMAT_END
 95
        8
302
GRIDFORMAT
  1
GRIDFORMAT_BEGIN
 90
        0
 91
        1
 62
     0
 92
       -2
340
0
 93
        0
 40
1.125
309
GRIDFORMAT_END
 95
       16
302
GRIDFORMAT
  1
GRIDFORMAT_BEGIN
 90
        0
 91
        1
 62
     0
 92
       -2
340
0
 93
        0
 40
1.125
309
GRIDFORMAT_END
 95
       32
302
GRIDFORMAT
  1
GRIDFORMAT_BEGIN
 90
        0
 91
        1
 62
     0
 92
       -2
340
0
 93
        0
 40
1.125
309
GRIDFORMAT_END
309
TABLEFORMAT_END
  1
CELLSTYLE_BEGIN
 90
        2
 91
        1
300
_HEADER
309
CELLSTYLE_END
300
CELLSTYLE
  1
TABLEFORMAT_BEGIN
 90
        5
170
     1
 91
        0
 92
        0
 62
   257
 93
        1
300
CONTENTFORMAT
  1
CONTENTFORMAT_BEGIN
 90
        0
 91
        0
 92
      512
 93
        0
300

 40
0.0
140
1.0
 94
        2
 62
     0
340
17
144
4.5
309
CONTENTFORMAT_END
171
     1
301
MARGIN
  1
CELLMARGIN_BEGIN
 40
1.5
 40
1.5
 40
1.5
 40
1.5
 40
4.5
 40
4.5
309
CELLMARGIN_END
 94
        6
 95
        1
302
GRIDFORMAT
  1
GRIDFORMAT_BEGIN
 90
        0
 91
        1
 62
     0
 92
       -2
340
0
 93
        0
 40
1.125
309
GRIDFORMAT_END
 95
        2
302
GRIDFORMAT
  1
GRIDFORMAT_BEGIN
 90
        0
 91
        1
 62
     0
 92
       -2
340
0
 93
        0
 40
1.125
309
GRIDFORMAT_END
 95
        4
302
GRIDFORMAT
  1
GRIDFORMAT_BEGIN
 90
        0
 91
        1
 62
     0
 92
       -2
340
0
 93
        0
 40
1.125
309
GRIDFORMAT_END
 95
        8
302
GRIDFORMAT
  1
GRIDFORMAT_BEGIN
 90
        0
 91
        1
 62
     0
 92
       -2
340
0
 93
        0
 40
1.125
309
GRIDFORMAT_END
 95
       16
302
GRIDFORMAT
  1
GRIDFORMAT_BEGIN
 90
        0
 91
        1
 62
     0
 92
       -2
340
0
 93
        0
 40
1.125
309
GRIDFORMAT_END
 95
       32
302
GRIDFORMAT
  1
GRIDFORMAT_BEGIN
 90
        0
 91
        1
 62
     0
 92
       -2
340
0
 93
        0
 40
1.125
309
GRIDFORMAT_END
309
TABLEFORMAT_END
  1
CELLSTYLE_BEGIN
 90
        3
 91
        2
300
_DATA
309
CELLSTYLE_END
  0
XRECORD
  5
6A1
102
{ACAD_REACTORS
330
5E0
102
}
330
5E0
100
AcDbXrecord
280
     1
102
ACAD_ROUNDTRIP_PRE2007_TABLESTYLE
 90
      512
 91
        0
  1

 92
      512
 93
        0
  2

 94
      512
 95
        0
  3

  0
XRECORD
  5
67C
102
{ACAD_REACTORS
330
67B
102
}
330
67B
100
AcDbXrecord
280
     1
102
RTVSPropertyOp0
 70
     1
102
RTVSPropertyOp1
 70
     1
102
RTVSPropertyOp2
 70
     1
102
RTVSPropertyOp3
 70
     1
102
RTVSPropertyOp4
 70
     1
102
RTVSPropertyOp5
 70
     1
102
RTVSPropertyOp6
 70
     1
102
RTVSPropertyOp7
 70
     1
102
RTVSPropertyOp8
 70
     1
102
RTVSPropertyOp9
 70
     1
102
RTVSPropertyOp10
 70
     1
102
RTVSPropertyOp11
 70
     1
102
RTVSPropertyOp12
 70
     1
102
RTVSPropertyOp13
 70
     1
102
RTVSPropertyOp14
 70
     1
102
RTVSPropertyOp15
 70
     1
102
RTVSPropertyOp16
 70
     1
102
RTVSPropertyOp17
 70
     1
102
RTVSPropertyOp18
 70
     1
102
RTVSPropertyOp19
 70
     1
102
RTVSPropertyOp20
 70
     1
102
RTVSPropertyOp21
 70
     1
102
RTVSPropertyOp22
 70
     1
102
RTVSPropertyOp23
 70
     1
102
RTVSPropertyOp24
 70
     1
102
RTVSPropertyOp25
 70
     1
102
RTVSPropertyOp26
 70
     1
102
RTVSPropertyOp27
 70
     1
102
RTVSPropertyOp28
 70
     1
102
RTVSPropertyOp29
 70
     1
102
RTVSPropertyOp30
 70
     1
102
RTVSPropertyOp31
 70
     1
102
RTVSPropertyOp32
 70
     1
  0
XRECORD
  5
67A
102
{ACAD_REACTORS
330
679
102
}
330
679
100
AcDbXrecord
280
     1
102
RTVSPropertyOp0
 70
     1
102
RTVSPropertyOp1
 70
     1
102
RTVSPropertyOp2
 70
     1
102
RTVSPropertyOp3
 70
     1
102
RTVSPropertyOp4
 70
     1
102
RTVSPropertyOp5
 70
     1
102
RTVSPropertyOp6
 70
     1
102
RTVSPropertyOp7
 70
     1
102
RTVSPropertyOp8
 70
     1
102
RTVSPropertyOp9
 70
     1
102
RTVSPropertyOp10
 70
     1
102
RTVSPropertyOp11
 70
     1
102
RTVSPropertyOp12
 70
     1
102
RTVSPropertyOp13
 70
     1
102
RTVSPropertyOp14
 70
     1
102
RTVSPropertyOp15
 70
     1
102
RTVSPropertyOp16
 70
     1
102
RTVSPropertyOp17
 70
     1
102
RTVSPropertyOp18
 70
     1
102
RTVSPropertyOp19
 70
     1
102
RTVSPropertyOp20
 70
     1
102
RTVSPropertyOp21
 70
     1
102
RTVSPropertyOp22
 70
     1
102
RTVSPropertyOp23
 70
     1
102
RTVSPropertyOp24
 70
     1
102
RTVSPropertyOp25
 70
     1
102
RTVSPropertyOp26
 70
     1
102
RTVSPropertyOp27
 70
     1
102
RTVSPropertyOp28
 70
     1
102
RTVSPropertyOp29
 70
     1
102
RTVSPropertyOp30
 70
     1
102
RTVSPropertyOp31
 70
     1
102
RTVSPropertyOp32
 70
     1
  0
XRECORD
  5
688
102
{ACAD_REACTORS
330
687
102
}
330
687
100
AcDbXrecord
280
     1
102
RTVSPropertyOp0
 70
     1
102
RTVSPropertyOp1
 70
     1
102
RTVSPropertyOp2
 70
     1
102
RTVSPropertyOp3
 70
     1
102
RTVSPropertyOp4
 70
     1
102
RTVSPropertyOp5
 70
     1
102
RTVSPropertyOp6
 70
     1
102
RTVSPropertyOp7
 70
     1
102
RTVSPropertyOp8
 70
     1
102
RTVSPropertyOp9
 70
     1
102
RTVSPropertyOp10
 70
     1
102
RTVSPropertyOp11
 70
     1
102
RTVSPropertyOp12
 70
     1
102
RTVSPropertyOp13
 70
     1
102
RTVSPropertyOp14
 70
     1
102
RTVSPropertyOp15
 70
     1
102
RTVSPropertyOp16
 70
     1
102
RTVSPropertyOp17
 70
     1
102
RTVSPropertyOp18
 70
     1
102
RTVSPropertyOp19
 70
     1
102
RTVSPropertyOp20
 70
     1
102
RTVSPropertyOp21
 70
     1
102
RTVSPropertyOp22
 70
     1
102
RTVSPropertyOp23
 70
     1
102
RTVSPropertyOp24
 70
     1
102
RTVSPropertyOp25
 70
     1
102
RTVSPropertyOp26
 70
     1
102
RTVSPropertyOp27
 70
     1
102
RTVSPropertyOp28
 70
     1
102
RTVSPropertyOp29
 70
     1
102
RTVSPropertyOp30
 70
     1
102
RTVSPropertyOp31
 70
     1
102
RTVSPropertyOp32
 70
     1
  0
XRECORD
  5
690
102
{ACAD_REACTORS
330
68F
102
}
330
68F
100
AcDbXrecord
280
     1
102
RTVSPropertyOp0
 70
     1
102
RTVSPropertyOp1
 70
     1
102
RTVSPropertyOp2
 70
     1
102
RTVSPropertyOp3
 70
     1
102
RTVSPropertyOp4
 70
     1
102
RTVSPropertyOp5
 70
     1
102
RTVSPropertyOp6
 70
     1
102
RTVSPropertyOp7
 70
     1
102
RTVSPropertyOp8
 70
     1
102
RTVSPropertyOp9
 70
     1
102
RTVSPropertyOp10
 70
     1
102
RTVSPropertyOp11
 70
     1
102
RTVSPropertyOp12
 70
     1
102
RTVSPropertyOp13
 70
     1
102
RTVSPropertyOp14
 70
     1
102
RTVSPropertyOp15
 70
     1
102
RTVSPropertyOp16
 70
     1
102
RTVSPropertyOp17
 70
     1
102
RTVSPropertyOp18
 70
     1
102
RTVSPropertyOp19
 70
     1
102
RTVSPropertyOp20
 70
     1
102
RTVSPropertyOp21
 70
     1
102
RTVSPropertyOp22
 70
     1
102
RTVSPropertyOp23
 70
     1
102
RTVSPropertyOp24
 70
     1
102
RTVSPropertyOp25
 70
     1
102
RTVSPropertyOp26
 70
     1
102
RTVSPropertyOp27
 70
     1
102
RTVSPropertyOp28
 70
     1
102
RTVSPropertyOp29
 70
     1
102
RTVSPropertyOp30
 70
     1
102
RTVSPropertyOp31
 70
     1
102
RTVSPropertyOp32
 70
     1
  0
XRECORD
  5
682
102
{ACAD_REACTORS
330
681
102
}
330
681
100
AcDbXrecord
280
     1
102
RTVSPropertyOp0
 70
     1
102
RTVSPropertyOp1
 70
     1
102
RTVSPropertyOp2
 70
     1
102
RTVSPropertyOp3
 70
     1
102
RTVSPropertyOp4
 70
     1
102
RTVSPropertyOp5
 70
     1
102
RTVSPropertyOp6
 70
     1
102
RTVSPropertyOp7
 70
     1
102
RTVSPropertyOp8
 70
     1
102
RTVSPropertyOp9
 70
     1
102
RTVSPropertyOp10
 70
     1
102
RTVSPropertyOp11
 70
     1
102
RTVSPropertyOp12
 70
     1
102
RTVSPropertyOp13
 70
     1
102
RTVSPropertyOp14
 70
     1
102
RTVSPropertyOp15
 70
     1
102
RTVSPropertyOp16
 70
     1
102
RTVSPropertyOp17
 70
     1
102
RTVSPropertyOp18
 70
     1
102
RTVSPropertyOp19
 70
     1
102
RTVSPropertyOp20
 70
     1
102
RTVSPropertyOp21
 70
     1
102
RTVSPropertyOp22
 70
     1
102
RTVSPropertyOp23
 70
     1
102
RTVSPropertyOp24
 70
     1
102
RTVSPropertyOp25
 70
     1
102
RTVSPropertyOp26
 70
     1
102
RTVSPropertyOp27
 70
     1
102
RTVSPropertyOp28
 70
     1
102
RTVSPropertyOp29
 70
     1
102
RTVSPropertyOp30
 70
     1
102
RTVSPropertyOp31
 70
     1
102
RTVSPropertyOp32
 70
     1
  0
XRECORD
  5
686
102
{ACAD_REACTORS
330
685
102
}
330
685
100
AcDbXrecord
280
     1
102
RTVSPropertyOp0
 70
     1
102
RTVSPropertyOp1
 70
     1
102
RTVSPropertyOp2
 70
     1
102
RTVSPropertyOp3
 70
     1
102
RTVSPropertyOp4
 70
     1
102
RTVSPropertyOp5
 70
     1
102
RTVSPropertyOp6
 70
     1
102
RTVSPropertyOp7
 70
     1
102
RTVSPropertyOp8
 70
     1
102
RTVSPropertyOp9
 70
     1
102
RTVSPropertyOp10
 70
     1
102
RTVSPropertyOp11
 70
     1
102
RTVSPropertyOp12
 70
     1
102
RTVSPropertyOp13
 70
     1
102
RTVSPropertyOp14
 70
     1
102
RTVSPropertyOp15
 70
     1
102
RTVSPropertyOp16
 70
     1
102
RTVSPropertyOp17
 70
     1
102
RTVSPropertyOp18
 70
     1
102
RTVSPropertyOp19
 70
     1
102
RTVSPropertyOp20
 70
     1
102
RTVSPropertyOp21
 70
     1
102
RTVSPropertyOp22
 70
     1
102
RTVSPropertyOp23
 70
     1
102
RTVSPropertyOp24
 70
     1
102
RTVSPropertyOp25
 70
     1
102
RTVSPropertyOp26
 70
     1
102
RTVSPropertyOp27
 70
     1
102
RTVSPropertyOp28
 70
     1
102
RTVSPropertyOp29
 70
     1
102
RTVSPropertyOp30
 70
     1
102
RTVSPropertyOp31
 70
     1
102
RTVSPropertyOp32
 70
     1
  0
XRECORD
  5
6A0
102
{ACAD_REACTORS
330
69F
102
}
330
69F
100
AcDbXrecord
280
     1
102
RTVSPropertyOp0
 70
     0
102
RTVSPropertyOp1
 70
     0
102
RTVSPropertyOp2
 70
     0
102
RTVSPropertyOp3
 70
     0
102
RTVSPropertyOp4
 70
     0
102
RTVSPropertyOp5
 70
     0
102
RTVSPropertyOp6
 70
     0
102
RTVSPropertyOp7
 70
     0
102
RTVSPropertyOp8
 70
     0
102
RTVSPropertyOp9
 70
     0
102
RTVSPropertyOp10
 70
     0
102
RTVSPropertyOp11
 70
     0
102
RTVSPropertyOp12
 70
     0
102
RTVSPropertyOp13
 70
     0
102
RTVSPropertyOp14
 70
     2
102
RTVSPropertyOp15
 70
     0
102
RTVSPropertyOp16
 70
     0
102
RTVSPropertyOp17
 70
     0
102
RTVSPropertyOp18
 70
     0
102
RTVSPropertyOp19
 70
     0
102
RTVSPropertyOp20
 70
     0
102
RTVSPropertyOp21
 70
     0
102
RTVSPropertyOp22
 70
     0
102
RTVSPropertyOp23
 70
     0
102
RTVSPropertyOp24
 70
     0
102
RTVSPropertyOp25
 70
     0
102
RTVSPropertyOp26
 70
     0
102
RTVSPropertyOp27
 70
     0
102
RTVSPropertyOp28
 70
     0
102
RTVSPropertyOp29
 70
     0
102
RTVSPropertyOp30
 70
     0
102
RTVSPropertyOp31
 70
     0
102
RTVSPropertyOp32
 70
     0
  0
XRECORD
  5
68E
102
{ACAD_REACTORS
330
68D
102
}
330
68D
100
AcDbXrecord
280
     1
102
RTVSPropertyOp0
 70
     1
102
RTVSPropertyOp1
 70
     1
102
RTVSPropertyOp2
 70
     1
102
RTVSPropertyOp3
 70
     1
102
RTVSPropertyOp4
 70
     1
102
RTVSPropertyOp5
 70
     1
102
RTVSPropertyOp6
 70
     1
102
RTVSPropertyOp7
 70
     1
102
RTVSPropertyOp8
 70
     1
102
RTVSPropertyOp9
 70
     1
102
RTVSPropertyOp10
 70
     1
102
RTVSPropertyOp11
 70
     1
102
RTVSPropertyOp12
 70
     1
102
RTVSPropertyOp13
 70
     1
102
RTVSPropertyOp14
 70
     1
102
RTVSPropertyOp15
 70
     1
102
RTVSPropertyOp16
 70
     1
102
RTVSPropertyOp17
 70
     1
102
RTVSPropertyOp18
 70
     1
102
RTVSPropertyOp19
 70
     1
102
RTVSPropertyOp20
 70
     1
102
RTVSPropertyOp21
 70
     1
102
RTVSPropertyOp22
 70
     1
102
RTVSPropertyOp23
 70
     1
102
RTVSPropertyOp24
 70
     1
102
RTVSPropertyOp25
 70
     1
102
RTVSPropertyOp26
 70
     1
102
RTVSPropertyOp27
 70
     1
102
RTVSPropertyOp28
 70
     1
102
RTVSPropertyOp29
 70
     1
102
RTVSPropertyOp30
 70
     1
102
RTVSPropertyOp31
 70
     1
102
RTVSPropertyOp32
 70
     1
  0
XRECORD
  5
672
102
{ACAD_REACTORS
330
671
102
}
330
671
100
AcDbXrecord
280
     1
102
RTVSPropertyOp0
 70
     1
102
RTVSPropertyOp1
 70
     1
102
RTVSPropertyOp2
 70
     1
102
RTVSPropertyOp3
 70
     1
102
RTVSPropertyOp4
 70
     1
102
RTVSPropertyOp5
 70
     1
102
RTVSPropertyOp6
 70
     1
102
RTVSPropertyOp7
 70
     1
102
RTVSPropertyOp8
 70
     1
102
RTVSPropertyOp9
 70
     1
102
RTVSPropertyOp10
 70
     1
102
RTVSPropertyOp11
 70
     1
102
RTVSPropertyOp12
 70
     1
102
RTVSPropertyOp13
 70
     1
102
RTVSPropertyOp14
 70
     1
102
RTVSPropertyOp15
 70
     1
102
RTVSPropertyOp16
 70
     1
102
RTVSPropertyOp17
 70
     1
102
RTVSPropertyOp18
 70
     1
102
RTVSPropertyOp19
 70
     1
102
RTVSPropertyOp20
 70
     1
102
RTVSPropertyOp21
 70
     1
102
RTVSPropertyOp22
 70
     1
102
RTVSPropertyOp23
 70
     1
102
RTVSPropertyOp24
 70
     1
102
RTVSPropertyOp25
 70
     1
102
RTVSPropertyOp26
 70
     1
102
RTVSPropertyOp27
 70
     1
102
RTVSPropertyOp28
 70
     1
102
RTVSPropertyOp29
 70
     1
102
RTVSPropertyOp30
 70
     1
102
RTVSPropertyOp31
 70
     1
102
RTVSPropertyOp32
 70
     1
  0
XRECORD
  5
674
102
{ACAD_REACTORS
330
673
102
}
330
673
100
AcDbXrecord
280
     1
102
RTVSPropertyOp0
 70
     1
102
RTVSPropertyOp1
 70
     1
102
RTVSPropertyOp2
 70
     1
102
RTVSPropertyOp3
 70
     1
102
RTVSPropertyOp4
 70
     1
102
RTVSPropertyOp5
 70
     1
102
RTVSPropertyOp6
 70
     1
102
RTVSPropertyOp7
 70
     1
102
RTVSPropertyOp8
 70
     1
102
RTVSPropertyOp9
 70
     1
102
RTVSPropertyOp10
 70
     1
102
RTVSPropertyOp11
 70
     1
102
RTVSPropertyOp12
 70
     1
102
RTVSPropertyOp13
 70
     1
102
RTVSPropertyOp14
 70
     1
102
RTVSPropertyOp15
 70
     1
102
RTVSPropertyOp16
 70
     1
102
RTVSPropertyOp17
 70
     1
102
RTVSPropertyOp18
 70
     1
102
RTVSPropertyOp19
 70
     1
102
RTVSPropertyOp20
 70
     1
102
RTVSPropertyOp21
 70
     1
102
RTVSPropertyOp22
 70
     1
102
RTVSPropertyOp23
 70
     1
102
RTVSPropertyOp24
 70
     1
102
RTVSPropertyOp25
 70
     1
102
RTVSPropertyOp26
 70
     1
102
RTVSPropertyOp27
 70
     1
102
RTVSPropertyOp28
 70
     1
102
RTVSPropertyOp29
 70
     1
102
RTVSPropertyOp30
 70
     1
102
RTVSPropertyOp31
 70
     1
102
RTVSPropertyOp32
 70
     1
  0
XRECORD
  5
676
102
{ACAD_REACTORS
330
675
102
}
330
675
100
AcDbXrecord
280
     1
102
RTVSPropertyOp0
 70
     1
102
RTVSPropertyOp1
 70
     1
102
RTVSPropertyOp2
 70
     1
102
RTVSPropertyOp3
 70
     1
102
RTVSPropertyOp4
 70
     1
102
RTVSPropertyOp5
 70
     1
102
RTVSPropertyOp6
 70
     1
102
RTVSPropertyOp7
 70
     1
102
RTVSPropertyOp8
 70
     1
102
RTVSPropertyOp9
 70
     1
102
RTVSPropertyOp10
 70
     1
102
RTVSPropertyOp11
 70
     1
102
RTVSPropertyOp12
 70
     1
102
RTVSPropertyOp13
 70
     1
102
RTVSPropertyOp14
 70
     1
102
RTVSPropertyOp15
 70
     1
102
RTVSPropertyOp16
 70
     1
102
RTVSPropertyOp17
 70
     1
102
RTVSPropertyOp18
 70
     1
102
RTVSPropertyOp19
 70
     1
102
RTVSPropertyOp20
 70
     1
102
RTVSPropertyOp21
 70
     1
102
RTVSPropertyOp22
 70
     1
102
RTVSPropertyOp23
 70
     1
102
RTVSPropertyOp24
 70
     1
102
RTVSPropertyOp25
 70
     1
102
RTVSPropertyOp26
 70
     1
102
RTVSPropertyOp27
 70
     1
102
RTVSPropertyOp28
 70
     1
102
RTVSPropertyOp29
 70
     1
102
RTVSPropertyOp30
 70
     1
102
RTVSPropertyOp31
 70
     1
102
RTVSPropertyOp32
 70
     1
  0
XRECORD
  5
678
102
{ACAD_REACTORS
330
677
102
}
330
677
100
AcDbXrecord
280
     1
102
RTVSPropertyOp0
 70
     1
102
RTVSPropertyOp1
 70
     1
102
RTVSPropertyOp2
 70
     1
102
RTVSPropertyOp3
 70
     1
102
RTVSPropertyOp4
 70
     1
102
RTVSPropertyOp5
 70
     1
102
RTVSPropertyOp6
 70
     1
102
RTVSPropertyOp7
 70
     1
102
RTVSPropertyOp8
 70
     1
102
RTVSPropertyOp9
 70
     1
102
RTVSPropertyOp10
 70
     1
102
RTVSPropertyOp11
 70
     1
102
RTVSPropertyOp12
 70
     1
102
RTVSPropertyOp13
 70
     1
102
RTVSPropertyOp14
 70
     1
102
RTVSPropertyOp15
 70
     1
102
RTVSPropertyOp16
 70
     1
102
RTVSPropertyOp17
 70
     1
102
RTVSPropertyOp18
 70
     1
102
RTVSPropertyOp19
 70
     1
102
RTVSPropertyOp20
 70
     1
102
RTVSPropertyOp21
 70
     1
102
RTVSPropertyOp22
 70
     1
102
RTVSPropertyOp23
 70
     1
102
RTVSPropertyOp24
 70
     1
102
RTVSPropertyOp25
 70
     1
102
RTVSPropertyOp26
 70
     1
102
RTVSPropertyOp27
 70
     1
102
RTVSPropertyOp28
 70
     1
102
RTVSPropertyOp29
 70
     1
102
RTVSPropertyOp30
 70
     1
102
RTVSPropertyOp31
 70
     1
102
RTVSPropertyOp32
 70
     1
  0
XRECORD
  5
680
102
{ACAD_REACTORS
330
67F
102
}
330
67F
100
AcDbXrecord
280
     1
102
RTVSPropertyOp0
 70
     1
102
RTVSPropertyOp1
 70
     1
102
RTVSPropertyOp2
 70
     1
102
RTVSPropertyOp3
 70
     1
102
RTVSPropertyOp4
 70
     1
102
RTVSPropertyOp5
 70
     1
102
RTVSPropertyOp6
 70
     1
102
RTVSPropertyOp7
 70
     1
102
RTVSPropertyOp8
 70
     1
102
RTVSPropertyOp9
 70
     1
102
RTVSPropertyOp10
 70
     1
102
RTVSPropertyOp11
 70
     1
102
RTVSPropertyOp12
 70
     1
102
RTVSPropertyOp13
 70
     1
102
RTVSPropertyOp14
 70
     1
102
RTVSPropertyOp15
 70
     1
102
RTVSPropertyOp16
 70
     1
102
RTVSPropertyOp17
 70
     1
102
RTVSPropertyOp18
 70
     1
102
RTVSPropertyOp19
 70
     1
102
RTVSPropertyOp20
 70
     1
102
RTVSPropertyOp21
 70
     1
102
RTVSPropertyOp22
 70
     1
102
RTVSPropertyOp23
 70
     1
102
RTVSPropertyOp24
 70
     1
102
RTVSPropertyOp25
 70
     1
102
RTVSPropertyOp26
 70
     1
102
RTVSPropertyOp27
 70
     1
102
RTVSPropertyOp28
 70
     1
102
RTVSPropertyOp29
 70
     1
102
RTVSPropertyOp30
 70
     1
102
RTVSPropertyOp31
 70
     1
102
RTVSPropertyOp32
 70
     1
  0
XRECORD
  5
69C
102
{ACAD_REACTORS
330
69B
102
}
330
69B
100
AcDbXrecord
280
     1
102
RTVSPropertyOp0
 70
     0
102
RTVSPropertyOp1
 70
     0
102
RTVSPropertyOp2
 70
     0
102
RTVSPropertyOp3
 70
     0
102
RTVSPropertyOp4
 70
     0
102
RTVSPropertyOp5
 70
     0
102
RTVSPropertyOp6
 70
     0
102
RTVSPropertyOp7
 70
     0
102
RTVSPropertyOp8
 70
     0
102
RTVSPropertyOp9
 70
     0
102
RTVSPropertyOp10
 70
     0
102
RTVSPropertyOp11
 70
     0
102
RTVSPropertyOp12
 70
     0
102
RTVSPropertyOp13
 70
     0
102
RTVSPropertyOp14
 70
     2
102
RTVSPropertyOp15
 70
     0
102
RTVSPropertyOp16
 70
     0
102
RTVSPropertyOp17
 70
     0
102
RTVSPropertyOp18
 70
     0
102
RTVSPropertyOp19
 70
     0
102
RTVSPropertyOp20
 70
     0
102
RTVSPropertyOp21
 70
     0
102
RTVSPropertyOp22
 70
     0
102
RTVSPropertyOp23
 70
     0
102
RTVSPropertyOp24
 70
     0
102
RTVSPropertyOp25
 70
     0
102
RTVSPropertyOp26
 70
     0
102
RTVSPropertyOp27
 70
     0
102
RTVSPropertyOp28
 70
     0
102
RTVSPropertyOp29
 70
     0
102
RTVSPropertyOp30
 70
     0
102
RTVSPropertyOp31
 70
     0
102
RTVSPropertyOp32
 70
     0
  0
XRECORD
  5
68C
102
{ACAD_REACTORS
330
68B
102
}
330
68B
100
AcDbXrecord
280
     1
102
RTVSPropertyOp0
 70
     1
102
RTVSPropertyOp1
 70
     1
102
RTVSPropertyOp2
 70
     1
102
RTVSPropertyOp3
 70
     1
102
RTVSPropertyOp4
 70
     1
102
RTVSPropertyOp5
 70
     1
102
RTVSPropertyOp6
 70
     1
102
RTVSPropertyOp7
 70
     1
102
RTVSPropertyOp8
 70
     1
102
RTVSPropertyOp9
 70
     1
102
RTVSPropertyOp10
 70
     1
102
RTVSPropertyOp11
 70
     1
102
RTVSPropertyOp12
 70
     1
102
RTVSPropertyOp13
 70
     1
102
RTVSPropertyOp14
 70
     1
102
RTVSPropertyOp15
 70
     1
102
RTVSPropertyOp16
 70
     1
102
RTVSPropertyOp17
 70
     1
102
RTVSPropertyOp18
 70
     1
102
RTVSPropertyOp19
 70
     1
102
RTVSPropertyOp20
 70
     1
102
RTVSPropertyOp21
 70
     1
102
RTVSPropertyOp22
 70
     1
102
RTVSPropertyOp23
 70
     1
102
RTVSPropertyOp24
 70
     1
102
RTVSPropertyOp25
 70
     1
102
RTVSPropertyOp26
 70
     1
102
RTVSPropertyOp27
 70
     1
102
RTVSPropertyOp28
 70
     1
102
RTVSPropertyOp29
 70
     1
102
RTVSPropertyOp30
 70
     1
102
RTVSPropertyOp31
 70
     1
102
RTVSPropertyOp32
 70
     1
  0
XRECORD
  5
69E
102
{ACAD_REACTORS
330
69D
102
}
330
69D
100
AcDbXrecord
280
     1
102
RTVSPropertyOp0
 70
     0
102
RTVSPropertyOp1
 70
     0
102
RTVSPropertyOp2
 70
     0
102
RTVSPropertyOp3
 70
     0
102
RTVSPropertyOp4
 70
     0
102
RTVSPropertyOp5
 70
     0
102
RTVSPropertyOp6
 70
     0
102
RTVSPropertyOp7
 70
     0
102
RTVSPropertyOp8
 70
     0
102
RTVSPropertyOp9
 70
     0
102
RTVSPropertyOp10
 70
     0
102
RTVSPropertyOp11
 70
     0
102
RTVSPropertyOp12
 70
     0
102
RTVSPropertyOp13
 70
     0
102
RTVSPropertyOp14
 70
     2
102
RTVSPropertyOp15
 70
     0
102
RTVSPropertyOp16
 70
     0
102
RTVSPropertyOp17
 70
     0
102
RTVSPropertyOp18
 70
     0
102
RTVSPropertyOp19
 70
     0
102
RTVSPropertyOp20
 70
     0
102
RTVSPropertyOp21
 70
     0
102
RTVSPropertyOp22
 70
     0
102
RTVSPropertyOp23
 70
     0
102
RTVSPropertyOp24
 70
     0
102
RTVSPropertyOp25
 70
     0
102
RTVSPropertyOp26
 70
     0
102
RTVSPropertyOp27
 70
     0
102
RTVSPropertyOp28
 70
     0
102
RTVSPropertyOp29
 70
     0
102
RTVSPropertyOp30
 70
     0
102
RTVSPropertyOp31
 70
     0
102
RTVSPropertyOp32
 70
     0
  0
XRECORD
  5
684
102
{ACAD_REACTORS
330
683
102
}
330
683
100
AcDbXrecord
280
     1
102
RTVSPropertyOp0
 70
     1
102
RTVSPropertyOp1
 70
     1
102
RTVSPropertyOp2
 70
     1
102
RTVSPropertyOp3
 70
     1
102
RTVSPropertyOp4
 70
     1
102
RTVSPropertyOp5
 70
     1
102
RTVSPropertyOp6
 70
     1
102
RTVSPropertyOp7
 70
     1
102
RTVSPropertyOp8
 70
     1
102
RTVSPropertyOp9
 70
     1
102
RTVSPropertyOp10
 70
     1
102
RTVSPropertyOp11
 70
     1
102
RTVSPropertyOp12
 70
     1
102
RTVSPropertyOp13
 70
     1
102
RTVSPropertyOp14
 70
     1
102
RTVSPropertyOp15
 70
     1
102
RTVSPropertyOp16
 70
     1
102
RTVSPropertyOp17
 70
     1
102
RTVSPropertyOp18
 70
     1
102
RTVSPropertyOp19
 70
     1
102
RTVSPropertyOp20
 70
     1
102
RTVSPropertyOp21
 70
     1
102
RTVSPropertyOp22
 70
     1
102
RTVSPropertyOp23
 70
     1
102
RTVSPropertyOp24
 70
     1
102
RTVSPropertyOp25
 70
     1
102
RTVSPropertyOp26
 70
     1
102
RTVSPropertyOp27
 70
     1
102
RTVSPropertyOp28
 70
     1
102
RTVSPropertyOp29
 70
     1
102
RTVSPropertyOp30
 70
     1
102
RTVSPropertyOp31
 70
     1
102
RTVSPropertyOp32
 70
     1
  0
XRECORD
  5
69A
102
{ACAD_REACTORS
330
699
102
}
330
699
100
AcDbXrecord
280
     1
102
RTVSPropertyOp0
 70
     1
102
RTVSPropertyOp1
 70
     1
102
RTVSPropertyOp2
 70
     1
102
RTVSPropertyOp3
 70
     1
102
RTVSPropertyOp4
 70
     1
102
RTVSPropertyOp5
 70
     1
102
RTVSPropertyOp6
 70
     1
102
RTVSPropertyOp7
 70
     1
102
RTVSPropertyOp8
 70
     1
102
RTVSPropertyOp9
 70
     1
102
RTVSPropertyOp10
 70
     1
102
RTVSPropertyOp11
 70
     1
102
RTVSPropertyOp12
 70
     1
102
RTVSPropertyOp13
 70
     1
102
RTVSPropertyOp14
 70
     1
102
RTVSPropertyOp15
 70
     1
102
RTVSPropertyOp16
 70
     1
102
RTVSPropertyOp17
 70
     1
102
RTVSPropertyOp18
 70
     1
102
RTVSPropertyOp19
 70
     1
102
RTVSPropertyOp20
 70
     1
102
RTVSPropertyOp21
 70
     1
102
RTVSPropertyOp22
 70
     1
102
RTVSPropertyOp23
 70
     1
102
RTVSPropertyOp24
 70
     1
102
RTVSPropertyOp25
 70
     1
102
RTVSPropertyOp26
 70
     1
102
RTVSPropertyOp27
 70
     1
102
RTVSPropertyOp28
 70
     1
102
RTVSPropertyOp29
 70
     1
102
RTVSPropertyOp30
 70
     1
102
RTVSPropertyOp31
 70
     1
102
RTVSPropertyOp32
 70
     1
  0
XRECORD
  5
698
102
{ACAD_REACTORS
330
697
102
}
330
697
100
AcDbXrecord
280
     1
102
RTVSPropertyOp0
 70
     1
102
RTVSPropertyOp1
 70
     1
102
RTVSPropertyOp2
 70
     1
102
RTVSPropertyOp3
 70
     1
102
RTVSPropertyOp4
 70
     1
102
RTVSPropertyOp5
 70
     1
102
RTVSPropertyOp6
 70
     1
102
RTVSPropertyOp7
 70
     1
102
RTVSPropertyOp8
 70
     1
102
RTVSPropertyOp9
 70
     1
102
RTVSPropertyOp10
 70
     1
102
RTVSPropertyOp11
 70
     1
102
RTVSPropertyOp12
 70
     1
102
RTVSPropertyOp13
 70
     1
102
RTVSPropertyOp14
 70
     1
102
RTVSPropertyOp15
 70
     1
102
RTVSPropertyOp16
 70
     1
102
RTVSPropertyOp17
 70
     1
102
RTVSPropertyOp18
 70
     1
102
RTVSPropertyOp19
 70
     1
102
RTVSPropertyOp20
 70
     1
102
RTVSPropertyOp21
 70
     1
102
RTVSPropertyOp22
 70
     1
102
RTVSPropertyOp23
 70
     1
102
RTVSPropertyOp24
 70
     1
102
RTVSPropertyOp25
 70
     1
102
RTVSPropertyOp26
 70
     1
102
RTVSPropertyOp27
 70
     1
102
RTVSPropertyOp28
 70
     1
102
RTVSPropertyOp29
 70
     1
102
RTVSPropertyOp30
 70
     1
102
RTVSPropertyOp31
 70
     1
102
RTVSPropertyOp32
 70
     1
  0
XRECORD
  5
692
102
{ACAD_REACTORS
330
691
102
}
330
691
100
AcDbXrecord
280
     1
102
RTVSPropertyOp0
 70
     1
102
RTVSPropertyOp1
 70
     1
102
RTVSPropertyOp2
 70
     1
102
RTVSPropertyOp3
 70
     1
102
RTVSPropertyOp4
 70
     1
102
RTVSPropertyOp5
 70
     1
102
RTVSPropertyOp6
 70
     1
102
RTVSPropertyOp7
 70
     1
102
RTVSPropertyOp8
 70
     1
102
RTVSPropertyOp9
 70
     1
102
RTVSPropertyOp10
 70
     1
102
RTVSPropertyOp11
 70
     1
102
RTVSPropertyOp12
 70
     1
102
RTVSPropertyOp13
 70
     1
102
RTVSPropertyOp14
 70
     1
102
RTVSPropertyOp15
 70
     1
102
RTVSPropertyOp16
 70
     1
102
RTVSPropertyOp17
 70
     1
102
RTVSPropertyOp18
 70
     1
102
RTVSPropertyOp19
 70
     1
102
RTVSPropertyOp20
 70
     1
102
RTVSPropertyOp21
 70
     1
102
RTVSPropertyOp22
 70
     1
102
RTVSPropertyOp23
 70
     1
102
RTVSPropertyOp24
 70
     1
102
RTVSPropertyOp25
 70
     1
102
RTVSPropertyOp26
 70
     1
102
RTVSPropertyOp27
 70
     1
102
RTVSPropertyOp28
 70
     1
102
RTVSPropertyOp29
 70
     1
102
RTVSPropertyOp30
 70
     1
102
RTVSPropertyOp31
 70
     1
102
RTVSPropertyOp32
 70
     1
  0
XRECORD
  5
694
102
{ACAD_REACTORS
330
693
102
}
330
693
100
AcDbXrecord
280
     1
102
RTVSPropertyOp0
 70
     1
102
RTVSPropertyOp1
 70
     1
102
RTVSPropertyOp2
 70
     1
102
RTVSPropertyOp3
 70
     1
102
RTVSPropertyOp4
 70
     1
102
RTVSPropertyOp5
 70
     1
102
RTVSPropertyOp6
 70
     1
102
RTVSPropertyOp7
 70
     1
102
RTVSPropertyOp8
 70
     1
102
RTVSPropertyOp9
 70
     1
102
RTVSPropertyOp10
 70
     1
102
RTVSPropertyOp11
 70
     1
102
RTVSPropertyOp12
 70
     1
102
RTVSPropertyOp13
 70
     1
102
RTVSPropertyOp14
 70
     1
102
RTVSPropertyOp15
 70
     1
102
RTVSPropertyOp16
 70
     1
102
RTVSPropertyOp17
 70
     1
102
RTVSPropertyOp18
 70
     1
102
RTVSPropertyOp19
 70
     1
102
RTVSPropertyOp20
 70
     1
102
RTVSPropertyOp21
 70
     1
102
RTVSPropertyOp22
 70
     1
102
RTVSPropertyOp23
 70
     1
102
RTVSPropertyOp24
 70
     1
102
RTVSPropertyOp25
 70
     1
102
RTVSPropertyOp26
 70
     1
102
RTVSPropertyOp27
 70
     1
102
RTVSPropertyOp28
 70
     1
102
RTVSPropertyOp29
 70
     1
102
RTVSPropertyOp30
 70
     1
102
RTVSPropertyOp31
 70
     1
102
RTVSPropertyOp32
 70
     1
  0
XRECORD
  5
68A
102
{ACAD_REACTORS
330
689
102
}
330
689
100
AcDbXrecord
280
     1
102
RTVSPropertyOp0
 70
     1
102
RTVSPropertyOp1
 70
     1
102
RTVSPropertyOp2
 70
     1
102
RTVSPropertyOp3
 70
     1
102
RTVSPropertyOp4
 70
     1
102
RTVSPropertyOp5
 70
     1
102
RTVSPropertyOp6
 70
     1
102
RTVSPropertyOp7
 70
     1
102
RTVSPropertyOp8
 70
     1
102
RTVSPropertyOp9
 70
     1
102
RTVSPropertyOp10
 70
     1
102
RTVSPropertyOp11
 70
     1
102
RTVSPropertyOp12
 70
     1
102
RTVSPropertyOp13
 70
     1
102
RTVSPropertyOp14
 70
     1
102
RTVSPropertyOp15
 70
     1
102
RTVSPropertyOp16
 70
     1
102
RTVSPropertyOp17
 70
     1
102
RTVSPropertyOp18
 70
     1
102
RTVSPropertyOp19
 70
     1
102
RTVSPropertyOp20
 70
     1
102
RTVSPropertyOp21
 70
     1
102
RTVSPropertyOp22
 70
     1
102
RTVSPropertyOp23
 70
     1
102
RTVSPropertyOp24
 70
     1
102
RTVSPropertyOp25
 70
     1
102
RTVSPropertyOp26
 70
     1
102
RTVSPropertyOp27
 70
     1
102
RTVSPropertyOp28
 70
     1
102
RTVSPropertyOp29
 70
     1
102
RTVSPropertyOp30
 70
     1
102
RTVSPropertyOp31
 70
     1
102
RTVSPropertyOp32
 70
     1
  0
XRECORD
  5
67E
102
{ACAD_REACTORS
330
67D
102
}
330
67D
100
AcDbXrecord
280
     1
102
RTVSPropertyOp0
 70
     1
102
RTVSPropertyOp1
 70
     1
102
RTVSPropertyOp2
 70
     1
102
RTVSPropertyOp3
 70
     1
102
RTVSPropertyOp4
 70
     1
102
RTVSPropertyOp5
 70
     1
102
RTVSPropertyOp6
 70
     1
102
RTVSPropertyOp7
 70
     1
102
RTVSPropertyOp8
 70
     1
102
RTVSPropertyOp9
 70
     1
102
RTVSPropertyOp10
 70
     1
102
RTVSPropertyOp11
 70
     1
102
RTVSPropertyOp12
 70
     1
102
RTVSPropertyOp13
 70
     1
102
RTVSPropertyOp14
 70
     1
102
RTVSPropertyOp15
 70
     1
102
RTVSPropertyOp16
 70
     1
102
RTVSPropertyOp17
 70
     1
102
RTVSPropertyOp18
 70
     1
102
RTVSPropertyOp19
 70
     1
102
RTVSPropertyOp20
 70
     1
102
RTVSPropertyOp21
 70
     1
102
RTVSPropertyOp22
 70
     1
102
RTVSPropertyOp23
 70
     1
102
RTVSPropertyOp24
 70
     1
102
RTVSPropertyOp25
 70
     1
102
RTVSPropertyOp26
 70
     1
102
RTVSPropertyOp27
 70
     1
102
RTVSPropertyOp28
 70
     1
102
RTVSPropertyOp29
 70
     1
102
RTVSPropertyOp30
 70
     1
102
RTVSPropertyOp31
 70
     1
102
RTVSPropertyOp32
 70
     1
  0
XRECORD
  5
696
102
{ACAD_REACTORS
330
695
102
}
330
695
100
AcDbXrecord
280
     1
102
RTVSPropertyOp0
 70
     1
102
RTVSPropertyOp1
 70
     1
102
RTVSPropertyOp2
 70
     1
102
RTVSPropertyOp3
 70
     1
102
RTVSPropertyOp4
 70
     1
102
RTVSPropertyOp5
 70
     1
102
RTVSPropertyOp6
 70
     1
102
RTVSPropertyOp7
 70
     1
102
RTVSPropertyOp8
 70
     1
102
RTVSPropertyOp9
 70
     1
102
RTVSPropertyOp10
 70
     1
102
RTVSPropertyOp11
 70
     1
102
RTVSPropertyOp12
 70
     1
102
RTVSPropertyOp13
 70
     1
102
RTVSPropertyOp14
 70
     1
102
RTVSPropertyOp15
 70
     1
102
RTVSPropertyOp16
 70
     1
102
RTVSPropertyOp17
 70
     1
102
RTVSPropertyOp18
 70
     1
102
RTVSPropertyOp19
 70
     1
102
RTVSPropertyOp20
 70
     1
102
RTVSPropertyOp21
 70
     1
102
RTVSPropertyOp22
 70
     1
102
RTVSPropertyOp23
 70
     1
102
RTVSPropertyOp24
 70
     1
102
RTVSPropertyOp25
 70
     1
102
RTVSPropertyOp26
 70
     1
102
RTVSPropertyOp27
 70
     1
102
RTVSPropertyOp28
 70
     1
102
RTVSPropertyOp29
 70
     1
102
RTVSPropertyOp30
 70
     1
102
RTVSPropertyOp31
 70
     1
102
RTVSPropertyOp32
 70
     1
  0
ENDSEC
  0
EOF
