  0
SECTION
  2
HEADER
  9
$ACADVER
  1
AC1015
  9
$ACADMAINTVER
 70
    20
  9
$DWGCODEPAGE
  3
ANSI_932
  9
$INSBASE
 10
0.0
 20
0.0
 30
0.0
  9
$EXTMIN
 10
-68.86777177622296
 20
161.2563240511933
 30
0.0
  9
$EXTMAX
 10
351.132228223777
 20
458.2563240511933
 30
0.0
  9
$LIMMIN
 10
-68.81994691660384
 20
161.2933151705781
  9
$LIMMAX
 10
351.169036237693
 20
458.2616379244844
  9
$ORTHOMODE
 70
     1
  9
$REGENMODE
 70
     1
  9
$FILLMODE
 70
     1
  9
$QTEXTMODE
 70
     0
  9
$MIRRTEXT
 70
     0
  9
$LTSCALE
 40
1.0
  9
$ATTMODE
 70
     1
  9
$TEXTSIZE
 40
3.0
  9
$TRACEWID
 40
1.0
  9
$TEXTSTYLE
  7
ATOM
  9
$CLAYER
  8
frame
  9
$CELTYPE
  6
ByLayer
  9
$CECOLOR
 62
   256
  9
$CELTSCALE
 40
1.0
  9
$DISPSILH
 70
     0
  9
$DIMSCALE
 40
0.0
  9
$DIMASZ
 40
2.0
  9
$DIMEXO
 40
2.0
  9
$DIMDLI
 40
7.0
  9
$DIMRND
 40
0.0
  9
$DIMDLE
 40
0.0
  9
$DIMEXE
 40
1.0
  9
$DIMTP
 40
0.1
  9
$DIMTM
 40
0.1
  9
$DIMTXT
 40
3.0
  9
$DIMCEN
 40
-2.5
  9
$DIMTSZ
 40
0.0
  9
$DIMTOL
 70
     0
  9
$DIMLIM
 70
     0
  9
$DIMTIH
 70
     0
  9
$DIMTOH
 70
     0
  9
$DIMSE1
 70
     0
  9
$DIMSE2
 70
     0
  9
$DIMTAD
 70
     1
  9
$DIMZIN
 70
     8
  9
$DIMBLK
  1
Open30
  9
$DIMASO
 70
     1
  9
$DIMSHO
 70
     1
  9
$DIMPOST
  1

  9
$DIMAPOST
  1

  9
$DIMALT
 70
     0
  9
$DIMALTD
 70
     3
  9
$DIMALTF
 40
0.03937007874016
  9
$DIMLFAC
 40
1.0
  9
$DIMTOFL
 70
     1
  9
$DIMTVP
 40
0.0
  9
$DIMTIX
 70
     0
  9
$DIMSOXD
 70
     0
  9
$DIMSAH
 70
     0
  9
$DIMBLK1
  1

  9
$DIMBLK2
  1

  9
$DIMSTYLE
  2
ATOM
  9
$DIMCLRD
 70
     0
  9
$DIMCLRE
 70
     0
  9
$DIMCLRT
 70
     3
  9
$DIMTFAC
 40
0.4999999999999999
  9
$DIMGAP
 40
0.625
  9
$DIMJUST
 70
     0
  9
$DIMSD1
 70
     0
  9
$DIMSD2
 70
     0
  9
$DIMTOLJ
 70
     0
  9
$DIMTZIN
 70
     8
  9
$DIMALTZ
 70
     0
  9
$DIMALTTZ
 70
     0
  9
$DIMUPT
 70
     0
  9
$DIMDEC
 70
     2
  9
$DIMTDEC
 70
     2
  9
$DIMALTU
 70
     2
  9
$DIMALTTD
 70
     3
  9
$DIMTXSTY
  7
ATOM
  9
$DIMAUNIT
 70
     0
  9
$DIMADEC
 70
     0
  9
$DIMALTRND
 40
0.0
  9
$DIMAZIN
 70
     0
  9
$DIMDSEP
 70
    46
  9
$DIMATFIT
 70
     0
  9
$DIMFRAC
 70
     2
  9
$DIMLDRBLK
  1
Open30
  9
$DIMLUNIT
 70
     2
  9
$DIMLWD
 70
    -2
  9
$DIMLWE
 70
    -2
  9
$DIMTMOVE
 70
     1
  9
$LUNITS
 70
     2
  9
$LUPREC
 70
     4
  9
$SKETCHINC
 40
1.0
  9
$FILLETRAD
 40
0.0
  9
$AUNITS
 70
     0
  9
$AUPREC
 70
     0
  9
$MENU
  1
.
  9
$ELEVATION
 40
0.0
  9
$PELEVATION
 40
0.0
  9
$THICKNESS
 40
0.0
  9
$LIMCHECK
 70
     0
  9
$CHAMFERA
 40
0.0
  9
$CHAMFERB
 40
0.0
  9
$CHAMFERC
 40
0.0
  9
$CHAMFERD
 40
0.0
  9
$SKPOLY
 70
     0
  9
$TDCREATE
 40
2455603.720338797
  9
$TDUCREATE
 40
2455603.345338796
  9
$TDUPDATE
 40
2457592.439554201
  9
$TDUUPDATE
 40
2457592.064554201
  9
$TDINDWG
 40
0.0025005903
  9
$TDUSRTIMER
 40
0.0025005903
  9
$USRTIMER
 70
     1
  9
$ANGBASE
 50
0.0
  9
$ANGDIR
 70
     0
  9
$PDMODE
 70
     0
  9
$PDSIZE
 40
0.0
  9
$PLINEWID
 40
0.0
  9
$SPLFRAME
 70
     0
  9
$SPLINETYPE
 70
     6
  9
$SPLINESEGS
 70
     8
  9
$HANDSEED
  5
7B1
  9
$SURFTAB1
 70
     6
  9
$SURFTAB2
 70
     6
  9
$SURFTYPE
 70
     6
  9
$SURFU
 70
     6
  9
$SURFV
 70
     6
  9
$UCSBASE
  2

  9
$UCSNAME
  2

  9
$UCSORG
 10
0.0
 20
0.0
 30
0.0
  9
$UCSXDIR
 10
1.0
 20
0.0
 30
0.0
  9
$UCSYDIR
 10
0.0
 20
1.0
 30
0.0
  9
$UCSORTHOREF
  2

  9
$UCSORTHOVIEW
 70
     0
  9
$UCSORGTOP
 10
0.0
 20
0.0
 30
0.0
  9
$UCSORGBOTTOM
 10
0.0
 20
0.0
 30
0.0
  9
$UCSORGLEFT
 10
0.0
 20
0.0
 30
0.0
  9
$UCSORGRIGHT
 10
0.0
 20
0.0
 30
0.0
  9
$UCSORGFRONT
 10
0.0
 20
0.0
 30
0.0
  9
$UCSORGBACK
 10
0.0
 20
0.0
 30
0.0
  9
$PUCSBASE
  2

  9
$PUCSNAME
  2

  9
$PUCSORG
 10
0.0
 20
0.0
 30
0.0
  9
$PUCSXDIR
 10
1.0
 20
0.0
 30
0.0
  9
$PUCSYDIR
 10
0.0
 20
1.0
 30
0.0
  9
$PUCSORTHOREF
  2

  9
$PUCSORTHOVIEW
 70
     0
  9
$PUCSORGTOP
 10
0.0
 20
0.0
 30
0.0
  9
$PUCSORGBOTTOM
 10
0.0
 20
0.0
 30
0.0
  9
$PUCSORGLEFT
 10
0.0
 20
0.0
 30
0.0
  9
$PUCSORGRIGHT
 10
0.0
 20
0.0
 30
0.0
  9
$PUCSORGFRONT
 10
0.0
 20
0.0
 30
0.0
  9
$PUCSORGBACK
 10
0.0
 20
0.0
 30
0.0
  9
$USERI1
 70
     0
  9
$USERI2
 70
     0
  9
$USERI3
 70
     0
  9
$USERI4
 70
     0
  9
$USERI5
 70
     0
  9
$USERR1
 40
0.0
  9
$USERR2
 40
0.0
  9
$USERR3
 40
0.0
  9
$USERR4
 40
0.0
  9
$USERR5
 40
0.0
  9
$WORLDVIEW
 70
     1
  9
$SHADEDGE
 70
     3
  9
$SHADEDIF
 70
    70
  9
$TILEMODE
 70
     1
  9
$MAXACTVP
 70
    64
  9
$PINSBASE
 10
0.0
 20
0.0
 30
0.0
  9
$PLIMCHECK
 70
     0
  9
$PEXTMIN
 10
1.000000000000000E+20
 20
1.000000000000000E+20
 30
1.000000000000000E+20
  9
$PEXTMAX
 10
-1.000000000000000E+20
 20
-1.000000000000000E+20
 30
-1.000000000000000E+20
  9
$PLIMMIN
 10
0.0
 20
0.0
  9
$PLIMMAX
 10
12.0
 20
9.0
  9
$UNITMODE
 70
     0
  9
$VISRETAIN
 70
     1
  9
$PLINEGEN
 70
     0
  9
$PSLTSCALE
 70
     1
  9
$TREEDEPTH
 70
  3020
  9
$CMLSTYLE
  2
Standard
  9
$CMLJUST
 70
     0
  9
$CMLSCALE
 40
10.0
  9
$PROXYGRAPHICS
 70
     1
  9
$MEASUREMENT
 70
     1
  9
$CELWEIGHT
370
    -1
  9
$ENDCAPS
280
     0
  9
$JOINSTYLE
280
     0
  9
$LWDISPLAY
290
     0
  9
$INSUNITS
 70
     4
  9
$HYPERLINKBASE
  1

  9
$STYLESHEET
  1

  9
$XEDIT
290
     1
  9
$CEPSNTYPE
380
     0
  9
$PSTYLEMODE
290
     0
  9
$FINGERPRINTGUID
  2
{B98BC93F-EFFA-477B-B50C-154B2ED4215E}
  9
$VERSIONGUID
  2
{1CFB9327-4B77-4B3B-9BD3-4F4C527FBB80}
  9
$EXTNAMES
290
     1
  9
$PSVPSCALE
 40
0.0
  9
$OLESTARTUP
290
     0
  0
ENDSEC
  0
SECTION
  2
CLASSES
  0
CLASS
  1
ACDBDICTIONARYWDFLT
  2
AcDbDictionaryWithDefault
  3
ObjectDBX Classes
 90
        0
280
     0
281
     0
  0
CLASS
  1
MATERIAL
  2
AcDbMaterial
  3
ObjectDBX Classes
 90
     1153
280
     0
281
     0
  0
CLASS
  1
VISUALSTYLE
  2
AcDbVisualStyle
  3
ObjectDBX Classes
 90
     4095
280
     0
281
     0
  0
CLASS
  1
SCALE
  2
AcDbScale
  3
ObjectDBX Classes
 90
     1153
280
     0
281
     0
  0
CLASS
  1
TABLESTYLE
  2
AcDbTableStyle
  3
ObjectDBX Classes
 90
     4095
280
     0
281
     0
  0
CLASS
  1
MLEADERSTYLE
  2
AcDbMLeaderStyle
  3
ACDB_MLEADERSTYLE_CLASS
 90
     4095
280
     0
281
     0
  0
CLASS
  1
SORTENTSTABLE
  2
AcDbSortentsTable
  3
ObjectDBX Classes
 90
        0
280
     0
281
     0
  0
CLASS
  1
ACDB_TEXTOBJECTCONTEXTDATA_CLASS
  2
AcDbTextObjectContextData
  3
ObjectDBX Classes
 90
     1153
280
     0
281
     0
  0
CLASS
  1
ACDB_MTEXTATTRIBUTEOBJECTCONTEXTDATA_CLASS
  2
AcDbMTextAttributeObjectContextData
  3
ObjectDBX Classes
 90
     1153
280
     0
281
     0
  0
CLASS
  1
DICTIONARYVAR
  2
AcDbDictionaryVar
  3
ObjectDBX Classes
 90
        0
280
     0
281
     0
  0
CLASS
  1
CELLSTYLEMAP
  2
AcDbCellStyleMap
  3
ObjectDBX Classes
 90
     1152
280
     0
281
     0
  0
CLASS
  1
ACDBPLACEHOLDER
  2
AcDbPlaceHolder
  3
ObjectDBX Classes
 90
        0
280
     0
281
     0
  0
CLASS
  1
LAYOUT
  2
AcDbLayout
  3
ObjectDBX Classes
 90
        0
280
     0
281
     0
  0
ENDSEC
  0
SECTION
  2
TABLES
  0
TABLE
  2
VPORT
  5
8
330
0
100
AcDbSymbolTable
 70
     1
  0
VPORT
  5
52
330
8
100
AcDbSymbolTableRecord
100
AcDbViewportTableRecord
  2
*Active
 70
     0
 10
0.0
 20
0.0
 11
1.0
 21
1.0
 12
74.92292842612153
 22
363.8697840500477
 13
0.0
 23
0.0
 14
10.0
 24
10.0
 15
10.0
 25
10.0
 16
0.0
 26
0.0
 36
1.0
 17
0.0
 27
0.0
 37
0.0
 40
241.2650012842757
 41
2.026347305389221
 42
50.0
 43
0.0
 44
0.0
 50
0.0
 51
0.0
 71
     0
 72
  1000
 73
     1
 74
     1
 75
     0
 76
     0
 77
     0
 78
     0
281
     0
 65
     1
110
0.0
120
0.0
130
0.0
111
1.0
121
0.0
131
0.0
112
0.0
122
1.0
132
0.0
 79
     0
146
0.0
1001
ACAD_NAV_VCDISPLAY
1070
     3
  0
ENDTAB
  0
TABLE
  2
LTYPE
  5
5
330
0
100
AcDbSymbolTable
 70
     3
  0
LTYPE
  5
56
330
5
100
AcDbSymbolTableRecord
100
AcDbLinetypeTableRecord
  2
ByBlock
 70
     0
  3

 72
    65
 73
     0
 40
0.0
  0
LTYPE
  5
57
330
5
100
AcDbSymbolTableRecord
100
AcDbLinetypeTableRecord
  2
ByLayer
 70
     0
  3

 72
    65
 73
     0
 40
0.0
  0
LTYPE
  5
58
330
5
100
AcDbSymbolTableRecord
100
AcDbLinetypeTableRecord
  2
Continuous
 70
     0
  3
Solid line
 72
    65
 73
     0
 40
0.0
  0
LTYPE
  5
77
330
5
100
AcDbSymbolTableRecord
100
AcDbLinetypeTableRecord
  2
CENTER_NEW
 70
     0
  3
－ － － － － －
 72
    65
 73
     4
 40
7.5
 49
6.0
 74
     0
 49
-0.5
 74
     0
 49
0.5
 74
     0
 49
-0.5
 74
     0
  0
ENDTAB
  0
TABLE
  2
LAYER
  5
2
102
{ACAD_XDICTIONARY
360
6A2
102
}
330
0
100
AcDbSymbolTable
 70
     6
  0
LAYER
  5
4F
102
{ACAD_XDICTIONARY
360
698
102
}
330
2
100
AcDbSymbolTableRecord
100
AcDbLayerTableRecord
  2
0
 70
     0
 62
     7
  6
Continuous
370
    35
390
85
1001
AcAecLayerStandard
1000

1000

  0
LAYER
  5
99
102
{ACAD_XDICTIONARY
360
9A
102
}
330
2
100
AcDbSymbolTableRecord
100
AcDbLayerTableRecord
  2
viewports
 70
     0
 62
     5
  6
Continuous
290
     0
370
    18
390
85
1001
AcAecLayerStandard
1000

1000

  0
LAYER
  5
9E
102
{ACAD_XDICTIONARY
360
9F
102
}
330
2
100
AcDbSymbolTableRecord
100
AcDbLayerTableRecord
  2
1
 70
     0
 62
     7
  6
Continuous
370
    -3
390
85
  0
LAYER
  5
29C
102
{ACAD_XDICTIONARY
360
29D
102
}
330
2
100
AcDbSymbolTableRecord
100
AcDbLayerTableRecord
  2
frame
 70
     0
 62
     4
  6
Continuous
370
    18
390
85
1001
AcAecLayerStandard
1000

1000

  0
LAYER
  5
769
102
{ACAD_XDICTIONARY
360
76A
102
}
330
2
100
AcDbSymbolTableRecord
100
AcDbLayerTableRecord
  2
frame @ 1
 70
     0
 62
     4
  6
Continuous
370
    18
390
85
1001
AcAecLayerStandard
1000

1000

1001
AcadAnnotativeDecomposition
1000
AnnotativeData
1002
{
1070
     1
1070
     1
1002
}
  0
ENDTAB
  0
TABLE
  2
STYLE
  5
3
330
0
100
AcDbSymbolTable
 70
     9
  0
STYLE
  5
50
330
3
100
AcDbSymbolTableRecord
100
AcDbTextStyleTableRecord
  2
Standard
 70
     0
 40
0.0
 41
1.0
 50
0.0
 71
     0
 42
2.5
  3
txt
  4

  0
STYLE
  5
55
330
3
100
AcDbSymbolTableRecord
100
AcDbTextStyleTableRecord
  2
Annotative
 70
     0
 40
0.0
 41
1.0
 50
0.0
 71
     0
 42
0.2
  3
txt
  4

1001
AcadAnnotative
1000
AnnotativeData
1002
{
1070
     1
1070
     1
1002
}
  0
STYLE
  5
70
330
3
100
AcDbSymbolTableRecord
100
AcDbTextStyleTableRecord
  2
ATOM
 70
     0
 40
0.0
 41
0.9
 50
0.0
 71
     0
 42
3.0
  3
txt.shx
  4
extfont.shx
1001
AcadAnnotative
1000
AnnotativeData
1002
{
1070
     1
1070
     1
1002
}
  0
STYLE
  5
71
330
3
100
AcDbSymbolTableRecord
100
AcDbTextStyleTableRecord
  2
CONVERTER_11
 70
     0
 40
0.0
 41
0.8009999999999999
 50
0.0
 71
     0
 42
0.2
  3
simplex.shx
  4
extfont2.shx
  0
STYLE
  5
72
330
3
100
AcDbSymbolTableRecord
100
AcDbTextStyleTableRecord
  2
CONVERTER_12
 70
     0
 40
0.0
 41
0.5607
 50
0.0
 71
     0
 42
0.2
  3
simplex.shx
  4
extfont2.shx
  0
STYLE
  5
73
330
3
100
AcDbSymbolTableRecord
100
AcDbTextStyleTableRecord
  2
CONVERTER_13
 70
     0
 40
0.0
 41
0.5670000000000001
 50
0.0
 71
     0
 42
0.2
  3
simplex.shx
  4

  0
STYLE
  5
74
330
3
100
AcDbSymbolTableRecord
100
AcDbTextStyleTableRecord
  2
CONVERTER_16
 70
     0
 40
0.0
 41
0.5366700000000001
 50
0.0
 71
     0
 42
0.2
  3
simplex.shx
  4
extfont2.shx
  0
STYLE
  5
75
330
3
100
AcDbSymbolTableRecord
100
AcDbTextStyleTableRecord
  2
CONVERTER_17
 70
     0
 40
0.0
 41
0.4005
 50
0.0
 71
     0
 42
0.2
  3
simplex.shx
  4
extfont2.shx
  0
STYLE
  5
76
330
3
100
AcDbSymbolTableRecord
100
AcDbTextStyleTableRecord
  2
CONVERTER_18
 70
     0
 40
0.0
 41
0.5985000000000002
 50
0.0
 71
     0
 42
0.2
  3
simplex.shx
  4

  0
ENDTAB
  0
TABLE
  2
VIEW
  5
6
330
0
100
AcDbSymbolTable
 70
     0
  0
ENDTAB
  0
TABLE
  2
UCS
  5
7
330
0
100
AcDbSymbolTable
 70
     0
  0
ENDTAB
  0
TABLE
  2
APPID
  5
9
330
0
100
AcDbSymbolTable
 70
    15
  0
APPID
  5
51
330
9
100
AcDbSymbolTableRecord
100
AcDbRegAppTableRecord
  2
ACAD
 70
     0
  0
APPID
  5
59
330
9
100
AcDbSymbolTableRecord
100
AcDbRegAppTableRecord
  2
AcadAnnotative
 70
     0
  0
APPID
  5
6F
330
9
100
AcDbSymbolTableRecord
100
AcDbRegAppTableRecord
  2
ACAD_PSEXT
 70
     0
  0
APPID
  5
81
330
9
100
AcDbSymbolTableRecord
100
AcDbRegAppTableRecord
  2
ACAD_DSTYLE_DIMBREAK
 70
     0
  0
APPID
  5
82
330
9
100
AcDbSymbolTableRecord
100
AcDbRegAppTableRecord
  2
ACAD_DSTYLE_DIMJAG
 70
     0
  0
APPID
  5
83
330
9
100
AcDbSymbolTableRecord
100
AcDbRegAppTableRecord
  2
ACAD_DSTYLE_DIMTALN
 70
     0
  0
APPID
  5
9C
330
9
100
AcDbSymbolTableRecord
100
AcDbRegAppTableRecord
  2
AcAecLayerStandard
 70
     0
  0
APPID
  5
2A3
330
9
100
AcDbSymbolTableRecord
100
AcDbRegAppTableRecord
  2
AcDbBlockRepETag
 70
     0
  0
APPID
  5
454
330
9
100
AcDbSymbolTableRecord
100
AcDbRegAppTableRecord
  2
AcDbDynamicBlockGUID
 70
     0
  0
APPID
  5
69F
330
9
100
AcDbSymbolTableRecord
100
AcDbRegAppTableRecord
  2
AcadAnnotativeDecomposition
 70
     0
  0
APPID
  5
6D5
330
9
100
AcDbSymbolTableRecord
100
AcDbRegAppTableRecord
  2
ACAD_MLEADERVER
 70
     0
  0
APPID
  5
6D8
330
9
100
AcDbSymbolTableRecord
100
AcDbRegAppTableRecord
  2
AcDbAttr
 70
     0
  0
APPID
  5
753
330
9
100
AcDbSymbolTableRecord
100
AcDbRegAppTableRecord
  2
ACAD_EXEMPT_FROM_CAD_STANDARDS
 70
     0
  0
APPID
  5
760
330
9
100
AcDbSymbolTableRecord
100
AcDbRegAppTableRecord
  2
DCO15
 70
     0
  0
APPID
  5
767
330
9
100
AcDbSymbolTableRecord
100
AcDbRegAppTableRecord
  2
ACAD_NAV_VCDISPLAY
 70
     0
  0
ENDTAB
  0
TABLE
  2
DIMSTYLE
  5
A
330
0
100
AcDbSymbolTable
 70
     4
100
AcDbDimStyleTable
 71
     1
340
79
  0
DIMSTYLE
105
53
330
A
100
AcDbSymbolTableRecord
100
AcDbDimStyleTableRecord
  2
Standard
 70
     0
340
50
  0
DIMSTYLE
105
54
330
A
100
AcDbSymbolTableRecord
100
AcDbDimStyleTableRecord
  2
Annotative
 70
     0
340
50
1001
AcadAnnotative
1000
AnnotativeData
1002
{
1070
     1
1070
     1
1002
}
  0
DIMSTYLE
105
79
330
A
100
AcDbSymbolTableRecord
100
AcDbDimStyleTableRecord
  2
ATOM
 70
     0
 40
0.0
 41
2.0
 42
2.0
 43
7.0
 44
1.0
 47
0.1
 48
0.1
 73
     0
 74
     0
 77
     1
 78
     8
140
3.0
141
-2.5
143
0.03937007874016
146
0.4999999999999999
147
0.625
171
     3
172
     1
178
     3
271
     2
272
     2
274
     3
276
     2
279
     1
283
     0
284
     8
289
     0
340
70
341
7B
342
7B
1001
ACAD_DSTYLE_DIMBREAK
1070
   391
1040
3.75
1001
AcadAnnotative
1000
AnnotativeData
1002
{
1070
     1
1070
     1
1002
}
1001
ACAD_DSTYLE_DIMJAG
1070
   388
1040
1.5
1001
ACAD_DSTYLE_DIMTALN
1070
   392
1070
     0
  0
ENDTAB
  0
TABLE
  2
BLOCK_RECORD
  5
1
330
0
100
AcDbSymbolTable
 70
     6
  0
BLOCK_RECORD
  5
67
102
{ACAD_XDICTIONARY
360
299
102
}
330
1
100
AcDbSymbolTableRecord
100
AcDbBlockTableRecord
  2
*Model_Space
340
6A
  0
BLOCK_RECORD
  5
63
330
1
100
AcDbSymbolTableRecord
100
AcDbBlockTableRecord
  2
*Paper_Space
340
66
  0
BLOCK_RECORD
  5
6B
330
1
100
AcDbSymbolTableRecord
100
AcDbBlockTableRecord
  2
*Paper_Space0
340
6E
  0
BLOCK_RECORD
  5
7B
330
1
100
AcDbSymbolTableRecord
100
AcDbBlockTableRecord
  2
_Open30
340
0
310
2800000020000000200000000100080000000000000400000000000000000000000000000000000000000000000080000080000000808000800000008000800080800000C0C0C000C0DCC000F0CAA6000020400000206000002080000020A0000020C0000020E00000400000004020000040400000406000004080000040A0
310
000040C0000040E00000600000006020000060400000606000006080000060A0000060C0000060E00000800000008020000080400000806000008080000080A0000080C0000080E00000A0000000A0200000A0400000A0600000A0800000A0A00000A0C00000A0E00000C0000000C0200000C0400000C0600000C0800000C0
310
A00000C0C00000C0E00000E0000000E0200000E0400000E0600000E0800000E0A00000E0C00000E0E00040000000400020004000400040006000400080004000A0004000C0004000E00040200000402020004020400040206000402080004020A0004020C0004020E000404000004040200040404000404060004040800040
310
40A0004040C0004040E00040600000406020004060400040606000406080004060A0004060C0004060E00040800000408020004080400040806000408080004080A0004080C0004080E00040A0000040A0200040A0400040A0600040A0800040A0A00040A0C00040A0E00040C0000040C0200040C0400040C0600040C08000
310
40C0A00040C0C00040C0E00040E0000040E0200040E0400040E0600040E0800040E0A00040E0C00040E0E00080000000800020008000400080006000800080008000A0008000C0008000E00080200000802020008020400080206000802080008020A0008020C0008020E00080400000804020008040400080406000804080
310
008040A0008040C0008040E00080600000806020008060400080606000806080008060A0008060C0008060E00080800000808020008080400080806000808080008080A0008080C0008080E00080A0000080A0200080A0400080A0600080A0800080A0A00080A0C00080A0E00080C0000080C0200080C0400080C0600080C0
310
800080C0A00080C0C00080C0E00080E0000080E0200080E0400080E0600080E0800080E0A00080E0C00080E0E000C0000000C0002000C0004000C0006000C0008000C000A000C000C000C000E000C0200000C0202000C0204000C0206000C0208000C020A000C020C000C020E000C0400000C0402000C0404000C0406000C0
310
408000C040A000C040C000C040E000C0600000C0602000C0604000C0606000C0608000C060A000C060C000C060E000C0800000C0802000C0804000C0806000C0808000C080A000C080C000C080E000C0A00000C0A02000C0A04000C0A06000C0A08000C0A0A000C0A0C000C0A0E000C0C00000C0C02000C0C04000C0C06000
310
C0C08000C0C0A000F0FBFF00A4A0A000808080000000FF0000FF000000FFFF00FF000000FF00FF00FFFF0000FFFFFF0000000000000000000000000000000000000000000000000000000000000000000000000000000000000000000000000000000000000000000000000000000000000000000000000000000000000000
310
00000000000000000000000000000000000000000000000000000000000000000000000000000000000000000000000000000000000000000000000000000000000000000000000000000000000000000000000000000000000000000000000000000000000000000000000000000000000000000000000000000000000000
310
000000000000000000000000000000000000000000000000000000000000000000000000000000000000000000000000000000FFFF0000000000000000000000000000000000000000000000000000000000000000FFFFFFFF0000000000000000000000000000000000000000000000000000000000000000FFFFFFFF0000
310
000000000000000000000000000000000000000000000000000000000000FFFFFF0000000000000000000000000000000000000000000000000000000000000000FFFFFFFF0000000000000000000000000000000000000000000000000000000000000000FFFFFF0000000000000000000000000000000000000000000000
310
000000000000000000FFFFFFFF0000000000000000000000000000000000000000000000000000000000000000FFFFFFFF00000000FFFFFFFFFFFFFFFFFFFFFFFFFFFFFFFFFFFFFFFFFFFFFFFFFFFFFFFFFFFF00000000000000000000000000000000000000000000000000FFFFFFFF000000000000000000000000000000
310
000000000000000000FFFFFFFF000000000000000000000000000000000000000000000000FFFFFFFF000000000000000000000000000000000000000000000000FFFFFFFF000000000000000000000000000000000000000000000000FFFFFFFF000000000000000000000000000000000000000000000000FFFFFFFF0000
310
0000000000000000000000000000000000000000000000FFFFFF0000000000000000000000000000000000000000000000000000000000000000000000000000000000000000000000000000000000000000000000000000000000000000000000000000000000000000000000000000000000000000000000000000000000
310
00000000000000000000000000000000000000000000000000000000000000000000000000000000000000000000000000000000000000000000000000000000000000000000000000000000000000000000000000000000000000000000000000000000000000000000000000000000000000000000000000000000000000
310
0000000000000000000000000000000000000000000000000000000000000000000000000000000000000000000000000000000000000000
  0
BLOCK_RECORD
  5
206
330
1
100
AcDbSymbolTableRecord
100
AcDbBlockTableRecord
  2
_Dot
340
0
  0
BLOCK_RECORD
  5
29F
102
{ACAD_XDICTIONARY
360
2A0
102
}
330
1
100
AcDbSymbolTableRecord
100
AcDbBlockTableRecord
  2
ATOM_A3_zuwaku
340
0
310
2800000020000000200000000100080000000000000400000000000000000000000000000000000000000000000080000080000000808000800000008000800080800000C0C0C000C0DCC000F0CAA6000020400000206000002080000020A0000020C0000020E00000400000004020000040400000406000004080000040A0
310
000040C0000040E00000600000006020000060400000606000006080000060A0000060C0000060E00000800000008020000080400000806000008080000080A0000080C0000080E00000A0000000A0200000A0400000A0600000A0800000A0A00000A0C00000A0E00000C0000000C0200000C0400000C0600000C0800000C0
310
A00000C0C00000C0E00000E0000000E0200000E0400000E0600000E0800000E0A00000E0C00000E0E00040000000400020004000400040006000400080004000A0004000C0004000E00040200000402020004020400040206000402080004020A0004020C0004020E000404000004040200040404000404060004040800040
310
40A0004040C0004040E00040600000406020004060400040606000406080004060A0004060C0004060E00040800000408020004080400040806000408080004080A0004080C0004080E00040A0000040A0200040A0400040A0600040A0800040A0A00040A0C00040A0E00040C0000040C0200040C0400040C0600040C08000
310
40C0A00040C0C00040C0E00040E0000040E0200040E0400040E0600040E0800040E0A00040E0C00040E0E00080000000800020008000400080006000800080008000A0008000C0008000E00080200000802020008020400080206000802080008020A0008020C0008020E00080400000804020008040400080406000804080
310
008040A0008040C0008040E00080600000806020008060400080606000806080008060A0008060C0008060E00080800000808020008080400080806000808080008080A0008080C0008080E00080A0000080A0200080A0400080A0600080A0800080A0A00080A0C00080A0E00080C0000080C0200080C0400080C0600080C0
310
800080C0A00080C0C00080C0E00080E0000080E0200080E0400080E0600080E0800080E0A00080E0C00080E0E000C0000000C0002000C0004000C0006000C0008000C000A000C000C000C000E000C0200000C0202000C0204000C0206000C0208000C020A000C020C000C020E000C0400000C0402000C0404000C0406000C0
310
408000C040A000C040C000C040E000C0600000C0602000C0604000C0606000C0608000C060A000C060C000C060E000C0800000C0802000C0804000C0806000C0808000C080A000C080C000C080E000C0A00000C0A02000C0A04000C0A06000C0A08000C0A0A000C0A0C000C0A0E000C0C00000C0C02000C0C04000C0C06000
310
C0C08000C0C0A000F0FBFF00A4A0A000808080000000FF0000FF000000FFFF00FF000000FF00FF00FFFF0000FFFFFF00FFFFFFFFFFFFFFFFFFFFFFFFFFFFFFFFFFFFFFFFFFFFFFFFFFFFFFFFFFFFFFFFFFFFFFFFFFFFFFFFFFFFFFFFFFFFFFFFFFFFFFFFFFFFFFFFFFFFFFFFFFFFFFFFFFFFFFFFFFFFFFFFFFFFFFFFFFFFFF
310
FFFFFFFFFFFFFFFFFFFFFFFFFFFFFFFFFFFFFFFFFFFFFFFFFFFFFFFFFFFFFFFFFFFFFFFFFFFFFFFFFFFFFFFFFFFFFFFFFFFFFFFFFFFFFFFFFFFFFFFFFFFFFFFFFFFFFFFFFFFFFFFFFFFFFFFFFFFFFFFFFFFFFFFFFFFFFFFFFFFFFFFFFFFFFFFFFFFFFFFFFFFFFFFFFFFFFFFFFFFFFFFFFFFFFEFEFEFEFEFEFEFEFEFEFEFEFE
310
FEFEFEFEFEFEFEFEFEFEFEFEFEFEFEFEFEFFFFFEFEFFFFFFFFFFFFFFFFFFFFFFFFFFFEFEFEFEFEFEFEFEFEFEFEFEFEFEFEFFFFFEFEFFFFFFFFFFFFFFFFFFFFFFFFFFFEFEFEFEFEFEFEFEFEFEFEFEFEFEFEFFFFFEFEFFFFFFFFFFFFFFFFFFFFFFFFFFFEFEFEFEFEFEFEFEFEFEFEFEFEFEFEFFFFFEFEFFFFFFFFFFFFFFFFFFFF
310
FFFFFFFFFFFFFFFFFFFFFFFFFFFFFFFFFEFEFFFFFEFEFFFFFFFFFFFFFFFFFFFFFFFFFFFFFFFFFFFFFFFFFFFFFFFFFFFFFEFEFFFFFEFEFFFFFFFFFFFFFFFFFFFFFFFFFFFFFFFFFFFFFFFFFFFFFFFFFFFFFEFEFFFFFEFEFFFFFFFFFFFFFFFFFFFFFFFFFFFFFFFFFFFFFFFFFFFFFFFFFFFFFEFEFFFFFEFEFFFFFFFFFFFFFFFFFF
310
FFFFFFFFFFFFFFFFFFFFFFFFFFFFFFFFFFFEFEFFFFFEFEFFFFFFFFFFFFFFFFFFFFFFFFFFFFFFFFFFFFFFFFFFFFFFFFFFFFFEFEFFFFFEFEFFFFFFFFFFFFFFFFFFFFFFFFFFFFFFFFFFFFFFFFFFFFFFFFFFFFFEFEFFFFFEFEFFFFFFFFFFFFFFFFFFFFFFFFFFFFFFFFFFFFFFFFFFFFFFFFFFFFFEFEFFFFFEFEFFFFFFFFFFFFFFFF
310
FFFFFFFFFFFFFFFFFFFFFFFFFFFFFFFFFFFFFEFEFFFFFEFEFFFFFFFFFFFFFFFFFFFFFFFFFFFFFFFFFFFFFFFFFFFFFFFFFFFFFEFEFFFFFEFEFFFFFFFFFFFFFFFFFFFFFFFFFFFFFFFFFFFFFFFFFFFFFFFFFFFFFEFEFFFFFEFEFFFFFFFFFFFFFFFFFFFFFFFFFFFFFFFFFFFFFFFFFFFFFFFFFFFFFEFEFFFFFEFEFFFFFFFFFFFFFF
310
FFFFFFFFFFFFFFFFFFFFFFFFFFFFFFFFFFFFFFFEFEFFFFFEFEFFFFFFFFFFFFFFFFFFFFFFFFFFFFFFFFFFFFFFFFFFFFFFFFFFFFFEFEFFFFFEFEFFFFFFFFFFFFFFFFFFFFFFFFFFFEFEFEFEFEFEFEFEFEFEFEFEFEFEFEFFFFFEFEFEFEFEFEFEFEFEFEFEFEFEFEFEFEFEFEFEFEFEFEFEFEFEFEFEFEFEFEFFFFFFFFFFFFFFFFFFFF
310
FFFFFFFFFFFFFFFFFFFFFFFFFFFFFFFFFFFFFFFFFFFFFFFFFFFFFFFFFFFFFFFFFFFFFFFFFFFFFFFFFFFFFFFFFFFFFFFFFFFFFFFFFFFFFFFFFFFFFFFFFFFFFFFFFFFFFFFFFFFFFFFFFFFFFFFFFFFFFFFFFFFFFFFFFFFFFFFFFFFFFFFFFFFFFFFFFFFFFFFFFFFFFFFFFFFFFFFFFFFFFFFFFFFFFFFFFFFFFFFFFFFFFFFFFFFFFF
310
FFFFFFFFFFFFFFFFFFFFFFFFFFFFFFFFFFFFFFFFFFFFFFFFFFFFFFFFFFFFFFFFFFFFFFFFFFFFFFFFFFFFFFFFFFFFFFFFFFFFFFFFFFFFFFFF
1001
AcDbDynamicBlockGUID
1000
{8B172018-922D-451E-856A-6CD22E88F27B}
1001
AcDbBlockRepETag
1070
     1
1071
      200
1001
ACAD
1000
DesignCenter Data
1002
{
1070
     1
1070
     4
1002
}
  0
BLOCK_RECORD
  5
4D8
330
1
100
AcDbSymbolTableRecord
100
AcDbBlockTableRecord
  2
*E44
340
0
  0
ENDTAB
  0
ENDSEC
  0
SECTION
  2
BLOCKS
  0
BLOCK
  5
68
330
67
100
AcDbEntity
  8
0
100
AcDbBlockBegin
  2
*Model_Space
 70
     0
 10
0.0
 20
0.0
 30
0.0
  3
*Model_Space
  1

  0
ENDBLK
  5
69
330
67
100
AcDbEntity
  8
0
100
AcDbBlockEnd
  0
BLOCK
  5
64
330
63
100
AcDbEntity
 67
     1
  8
0
100
AcDbBlockBegin
  2
*Paper_Space
 70
     0
 10
0.0
 20
0.0
 30
0.0
  3
*Paper_Space
  1

  0
ENDBLK
  5
65
330
63
100
AcDbEntity
 67
     1
  8
0
100
AcDbBlockEnd
  0
BLOCK
  5
6C
330
6B
100
AcDbEntity
 67
     1
  8
0
100
AcDbBlockBegin
  2
*Paper_Space0
 70
     0
 10
0.0
 20
0.0
 30
0.0
  3
*Paper_Space0
  1

  0
ENDBLK
  5
6D
330
6B
100
AcDbEntity
 67
     1
  8
0
100
AcDbBlockEnd
  0
BLOCK
  5
7C
330
7B
100
AcDbEntity
  8
0
100
AcDbBlockBegin
  2
_Open30
 70
     0
 10
0.0
 20
0.0
 30
0.0
  3
_Open30
  1

  0
LINE
  5
7D
330
7B
100
AcDbEntity
  8
0
  6
ByBlock
 62
     0
370
    -2
100
AcDbLine
 10
-1.0
 20
0.26794919
 30
0.0
 11
0.0
 21
0.0
 31
0.0
  0
LINE
  5
7E
330
7B
100
AcDbEntity
  8
0
  6
ByBlock
 62
     0
370
    -2
100
AcDbLine
 10
0.0
 20
0.0
 30
0.0
 11
-1.0
 21
-0.26794919
 31
0.0
  0
LINE
  5
7F
330
7B
100
AcDbEntity
  8
0
  6
ByBlock
 62
     0
370
    -2
100
AcDbLine
 10
0.0
 20
0.0
 30
0.0
 11
-1.0
 21
0.0
 31
0.0
  0
ENDBLK
  5
80
330
7B
100
AcDbEntity
  8
0
100
AcDbBlockEnd
  0
BLOCK
  5
207
330
206
100
AcDbEntity
  8
0
100
AcDbBlockBegin
  2
_Dot
 70
     0
 10
0.0
 20
0.0
 30
0.0
  3
_Dot
  1

  0
LWPOLYLINE
  5
208
330
206
100
AcDbEntity
  8
0
  6
ByBlock
 62
     0
100
AcDbPolyline
 90
        2
 70
     1
 43
0.5
 10
-0.25
 20
0.0
 42
1.0
 10
0.25
 20
0.0
 42
1.0
  0
LINE
  5
209
330
206
100
AcDbEntity
  8
0
  6
ByBlock
 62
     0
370
    -2
100
AcDbLine
 10
-0.5
 20
0.0
 30
0.0
 11
-1.0
 21
0.0
 31
0.0
  0
ENDBLK
  5
20A
330
206
100
AcDbEntity
  8
0
100
AcDbBlockEnd
  0
BLOCK
  5
2A1
330
29F
100
AcDbEntity
  8
0
100
AcDbBlockBegin
  2
ATOM_A3_zuwaku
 70
     2
 10
0.0
 20
0.0
 30
0.0
  3
ATOM_A3_zuwaku
  1

  0
LINE
  5
2A2
330
29F
100
AcDbEntity
  8
frame
  6
ByBlock
100
AcDbLine
 10
329.0
 20
38.00000000000364
 30
0.0
 11
329.0
 21
10.00000000000364
 31
0.0
1001
AcDbBlockRepETag
1070
     1
1071
        0
1005
2A2
  0
LINE
  5
2A4
330
29F
100
AcDbEntity
  8
frame
  6
ByBlock
100
AcDbLine
 10
354.0
 20
38.00000000000364
 30
0.0
 11
354.0
 21
10.0
 31
0.0
1001
AcDbBlockRepETag
1070
     1
1071
        1
1005
2A4
  0
LINE
  5
2A5
330
29F
100
AcDbEntity
  8
frame
  6
ByBlock
100
AcDbLine
 10
354.085
 20
38.00000000000364
 30
0.0
 11
354.085
 21
10.0
 31
0.0
1001
AcDbBlockRepETag
1070
     1
1071
        2
1005
2A5
  0
LINE
  5
2A6
330
29F
100
AcDbEntity
  8
frame
  6
ByBlock
100
AcDbLine
 10
353.915
 20
38.00000000000364
 30
0.0
 11
353.915
 21
10.0
 31
0.0
1001
AcDbBlockRepETag
1070
     1
1071
        3
1005
2A6
  0
LINE
  5
2A7
330
29F
100
AcDbEntity
  8
frame
  6
ByBlock
100
AcDbLine
 10
351.0
 20
38.00000000000364
 30
0.0
 11
351.0
 21
10.0
 31
0.0
1001
AcDbBlockRepETag
1070
     1
1071
        4
1005
2A7
  0
LINE
  5
2A8
330
29F
100
AcDbEntity
  8
frame
  6
ByBlock
100
AcDbLine
 10
351.085
 20
38.00000000000364
 30
0.0
 11
351.085
 21
10.0
 31
0.0
1001
AcDbBlockRepETag
1070
     1
1071
        5
1005
2A8
  0
LINE
  5
2A9
330
29F
100
AcDbEntity
  8
frame
  6
ByBlock
100
AcDbLine
 10
351.1700000000001
 20
38.00000000000364
 30
0.0
 11
351.1700000000001
 21
10.0
 31
0.0
1001
AcDbBlockRepETag
1070
     1
1071
        6
1005
2A9
  0
LINE
  5
2AA
330
29F
100
AcDbEntity
  8
frame
  6
ByBlock
100
AcDbLine
 10
396.5
 20
10.00000000000364
 30
0.0
 11
396.5
 21
17.00000000000364
 31
0.0
1001
AcDbBlockRepETag
1070
     1
1071
        7
1005
2AA
  0
LINE
  5
2AB
330
29F
100
AcDbEntity
  8
frame
  6
ByBlock
100
AcDbLine
 10
365.0
 20
52.00000000000365
 30
0.0
 11
365.0
 21
45.00000000000365
 31
0.0
1001
AcDbBlockRepETag
1070
     1
1071
        8
1005
2AB
  0
LINE
  5
2AC
330
29F
100
AcDbEntity
  8
frame
  6
ByBlock
100
AcDbLine
 10
315.0
 20
52.00000000000365
 30
0.0
 11
315.0
 21
45.00000000000365
 31
0.0
1001
AcDbBlockRepETag
1070
     1
1071
        9
1005
2AC
  0
LINE
  5
2AD
330
29F
100
AcDbEntity
  8
frame
  6
ByBlock
100
AcDbLine
 10
308.0
 20
52.00000000000365
 30
0.0
 11
308.0
 21
45.00000000000365
 31
0.0
1001
AcDbBlockRepETag
1070
     1
1071
       10
1005
2AD
  0
LINE
  5
2AE
330
29F
100
AcDbEntity
  8
frame
  6
ByBlock
100
AcDbLine
 10
280.0
 20
52.00000000000365
 30
0.0
 11
280.0
 21
45.00000000000365
 31
0.0
1001
AcDbBlockRepETag
1070
     1
1071
       11
1005
2AE
  0
LINE
  5
2AF
330
29F
100
AcDbEntity
  8
frame
  6
ByBlock
100
AcDbLine
 10
230.0
 20
52.00000000000365
 30
0.0
 11
230.0
 21
45.00000000000365
 31
0.0
1001
AcDbBlockRepETag
1070
     1
1071
       12
1005
2AF
  0
LINE
  5
2B0
330
29F
100
AcDbEntity
  8
frame
  6
ByBlock
100
AcDbLine
 10
222.9999999999991
 20
52.00000000000365
 30
0.0
 11
407.0
 21
52.00000000000365
 31
0.0
1001
AcDbBlockRepETag
1070
     1
1071
       13
1005
2B0
  0
TEXT
  5
2B1
330
29F
100
AcDbEntity
  8
frame
  6
ByBlock
100
AcDbText
 10
225.5592425935882
 20
11.75000000000182
 30
0.0
 40
5.0
  1
アトムリビンテック株式会社
 41
0.6
  7
ATOM
 72
     1
 11
248.7592425935882
 21
14.25000000000182
 31
0.0
100
AcDbText
 73
     2
1001
AcDbBlockRepETag
1070
     1
1071
       14
1005
2B1
  0
TEXT
  5
2B2
330
29F
100
AcDbEntity
  8
frame
  6
ByBlock
100
AcDbText
 10
275.5
 20
21.5
 30
0.0
 40
4.0
  1
開　発　部
 41
0.9
  7
ATOM
 11
275.5
 21
23.5
 31
0.0
100
AcDbText
 73
     2
1001
AcDbBlockRepETag
1070
     1
1071
       15
1005
2B2
  0
TEXT
  5
2B3
330
29F
100
AcDbEntity
  8
frame
  6
ByBlock
100
AcDbText
 10
275.5
 20
17.0
 30
0.0
 40
3.0
  1
〒110-8680
 41
0.7
  7
ATOM
 11
275.5
 21
18.5
 31
0.0
100
AcDbText
 73
     2
1001
AcDbBlockRepETag
1070
     1
1071
       16
1005
2B3
  0
TEXT
  5
2B4
330
29F
100
AcDbEntity
  8
frame
  6
ByBlock
100
AcDbText
 10
275.5
 20
12.5
 30
0.0
 40
3.0
  1
東京都 台東区 入谷 1-27-4
 41
0.65
  7
ATOM
 11
275.5
 21
14.0
 31
0.0
100
AcDbText
 73
     2
1001
AcDbBlockRepETag
1070
     1
1071
       17
1005
2B4
  0
TEXT
  5
2B5
102
{ACAD_XDICTIONARY
360
2B6
102
}
330
29F
100
AcDbEntity
  8
frame @ 1
  6
ByBlock
100
AcDbText
 10
223.62
 20
40.00000000000363
 30
0.0
 40
3.0
  1
部番
 41
0.9
  7
ATOM
 72
     1
 11
226.5
 21
41.50000000000363
 31
0.0
100
AcDbText
 73
     2
1001
AcDbBlockRepETag
1070
     1
1071
       18
1005
2B5
1001
AcadAnnotative
1000
AnnotativeData
1002
{
1070
     1
1070
     0
1002
}
  0
TEXT
  5
2BA
102
{ACAD_XDICTIONARY
360
2BB
102
}
330
29F
100
AcDbEntity
  8
frame @ 1
  6
ByBlock
100
AcDbText
 10
237.63
 20
40.00000000000363
 30
0.0
 40
3.0
  1
部　　　　品　　　　名
 41
0.9
  7
ATOM
 72
     1
 11
255.0
 21
41.50000000000363
 31
0.0
100
AcDbText
 73
     2
1001
AcDbBlockRepETag
1070
     1
1071
       19
1005
2BA
1001
AcadAnnotative
1000
AnnotativeData
1002
{
1070
     1
1070
     0
1002
}
  0
TEXT
  5
2BF
102
{ACAD_XDICTIONARY
360
2C0
102
}
330
29F
100
AcDbEntity
  8
frame @ 1
  6
ByBlock
100
AcDbText
 10
287.88
 20
40.00000000000363
 30
0.0
 40
3.0
  1
材　　質
 41
0.9
  7
ATOM
 72
     1
 11
294.0
 21
41.50000000000363
 31
0.0
100
AcDbText
 73
     2
1001
AcDbBlockRepETag
1070
     1
1071
       20
1005
2BF
1001
AcadAnnotative
1000
AnnotativeData
1002
{
1070
     1
1070
     0
1002
}
  0
TEXT
  5
2C4
102
{ACAD_XDICTIONARY
360
2C5
102
}
330
29F
100
AcDbEntity
  8
frame @ 1
  6
ByBlock
100
AcDbText
 10
308.62
 20
40.00000000000363
 30
0.0
 40
3.0
  1
数量
 41
0.9
  7
ATOM
 72
     1
 11
311.5
 21
41.50000000000363
 31
0.0
100
AcDbText
 73
     2
1001
AcDbBlockRepETag
1070
     1
1071
       21
1005
2C4
1001
AcadAnnotative
1000
AnnotativeData
1002
{
1070
     1
1070
     0
1002
}
  0
TEXT
  5
2C9
102
{ACAD_XDICTIONARY
360
2CA
102
}
330
29F
100
AcDbEntity
  8
frame @ 1
  6
ByBlock
100
AcDbText
 10
324.16
 20
40.00000000000363
 30
0.0
 40
3.0
  1
表　　面　　処　　理
 41
0.9
  7
ATOM
 72
     1
 11
340.0
 21
41.50000000000363
 31
0.0
100
AcDbText
 73
     2
1001
AcDbBlockRepETag
1070
     1
1071
       22
1005
2C9
1001
AcadAnnotative
1000
AnnotativeData
1002
{
1070
     1
1070
     0
1002
}
  0
TEXT
  5
2CE
102
{ACAD_XDICTIONARY
360
2CF
102
}
330
29F
100
AcDbEntity
  8
frame @ 1
  6
ByBlock
100
AcDbText
 10
378.26
 20
40.00000000000363
 30
0.0
 40
3.0
  1
備　　　考
 41
0.9
  7
ATOM
 72
     1
 11
386.0
 21
41.50000000000363
 31
0.0
100
AcDbText
 73
     2
1001
AcDbBlockRepETag
1070
     1
1071
       23
1005
2CE
1001
AcadAnnotative
1000
AnnotativeData
1002
{
1070
     1
1070
     0
1002
}
  0
TEXT
  5
2D3
102
{ACAD_XDICTIONARY
360
2D4
102
}
330
29F
100
AcDbEntity
  8
frame @ 1
  6
ByBlock
100
AcDbText
 10
390.18
 20
282.0000000000018
 30
0.0
 40
3.0
  1
改正日
 41
0.9
  7
ATOM
 72
     1
 11
394.5
 21
283.5000000000018
 31
0.0
100
AcDbText
 73
     2
1001
AcDbBlockRepETag
1070
     1
1071
       24
1005
2D3
1001
AcadAnnotative
1000
AnnotativeData
1002
{
1070
     1
1070
     0
1002
}
  0
TEXT
  5
2D8
102
{ACAD_XDICTIONARY
360
2D9
102
}
330
29F
100
AcDbEntity
  8
frame @ 1
  6
ByBlock
100
AcDbText
 10
368.47
 20
282.0000000000018
 30
0.0
 40
3.0
  1
改正担当
 41
0.9
  7
ATOM
 72
     1
 11
374.5
 21
283.5000000000018
 31
0.0
100
AcDbText
 73
     2
1001
AcDbBlockRepETag
1070
     1
1071
       25
1005
2D8
1001
AcadAnnotative
1000
AnnotativeData
1002
{
1070
     1
1070
     0
1002
}
  0
TEXT
  5
2DD
102
{ACAD_XDICTIONARY
360
2DE
102
}
330
29F
100
AcDbEntity
  8
frame @ 1
  6
ByBlock
100
AcDbText
 10
346.94
 20
282.0000000000036
 30
0.0
 40
3.0
  1
改正承認日
 41
0.9
  7
ATOM
 72
     1
 11
354.5
 21
283.5000000000036
 31
0.0
100
AcDbText
 73
     2
1001
AcDbBlockRepETag
1070
     1
1071
       26
1005
2DD
1001
AcadAnnotative
1000
AnnotativeData
1002
{
1070
     1
1070
     0
1002
}
  0
TEXT
  5
2E2
102
{ACAD_XDICTIONARY
360
2E3
102
}
330
29F
100
AcDbEntity
  8
frame @ 1
  6
ByBlock
100
AcDbText
 10
328.38
 20
282.0000000000018
 30
0.0
 40
3.0
  1
改正承認
 41
0.9
  7
ATOM
 72
     1
 11
334.5
 21
283.5000000000018
 31
0.0
100
AcDbText
 73
     2
1001
AcDbBlockRepETag
1070
     1
1071
       27
1005
2E2
1001
AcadAnnotative
1000
AnnotativeData
1002
{
1070
     1
1070
     0
1002
}
  0
TEXT
  5
2E7
102
{ACAD_XDICTIONARY
360
2E8
102
}
330
29F
100
AcDbEntity
  8
frame @ 1
  6
ByBlock
100
AcDbText
 10
253.03
 20
282.0000000000018
 30
0.0
 40
3.0
  1
改　　　　正　　　　理　　　　由
 41
0.9
  7
ATOM
 72
     1
 11
278.5
 21
283.5000000000018
 31
0.0
100
AcDbText
 73
     2
1001
AcDbBlockRepETag
1070
     1
1071
       28
1005
2E7
1001
AcadAnnotative
1000
AnnotativeData
1002
{
1070
     1
1070
     0
1002
}
  0
TEXT
  5
2EC
102
{ACAD_XDICTIONARY
360
2ED
102
}
330
29F
100
AcDbEntity
  8
frame @ 1
  6
ByBlock
100
AcDbText
 10
223.62
 20
282.0000000000018
 30
0.0
 40
3.0
  1
改番
 41
0.9
  7
ATOM
 72
     1
 11
226.5
 21
283.5000000000018
 31
0.0
100
AcDbText
 73
     2
1001
AcDbBlockRepETag
1070
     1
1071
       29
1005
2EC
1001
AcadAnnotative
1000
AnnotativeData
1002
{
1070
     1
1070
     0
1002
}
  0
TEXT
  5
2F1
102
{ACAD_XDICTIONARY
360
2F2
102
}
330
29F
100
AcDbEntity
  8
frame @ 1
  6
ByBlock
100
AcDbText
 10
258.6333333333333
 20
35.00000000000364
 30
0.0
 40
2.5
  1
名
 41
0.8
  7
ATOM
 72
     1
 11
259.5
 21
36.25000000000364
 31
0.0
100
AcDbText
 73
     2
1001
AcDbBlockRepETag
1070
     1
1071
       30
1005
2F1
1001
AcadAnnotative
1000
AnnotativeData
1002
{
1070
     1
1070
     0
1002
}
  0
TEXT
  5
2F6
102
{ACAD_XDICTIONARY
360
2F7
102
}
330
29F
100
AcDbEntity
  8
frame @ 1
  6
ByBlock
100
AcDbText
 10
258.5666666666667
 20
31.50000000000364
 30
0.0
 40
2.5
  1
称
 41
0.8
  7
ATOM
 72
     1
 11
259.5
 21
32.75000000000364
 31
0.0
100
AcDbText
 73
     2
1001
AcDbBlockRepETag
1070
     1
1071
       31
1005
2F6
1001
AcadAnnotative
1000
AnnotativeData
1002
{
1070
     1
1070
     0
1002
}
  0
TEXT
  5
2FB
102
{ACAD_XDICTIONARY
360
2FC
102
}
330
29F
100
AcDbEntity
  8
frame @ 1
  6
ByBlock
100
AcDbText
 10
236.5666666666667
 20
35.00000000000364
 30
0.0
 40
2.5
  1
尺
 41
0.8
  7
ATOM
 72
     1
 11
237.5
 21
36.25000000000364
 31
0.0
100
AcDbText
 73
     2
1001
AcDbBlockRepETag
1070
     1
1071
       32
1005
2FB
1001
AcadAnnotative
1000
AnnotativeData
1002
{
1070
     1
1070
     0
1002
}
  0
TEXT
  5
300
102
{ACAD_XDICTIONARY
360
301
102
}
330
29F
100
AcDbEntity
  8
frame @ 1
  6
ByBlock
100
AcDbText
 10
236.5666666666667
 20
31.50000000000364
 30
0.0
 40
2.5
  1
度
 41
0.8
  7
ATOM
 72
     1
 11
237.5
 21
32.75000000000364
 31
0.0
100
AcDbText
 73
     2
1001
AcDbBlockRepETag
1070
     1
1071
       33
1005
300
1001
AcadAnnotative
1000
AnnotativeData
1002
{
1070
     1
1070
     0
1002
}
  0
TEXT
  5
305
102
{ACAD_XDICTIONARY
360
306
102
}
330
29F
100
AcDbEntity
  8
frame @ 1
  6
ByBlock
100
AcDbText
 10
313.0666666666666
 20
35.00000000000364
 30
0.0
 40
2.5
  1
承
 41
0.8
  7
ATOM
 72
     1
 11
314.0
 21
36.25000000000364
 31
0.0
100
AcDbText
 73
     2
1001
AcDbBlockRepETag
1070
     1
1071
       34
1005
305
1001
AcadAnnotative
1000
AnnotativeData
1002
{
1070
     1
1070
     0
1002
}
  0
TEXT
  5
30A
102
{ACAD_XDICTIONARY
360
30B
102
}
330
29F
100
AcDbEntity
  8
frame @ 1
  6
ByBlock
100
AcDbText
 10
313.0666666666666
 20
31.50000000000364
 30
0.0
 40
2.5
  1
認
 41
0.8
  7
ATOM
 72
     1
 11
314.0
 21
32.75000000000364
 31
0.0
100
AcDbText
 73
     2
1001
AcDbBlockRepETag
1070
     1
1071
       35
1005
30A
1001
AcadAnnotative
1000
AnnotativeData
1002
{
1070
     1
1070
     0
1002
}
  0
TEXT
  5
30F
102
{ACAD_XDICTIONARY
360
310
102
}
330
29F
100
AcDbEntity
  8
frame @ 1
  6
ByBlock
100
AcDbText
 10
313.0666666666666
 20
28.00000000000364
 30
0.0
 40
2.5
  1
検
 41
0.8
  7
ATOM
 72
     1
 11
314.0
 21
29.25000000000364
 31
0.0
100
AcDbText
 73
     2
1001
AcDbBlockRepETag
1070
     1
1071
       36
1005
30F
1001
AcadAnnotative
1000
AnnotativeData
1002
{
1070
     1
1070
     0
1002
}
  0
TEXT
  5
314
102
{ACAD_XDICTIONARY
360
315
102
}
330
29F
100
AcDbEntity
  8
frame @ 1
  6
ByBlock
100
AcDbText
 10
313.0666666666666
 20
24.50000000000364
 30
0.0
 40
2.5
  1
図
 41
0.8
  7
ATOM
 72
     1
 11
314.0
 21
25.75000000000364
 31
0.0
100
AcDbText
 73
     2
1001
AcDbBlockRepETag
1070
     1
1071
       37
1005
314
1001
AcadAnnotative
1000
AnnotativeData
1002
{
1070
     1
1070
     0
1002
}
  0
TEXT
  5
319
102
{ACAD_XDICTIONARY
360
31A
102
}
330
29F
100
AcDbEntity
  8
frame @ 1
  6
ByBlock
100
AcDbText
 10
313.0666666666666
 20
21.00000000000364
 30
0.0
 40
2.5
  1
設
 41
0.8
  7
ATOM
 72
     1
 11
314.0
 21
22.25000000000364
 31
0.0
100
AcDbText
 73
     2
1001
AcDbBlockRepETag
1070
     1
1071
       38
1005
319
1001
AcadAnnotative
1000
AnnotativeData
1002
{
1070
     1
1070
     0
1002
}
  0
TEXT
  5
31E
102
{ACAD_XDICTIONARY
360
31F
102
}
330
29F
100
AcDbEntity
  8
frame @ 1
  6
ByBlock
100
AcDbText
 10
313.0666666666666
 20
17.50000000000364
 30
0.0
 40
2.5
  1
計
 41
0.8
  7
ATOM
 72
     1
 11
314.0
 21
18.75000000000364
 31
0.0
100
AcDbText
 73
     2
1001
AcDbBlockRepETag
1070
     1
1071
       39
1005
31E
1001
AcadAnnotative
1000
AnnotativeData
1002
{
1070
     1
1070
     0
1002
}
  0
TEXT
  5
323
102
{ACAD_XDICTIONARY
360
324
102
}
330
29F
100
AcDbEntity
  8
frame @ 1
  6
ByBlock
100
AcDbText
 10
313.0666666666666
 20
14.00000000000364
 30
0.0
 40
2.5
  1
作
 41
0.8
  7
ATOM
 72
     1
 11
314.0
 21
15.25000000000364
 31
0.0
100
AcDbText
 73
     2
1001
AcDbBlockRepETag
1070
     1
1071
       40
1005
323
1001
AcadAnnotative
1000
AnnotativeData
1002
{
1070
     1
1070
     0
1002
}
  0
TEXT
  5
328
102
{ACAD_XDICTIONARY
360
329
102
}
330
29F
100
AcDbEntity
  8
frame @ 1
  6
ByBlock
100
AcDbText
 10
313.0666666666666
 20
10.50000000000363
 30
0.0
 40
2.5
  1
図
 41
0.8
  7
ATOM
 72
     1
 11
314.0
 21
11.75000000000363
 31
0.0
100
AcDbText
 73
     2
1001
AcDbBlockRepETag
1070
     1
1071
       41
1005
328
1001
AcadAnnotative
1000
AnnotativeData
1002
{
1070
     1
1070
     0
1002
}
  0
TEXT
  5
32D
102
{ACAD_XDICTIONARY
360
32E
102
}
330
29F
100
AcDbEntity
  8
frame @ 1
  6
ByBlock
100
AcDbText
 10
351.5666666666667
 20
35.00000000000364
 30
0.0
 40
2.5
  1
品
 41
0.8
  7
ATOM
 72
     1
 11
352.5
 21
36.25000000000364
 31
0.0
100
AcDbText
 73
     2
1001
AcDbBlockRepETag
1070
     1
1071
       42
1005
32D
1001
AcadAnnotative
1000
AnnotativeData
1002
{
1070
     1
1070
     0
1002
}
  0
TEXT
  5
332
102
{ACAD_XDICTIONARY
360
333
102
}
330
29F
100
AcDbEntity
  8
frame @ 1
  6
ByBlock
100
AcDbText
 10
351.6333333333333
 20
31.50000000000364
 30
0.0
 40
2.5
  1
名
 41
0.8
  7
ATOM
 72
     1
 11
352.5
 21
32.75000000000364
 31
0.0
100
AcDbText
 73
     2
1001
AcDbBlockRepETag
1070
     1
1071
       43
1005
332
1001
AcadAnnotative
1000
AnnotativeData
1002
{
1070
     1
1070
     0
1002
}
  0
TEXT
  5
337
102
{ACAD_XDICTIONARY
360
338
102
}
330
29F
100
AcDbEntity
  8
frame @ 1
  6
ByBlock
100
AcDbText
 10
351.5666666666667
 20
28.00000000000364
 30
0.0
 40
2.5
  1
品
 41
0.8
  7
ATOM
 72
     1
 11
352.5
 21
29.25000000000364
 31
0.0
100
AcDbText
 73
     2
1001
AcDbBlockRepETag
1070
     1
1071
       44
1005
337
1001
AcadAnnotative
1000
AnnotativeData
1002
{
1070
     1
1070
     0
1002
}
  0
TEXT
  5
33C
102
{ACAD_XDICTIONARY
360
33D
102
}
330
29F
100
AcDbEntity
  8
frame @ 1
  6
ByBlock
100
AcDbText
 10
351.5666666666667
 20
24.50000000000364
 30
0.0
 40
2.5
  1
番
 41
0.8
  7
ATOM
 72
     1
 11
352.5
 21
25.75000000000364
 31
0.0
100
AcDbText
 73
     2
1001
AcDbBlockRepETag
1070
     1
1071
       45
1005
33C
1001
AcadAnnotative
1000
AnnotativeData
1002
{
1070
     1
1070
     0
1002
}
  0
TEXT
  5
341
102
{ACAD_XDICTIONARY
360
342
102
}
330
29F
100
AcDbEntity
  8
frame @ 1
  6
ByBlock
100
AcDbText
 10
351.5666666666667
 20
21.00000000000364
 30
0.0
 40
2.5
  1
図
 41
0.8
  7
ATOM
 72
     1
 11
352.5
 21
22.25000000000364
 31
0.0
100
AcDbText
 73
     2
1001
AcDbBlockRepETag
1070
     1
1071
       46
1005
341
1001
AcadAnnotative
1000
AnnotativeData
1002
{
1070
     1
1070
     0
1002
}
  0
TEXT
  5
346
102
{ACAD_XDICTIONARY
360
347
102
}
330
29F
100
AcDbEntity
  8
frame @ 1
  6
ByBlock
100
AcDbText
 10
351.6333333333333
 20
17.50000000000364
 30
0.0
 40
2.5
  1
名
 41
0.8
  7
ATOM
 72
     1
 11
352.5
 21
18.75000000000364
 31
0.0
100
AcDbText
 73
     2
1001
AcDbBlockRepETag
1070
     1
1071
       47
1005
346
1001
AcadAnnotative
1000
AnnotativeData
1002
{
1070
     1
1070
     0
1002
}
  0
TEXT
  5
34B
102
{ACAD_XDICTIONARY
360
34C
102
}
330
29F
100
AcDbEntity
  8
frame @ 1
  6
ByBlock
100
AcDbText
 10
351.5666666666667
 20
14.00000000000364
 30
0.0
 40
2.5
  1
図
 41
0.8
  7
ATOM
 72
     1
 11
352.5
 21
15.25000000000364
 31
0.0
100
AcDbText
 73
     2
1001
AcDbBlockRepETag
1070
     1
1071
       48
1005
34B
1001
AcadAnnotative
1000
AnnotativeData
1002
{
1070
     1
1070
     0
1002
}
  0
TEXT
  5
350
102
{ACAD_XDICTIONARY
360
351
102
}
330
29F
100
AcDbEntity
  8
frame @ 1
  6
ByBlock
100
AcDbText
 10
351.5666666666667
 20
10.50000000000363
 30
0.0
 40
2.5
  1
番
 41
0.8
  7
ATOM
 72
     1
 11
352.5
 21
11.75000000000363
 31
0.0
100
AcDbText
 73
     2
1001
AcDbBlockRepETag
1070
     1
1071
       49
1005
350
1001
AcadAnnotative
1000
AnnotativeData
1002
{
1070
     1
1070
     0
1002
}
  0
TEXT
  5
355
102
{ACAD_XDICTIONARY
360
356
102
}
330
29F
100
AcDbEntity
  8
frame @ 1
  6
ByBlock
100
AcDbText
 10
251.875
 20
32.75000000000364
 30
0.0
 40
3.5
  1
A3
 41
0.9
  7
ATOM
 72
     1
 11
254.5
 21
34.50000000000364
 31
0.0
100
AcDbText
 73
     2
1001
AcDbBlockRepETag
1070
     1
1071
       50
1005
355
1001
AcadAnnotative
1000
AnnotativeData
1002
{
1070
     1
1070
     0
1002
}
  0
LWPOLYLINE
  5
35A
330
29F
100
AcDbEntity
  8
frame
  6
ByBlock
100
AcDbPolyline
 90
        4
 70
     1
 43
0.0
 10
406.9999999999991
 20
287.0
 10
12.99999999999909
 20
287.0
 10
12.99999999999909
 20
10.0
 10
406.9999999999991
 20
10.0
1001
AcDbBlockRepETag
1070
     1
1071
       51
1005
35A
  0
LWPOLYLINE
  5
35B
330
29F
100
AcDbEntity
  8
frame
  6
ByBlock
100
AcDbPolyline
 90
        4
 70
     1
 43
0.0
 10
407.1599999999987
 20
287.1600000000017
 10
12.83999999999923
 20
287.1600000000017
 10
12.83999999999923
 20
9.840000000000143
 10
407.1599999999987
 20
9.840000000000143
1001
AcDbBlockRepETag
1070
     1
1071
       52
1005
35B
  0
LWPOLYLINE
  5
35C
330
29F
100
AcDbEntity
  8
frame
  6
ByBlock
100
AcDbPolyline
 90
        4
 70
     1
 43
0.0
 10
406.8399999999991
 20
286.8400000000002
 10
13.15999999999894
 20
286.8400000000002
 10
13.15999999999894
 20
10.16000000000167
 10
406.8399999999991
 20
10.16000000000167
1001
AcDbBlockRepETag
1070
     1
1071
       53
1005
35C
  0
LWPOLYLINE
  5
35D
330
29F
100
AcDbEntity
  8
frame
  6
ByBlock
390
84
100
AcDbPolyline
 90
        4
 70
     1
 43
0.0
 10
0.0
 20
0.0
 10
420.0
 20
0.0
 10
420.0
 20
297.0
 10
0.0
 20
297.0
1001
AcDbBlockRepETag
1070
     1
1071
       54
1005
35D
  0
LINE
  5
35E
330
29F
100
AcDbEntity
  8
frame
  6
ByBlock
100
AcDbLine
 10
230.0
 20
287.0000000000036
 30
0.0
 11
230.0
 21
280.0000000000036
 31
0.0
1001
AcDbBlockRepETag
1070
     1
1071
       55
1005
35E
  0
LINE
  5
35F
330
29F
100
AcDbEntity
  8
frame
  6
ByBlock
100
AcDbLine
 10
230.085
 20
287.0000000000036
 30
0.0
 11
230.085
 21
280.0000000000036
 31
0.0
1001
AcDbBlockRepETag
1070
     1
1071
       56
1005
35F
  0
LINE
  5
360
330
29F
100
AcDbEntity
  8
frame
  6
ByBlock
100
AcDbLine
 10
229.915
 20
287.0000000000036
 30
0.0
 11
229.915
 21
280.0000000000036
 31
0.0
1001
AcDbBlockRepETag
1070
     1
1071
       57
1005
360
  0
LINE
  5
361
330
29F
100
AcDbEntity
  8
frame
  6
ByBlock
100
AcDbLine
 10
327.0
 20
287.0000000000036
 30
0.0
 11
327.0
 21
280.0000000000036
 31
0.0
1001
AcDbBlockRepETag
1070
     1
1071
       58
1005
361
  0
LINE
  5
362
330
29F
100
AcDbEntity
  8
frame
  6
ByBlock
100
AcDbLine
 10
327.085
 20
287.0000000000036
 30
0.0
 11
327.085
 21
280.0000000000036
 31
0.0
1001
AcDbBlockRepETag
1070
     1
1071
       59
1005
362
  0
LINE
  5
363
330
29F
100
AcDbEntity
  8
frame
  6
ByBlock
100
AcDbLine
 10
326.915
 20
287.0000000000036
 30
0.0
 11
326.915
 21
280.0000000000036
 31
0.0
1001
AcDbBlockRepETag
1070
     1
1071
       60
1005
363
  0
LINE
  5
364
330
29F
100
AcDbEntity
  8
frame
  6
ByBlock
100
AcDbLine
 10
342.0
 20
287.0000000000036
 30
0.0
 11
342.0
 21
280.0000000000036
 31
0.0
1001
AcDbBlockRepETag
1070
     1
1071
       61
1005
364
  0
LINE
  5
365
330
29F
100
AcDbEntity
  8
frame
  6
ByBlock
100
AcDbLine
 10
342.0850000000001
 20
287.0000000000036
 30
0.0
 11
342.0850000000001
 21
280.0000000000036
 31
0.0
1001
AcDbBlockRepETag
1070
     1
1071
       62
1005
365
  0
LINE
  5
366
330
29F
100
AcDbEntity
  8
frame
  6
ByBlock
100
AcDbLine
 10
341.915
 20
287.0000000000036
 30
0.0
 11
341.915
 21
280.0000000000036
 31
0.0
1001
AcDbBlockRepETag
1070
     1
1071
       63
1005
366
  0
LINE
  5
367
330
29F
100
AcDbEntity
  8
frame
  6
ByBlock
100
AcDbLine
 10
367.0
 20
287.0000000000036
 30
0.0
 11
367.0
 21
280.0000000000036
 31
0.0
1001
AcDbBlockRepETag
1070
     1
1071
       64
1005
367
  0
LINE
  5
368
330
29F
100
AcDbEntity
  8
frame
  6
ByBlock
100
AcDbLine
 10
367.0850000000001
 20
287.0000000000036
 30
0.0
 11
367.0850000000001
 21
280.0000000000036
 31
0.0
1001
AcDbBlockRepETag
1070
     1
1071
       65
1005
368
  0
LINE
  5
369
330
29F
100
AcDbEntity
  8
frame
  6
ByBlock
100
AcDbLine
 10
366.915
 20
287.0000000000036
 30
0.0
 11
366.915
 21
280.0000000000036
 31
0.0
1001
AcDbBlockRepETag
1070
     1
1071
       66
1005
369
  0
LINE
  5
36A
330
29F
100
AcDbEntity
  8
frame
  6
ByBlock
100
AcDbLine
 10
382.0
 20
287.0000000000036
 30
0.0
 11
382.0
 21
280.0000000000036
 31
0.0
1001
AcDbBlockRepETag
1070
     1
1071
       67
1005
36A
  0
LINE
  5
36B
330
29F
100
AcDbEntity
  8
frame
  6
ByBlock
100
AcDbLine
 10
382.085
 20
287.0000000000036
 30
0.0
 11
382.085
 21
280.0000000000036
 31
0.0
1001
AcDbBlockRepETag
1070
     1
1071
       68
1005
36B
  0
LINE
  5
36C
330
29F
100
AcDbEntity
  8
frame
  6
ByBlock
100
AcDbLine
 10
381.915
 20
287.0000000000036
 30
0.0
 11
381.915
 21
280.0000000000036
 31
0.0
1001
AcDbBlockRepETag
1070
     1
1071
       69
1005
36C
  0
LINE
  5
36D
330
29F
100
AcDbEntity
  8
frame
  6
ByBlock
100
AcDbLine
 10
230.0
 20
45.00000000000365
 30
0.0
 11
230.0
 21
38.00000000000364
 31
0.0
1001
AcDbBlockRepETag
1070
     1
1071
       70
1005
36D
  0
LINE
  5
36E
330
29F
100
AcDbEntity
  8
frame
  6
ByBlock
100
AcDbLine
 10
230.085
 20
45.00000000000365
 30
0.0
 11
230.085
 21
38.00000000000364
 31
0.0
1001
AcDbBlockRepETag
1070
     1
1071
       71
1005
36E
  0
LINE
  5
36F
330
29F
100
AcDbEntity
  8
frame
  6
ByBlock
100
AcDbLine
 10
229.915
 20
45.00000000000365
 30
0.0
 11
229.915
 21
38.00000000000364
 31
0.0
1001
AcDbBlockRepETag
1070
     1
1071
       72
1005
36F
  0
LINE
  5
370
330
29F
100
AcDbEntity
  8
frame
  6
ByBlock
100
AcDbLine
 10
280.0
 20
38.00000000000364
 30
0.0
 11
280.0
 21
45.00000000000365
 31
0.0
1001
AcDbBlockRepETag
1070
     1
1071
       73
1005
370
  0
LINE
  5
371
330
29F
100
AcDbEntity
  8
frame
  6
ByBlock
100
AcDbLine
 10
280.085
 20
38.00000000000364
 30
0.0
 11
280.085
 21
45.00000000000365
 31
0.0
1001
AcDbBlockRepETag
1070
     1
1071
       74
1005
371
  0
LINE
  5
372
330
29F
100
AcDbEntity
  8
frame
  6
ByBlock
100
AcDbLine
 10
279.915
 20
38.00000000000364
 30
0.0
 11
279.915
 21
45.00000000000365
 31
0.0
1001
AcDbBlockRepETag
1070
     1
1071
       75
1005
372
  0
LINE
  5
373
330
29F
100
AcDbEntity
  8
frame
  6
ByBlock
100
AcDbLine
 10
308.0
 20
45.00000000000365
 30
0.0
 11
308.0
 21
38.00000000000364
 31
0.0
1001
AcDbBlockRepETag
1070
     1
1071
       76
1005
373
  0
LINE
  5
374
330
29F
100
AcDbEntity
  8
frame
  6
ByBlock
100
AcDbLine
 10
308.085
 20
45.00000000000365
 30
0.0
 11
308.085
 21
38.00000000000364
 31
0.0
1001
AcDbBlockRepETag
1070
     1
1071
       77
1005
374
  0
LINE
  5
375
330
29F
100
AcDbEntity
  8
frame
  6
ByBlock
100
AcDbLine
 10
307.915
 20
45.00000000000365
 30
0.0
 11
307.915
 21
38.00000000000364
 31
0.0
1001
AcDbBlockRepETag
1070
     1
1071
       78
1005
375
  0
LINE
  5
376
330
29F
100
AcDbEntity
  8
frame
  6
ByBlock
100
AcDbLine
 10
315.0
 20
45.00000000000365
 30
0.0
 11
315.0
 21
38.00000000000364
 31
0.0
1001
AcDbBlockRepETag
1070
     1
1071
       79
1005
376
  0
LINE
  5
377
330
29F
100
AcDbEntity
  8
frame
  6
ByBlock
100
AcDbLine
 10
315.0850000000001
 20
45.00000000000365
 30
0.0
 11
315.0850000000001
 21
38.00000000000364
 31
0.0
1001
AcDbBlockRepETag
1070
     1
1071
       80
1005
377
  0
LINE
  5
378
330
29F
100
AcDbEntity
  8
frame
  6
ByBlock
100
AcDbLine
 10
314.915
 20
45.00000000000365
 30
0.0
 11
314.915
 21
38.00000000000364
 31
0.0
1001
AcDbBlockRepETag
1070
     1
1071
       81
1005
378
  0
LINE
  5
379
330
29F
100
AcDbEntity
  8
frame
  6
ByBlock
100
AcDbLine
 10
365.0
 20
45.00000000000365
 30
0.0
 11
365.0
 21
38.00000000000364
 31
0.0
1001
AcDbBlockRepETag
1070
     1
1071
       82
1005
379
  0
LINE
  5
37A
330
29F
100
AcDbEntity
  8
frame
  6
ByBlock
100
AcDbLine
 10
365.0850000000001
 20
45.00000000000365
 30
0.0
 11
365.0850000000001
 21
38.00000000000364
 31
0.0
1001
AcDbBlockRepETag
1070
     1
1071
       83
1005
37A
  0
LINE
  5
37B
330
29F
100
AcDbEntity
  8
frame
  6
ByBlock
100
AcDbLine
 10
364.915
 20
45.00000000000365
 30
0.0
 11
364.915
 21
38.00000000000364
 31
0.0
1001
AcDbBlockRepETag
1070
     1
1071
       84
1005
37B
  0
LINE
  5
37C
330
29F
100
AcDbEntity
  8
frame
  6
ByBlock
100
AcDbLine
 10
222.9999999999991
 20
38.00000000000364
 30
0.0
 11
407.0
 21
38.00000000000364
 31
0.0
1001
AcDbBlockRepETag
1070
     1
1071
       85
1005
37C
  0
LINE
  5
37D
330
29F
100
AcDbEntity
  8
frame
  6
ByBlock
100
AcDbLine
 10
222.9999999999991
 20
37.91500000000269
 30
0.0
 11
407.0
 21
37.91500000000269
 31
0.0
1001
AcDbBlockRepETag
1070
     1
1071
       86
1005
37D
  0
LINE
  5
37E
330
29F
100
AcDbEntity
  8
frame
  6
ByBlock
100
AcDbLine
 10
222.9999999999991
 20
38.08500000000277
 30
0.0
 11
407.0
 21
38.08500000000277
 31
0.0
1001
AcDbBlockRepETag
1070
     1
1071
       87
1005
37E
  0
LINE
  5
37F
330
29F
100
AcDbEntity
  8
frame
  6
ByBlock
100
AcDbLine
 10
222.9999999999991
 20
31.00000000000364
 30
0.0
 11
407.0
 21
31.00000000000364
 31
0.0
1001
AcDbBlockRepETag
1070
     1
1071
       88
1005
37F
  0
LINE
  5
380
330
29F
100
AcDbEntity
  8
frame
  6
ByBlock
100
AcDbLine
 10
222.9999999999991
 20
30.91500000000269
 30
0.0
 11
407.0
 21
30.91500000000269
 31
0.0
1001
AcDbBlockRepETag
1070
     1
1071
       89
1005
380
  0
LINE
  5
381
330
29F
100
AcDbEntity
  8
frame
  6
ByBlock
100
AcDbLine
 10
222.9999999999991
 20
31.08500000000276
 30
0.0
 11
407.0
 21
31.08500000000276
 31
0.0
1001
AcDbBlockRepETag
1070
     1
1071
       90
1005
381
  0
LINE
  5
382
330
29F
100
AcDbEntity
  8
frame
  6
ByBlock
100
AcDbLine
 10
312.5
 20
24.00000000000364
 30
0.0
 11
407.0
 21
24.00000000000364
 31
0.0
1001
AcDbBlockRepETag
1070
     1
1071
       91
1005
382
  0
LINE
  5
383
330
29F
100
AcDbEntity
  8
frame
  6
ByBlock
100
AcDbLine
 10
312.5
 20
23.91500000000269
 30
0.0
 11
407.0
 21
23.91500000000269
 31
0.0
1001
AcDbBlockRepETag
1070
     1
1071
       92
1005
383
  0
LINE
  5
384
330
29F
100
AcDbEntity
  8
frame
  6
ByBlock
100
AcDbLine
 10
312.5
 20
24.08500000000277
 30
0.0
 11
407.0
 21
24.08500000000277
 31
0.0
1001
AcDbBlockRepETag
1070
     1
1071
       93
1005
384
  0
LINE
  5
385
330
29F
100
AcDbEntity
  8
frame
  6
ByBlock
100
AcDbLine
 10
312.5
 20
17.00000000000364
 30
0.0
 11
407.0
 21
17.00000000000364
 31
0.0
1001
AcDbBlockRepETag
1070
     1
1071
       94
1005
385
  0
LINE
  5
386
330
29F
100
AcDbEntity
  8
frame
  6
ByBlock
100
AcDbLine
 10
312.5
 20
16.91500000000269
 30
0.0
 11
407.0
 21
16.91500000000269
 31
0.0
1001
AcDbBlockRepETag
1070
     1
1071
       95
1005
386
  0
LINE
  5
387
330
29F
100
AcDbEntity
  8
frame
  6
ByBlock
100
AcDbLine
 10
312.5
 20
17.08500000000276
 30
0.0
 11
407.0
 21
17.08500000000276
 31
0.0
1001
AcDbBlockRepETag
1070
     1
1071
       96
1005
387
  0
LINE
  5
388
330
29F
100
AcDbEntity
  8
frame
  6
ByBlock
100
AcDbLine
 10
236.0
 20
38.00000000000364
 30
0.0
 11
236.0
 21
31.00000000000364
 31
0.0
1001
AcDbBlockRepETag
1070
     1
1071
       97
1005
388
  0
LINE
  5
389
330
29F
100
AcDbEntity
  8
frame
  6
ByBlock
100
AcDbLine
 10
239.0
 20
31.00000000000364
 30
0.0
 11
239.0
 21
38.00000000000364
 31
0.0
1001
AcDbBlockRepETag
1070
     1
1071
       98
1005
389
  0
LINE
  5
38A
330
29F
100
AcDbEntity
  8
frame
  6
ByBlock
100
AcDbLine
 10
251.0
 20
38.00000000000364
 30
0.0
 11
251.0
 21
31.00000000000364
 31
0.0
1001
AcDbBlockRepETag
1070
     1
1071
       99
1005
38A
  0
LINE
  5
38B
330
29F
100
AcDbEntity
  8
frame
  6
ByBlock
100
AcDbLine
 10
258.0
 20
38.00000000000364
 30
0.0
 11
258.0
 21
31.00000000000364
 31
0.0
1001
AcDbBlockRepETag
1070
     1
1071
      100
1005
38B
  0
LINE
  5
38C
330
29F
100
AcDbEntity
  8
frame
  6
ByBlock
100
AcDbLine
 10
261.0
 20
38.00000000000364
 30
0.0
 11
261.0
 21
31.00000000000364
 31
0.0
1001
AcDbBlockRepETag
1070
     1
1071
      101
1005
38C
  0
LINE
  5
38D
330
29F
100
AcDbEntity
  8
frame
  6
ByBlock
100
AcDbLine
 10
315.5
 20
38.00000000000364
 30
0.0
 11
315.5
 21
10.00000000000364
 31
0.0
1001
AcDbBlockRepETag
1070
     1
1071
      102
1005
38D
  0
LINE
  5
38E
330
29F
100
AcDbEntity
  8
frame
  6
ByBlock
100
AcDbLine
 10
315.585
 20
38.00000000000364
 30
0.0
 11
315.585
 21
10.00000000000364
 31
0.0
1001
AcDbBlockRepETag
1070
     1
1071
      103
1005
38E
  0
LINE
  5
38F
330
29F
100
AcDbEntity
  8
frame
  6
ByBlock
100
AcDbLine
 10
315.415
 20
38.00000000000364
 30
0.0
 11
315.415
 21
10.00000000000364
 31
0.0
1001
AcDbBlockRepETag
1070
     1
1071
      104
1005
38F
  0
LINE
  5
390
330
29F
100
AcDbEntity
  8
frame
  6
ByBlock
100
AcDbLine
 10
312.5
 20
38.00000000000364
 30
0.0
 11
312.5
 21
10.00000000000364
 31
0.0
1001
AcDbBlockRepETag
1070
     1
1071
      105
1005
390
  0
LINE
  5
391
330
29F
100
AcDbEntity
  8
frame
  6
ByBlock
100
AcDbLine
 10
312.585
 20
38.00000000000364
 30
0.0
 11
312.585
 21
10.00000000000364
 31
0.0
1001
AcDbBlockRepETag
1070
     1
1071
      106
1005
391
  0
LINE
  5
392
330
29F
100
AcDbEntity
  8
frame
  6
ByBlock
100
AcDbLine
 10
312.415
 20
38.00000000000364
 30
0.0
 11
312.415
 21
10.00000000000364
 31
0.0
1001
AcDbBlockRepETag
1070
     1
1071
      107
1005
392
  0
LINE
  5
393
330
29F
100
AcDbEntity
  8
frame
  6
ByBlock
100
AcDbLine
 10
209.9999999999991
 20
0.0
 30
0.0
 11
209.9999999999982
 21
10.0
 31
0.0
1001
AcDbBlockRepETag
1070
     1
1071
      108
1005
393
  0
LINE
  5
394
330
29F
100
AcDbEntity
  8
frame
  6
ByBlock
100
AcDbLine
 10
210.159999999999
 20
0.0
 30
0.0
 11
210.159999999999
 21
10.0
 31
0.0
1001
AcDbBlockRepETag
1070
     1
1071
      109
1005
394
  0
LINE
  5
395
330
29F
100
AcDbEntity
  8
frame
  6
ByBlock
100
AcDbLine
 10
209.8399999999992
 20
0.0
 30
0.0
 11
209.8399999999983
 21
10.0
 31
0.0
1001
AcDbBlockRepETag
1070
     1
1071
      110
1005
395
  0
LINE
  5
396
330
29F
100
AcDbEntity
  8
frame
  6
ByBlock
100
AcDbLine
 10
420.0
 20
148.5
 30
0.0
 11
406.9999999999991
 21
148.5
 31
0.0
1001
AcDbBlockRepETag
1070
     1
1071
      111
1005
396
  0
LINE
  5
397
330
29F
100
AcDbEntity
  8
frame
  6
ByBlock
100
AcDbLine
 10
420.0
 20
148.3400000000001
 30
0.0
 11
406.9999999999991
 21
148.3400000000001
 31
0.0
1001
AcDbBlockRepETag
1070
     1
1071
      112
1005
397
  0
LINE
  5
398
330
29F
100
AcDbEntity
  8
frame
  6
ByBlock
100
AcDbLine
 10
420.0
 20
148.6600000000017
 30
0.0
 11
406.9999999999991
 21
148.6600000000017
 31
0.0
1001
AcDbBlockRepETag
1070
     1
1071
      113
1005
398
  0
LINE
  5
399
330
29F
100
AcDbEntity
  8
frame
  6
ByBlock
100
AcDbLine
 10
209.9999999999991
 20
297.0
 30
0.0
 11
209.9999999999991
 21
287.0
 31
0.0
1001
AcDbBlockRepETag
1070
     1
1071
      114
1005
399
  0
LINE
  5
39A
330
29F
100
AcDbEntity
  8
frame
  6
ByBlock
100
AcDbLine
 10
209.8399999999992
 20
297.0
 30
0.0
 11
209.8399999999992
 21
287.0
 31
0.0
1001
AcDbBlockRepETag
1070
     1
1071
      115
1005
39A
  0
LINE
  5
39B
330
29F
100
AcDbEntity
  8
frame
  6
ByBlock
100
AcDbLine
 10
210.159999999999
 20
297.0
 30
0.0
 11
210.159999999999
 21
287.0
 31
0.0
1001
AcDbBlockRepETag
1070
     1
1071
      116
1005
39B
  0
LINE
  5
39C
330
29F
100
AcDbEntity
  8
frame
  6
ByBlock
100
AcDbLine
 10
0.0
 20
148.5
 30
0.0
 11
12.99999999999909
 21
148.5
 31
0.0
1001
AcDbBlockRepETag
1070
     1
1071
      117
1005
39C
  0
LINE
  5
39D
330
29F
100
AcDbEntity
  8
frame
  6
ByBlock
100
AcDbLine
 10
0.0
 20
148.3400000000001
 30
0.0
 11
12.99999999999909
 21
148.3400000000001
 31
0.0
1001
AcDbBlockRepETag
1070
     1
1071
      118
1005
39D
  0
LINE
  5
39E
330
29F
100
AcDbEntity
  8
frame
  6
ByBlock
100
AcDbLine
 10
0.0
 20
148.6600000000017
 30
0.0
 11
12.99999999999909
 21
148.6600000000017
 31
0.0
1001
AcDbBlockRepETag
1070
     1
1071
      119
1005
39E
  0
LWPOLYLINE
  5
39F
330
29F
100
AcDbEntity
  8
frame
  6
ByBlock
100
AcDbPolyline
 90
        3
 70
     0
 43
0.0
 10
407.0
 20
45.00000000000365
 10
222.9999999999991
 20
45.00000000000365
 10
222.9999999999991
 20
10.0
1001
AcDbBlockRepETag
1070
     1
1071
      120
1005
39F
  0
LWPOLYLINE
  5
3A0
330
29F
100
AcDbEntity
  8
frame
  6
ByBlock
100
AcDbPolyline
 90
        3
 70
     0
 43
0.0
 10
407.0
 20
45.08500000000274
 10
222.914999999999
 20
45.08500000000274
 10
222.914999999999
 20
10.0
1001
AcDbBlockRepETag
1070
     1
1071
      121
1005
3A0
  0
LWPOLYLINE
  5
3A1
330
29F
100
AcDbEntity
  8
frame
  6
ByBlock
100
AcDbPolyline
 90
        3
 70
     0
 43
0.0
 10
407.0
 20
44.91500000000269
 10
223.0849999999991
 20
44.91500000000269
 10
223.0849999999991
 20
10.0
1001
AcDbBlockRepETag
1070
     1
1071
      122
1005
3A1
  0
LINE
  5
3A2
330
29F
100
AcDbEntity
  8
frame
  6
ByBlock
100
AcDbLine
 10
222.9999999999991
 20
45.00000000000365
 30
0.0
 11
222.9999999999991
 21
52.00000000000365
 31
0.0
1001
AcDbBlockRepETag
1070
     1
1071
      123
1005
3A2
  0
LWPOLYLINE
  5
3A3
330
29F
100
AcDbEntity
  8
frame
  6
ByBlock
100
AcDbPolyline
 90
        3
 70
     0
 43
0.0
 10
407.0
 20
280.0000000000036
 10
223.0
 20
280.0000000000036
 10
223.0
 20
287.0
1001
AcDbBlockRepETag
1070
     1
1071
      124
1005
3A3
  0
LWPOLYLINE
  5
3A4
330
29F
100
AcDbEntity
  8
frame
  6
ByBlock
100
AcDbPolyline
 90
        3
 70
     0
 43
0.0
 10
407.0
 20
280.0850000000028
 10
223.085
 20
280.0850000000028
 10
223.085
 20
287.0
1001
AcDbBlockRepETag
1070
     1
1071
      125
1005
3A4
  0
LWPOLYLINE
  5
3A5
330
29F
100
AcDbEntity
  8
frame
  6
ByBlock
100
AcDbPolyline
 90
        3
 70
     0
 43
0.0
 10
407.0
 20
279.9150000000027
 10
222.915
 20
279.9150000000027
 10
222.915
 20
287.0
1001
AcDbBlockRepETag
1070
     1
1071
      126
1005
3A5
  0
LWPOLYLINE
  5
3A6
330
29F
100
AcDbEntity
  8
frame
  6
ByBlock
100
AcDbPolyline
 90
        4
 70
     1
 43
0.0
 10
234.5999999999995
 20
32.02453525127749
 10
230.5942130249651
 20
33.21128572090856
 10
230.5942130249651
 20
35.45924095267765
 10
234.5999999999995
 20
36.64599142230509
1001
AcDbBlockRepETag
1070
     1
1071
      127
1005
3A6
  0
LWPOLYLINE
  5
3A7
330
29F
100
AcDbEntity
  8
frame
  6
ByBlock
100
AcDbPolyline
 90
        4
 70
     1
 43
0.0
 10
234.6849999999986
 20
31.9107014793517
 10
230.509213024965
 20
33.14781598009358
 10
230.509213024965
 20
35.52271069349081
 10
234.6849999999986
 20
36.75982519423087
1001
AcDbBlockRepETag
1070
     1
1071
      128
1005
3A7
  0
LWPOLYLINE
  5
3A8
330
29F
100
AcDbEntity
  8
frame
  6
ByBlock
100
AcDbPolyline
 90
        4
 70
     1
 43
0.0
 10
234.5149999999994
 20
32.13836902320327
 10
230.6792130249651
 20
33.27475546172173
 10
230.6792130249651
 20
35.39577121186268
 10
234.5149999999994
 20
36.53215765038112
1001
AcDbBlockRepETag
1070
     1
1071
      129
1005
3A8
  0
CIRCLE
  5
3A9
330
29F
100
AcDbEntity
  8
frame
100
AcDbCircle
 10
226.6985756137892
 20
34.3352633367922
 30
0.0
 40
1.123977615884085
1001
AcDbBlockRepETag
1070
     1
1071
      130
1005
3A9
  0
CIRCLE
  5
3AA
330
29F
100
AcDbEntity
  8
frame
100
AcDbCircle
 10
226.6985756137892
 20
34.3352633367922
 30
0.0
 40
1.208977615884085
1001
AcDbBlockRepETag
1070
     1
1071
      131
1005
3AA
  0
CIRCLE
  5
3AB
330
29F
100
AcDbEntity
  8
frame
100
AcDbCircle
 10
226.6985756137892
 20
34.3352633367922
 30
0.0
 40
1.038977615884085
1001
AcDbBlockRepETag
1070
     1
1071
      132
1005
3AB
  0
CIRCLE
  5
3AC
330
29F
100
AcDbEntity
  8
frame
100
AcDbCircle
 10
226.6985756137892
 20
34.3352633367922
 30
0.0
 40
2.310728085513118
1001
AcDbBlockRepETag
1070
     1
1071
      133
1005
3AC
  0
CIRCLE
  5
3AD
330
29F
100
AcDbEntity
  8
frame
100
AcDbCircle
 10
226.6985756137892
 20
34.3352633367922
 30
0.0
 40
2.395728085513117
1001
AcDbBlockRepETag
1070
     1
1071
      134
1005
3AD
  0
CIRCLE
  5
3AE
330
29F
100
AcDbEntity
  8
frame
100
AcDbCircle
 10
226.6985756137892
 20
34.3352633367922
 30
0.0
 40
2.225728085513118
1001
AcDbBlockRepETag
1070
     1
1071
      135
1005
3AE
  0
LINE
  5
3AF
330
29F
100
AcDbEntity
  8
frame
100
AcDbLine
 10
229.9942130249647
 20
34.3352633367922
 30
0.0
 11
231.9942130249647
 21
34.3352633367922
 31
0.0
1001
AcDbBlockRepETag
1070
     1
1071
      136
1005
3AF
  0
LINE
  5
3B0
330
29F
100
AcDbEntity
  8
frame
100
AcDbLine
 10
232.4942130249647
 20
34.3352633367922
 30
0.0
 11
232.9942130249647
 21
34.3352633367922
 31
0.0
1001
AcDbBlockRepETag
1070
     1
1071
      137
1005
3B0
  0
LINE
  5
3B1
330
29F
100
AcDbEntity
  8
frame
100
AcDbLine
 10
233.4942130249647
 20
34.3352633367922
 30
0.0
 11
235.1999999999998
 21
34.3352633367922
 31
0.0
1001
AcDbBlockRepETag
1070
     1
1071
      138
1005
3B1
  0
LINE
  5
3B2
330
29F
100
AcDbEntity
  8
frame
100
AcDbLine
 10
223.8000000000002
 20
34.3352633367922
 30
0.0
 11
224.9985756137894
 21
34.3352633367922
 31
0.0
1001
AcDbBlockRepETag
1070
     1
1071
      139
1005
3B2
  0
LINE
  5
3B3
330
29F
100
AcDbEntity
  8
frame
100
AcDbLine
 10
225.4985756137894
 20
34.3352633367922
 30
0.0
 11
225.9985756137894
 21
34.3352633367922
 31
0.0
1001
AcDbBlockRepETag
1070
     1
1071
      140
1005
3B3
  0
LINE
  5
3B4
330
29F
100
AcDbEntity
  8
frame
100
AcDbLine
 10
226.4985756137894
 20
34.3352633367922
 30
0.0
 11
229.5971512275782
 21
34.3352633367922
 31
0.0
1001
AcDbBlockRepETag
1070
     1
1071
      141
1005
3B4
  0
LINE
  5
3B5
330
29F
100
AcDbEntity
  8
frame
100
AcDbLine
 10
226.6985756137892
 20
37.23383895058214
 30
0.0
 11
226.6985756137892
 21
36.03526333679293
 31
0.0
1001
AcDbBlockRepETag
1070
     1
1071
      142
1005
3B5
  0
LINE
  5
3B6
330
29F
100
AcDbEntity
  8
frame
100
AcDbLine
 10
226.6985756137892
 20
35.53526333679292
 30
0.0
 11
226.6985756137892
 21
35.03526333679293
 31
0.0
1001
AcDbBlockRepETag
1070
     1
1071
      143
1005
3B6
  0
LINE
  5
3B7
330
29F
100
AcDbEntity
  8
frame
100
AcDbLine
 10
226.6985756137892
 20
34.53526333679292
 30
0.0
 11
226.6985756137892
 21
31.43668772300407
 31
0.0
1001
AcDbBlockRepETag
1070
     1
1071
      144
1005
3B7
  0
LWPOLYLINE
  5
3B8
330
29F
100
AcDbEntity
  8
frame
  6
ByBlock
100
AcDbPolyline
 90
        4
 70
     1
 43
0.0
 10
249.996901273531
 20
20.30329643996447
 10
254.8134257250913
 20
25.11982089152662
 42
0.9999999999997582
 10
253.1737578266884
 20
26.75948878992858
 10
248.3572333751272
 20
21.94296433836826
 42
1.000000000000484
1001
AcDbBlockRepETag
1070
     1
1071
      145
1005
3B8
  0
LWPOLYLINE
  5
3B9
330
29F
100
AcDbEntity
  8
frame
  6
ByBlock
100
AcDbPolyline
 90
        4
 70
     1
 43
0.0
 10
249.9367971971306
 20
20.36340051636398
 10
254.75332164869
 20
25.17992496792613
 42
1.0
 10
253.2338619030888
 20
26.69938471352725
 10
248.4173374515285
 20
21.88286026196875
 42
1.0
1001
AcDbBlockRepETag
1070
     1
1071
      146
1005
3B9
  0
LWPOLYLINE
  5
3BA
330
29F
100
AcDbEntity
  8
frame
  6
ByBlock
100
AcDbPolyline
 90
        4
 70
     1
 43
0.0
 10
250.0570053499323
 20
20.24319236356314
 10
254.8735298014917
 20
25.05971681512529
 42
1.0
 10
253.1136537502871
 20
26.81959286632809
 10
248.2971292987268
 20
22.00306841476959
 42
1.0
1001
AcDbBlockRepETag
1070
     1
1071
      147
1005
3BA
  0
LWPOLYLINE
  5
3BB
330
29F
100
AcDbEntity
  8
frame
  6
ByBlock
100
AcDbPolyline
 90
        6
 70
     1
 43
0.0
 10
233.6579304050829
 20
22.87921870190257
 42
0.5040414943243567
 10
233.8658227433362
 20
23.16016907249468
 10
232.8801784101006
 20
26.38406642075097
 42
0.7399610750323026
 10
232.464393733595
 20
26.38406642075097
 10
231.4787494003613
 20
23.16016907249468
 42
0.5040414943247417
 10
231.6866417386127
 20
22.87921870190257
1001
AcDbBlockRepETag
1070
     1
1071
      148
1005
3BB
  0
LWPOLYLINE
  5
3BC
330
29F
100
AcDbEntity
  8
frame
  6
ByBlock
100
AcDbPolyline
 90
        6
 70
     1
 43
0.0
 10
233.6579304050829
 20
22.79421870190345
 42
0.504041494324358
 10
233.9471086475933
 20
23.18502066739529
 10
232.9614643143577
 20
26.40891801565158
 42
0.7399610750322863
 10
232.3831078293379
 20
26.40891801565158
 10
231.3974634961041
 20
23.18502066739711
 42
0.5040414943247422
 10
231.6866417386127
 20
22.79421870190345
1001
AcDbBlockRepETag
1070
     1
1071
      149
1005
3BC
  0
LWPOLYLINE
  5
3BD
330
29F
100
AcDbEntity
  8
frame
  6
ByBlock
100
AcDbPolyline
 90
        6
 70
     1
 43
0.0
 10
233.6579304050829
 20
22.96421870190352
 42
0.5040414943243489
 10
233.784536839079
 20
23.13531747759407
 10
232.7988925058444
 20
26.35921482584854
 42
0.7399610750322957
 10
232.5456796378521
 20
26.35921482585036
 10
231.5600353046175
 20
23.13531747759407
 42
0.5040414943247367
 10
231.6866417386136
 20
22.96421870190352
1001
AcDbBlockRepETag
1070
     1
1071
      150
1005
3BD
  0
LWPOLYLINE
  5
3BE
330
29F
100
AcDbEntity
  8
frame
  6
ByBlock
100
AcDbPolyline
 90
       26
 70
     1
 43
0.0
 10
234.2359701769792
 20
21.94947136993869
 10
234.944910887607
 20
19.63063079022868
 42
-0.5040414943260745
 10
234.6677211032711
 20
19.25603029610647
 10
234.2664889703992
 20
19.25603029610647
 42
0.4142135623730951
 10
234.1215614341672
 20
19.11110275987448
 10
234.1215614341672
 20
18.53139261494652
 10
238.4693875211242
 20
18.53139261494652
 10
238.4693875211242
 20
19.11110275987448
 42
0.4142135623730951
 10
238.3244599848922
 20
19.25603029610647
 10
237.8281068345032
 20
19.25603029610465
 42
-0.3297505471416469
 10
237.4816196040811
 20
19.5124173596123
 10
234.7242421532091
 20
28.53139261494654
 10
232.363149584633
 20
28.53139261494654
 10
229.6057721337602
 20
19.5124173596123
 42
-0.3297505471416475
 10
229.259284903339
 20
19.25603029610647
 10
228.9041701298192
 20
19.25603029610647
 42
0.4142135623730951
 10
228.7592425935882
 20
19.11110275987448
 10
228.7592425935882
 20
18.53139261494652
 10
231.0780831732973
 20
18.53139261494652
 10
231.0780831732973
 20
19.11110275987448
 42
0.4142135623730951
 10
230.9331556370662
 20
19.25603029610647
 10
230.5789218782566
 20
19.25603029610647
 42
-0.5040414943243619
 10
230.3710295400033
 20
19.53698066669858
 10
231.124279045046
 20
22.00074878264059
 42
-0.329750547139216
 10
231.3321713832993
 20
22.15458102074263
 10
233.9587803926424
 20
22.15458102074444
 42
-0.3297505471401503
1001
AcDbBlockRepETag
1070
     1
1071
      151
1005
3BE
  0
LWPOLYLINE
  5
3BF
330
29F
100
AcDbEntity
  8
frame
  6
ByBlock
100
AcDbPolyline
 90
       26
 70
     1
 43
0.0
 10
234.1546842727221
 20
21.92461977503808
 10
234.8636249833498
 20
19.60577919532625
 42
-0.5040414943260704
 10
234.6677211032711
 20
19.3410302961056
 10
234.2664889703992
 20
19.3410302961056
 42
0.4142135623730974
 10
234.0365614341672
 20
19.11110275987448
 10
234.0365614341672
 20
18.44639261494558
 10
238.5543875211242
 20
18.44639261494558
 10
238.5543875211242
 20
19.11110275987448
 42
0.4142135623730974
 10
238.3244599848922
 20
19.3410302961056
 10
237.8281068345032
 20
19.3410302961056
 42
-0.3297505471416459
 10
237.5629055083382
 20
19.53726895451473
 10
234.7871388445865
 20
28.61639261494565
 10
232.3002528932557
 20
28.61639261494565
 10
229.5244862295031
 20
19.53726895451473
 42
-0.3297505471416504
 10
229.259284903339
 20
19.3410302961056
 10
228.9041701298192
 20
19.3410302961056
 42
0.4142135623730974
 10
228.6742425935881
 20
19.11110275987448
 10
228.6742425935881
 20
18.44639261494558
 10
231.1630831732973
 20
18.44639261494558
 10
231.1630831732973
 20
19.11110275987448
 42
0.4142135623730974
 10
230.9331556370662
 20
19.3410302961056
 10
230.5789218782566
 20
19.3410302961056
 42
-0.5040414943243603
 10
230.4523154442595
 20
19.51212907179615
 10
231.2055649493032
 20
21.97589718773816
 42
-0.3297505471392114
 10
231.3321713832993
 20
22.0695810207435
 10
233.9587803926424
 20
22.0695810207435
 42
-0.3297505471401487
1001
AcDbBlockRepETag
1070
     1
1071
      152
1005
3BF
  0
LWPOLYLINE
  5
3C0
330
29F
100
AcDbEntity
  8
frame
  6
ByBlock
100
AcDbPolyline
 90
       26
 70
     1
 43
0.0
 10
234.3172560812363
 20
21.97432296484112
 10
235.0261967918641
 20
19.65548238512929
 42
-0.5040414943260731
 10
234.6677211032711
 20
19.17103029610553
 10
234.2664889703992
 20
19.17103029610553
 42
0.4142135623730869
 10
234.2065614341673
 20
19.11110275987448
 10
234.2065614341673
 20
18.61639261494565
 10
238.384387521124
 20
18.61639261494565
 10
238.384387521124
 20
19.11110275987448
 42
0.4142135623730869
 10
238.3244599848922
 20
19.17103029610553
 10
237.8281068345032
 20
19.17103029610553
 42
-0.3297505471416466
 10
237.4003336998239
 20
19.48756576471169
 10
234.6613454618319
 20
28.44639261494558
 10
232.4260462760103
 20
28.44639261494558
 10
229.6870580380173
 20
19.48756576471169
 42
-0.3297505471416456
 10
229.259284903339
 20
19.17103029610553
 10
228.9041701298192
 20
19.17103029610553
 42
0.4142135623730869
 10
228.8442425935882
 20
19.11110275987448
 10
228.8442425935882
 20
18.61639261494565
 10
230.9930831732972
 20
18.61639261494565
 10
230.9930831732972
 20
19.11110275987448
 42
0.4142135623730869
 10
230.9331556370662
 20
19.17103029610553
 10
230.5789218782566
 20
19.17103029610553
 42
-0.5040414943243603
 10
230.2897436357461
 20
19.56183226159919
 10
231.0429931407898
 20
22.02560037754119
 42
-0.3297505471392168
 10
231.3321713832993
 20
22.23958102074357
 10
233.9587803926424
 20
22.23958102074357
 42
-0.3297505471401506
1001
AcDbBlockRepETag
1070
     1
1071
      153
1005
3C0
  0
LWPOLYLINE
  5
3C1
330
29F
100
AcDbEntity
  8
frame
  6
ByBlock
100
AcDbPolyline
 90
       26
 70
     1
 43
0.0
 10
245.9329662872642
 20
26.29672794012004
 10
245.8606918689502
 20
28.53139261494654
 10
241.8751846225732
 20
28.53139261494654
 10
237.8896773761962
 20
28.53139261494654
 10
237.8174029578813
 20
26.29672794012004
 42
0.8721984941219423
 10
238.5251335900921
 20
26.17622796726938
 10
238.8149313892036
 20
27.09686812119617
 42
-0.3274643887701543
 10
239.7826145852141
 20
27.80675493378658
 10
239.9911266515583
 20
27.80675493378658
 42
-0.4142135623730951
 10
240.4983730283702
 20
27.29950855697462
 10
240.4983730283684
 20
19.61834913668463
 42
-0.4142135623730951
 10
240.1360541877902
 20
19.25603029610647
 10
239.8461991153272
 20
19.25603029610647
 42
0.4142135623730951
 10
239.7012715790952
 20
19.11110275987448
 10
239.7012715790952
 20
18.53139261494652
 10
241.8751846225732
 20
18.53139261494652
 10
244.0490976660512
 20
18.53139261494652
 10
244.0490976660512
 20
19.11110275987448
 42
0.4142135623730951
 10
243.9041701298202
 20
19.25603029610647
 10
243.6143150573562
 20
19.25603029610465
 42
-0.4142135623730951
 10
243.2519962167762
 20
19.61834913668463
 10
243.2519962167762
 20
27.29950855697462
 42
-0.4142135623730951
 10
243.7592425935882
 20
27.80675493378658
 10
243.9677546599323
 20
27.80675493378658
 42
-0.3274643887701542
 10
244.9354378559428
 20
27.09686812119617
 10
245.2252356550543
 20
26.17622796726938
 42
0.872198494121949
1001
AcDbBlockRepETag
1070
     1
1071
      154
1005
3C1
  0
LWPOLYLINE
  5
3C2
330
29F
100
AcDbEntity
  8
frame
  6
ByBlock
100
AcDbPolyline
 90
       26
 70
     1
 43
0.0
 10
246.0179218658004
 20
26.29947560740584
 10
245.942987209658
 20
28.61639261494565
 10
241.8751846225732
 20
28.61639261494565
 10
237.8073820354875
 20
28.61639261494565
 10
237.7324473793442
 20
26.29947560740584
 42
0.8721984941219334
 10
238.6062116178718
 20
26.15070634092445
 10
238.8960094169834
 20
27.07134649485124
 42
-0.3274643887701552
 10
239.7826145852141
 20
27.72175493378745
 10
239.9911266515583
 20
27.72175493378745
 42
-0.414213562373094
 10
240.4133730283702
 20
27.29950855697462
 10
240.4133730283693
 20
19.61834913668463
 42
-0.4142135623730935
 10
240.1360541877902
 20
19.3410302961056
 10
239.8461991153272
 20
19.3410302961056
 42
0.4142135623730974
 10
239.6162715790952
 20
19.11110275987448
 10
239.6162715790952
 20
18.44639261494558
 10
241.8751846225732
 20
18.44639261494558
 10
244.1340976660513
 20
18.44639261494558
 10
244.1340976660513
 20
19.11110275987448
 42
0.4142135623730974
 10
243.9041701298202
 20
19.3410302961056
 10
243.6143150573562
 20
19.3410302961056
 42
-0.4142135623730935
 10
243.3369962167763
 20
19.61834913668463
 10
243.3369962167763
 20
27.29950855697462
 42
-0.414213562373094
 10
243.7592425935882
 20
27.72175493378745
 10
243.9677546599323
 20
27.72175493378745
 42
-0.3274643887701549
 10
244.8543598281631
 20
27.07134649485124
 10
245.1441576272737
 20
26.15070634092445
 42
0.8721984941219462
1001
AcDbBlockRepETag
1070
     1
1071
      155
1005
3C2
  0
LWPOLYLINE
  5
3C3
330
29F
100
AcDbEntity
  8
frame
  6
ByBlock
100
AcDbPolyline
 90
       26
 70
     1
 43
0.0
 10
245.848010708728
 20
26.29398027283424
 10
245.7783965282424
 20
28.44639261494558
 10
241.8751846225732
 20
28.44639261494558
 10
237.971972716904
 20
28.44639261494558
 10
237.9023585364175
 20
26.29398027283424
 42
0.8721984941219337
 10
238.4440555623123
 20
26.2017495936143
 10
238.7338533614238
 20
27.1223897475411
 42
-0.327464388770155
 10
239.7826145852141
 20
27.89175493378753
 10
239.9911266515583
 20
27.89175493378753
 42
-0.4142135623730959
 10
240.5833730283703
 20
27.29950855697462
 10
240.5833730283684
 20
19.61834913668463
 42
-0.4142135623730962
 10
240.1360541877902
 20
19.17103029610553
 10
239.8461991153272
 20
19.17103029610553
 42
0.4142135623730869
 10
239.7862715790952
 20
19.11110275987448
 10
239.7862715790952
 20
18.61639261494565
 10
241.8751846225732
 20
18.61639261494565
 10
243.9640976660512
 20
18.61639261494565
 10
243.9640976660512
 20
19.11110275987448
 42
0.4142135623730869
 10
243.9041701298202
 20
19.17103029610553
 10
243.6143150573562
 20
19.17103029610553
 42
-0.414213562373096
 10
243.1669962167762
 20
19.61834913668463
 10
243.1669962167762
 20
27.29950855697462
 42
-0.4142135623730959
 10
243.7592425935882
 20
27.89175493378753
 10
243.9677546599323
 20
27.89175493378753
 42
-0.3274643887701536
 10
245.0165158837235
 20
27.1223897475411
 10
245.3063136828341
 20
26.2017495936143
 42
0.8721984941219799
1001
AcDbBlockRepETag
1070
     1
1071
      156
1005
3C3
  0
LWPOLYLINE
  5
3C4
330
29F
100
AcDbEntity
  8
frame
  6
ByBlock
100
AcDbPolyline
 90
       40
 70
     1
 43
0.0
 10
268.6143150573562
 20
19.25603029610647
 42
-0.4142135623730951
 10
268.7592425935882
 20
19.11110275987448
 10
268.7592425935882
 20
18.53139261494652
 10
264.7012715790952
 20
18.53139261494652
 10
264.7012715790952
 20
19.11110275987448
 42
-0.4142135623730951
 10
264.8461991153272
 20
19.25603029610647
 10
265.1360541877912
 20
19.25603029610647
 42
0.4142135623730951
 10
265.4983730283702
 20
19.61834913668463
 10
265.4983730283702
 20
27.59605675325656
 42
0.8769764629942649
 10
265.0709978487421
 20
27.65232176306018
 10
262.6270522492841
 20
18.53139261494652
 10
261.9315323342799
 20
18.53139261494652
 10
259.4764728456794
 20
27.69379936200858
 42
0.8769764629925763
 10
259.0490976660522
 20
27.63753435220315
 10
259.0490976660522
 20
19.47342160045446
 42
0.4142135623730951
 10
259.2664889703992
 20
19.25603029610647
 10
259.4838802747472
 20
19.25603029610647
 42
-0.4142135623730951
 10
259.6288078109792
 20
19.11110275987448
 10
259.6288078109792
 20
18.53139261494652
 10
257.5998223037323
 20
18.53139261494652
 10
257.5998223037323
 20
19.11110275987448
 42
-0.4142135623730951
 10
257.7447498399642
 20
19.25603029610647
 10
258.1070686805442
 20
19.25603029610647
 42
0.4142135623730951
 10
258.3244599848922
 20
19.47342160045446
 10
258.3244599848922
 20
27.5893636294386
 42
0.4142135623730951
 10
258.1070686805442
 20
27.80675493378658
 10
257.7447498399642
 20
27.80675493378658
 42
-0.4142135623730951
 10
257.5998223037323
 20
27.95168247001857
 10
257.5998223037323
 20
28.53139261494654
 10
261.8027208544571
 20
28.53139261494654
 10
262.9695485733801
 20
24.1767322842461
 42
0.7673269879785563
 10
263.3895163239404
 20
24.1767322842461
 10
264.5563440428632
 20
28.53139261494654
 10
268.7592425935882
 20
28.53139261494654
 10
268.7592425935882
 20
27.95168247001857
 42
-0.4142135623730951
 10
268.6143150573562
 20
27.80675493378658
 10
268.3244599848922
 20
27.80675493378658
 42
0.4142135623730951
 10
267.9621411443122
 20
27.44443609320661
 10
267.9621411443122
 20
19.61834913668463
 42
0.4142135623730951
 10
268.3244599848922
 20
19.25603029610647
1001
AcDbBlockRepETag
1070
     1
1071
      157
1005
3C4
  0
LWPOLYLINE
  5
3C5
330
29F
100
AcDbEntity
  8
frame
  6
ByBlock
100
AcDbPolyline
 90
       40
 70
     1
 43
0.0
 10
268.6143150573562
 20
19.3410302961056
 42
-0.4142135623730974
 10
268.8442425935882
 20
19.11110275987448
 10
268.8442425935882
 20
18.44639261494558
 10
264.6162715790952
 20
18.44639261494558
 10
264.6162715790952
 20
19.11110275987448
 42
-0.4142135623730974
 10
264.8461991153272
 20
19.3410302961056
 10
265.1360541877912
 20
19.3410302961056
 42
0.4142135623730935
 10
265.4133730283702
 20
19.61834913668463
 10
265.4133730283702
 20
27.59605675325656
 42
0.8769764629942653
 10
265.1531015439768
 20
27.63032214422674
 10
262.6922750432623
 20
18.44639261494558
 10
261.8663095403017
 20
18.44639261494558
 10
259.3943691504446
 20
27.67179974317333
 42
0.8769764629924258
 10
259.1340976660522
 20
27.63753435220315
 10
259.1340976660522
 20
19.47342160045446
 42
0.4142135623730835
 10
259.2664889703992
 20
19.3410302961056
 10
259.4838802747472
 20
19.3410302961056
 42
-0.4142135623730974
 10
259.7138078109793
 20
19.11110275987448
 10
259.7138078109793
 20
18.44639261494558
 10
257.5148223037321
 20
18.44639261494558
 10
257.5148223037321
 20
19.11110275987448
 42
-0.4142135623730974
 10
257.7447498399642
 20
19.3410302961056
 10
258.1070686805442
 20
19.3410302961056
 42
0.4142135623730913
 10
258.2394599848921
 20
19.47342160045446
 10
258.2394599848921
 20
27.5893636294386
 42
0.4142135623730913
 10
258.1070686805442
 20
27.72175493378745
 10
257.7447498399642
 20
27.72175493378745
 42
-0.4142135623730974
 10
257.5148223037321
 20
27.95168247001857
 10
257.5148223037321
 20
28.61639261494565
 10
261.8679436484354
 20
28.61639261494565
 10
263.0516522686148
 20
24.19873190308135
 42
0.767326987978615
 10
263.3074126287056
 20
24.19873190308135
 10
264.491121248885
 20
28.61639261494565
 10
268.8442425935882
 20
28.61639261494565
 10
268.8442425935882
 20
27.95168247001857
 42
-0.4142135623730974
 10
268.6143150573562
 20
27.72175493378745
 10
268.3244599848922
 20
27.72175493378745
 42
0.4142135623730896
 10
268.0471411443122
 20
27.44443609320661
 10
268.0471411443122
 20
19.61834913668463
 42
0.4142135623730895
 10
268.3244599848922
 20
19.3410302961056
1001
AcDbBlockRepETag
1070
     1
1071
      158
1005
3C5
  0
LWPOLYLINE
  5
3C6
330
29F
100
AcDbEntity
  8
frame
  6
ByBlock
100
AcDbPolyline
 90
       40
 70
     1
 43
0.0
 10
268.6143150573562
 20
19.17103029610553
 42
-0.4142135623730869
 10
268.6742425935881
 20
19.11110275987448
 10
268.6742425935881
 20
18.61639261494565
 10
264.7862715790952
 20
18.61639261494565
 10
264.7862715790952
 20
19.11110275987448
 42
-0.4142135623730869
 10
264.8461991153272
 20
19.17103029610553
 10
265.1360541877912
 20
19.17103029610553
 42
0.4142135623730962
 10
265.5833730283703
 20
19.61834913668463
 10
265.5833730283703
 20
27.59605675325656
 42
0.8769764629943033
 10
264.9888941535073
 20
27.67432138189362
 10
262.561829455306
 20
18.61639261494565
 10
261.996755128258
 20
18.61639261494565
 10
259.5585765409132
 20
27.71579898084202
 42
0.8769764629925827
 10
258.9640976660521
 20
27.63753435220315
 10
258.9640976660521
 20
19.47342160045446
 42
0.4142135623731002
 10
259.2664889703983
 20
19.17103029610553
 10
259.4838802747472
 20
19.17103029610553
 42
-0.4142135623730869
 10
259.5438078109792
 20
19.11110275987448
 10
259.5438078109792
 20
18.61639261494565
 10
257.6848223037323
 20
18.61639261494565
 10
257.6848223037323
 20
19.11110275987448
 42
-0.4142135623730869
 10
257.7447498399642
 20
19.17103029610553
 10
258.1070686805442
 20
19.17103029610553
 42
0.4142135623730966
 10
258.4094599848922
 20
19.47342160045446
 10
258.4094599848922
 20
27.5893636294386
 42
0.4142135623730966
 10
258.1070686805442
 20
27.89175493378753
 10
257.7447498399642
 20
27.89175493378753
 42
-0.4142135623730869
 10
257.6848223037323
 20
27.95168247001857
 10
257.6848223037323
 20
28.44639261494558
 10
261.7374980604791
 20
28.44639261494558
 10
262.8874448781453
 20
24.15473266541268
 42
0.7673269879785485
 10
263.4716200191751
 20
24.15473266541268
 10
264.6215668368413
 20
28.44639261494558
 10
268.6742425935881
 20
28.44639261494558
 10
268.6742425935881
 20
27.95168247001857
 42
-0.4142135623730869
 10
268.6143150573562
 20
27.89175493378753
 10
268.3244599848922
 20
27.89175493378753
 42
0.4142135623730962
 10
267.8771411443122
 20
27.44443609320661
 10
267.8771411443122
 20
19.61834913668463
 42
0.4142135623730985
 10
268.3244599848922
 20
19.17103029610553
1001
AcDbBlockRepETag
1070
     1
1071
      159
1005
3C6
  0
CIRCLE
  5
3C7
330
29F
100
AcDbEntity
  8
frame
100
AcDbCircle
 10
251.6056181890681
 20
23.63139261494507
 30
0.0
 40
5.269566433505018
1001
AcDbBlockRepETag
1070
     1
1071
      160
1005
3C7
  0
CIRCLE
  5
3C8
330
29F
100
AcDbEntity
  8
frame
100
AcDbCircle
 10
251.6056181890681
 20
23.63139261494507
 30
0.0
 40
5.354566433505018
1001
AcDbBlockRepETag
1070
     1
1071
      161
1005
3C8
  0
CIRCLE
  5
3C9
330
29F
100
AcDbEntity
  8
frame
100
AcDbCircle
 10
251.6056181890681
 20
23.63139261494507
 30
0.0
 40
5.184566433505018
1001
AcDbBlockRepETag
1070
     1
1071
      162
1005
3C9
  0
LINE
  5
3CA
330
29F
100
AcDbEntity
  8
frame
  6
ByBlock
100
AcDbLine
 10
222.9999999999991
 20
273.0000000000036
 30
0.0
 11
223.0
 21
280.0000000000036
 31
0.0
1001
AcDbBlockRepETag
1070
     1
1071
      163
1005
3CA
  0
LINE
  5
3CB
330
29F
100
AcDbEntity
  8
frame
  6
ByBlock
100
AcDbLine
 10
222.9999999999991
 20
273.0000000000036
 30
0.0
 11
407.0
 21
273.0000000000036
 31
0.0
1001
AcDbBlockRepETag
1070
     1
1071
      164
1005
3CB
  0
LINE
  5
3CC
330
29F
100
AcDbEntity
  8
frame
  6
ByBlock
100
AcDbLine
 10
367.0
 20
280.0000000000036
 30
0.0
 11
367.0
 21
273.0000000000036
 31
0.0
1001
AcDbBlockRepETag
1070
     1
1071
      165
1005
3CC
  0
LINE
  5
3CD
330
29F
100
AcDbEntity
  8
frame
  6
ByBlock
100
AcDbLine
 10
342.0
 20
280.0000000000036
 30
0.0
 11
342.0
 21
273.0000000000036
 31
0.0
1001
AcDbBlockRepETag
1070
     1
1071
      166
1005
3CD
  0
LINE
  5
3CE
330
29F
100
AcDbEntity
  8
frame
  6
ByBlock
100
AcDbLine
 10
327.0
 20
280.0000000000036
 30
0.0
 11
327.0
 21
273.0000000000036
 31
0.0
1001
AcDbBlockRepETag
1070
     1
1071
      167
1005
3CE
  0
LINE
  5
3CF
330
29F
100
AcDbEntity
  8
frame
  6
ByBlock
100
AcDbLine
 10
230.0
 20
280.0000000000036
 30
0.0
 11
230.0
 21
273.0000000000036
 31
0.0
1001
AcDbBlockRepETag
1070
     1
1071
      168
1005
3CF
  0
LINE
  5
3D0
330
29F
100
AcDbEntity
  8
frame
  6
ByBlock
100
AcDbLine
 10
382.0
 20
280.0000000000036
 30
0.0
 11
382.0
 21
273.0000000000036
 31
0.0
1001
AcDbBlockRepETag
1070
     1
1071
      169
1005
3D0
  0
ATTDEF
  5
3D1
102
{ACAD_XDICTIONARY
360
3D2
102
}
330
29F
100
AcDbEntity
  8
frame
  6
ByBlock
100
AcDbText
 10
226.5
 20
275.0000000000036
 30
0.0
 40
3.0
  1

 41
0.9
  7
ATOM
 72
     1
 11
226.5
 21
276.5000000000036
 31
0.0
100
AcDbAttributeDefinition
  3
改番?
  2
改番
 70
     0
 74
     2
1001
AcDbBlockRepETag
1070
     1
1071
      171
1005
0
1001
AcadAnnotative
1000
AnnotativeData
1002
{
1070
     1
1070
     1
1002
}
1001
AcDbAttr
1070
     0
1070
     1
  0
ATTDEF
  5
3D6
102
{ACAD_XDICTIONARY
360
3D7
102
}
330
29F
100
AcDbEntity
  8
frame
  6
ByBlock
100
AcDbText
 10
278.5
 20
275.0000000000036
 30
0.0
 40
3.0
  1

 41
0.9
  7
ATOM
 72
     1
 11
278.5
 21
276.5000000000036
 31
0.0
100
AcDbAttributeDefinition
  3
改正理由?
  2
改　　　　正　　　　理　　　　由
 70
     0
 74
     2
1001
AcDbBlockRepETag
1070
     1
1071
      170
1005
0
1001
AcadAnnotative
1000
AnnotativeData
1002
{
1070
     1
1070
     1
1002
}
1001
AcDbAttr
1070
     0
1070
     1
  0
ATTDEF
  5
3DB
102
{ACAD_XDICTIONARY
360
3DC
102
}
330
29F
100
AcDbEntity
  8
frame
  6
ByBlock
100
AcDbText
 10
334.5
 20
275.0000000000036
 30
0.0
 40
3.0
  1

 41
0.9
  7
ATOM
 72
     1
 11
334.5
 21
276.5000000000036
 31
0.0
100
AcDbAttributeDefinition
  3
改正承認?
  2
改正承認
 70
     0
 74
     2
1001
AcDbBlockRepETag
1070
     1
1071
      172
1005
0
1001
AcadAnnotative
1000
AnnotativeData
1002
{
1070
     1
1070
     1
1002
}
1001
AcDbAttr
1070
     0
1070
     1
  0
ATTDEF
  5
3E0
102
{ACAD_XDICTIONARY
360
3E1
102
}
330
29F
100
AcDbEntity
  8
frame
  6
ByBlock
100
AcDbText
 10
354.5
 20
275.0000000000036
 30
0.0
 40
3.0
  1

 41
0.9
  7
ATOM
 72
     1
 11
354.5
 21
276.5000000000036
 31
0.0
100
AcDbAttributeDefinition
  3
改正承認日?
  2
改正承認日
 70
     0
 74
     2
1001
AcDbBlockRepETag
1070
     1
1071
      173
1005
0
1001
AcadAnnotative
1000
AnnotativeData
1002
{
1070
     1
1070
     1
1002
}
1001
AcDbAttr
1070
     0
1070
     1
  0
ATTDEF
  5
3E5
102
{ACAD_XDICTIONARY
360
3E6
102
}
330
29F
100
AcDbEntity
  8
frame
  6
ByBlock
100
AcDbText
 10
374.5
 20
275.0000000000036
 30
0.0
 40
3.0
  1

 41
0.9
  7
ATOM
 72
     1
 11
374.5
 21
276.5000000000036
 31
0.0
100
AcDbAttributeDefinition
  3
改正担当?
  2
改正担当
 70
     0
 74
     2
1001
AcDbBlockRepETag
1070
     1
1071
      174
1005
0
1001
AcadAnnotative
1000
AnnotativeData
1002
{
1070
     1
1070
     1
1002
}
1001
AcDbAttr
1070
     0
1070
     1
  0
ATTDEF
  5
3EA
102
{ACAD_XDICTIONARY
360
3EB
102
}
330
29F
100
AcDbEntity
  8
frame
  6
ByBlock
100
AcDbText
 10
394.5
 20
275.0000000000036
 30
0.0
 40
3.0
  1

 41
0.9
  7
ATOM
 72
     1
 11
394.5
 21
276.5000000000036
 31
0.0
100
AcDbAttributeDefinition
  3
改正日?
  2
改正日
 70
     0
 74
     2
1001
AcDbBlockRepETag
1070
     1
1071
      175
1005
0
1001
AcadAnnotative
1000
AnnotativeData
1002
{
1070
     1
1070
     1
1002
}
1001
AcDbAttr
1070
     0
1070
     1
  0
ATTDEF
  5
3EF
102
{ACAD_XDICTIONARY
360
3F0
102
}
330
29F
100
AcDbEntity
  8
frame
  6
ByBlock
100
AcDbText
 10
286.75
 20
32.75000000000364
 30
0.0
 40
3.5
  1

 41
0.9
  7
ATOM
 72
     1
 11
286.75
 21
34.50000000000364
 31
0.0
100
AcDbAttributeDefinition
  3
名称?
  2
名称
 70
     0
 74
     2
1001
AcDbBlockRepETag
1070
     1
1071
      185
1005
0
1001
AcadAnnotative
1000
AnnotativeData
1002
{
1070
     1
1070
     1
1002
}
1001
AcDbAttr
1070
     0
1070
     1
  0
ATTDEF
  5
3F4
102
{ACAD_XDICTIONARY
360
3F5
102
}
330
29F
100
AcDbEntity
  8
frame
  6
ByBlock
100
AcDbText
 10
245.0
 20
32.78589838486551
 30
0.0
 40
3.5
  1

 41
0.9
  7
ATOM
 72
     1
 11
245.0
 21
34.5358983848655
 31
0.0
100
AcDbAttributeDefinition
  3
尺度?
  2
尺度
 70
     0
 74
     2
1001
AcDbBlockRepETag
1070
     1
1071
      184
1005
0
1001
AcadAnnotative
1000
AnnotativeData
1002
{
1070
     1
1070
     1
1002
}
1001
AcDbAttr
1070
     0
1070
     1
  0
ATTDEF
  5
3F9
102
{ACAD_XDICTIONARY
360
3FA
102
}
330
29F
100
AcDbEntity
  8
frame
  6
ByBlock
100
AcDbText
 10
322.25
 20
32.75000000000364
 30
0.0
 40
3.5
  1

 41
0.9
  7
ATOM
 72
     1
 11
322.25
 21
34.50000000000364
 31
0.0
100
AcDbAttributeDefinition
  3
承認?
  2
承認
 70
     0
 74
     2
1001
AcDbBlockRepETag
1070
     1
1071
      182
1005
0
1001
AcadAnnotative
1000
AnnotativeData
1002
{
1070
     1
1070
     1
1002
}
1001
AcDbAttr
1070
     0
1070
     1
  0
ATTDEF
  5
3FE
102
{ACAD_XDICTIONARY
360
3FF
102
}
330
29F
100
AcDbEntity
  8
frame
  6
ByBlock
100
AcDbText
 10
322.25
 20
25.75000000000364
 30
0.0
 40
3.5
  1

 41
0.9
  7
ATOM
 72
     1
 11
322.25
 21
27.50000000000364
 31
0.0
100
AcDbAttributeDefinition
  3
検図?
  2
検図
 70
     0
 74
     2
1001
AcDbBlockRepETag
1070
     1
1071
      183
1005
0
1001
AcadAnnotative
1000
AnnotativeData
1002
{
1070
     1
1070
     1
1002
}
1001
AcDbAttr
1070
     0
1070
     1
  0
ATTDEF
  5
403
102
{ACAD_XDICTIONARY
360
404
102
}
330
29F
100
AcDbEntity
  8
frame
  6
ByBlock
100
AcDbText
 10
322.25
 20
18.75000000000364
 30
0.0
 40
3.5
  1

 41
0.9
  7
ATOM
 72
     1
 11
322.25
 21
20.50000000000364
 31
0.0
100
AcDbAttributeDefinition
  3
設計?
  2
設計
 70
     0
 74
     2
1001
AcDbBlockRepETag
1070
     1
1071
      186
1005
0
1001
AcadAnnotative
1000
AnnotativeData
1002
{
1070
     1
1070
     1
1002
}
1001
AcDbAttr
1070
     0
1070
     1
  0
ATTDEF
  5
408
102
{ACAD_XDICTIONARY
360
409
102
}
330
29F
100
AcDbEntity
  8
frame
  6
ByBlock
100
AcDbText
 10
322.25
 20
11.75000000000363
 30
0.0
 40
3.5
  1

 41
0.9
  7
ATOM
 72
     1
 11
322.25
 21
13.50000000000364
 31
0.0
100
AcDbAttributeDefinition
  3
作図?
  2
作図
 70
     0
 74
     2
1001
AcDbBlockRepETag
1070
     1
1071
      187
1005
0
1001
AcadAnnotative
1000
AnnotativeData
1002
{
1070
     1
1070
     1
1002
}
1001
AcDbAttr
1070
     0
1070
     1
  0
ATTDEF
  5
40D
102
{ACAD_XDICTIONARY
360
40E
102
}
330
29F
100
AcDbEntity
  8
frame
  6
ByBlock
100
AcDbText
 10
340.0
 20
32.75000000000364
 30
0.0
 40
3.5
  1

 41
0.8
  7
ATOM
 72
     1
 11
340.0
 21
34.50000000000364
 31
0.0
100
AcDbAttributeDefinition
  3
承認日?
  2
承認日
 70
     0
 74
     2
1001
AcDbBlockRepETag
1070
     1
1071
      191
1005
0
1001
AcadAnnotative
1000
AnnotativeData
1002
{
1070
     1
1070
     1
1002
}
1001
AcDbAttr
1070
     0
1070
     1
  0
ATTDEF
  5
412
102
{ACAD_XDICTIONARY
360
413
102
}
330
29F
100
AcDbEntity
  8
frame
  6
ByBlock
100
AcDbText
 10
340.0
 20
25.75000000000364
 30
0.0
 40
3.5
  1

 41
0.8
  7
ATOM
 72
     1
 11
340.0
 21
27.50000000000364
 31
0.0
100
AcDbAttributeDefinition
  3
検図日?
  2
検図日
 70
     0
 74
     2
1001
AcDbBlockRepETag
1070
     1
1071
      190
1005
0
1001
AcadAnnotative
1000
AnnotativeData
1002
{
1070
     1
1070
     1
1002
}
1001
AcDbAttr
1070
     0
1070
     1
  0
ATTDEF
  5
417
102
{ACAD_XDICTIONARY
360
418
102
}
330
29F
100
AcDbEntity
  8
frame
  6
ByBlock
100
AcDbText
 10
340.0
 20
18.75000000000364
 30
0.0
 40
3.5
  1

 41
0.8
  7
ATOM
 72
     1
 11
340.0
 21
20.50000000000364
 31
0.0
100
AcDbAttributeDefinition
  3
設計日?
  2
設計日
 70
     0
 74
     2
1001
AcDbBlockRepETag
1070
     1
1071
      189
1005
0
1001
AcadAnnotative
1000
AnnotativeData
1002
{
1070
     1
1070
     1
1002
}
1001
AcDbAttr
1070
     0
1070
     1
  0
ATTDEF
  5
41C
102
{ACAD_XDICTIONARY
360
41D
102
}
330
29F
100
AcDbEntity
  8
frame
  6
ByBlock
100
AcDbText
 10
340.0
 20
11.75000000000363
 30
0.0
 40
3.5
  1

 41
0.8
  7
ATOM
 72
     1
 11
340.0
 21
13.50000000000364
 31
0.0
100
AcDbAttributeDefinition
  3
作図日?
  2
作図日
 70
     0
 74
     2
1001
AcDbBlockRepETag
1070
     1
1071
      188
1005
0
1001
AcadAnnotative
1000
AnnotativeData
1002
{
1070
     1
1070
     1
1002
}
1001
AcDbAttr
1070
     0
1070
     1
  0
ATTDEF
  5
421
102
{ACAD_XDICTIONARY
360
422
102
}
330
29F
100
AcDbEntity
  8
frame
  6
ByBlock
100
AcDbText
 10
380.5
 20
32.75000000000364
 30
0.0
 40
3.5
  1

 41
0.9
  7
ATOM
 72
     1
 11
380.5
 21
34.50000000000364
 31
0.0
100
AcDbAttributeDefinition
  3
品名?
  2
品名
 70
     0
 74
     2
1001
AcDbBlockRepETag
1070
     1
1071
      195
1005
0
1001
AcadAnnotative
1000
AnnotativeData
1002
{
1070
     1
1070
     1
1002
}
1001
AcDbAttr
1070
     0
1070
     1
  0
ATTDEF
  5
426
102
{ACAD_XDICTIONARY
360
427
102
}
330
29F
100
AcDbEntity
  8
frame
  6
ByBlock
100
AcDbText
 10
380.5
 20
25.75000000000364
 30
0.0
 40
3.5
  1

 41
0.9
  7
ATOM
 72
     1
 11
380.5
 21
27.50000000000364
 31
0.0
100
AcDbAttributeDefinition
  3
品番?
  2
品番
 70
     0
 74
     2
1001
AcDbBlockRepETag
1070
     1
1071
      194
1005
0
1001
AcadAnnotative
1000
AnnotativeData
1002
{
1070
     1
1070
     1
1002
}
1001
AcDbAttr
1070
     0
1070
     1
  0
ATTDEF
  5
42B
102
{ACAD_XDICTIONARY
360
42C
102
}
330
29F
100
AcDbEntity
  8
frame
  6
ByBlock
100
AcDbText
 10
380.5
 20
18.75000000000364
 30
0.0
 40
3.5
  1

 41
0.9
  7
ATOM
 72
     1
 11
380.5
 21
20.50000000000364
 31
0.0
100
AcDbAttributeDefinition
  3
図名?
  2
図名
 70
     0
 74
     2
1001
AcDbBlockRepETag
1070
     1
1071
      193
1005
0
1001
AcadAnnotative
1000
AnnotativeData
1002
{
1070
     1
1070
     1
1002
}
1001
AcDbAttr
1070
     0
1070
     1
  0
ATTDEF
  5
430
102
{ACAD_XDICTIONARY
360
431
102
}
330
29F
100
AcDbEntity
  8
frame
  6
ByBlock
100
AcDbText
 10
375.25
 20
11.75000000000182
 30
0.0
 40
3.5
  1

 41
0.9
  7
ATOM
 72
     1
 11
375.25
 21
13.50000000000182
 31
0.0
100
AcDbAttributeDefinition
  3
図番?
  2
図番
 70
     0
 74
     2
1001
AcDbBlockRepETag
1070
     1
1071
      192
1005
0
1001
AcadAnnotative
1000
AnnotativeData
1002
{
1070
     1
1070
     1
1002
}
1001
AcDbAttr
1070
     0
1070
     1
  0
ATTDEF
  5
435
102
{ACAD_XDICTIONARY
360
436
102
}
330
29F
100
AcDbEntity
  8
frame
  6
ByBlock
100
AcDbText
 10
226.5
 20
47.00000000000364
 30
0.0
 40
3.0
  1

 41
0.9
  7
ATOM
 72
     1
 11
226.5
 21
48.50000000000363
 31
0.0
100
AcDbAttributeDefinition
  3
部番?
  2
部番
 70
     0
 74
     2
1001
AcDbBlockRepETag
1070
     1
1071
      181
1005
0
1001
AcadAnnotative
1000
AnnotativeData
1002
{
1070
     1
1070
     1
1002
}
1001
AcDbAttr
1070
     0
1070
     1
  0
ATTDEF
  5
43A
102
{ACAD_XDICTIONARY
360
43B
102
}
330
29F
100
AcDbEntity
  8
frame
  6
ByBlock
100
AcDbText
 10
255.0
 20
47.00000000000364
 30
0.0
 40
3.0
  1

 41
0.9
  7
ATOM
 72
     1
 11
255.0
 21
48.50000000000363
 31
0.0
100
AcDbAttributeDefinition
  3
部品名?
  2
部　　　　品　　　　名
 70
     0
 74
     2
1001
AcadAnnotative
1000
AnnotativeData
1002
{
1070
     1
1070
     1
1002
}
1001
AcDbBlockRepETag
1070
     1
1071
      196
1005
0
1001
AcDbAttr
1070
     0
1070
     1
  0
ATTDEF
  5
43F
102
{ACAD_XDICTIONARY
360
440
102
}
330
29F
100
AcDbEntity
  8
frame
  6
ByBlock
100
AcDbText
 10
294.0
 20
47.00000000000364
 30
0.0
 40
3.0
  1

 41
0.9
  7
ATOM
 72
     1
 11
294.0
 21
48.50000000000363
 31
0.0
100
AcDbAttributeDefinition
  3
材質?
  2
材　　質
 70
     0
 74
     2
1001
AcadAnnotative
1000
AnnotativeData
1002
{
1070
     1
1070
     1
1002
}
1001
AcDbBlockRepETag
1070
     1
1071
      197
1005
0
1001
AcDbAttr
1070
     0
1070
     1
  0
ATTDEF
  5
444
102
{ACAD_XDICTIONARY
360
445
102
}
330
29F
100
AcDbEntity
  8
frame
  6
ByBlock
100
AcDbText
 10
311.5
 20
47.00000000000364
 30
0.0
 40
3.0
  1

 41
0.9
  7
ATOM
 72
     1
 11
311.5
 21
48.50000000000363
 31
0.0
100
AcDbAttributeDefinition
  3
数量?
  2
数量
 70
     0
 74
     2
1001
AcDbBlockRepETag
1070
     1
1071
      178
1005
0
1001
AcadAnnotative
1000
AnnotativeData
1002
{
1070
     1
1070
     1
1002
}
1001
AcDbAttr
1070
     0
1070
     1
  0
ATTDEF
  5
449
102
{ACAD_XDICTIONARY
360
44A
102
}
330
29F
100
AcDbEntity
  8
frame
  6
ByBlock
100
AcDbText
 10
340.0
 20
47.00000000000364
 30
0.0
 40
3.0
  1

 41
0.9
  7
ATOM
 72
     1
 11
340.0
 21
48.50000000000363
 31
0.0
100
AcDbAttributeDefinition
  3
表面処理?
  2
表　　面　　処　　理
 70
     0
 74
     2
1001
AcadAnnotative
1000
AnnotativeData
1002
{
1070
     1
1070
     1
1002
}
1001
AcDbBlockRepETag
1070
     1
1071
      198
1005
0
1001
AcDbAttr
1070
     0
1070
     1
  0
ATTDEF
  5
44E
102
{ACAD_XDICTIONARY
360
44F
102
}
330
29F
100
AcDbEntity
  8
frame
  6
ByBlock
100
AcDbText
 10
386.0
 20
47.00000000000364
 30
0.0
 40
3.0
  1

 41
0.9
  7
ATOM
 72
     1
 11
386.0
 21
48.50000000000363
 31
0.0
100
AcDbAttributeDefinition
  3
備考?
  2
備　　　考
 70
     0
 74
     2
1001
AcadAnnotative
1000
AnnotativeData
1002
{
1070
     1
1070
     1
1002
}
1001
AcDbBlockRepETag
1070
     1
1071
      199
1005
0
1001
AcDbAttr
1070
     0
1070
     1
  0
ENDBLK
  5
453
330
29F
100
AcDbEntity
  8
0
100
AcDbBlockEnd
  0
BLOCK
  5
4D9
330
4D8
100
AcDbEntity
  8
0
100
AcDbBlockBegin
  2
*E44
 70
     3
 10
0.0
 20
0.0
 30
0.0
  3
*E44
  1

  0
LINE
  5
4DB
330
4D8
100
AcDbEntity
  8
frame
  6
ByBlock
100
AcDbLine
 10
329.0
 20
38.00000000000364
 30
0.0
 11
329.0
 21
10.00000000000364
 31
0.0
1001
AcDbBlockRepETag
1070
     1
1071
        0
1005
4DB
  0
LINE
  5
4DC
330
4D8
100
AcDbEntity
  8
frame
  6
ByBlock
100
AcDbLine
 10
354.0
 20
38.00000000000364
 30
0.0
 11
354.0
 21
10.0
 31
0.0
1001
AcDbBlockRepETag
1070
     1
1071
        1
1005
4DC
  0
LINE
  5
4DD
330
4D8
100
AcDbEntity
  8
frame
  6
ByBlock
100
AcDbLine
 10
354.085
 20
38.00000000000364
 30
0.0
 11
354.085
 21
10.0
 31
0.0
1001
AcDbBlockRepETag
1070
     1
1071
        2
1005
4DD
  0
LINE
  5
4DE
330
4D8
100
AcDbEntity
  8
frame
  6
ByBlock
100
AcDbLine
 10
353.915
 20
38.00000000000364
 30
0.0
 11
353.915
 21
10.0
 31
0.0
1001
AcDbBlockRepETag
1070
     1
1071
        3
1005
4DE
  0
LINE
  5
4DF
330
4D8
100
AcDbEntity
  8
frame
  6
ByBlock
100
AcDbLine
 10
351.0
 20
38.00000000000364
 30
0.0
 11
351.0
 21
10.0
 31
0.0
1001
AcDbBlockRepETag
1070
     1
1071
        4
1005
4DF
  0
LINE
  5
4E0
330
4D8
100
AcDbEntity
  8
frame
  6
ByBlock
100
AcDbLine
 10
351.085
 20
38.00000000000364
 30
0.0
 11
351.085
 21
10.0
 31
0.0
1001
AcDbBlockRepETag
1070
     1
1071
        5
1005
4E0
  0
LINE
  5
4E1
330
4D8
100
AcDbEntity
  8
frame
  6
ByBlock
100
AcDbLine
 10
351.1700000000001
 20
38.00000000000364
 30
0.0
 11
351.1700000000001
 21
10.0
 31
0.0
1001
AcDbBlockRepETag
1070
     1
1071
        6
1005
4E1
  0
LINE
  5
4E2
330
4D8
100
AcDbEntity
  8
frame
  6
ByBlock
100
AcDbLine
 10
396.5
 20
10.00000000000364
 30
0.0
 11
396.5
 21
17.00000000000364
 31
0.0
1001
AcDbBlockRepETag
1070
     1
1071
        7
1005
4E2
  0
LINE
  5
4E3
330
4D8
100
AcDbEntity
  8
frame
  6
ByBlock
100
AcDbLine
 10
365.0
 20
52.00000000000365
 30
0.0
 11
365.0
 21
45.00000000000365
 31
0.0
1001
AcDbBlockRepETag
1070
     1
1071
        8
1005
4E3
  0
LINE
  5
4E4
330
4D8
100
AcDbEntity
  8
frame
  6
ByBlock
100
AcDbLine
 10
315.0
 20
52.00000000000365
 30
0.0
 11
315.0
 21
45.00000000000365
 31
0.0
1001
AcDbBlockRepETag
1070
     1
1071
        9
1005
4E4
  0
LINE
  5
4E5
330
4D8
100
AcDbEntity
  8
frame
  6
ByBlock
100
AcDbLine
 10
308.0
 20
52.00000000000365
 30
0.0
 11
308.0
 21
45.00000000000365
 31
0.0
1001
AcDbBlockRepETag
1070
     1
1071
       10
1005
4E5
  0
LINE
  5
4E6
330
4D8
100
AcDbEntity
  8
frame
  6
ByBlock
100
AcDbLine
 10
280.0
 20
52.00000000000365
 30
0.0
 11
280.0
 21
45.00000000000365
 31
0.0
1001
AcDbBlockRepETag
1070
     1
1071
       11
1005
4E6
  0
LINE
  5
4E7
330
4D8
100
AcDbEntity
  8
frame
  6
ByBlock
100
AcDbLine
 10
230.0
 20
52.00000000000365
 30
0.0
 11
230.0
 21
45.00000000000365
 31
0.0
1001
AcDbBlockRepETag
1070
     1
1071
       12
1005
4E7
  0
LINE
  5
4E8
330
4D8
100
AcDbEntity
  8
frame
  6
ByBlock
100
AcDbLine
 10
222.9999999999991
 20
52.00000000000365
 30
0.0
 11
407.0
 21
52.00000000000365
 31
0.0
1001
AcDbBlockRepETag
1070
     1
1071
       13
1005
4E8
  0
TEXT
  5
4E9
330
4D8
100
AcDbEntity
  8
frame
  6
ByBlock
100
AcDbText
 10
225.5592425935882
 20
11.75000000000182
 30
0.0
 40
5.0
  1
アトムリビンテック株式会社
 41
0.6
  7
ATOM
 72
     1
 11
248.7592425935882
 21
14.25000000000182
 31
0.0
100
AcDbText
 73
     2
1001
AcDbBlockRepETag
1070
     1
1071
       14
1005
4E9
  0
TEXT
  5
4EA
330
4D8
100
AcDbEntity
  8
frame
  6
ByBlock
100
AcDbText
 10
275.5
 20
21.5
 30
0.0
 40
4.0
  1
開　発　部
 41
0.9
  7
ATOM
 11
275.5
 21
23.5
 31
0.0
100
AcDbText
 73
     2
1001
AcDbBlockRepETag
1070
     1
1071
       15
1005
4EA
  0
TEXT
  5
4EB
330
4D8
100
AcDbEntity
  8
frame
  6
ByBlock
100
AcDbText
 10
275.5
 20
17.0
 30
0.0
 40
3.0
  1
〒110-8680
 41
0.7
  7
ATOM
 11
275.5
 21
18.5
 31
0.0
100
AcDbText
 73
     2
1001
AcDbBlockRepETag
1070
     1
1071
       16
1005
4EB
  0
TEXT
  5
4EC
330
4D8
100
AcDbEntity
  8
frame
  6
ByBlock
100
AcDbText
 10
275.5
 20
12.5
 30
0.0
 40
3.0
  1
東京都 台東区 入谷 1-27-4
 41
0.65
  7
ATOM
 11
275.5
 21
14.0
 31
0.0
100
AcDbText
 73
     2
1001
AcDbBlockRepETag
1070
     1
1071
       17
1005
4EC
  0
TEXT
  5
4ED
102
{ACAD_XDICTIONARY
360
4EE
102
}
330
4D8
100
AcDbEntity
  8
frame
  6
ByBlock
100
AcDbText
 10
223.62
 20
40.00000000000363
 30
0.0
 40
3.0
  1
部番
 41
0.9
  7
ATOM
 72
     1
 11
226.5
 21
41.50000000000363
 31
0.0
100
AcDbText
 73
     2
1001
AcDbBlockRepETag
1070
     1
1071
       18
1005
4ED
1001
AcadAnnotative
1000
AnnotativeData
1002
{
1070
     1
1070
     0
1002
}
  0
TEXT
  5
4F2
102
{ACAD_XDICTIONARY
360
4F3
102
}
330
4D8
100
AcDbEntity
  8
frame
  6
ByBlock
100
AcDbText
 10
237.63
 20
40.00000000000363
 30
0.0
 40
3.0
  1
部　　　　品　　　　名
 41
0.9
  7
ATOM
 72
     1
 11
255.0
 21
41.50000000000363
 31
0.0
100
AcDbText
 73
     2
1001
AcDbBlockRepETag
1070
     1
1071
       19
1005
4F2
1001
AcadAnnotative
1000
AnnotativeData
1002
{
1070
     1
1070
     0
1002
}
  0
TEXT
  5
4F7
102
{ACAD_XDICTIONARY
360
4F8
102
}
330
4D8
100
AcDbEntity
  8
frame
  6
ByBlock
100
AcDbText
 10
287.88
 20
40.00000000000363
 30
0.0
 40
3.0
  1
材　　質
 41
0.9
  7
ATOM
 72
     1
 11
294.0
 21
41.50000000000363
 31
0.0
100
AcDbText
 73
     2
1001
AcDbBlockRepETag
1070
     1
1071
       20
1005
4F7
1001
AcadAnnotative
1000
AnnotativeData
1002
{
1070
     1
1070
     0
1002
}
  0
TEXT
  5
4FC
102
{ACAD_XDICTIONARY
360
4FD
102
}
330
4D8
100
AcDbEntity
  8
frame
  6
ByBlock
100
AcDbText
 10
308.62
 20
40.00000000000363
 30
0.0
 40
3.0
  1
数量
 41
0.9
  7
ATOM
 72
     1
 11
311.5
 21
41.50000000000363
 31
0.0
100
AcDbText
 73
     2
1001
AcDbBlockRepETag
1070
     1
1071
       21
1005
4FC
1001
AcadAnnotative
1000
AnnotativeData
1002
{
1070
     1
1070
     0
1002
}
  0
TEXT
  5
501
102
{ACAD_XDICTIONARY
360
502
102
}
330
4D8
100
AcDbEntity
  8
frame
  6
ByBlock
100
AcDbText
 10
324.16
 20
40.00000000000363
 30
0.0
 40
3.0
  1
表　　面　　処　　理
 41
0.9
  7
ATOM
 72
     1
 11
340.0
 21
41.50000000000363
 31
0.0
100
AcDbText
 73
     2
1001
AcDbBlockRepETag
1070
     1
1071
       22
1005
501
1001
AcadAnnotative
1000
AnnotativeData
1002
{
1070
     1
1070
     0
1002
}
  0
TEXT
  5
506
102
{ACAD_XDICTIONARY
360
507
102
}
330
4D8
100
AcDbEntity
  8
frame
  6
ByBlock
100
AcDbText
 10
378.26
 20
40.00000000000363
 30
0.0
 40
3.0
  1
備　　　考
 41
0.9
  7
ATOM
 72
     1
 11
386.0
 21
41.50000000000363
 31
0.0
100
AcDbText
 73
     2
1001
AcDbBlockRepETag
1070
     1
1071
       23
1005
506
1001
AcadAnnotative
1000
AnnotativeData
1002
{
1070
     1
1070
     0
1002
}
  0
TEXT
  5
50B
102
{ACAD_XDICTIONARY
360
50C
102
}
330
4D8
100
AcDbEntity
  8
frame
  6
ByBlock
100
AcDbText
 10
390.18
 20
282.0000000000018
 30
0.0
 40
3.0
  1
改正日
 41
0.9
  7
ATOM
 72
     1
 11
394.5
 21
283.5000000000018
 31
0.0
100
AcDbText
 73
     2
1001
AcDbBlockRepETag
1070
     1
1071
       24
1005
50B
1001
AcadAnnotative
1000
AnnotativeData
1002
{
1070
     1
1070
     0
1002
}
  0
TEXT
  5
510
102
{ACAD_XDICTIONARY
360
511
102
}
330
4D8
100
AcDbEntity
  8
frame
  6
ByBlock
100
AcDbText
 10
368.47
 20
282.0000000000018
 30
0.0
 40
3.0
  1
改正担当
 41
0.9
  7
ATOM
 72
     1
 11
374.5
 21
283.5000000000018
 31
0.0
100
AcDbText
 73
     2
1001
AcDbBlockRepETag
1070
     1
1071
       25
1005
510
1001
AcadAnnotative
1000
AnnotativeData
1002
{
1070
     1
1070
     0
1002
}
  0
TEXT
  5
515
102
{ACAD_XDICTIONARY
360
516
102
}
330
4D8
100
AcDbEntity
  8
frame
  6
ByBlock
100
AcDbText
 10
346.94
 20
282.0000000000036
 30
0.0
 40
3.0
  1
改正承認日
 41
0.9
  7
ATOM
 72
     1
 11
354.5
 21
283.5000000000036
 31
0.0
100
AcDbText
 73
     2
1001
AcDbBlockRepETag
1070
     1
1071
       26
1005
515
1001
AcadAnnotative
1000
AnnotativeData
1002
{
1070
     1
1070
     0
1002
}
  0
TEXT
  5
51A
102
{ACAD_XDICTIONARY
360
51B
102
}
330
4D8
100
AcDbEntity
  8
frame
  6
ByBlock
100
AcDbText
 10
328.38
 20
282.0000000000018
 30
0.0
 40
3.0
  1
改正承認
 41
0.9
  7
ATOM
 72
     1
 11
334.5
 21
283.5000000000018
 31
0.0
100
AcDbText
 73
     2
1001
AcDbBlockRepETag
1070
     1
1071
       27
1005
51A
1001
AcadAnnotative
1000
AnnotativeData
1002
{
1070
     1
1070
     0
1002
}
  0
TEXT
  5
51F
102
{ACAD_XDICTIONARY
360
520
102
}
330
4D8
100
AcDbEntity
  8
frame
  6
ByBlock
100
AcDbText
 10
253.03
 20
282.0000000000018
 30
0.0
 40
3.0
  1
改　　　　正　　　　理　　　　由
 41
0.9
  7
ATOM
 72
     1
 11
278.5
 21
283.5000000000018
 31
0.0
100
AcDbText
 73
     2
1001
AcDbBlockRepETag
1070
     1
1071
       28
1005
51F
1001
AcadAnnotative
1000
AnnotativeData
1002
{
1070
     1
1070
     0
1002
}
  0
TEXT
  5
524
102
{ACAD_XDICTIONARY
360
525
102
}
330
4D8
100
AcDbEntity
  8
frame
  6
ByBlock
100
AcDbText
 10
223.62
 20
282.0000000000018
 30
0.0
 40
3.0
  1
改番
 41
0.9
  7
ATOM
 72
     1
 11
226.5
 21
283.5000000000018
 31
0.0
100
AcDbText
 73
     2
1001
AcDbBlockRepETag
1070
     1
1071
       29
1005
524
1001
AcadAnnotative
1000
AnnotativeData
1002
{
1070
     1
1070
     0
1002
}
  0
TEXT
  5
529
102
{ACAD_XDICTIONARY
360
52A
102
}
330
4D8
100
AcDbEntity
  8
frame
  6
ByBlock
100
AcDbText
 10
258.6333333333333
 20
35.00000000000364
 30
0.0
 40
2.5
  1
名
 41
0.8
  7
ATOM
 72
     1
 11
259.5
 21
36.25000000000364
 31
0.0
100
AcDbText
 73
     2
1001
AcDbBlockRepETag
1070
     1
1071
       30
1005
529
1001
AcadAnnotative
1000
AnnotativeData
1002
{
1070
     1
1070
     0
1002
}
  0
TEXT
  5
52E
102
{ACAD_XDICTIONARY
360
52F
102
}
330
4D8
100
AcDbEntity
  8
frame
  6
ByBlock
100
AcDbText
 10
258.5666666666667
 20
31.50000000000364
 30
0.0
 40
2.5
  1
称
 41
0.8
  7
ATOM
 72
     1
 11
259.5
 21
32.75000000000364
 31
0.0
100
AcDbText
 73
     2
1001
AcDbBlockRepETag
1070
     1
1071
       31
1005
52E
1001
AcadAnnotative
1000
AnnotativeData
1002
{
1070
     1
1070
     0
1002
}
  0
TEXT
  5
533
102
{ACAD_XDICTIONARY
360
534
102
}
330
4D8
100
AcDbEntity
  8
frame
  6
ByBlock
100
AcDbText
 10
236.5666666666667
 20
35.00000000000364
 30
0.0
 40
2.5
  1
尺
 41
0.8
  7
ATOM
 72
     1
 11
237.5
 21
36.25000000000364
 31
0.0
100
AcDbText
 73
     2
1001
AcDbBlockRepETag
1070
     1
1071
       32
1005
533
1001
AcadAnnotative
1000
AnnotativeData
1002
{
1070
     1
1070
     0
1002
}
  0
TEXT
  5
538
102
{ACAD_XDICTIONARY
360
539
102
}
330
4D8
100
AcDbEntity
  8
frame
  6
ByBlock
100
AcDbText
 10
236.5666666666667
 20
31.50000000000364
 30
0.0
 40
2.5
  1
度
 41
0.8
  7
ATOM
 72
     1
 11
237.5
 21
32.75000000000364
 31
0.0
100
AcDbText
 73
     2
1001
AcDbBlockRepETag
1070
     1
1071
       33
1005
538
1001
AcadAnnotative
1000
AnnotativeData
1002
{
1070
     1
1070
     0
1002
}
  0
TEXT
  5
53D
102
{ACAD_XDICTIONARY
360
53E
102
}
330
4D8
100
AcDbEntity
  8
frame
  6
ByBlock
100
AcDbText
 10
313.0666666666666
 20
35.00000000000364
 30
0.0
 40
2.5
  1
承
 41
0.8
  7
ATOM
 72
     1
 11
314.0
 21
36.25000000000364
 31
0.0
100
AcDbText
 73
     2
1001
AcDbBlockRepETag
1070
     1
1071
       34
1005
53D
1001
AcadAnnotative
1000
AnnotativeData
1002
{
1070
     1
1070
     0
1002
}
  0
TEXT
  5
542
102
{ACAD_XDICTIONARY
360
543
102
}
330
4D8
100
AcDbEntity
  8
frame
  6
ByBlock
100
AcDbText
 10
313.0666666666666
 20
31.50000000000364
 30
0.0
 40
2.5
  1
認
 41
0.8
  7
ATOM
 72
     1
 11
314.0
 21
32.75000000000364
 31
0.0
100
AcDbText
 73
     2
1001
AcDbBlockRepETag
1070
     1
1071
       35
1005
542
1001
AcadAnnotative
1000
AnnotativeData
1002
{
1070
     1
1070
     0
1002
}
  0
TEXT
  5
547
102
{ACAD_XDICTIONARY
360
548
102
}
330
4D8
100
AcDbEntity
  8
frame
  6
ByBlock
100
AcDbText
 10
313.0666666666666
 20
28.00000000000364
 30
0.0
 40
2.5
  1
検
 41
0.8
  7
ATOM
 72
     1
 11
314.0
 21
29.25000000000364
 31
0.0
100
AcDbText
 73
     2
1001
AcDbBlockRepETag
1070
     1
1071
       36
1005
547
1001
AcadAnnotative
1000
AnnotativeData
1002
{
1070
     1
1070
     0
1002
}
  0
TEXT
  5
54C
102
{ACAD_XDICTIONARY
360
54D
102
}
330
4D8
100
AcDbEntity
  8
frame
  6
ByBlock
100
AcDbText
 10
313.0666666666666
 20
24.50000000000364
 30
0.0
 40
2.5
  1
図
 41
0.8
  7
ATOM
 72
     1
 11
314.0
 21
25.75000000000364
 31
0.0
100
AcDbText
 73
     2
1001
AcDbBlockRepETag
1070
     1
1071
       37
1005
54C
1001
AcadAnnotative
1000
AnnotativeData
1002
{
1070
     1
1070
     0
1002
}
  0
TEXT
  5
551
102
{ACAD_XDICTIONARY
360
552
102
}
330
4D8
100
AcDbEntity
  8
frame
  6
ByBlock
100
AcDbText
 10
313.0666666666666
 20
21.00000000000364
 30
0.0
 40
2.5
  1
設
 41
0.8
  7
ATOM
 72
     1
 11
314.0
 21
22.25000000000364
 31
0.0
100
AcDbText
 73
     2
1001
AcDbBlockRepETag
1070
     1
1071
       38
1005
551
1001
AcadAnnotative
1000
AnnotativeData
1002
{
1070
     1
1070
     0
1002
}
  0
TEXT
  5
556
102
{ACAD_XDICTIONARY
360
557
102
}
330
4D8
100
AcDbEntity
  8
frame
  6
ByBlock
100
AcDbText
 10
313.0666666666666
 20
17.50000000000364
 30
0.0
 40
2.5
  1
計
 41
0.8
  7
ATOM
 72
     1
 11
314.0
 21
18.75000000000364
 31
0.0
100
AcDbText
 73
     2
1001
AcDbBlockRepETag
1070
     1
1071
       39
1005
556
1001
AcadAnnotative
1000
AnnotativeData
1002
{
1070
     1
1070
     0
1002
}
  0
TEXT
  5
55B
102
{ACAD_XDICTIONARY
360
55C
102
}
330
4D8
100
AcDbEntity
  8
frame
  6
ByBlock
100
AcDbText
 10
313.0666666666666
 20
14.00000000000364
 30
0.0
 40
2.5
  1
作
 41
0.8
  7
ATOM
 72
     1
 11
314.0
 21
15.25000000000364
 31
0.0
100
AcDbText
 73
     2
1001
AcDbBlockRepETag
1070
     1
1071
       40
1005
55B
1001
AcadAnnotative
1000
AnnotativeData
1002
{
1070
     1
1070
     0
1002
}
  0
TEXT
  5
560
102
{ACAD_XDICTIONARY
360
561
102
}
330
4D8
100
AcDbEntity
  8
frame
  6
ByBlock
100
AcDbText
 10
313.0666666666666
 20
10.50000000000363
 30
0.0
 40
2.5
  1
図
 41
0.8
  7
ATOM
 72
     1
 11
314.0
 21
11.75000000000363
 31
0.0
100
AcDbText
 73
     2
1001
AcDbBlockRepETag
1070
     1
1071
       41
1005
560
1001
AcadAnnotative
1000
AnnotativeData
1002
{
1070
     1
1070
     0
1002
}
  0
TEXT
  5
565
102
{ACAD_XDICTIONARY
360
566
102
}
330
4D8
100
AcDbEntity
  8
frame
  6
ByBlock
100
AcDbText
 10
351.5666666666667
 20
35.00000000000364
 30
0.0
 40
2.5
  1
品
 41
0.8
  7
ATOM
 72
     1
 11
352.5
 21
36.25000000000364
 31
0.0
100
AcDbText
 73
     2
1001
AcDbBlockRepETag
1070
     1
1071
       42
1005
565
1001
AcadAnnotative
1000
AnnotativeData
1002
{
1070
     1
1070
     0
1002
}
  0
TEXT
  5
56A
102
{ACAD_XDICTIONARY
360
56B
102
}
330
4D8
100
AcDbEntity
  8
frame
  6
ByBlock
100
AcDbText
 10
351.6333333333333
 20
31.50000000000364
 30
0.0
 40
2.5
  1
名
 41
0.8
  7
ATOM
 72
     1
 11
352.5
 21
32.75000000000364
 31
0.0
100
AcDbText
 73
     2
1001
AcDbBlockRepETag
1070
     1
1071
       43
1005
56A
1001
AcadAnnotative
1000
AnnotativeData
1002
{
1070
     1
1070
     0
1002
}
  0
TEXT
  5
56F
102
{ACAD_XDICTIONARY
360
570
102
}
330
4D8
100
AcDbEntity
  8
frame
  6
ByBlock
100
AcDbText
 10
351.5666666666667
 20
28.00000000000364
 30
0.0
 40
2.5
  1
品
 41
0.8
  7
ATOM
 72
     1
 11
352.5
 21
29.25000000000364
 31
0.0
100
AcDbText
 73
     2
1001
AcDbBlockRepETag
1070
     1
1071
       44
1005
56F
1001
AcadAnnotative
1000
AnnotativeData
1002
{
1070
     1
1070
     0
1002
}
  0
TEXT
  5
574
102
{ACAD_XDICTIONARY
360
575
102
}
330
4D8
100
AcDbEntity
  8
frame
  6
ByBlock
100
AcDbText
 10
351.5666666666667
 20
24.50000000000364
 30
0.0
 40
2.5
  1
番
 41
0.8
  7
ATOM
 72
     1
 11
352.5
 21
25.75000000000364
 31
0.0
100
AcDbText
 73
     2
1001
AcDbBlockRepETag
1070
     1
1071
       45
1005
574
1001
AcadAnnotative
1000
AnnotativeData
1002
{
1070
     1
1070
     0
1002
}
  0
TEXT
  5
579
102
{ACAD_XDICTIONARY
360
57A
102
}
330
4D8
100
AcDbEntity
  8
frame
  6
ByBlock
100
AcDbText
 10
351.5666666666667
 20
21.00000000000364
 30
0.0
 40
2.5
  1
図
 41
0.8
  7
ATOM
 72
     1
 11
352.5
 21
22.25000000000364
 31
0.0
100
AcDbText
 73
     2
1001
AcDbBlockRepETag
1070
     1
1071
       46
1005
579
1001
AcadAnnotative
1000
AnnotativeData
1002
{
1070
     1
1070
     0
1002
}
  0
TEXT
  5
57E
102
{ACAD_XDICTIONARY
360
57F
102
}
330
4D8
100
AcDbEntity
  8
frame
  6
ByBlock
100
AcDbText
 10
351.6333333333333
 20
17.50000000000364
 30
0.0
 40
2.5
  1
名
 41
0.8
  7
ATOM
 72
     1
 11
352.5
 21
18.75000000000364
 31
0.0
100
AcDbText
 73
     2
1001
AcDbBlockRepETag
1070
     1
1071
       47
1005
57E
1001
AcadAnnotative
1000
AnnotativeData
1002
{
1070
     1
1070
     0
1002
}
  0
TEXT
  5
583
102
{ACAD_XDICTIONARY
360
584
102
}
330
4D8
100
AcDbEntity
  8
frame
  6
ByBlock
100
AcDbText
 10
351.5666666666667
 20
14.00000000000364
 30
0.0
 40
2.5
  1
図
 41
0.8
  7
ATOM
 72
     1
 11
352.5
 21
15.25000000000364
 31
0.0
100
AcDbText
 73
     2
1001
AcDbBlockRepETag
1070
     1
1071
       48
1005
583
1001
AcadAnnotative
1000
AnnotativeData
1002
{
1070
     1
1070
     0
1002
}
  0
TEXT
  5
588
102
{ACAD_XDICTIONARY
360
589
102
}
330
4D8
100
AcDbEntity
  8
frame
  6
ByBlock
100
AcDbText
 10
351.5666666666667
 20
10.50000000000363
 30
0.0
 40
2.5
  1
番
 41
0.8
  7
ATOM
 72
     1
 11
352.5
 21
11.75000000000363
 31
0.0
100
AcDbText
 73
     2
1001
AcDbBlockRepETag
1070
     1
1071
       49
1005
588
1001
AcadAnnotative
1000
AnnotativeData
1002
{
1070
     1
1070
     0
1002
}
  0
TEXT
  5
58D
102
{ACAD_XDICTIONARY
360
58E
102
}
330
4D8
100
AcDbEntity
  8
frame
  6
ByBlock
100
AcDbText
 10
251.875
 20
32.75000000000364
 30
0.0
 40
3.5
  1
A3
 41
0.9
  7
ATOM
 72
     1
 11
254.5
 21
34.50000000000364
 31
0.0
100
AcDbText
 73
     2
1001
AcDbBlockRepETag
1070
     1
1071
       50
1005
58D
1001
AcadAnnotative
1000
AnnotativeData
1002
{
1070
     1
1070
     0
1002
}
  0
LWPOLYLINE
  5
592
330
4D8
100
AcDbEntity
  8
frame
  6
ByBlock
100
AcDbPolyline
 90
        4
 70
     1
 43
0.0
 10
406.9999999999991
 20
287.0
 10
12.99999999999909
 20
287.0
 10
12.99999999999909
 20
10.0
 10
406.9999999999991
 20
10.0
1001
AcDbBlockRepETag
1070
     1
1071
       51
1005
592
  0
LWPOLYLINE
  5
593
330
4D8
100
AcDbEntity
  8
frame
  6
ByBlock
100
AcDbPolyline
 90
        4
 70
     1
 43
0.0
 10
407.1599999999987
 20
287.1600000000017
 10
12.83999999999923
 20
287.1600000000017
 10
12.83999999999923
 20
9.840000000000143
 10
407.1599999999987
 20
9.840000000000143
1001
AcDbBlockRepETag
1070
     1
1071
       52
1005
593
  0
LWPOLYLINE
  5
594
330
4D8
100
AcDbEntity
  8
frame
  6
ByBlock
100
AcDbPolyline
 90
        4
 70
     1
 43
0.0
 10
406.8399999999991
 20
286.8400000000002
 10
13.15999999999894
 20
286.8400000000002
 10
13.15999999999894
 20
10.16000000000167
 10
406.8399999999991
 20
10.16000000000167
1001
AcDbBlockRepETag
1070
     1
1071
       53
1005
594
  0
LWPOLYLINE
  5
595
330
4D8
100
AcDbEntity
  8
frame
  6
ByBlock
390
84
100
AcDbPolyline
 90
        4
 70
     1
 43
0.0
 10
0.0
 20
0.0
 10
420.0
 20
0.0
 10
420.0
 20
297.0
 10
0.0
 20
297.0
1001
AcDbBlockRepETag
1070
     1
1071
       54
1005
595
  0
LINE
  5
596
330
4D8
100
AcDbEntity
  8
frame
  6
ByBlock
100
AcDbLine
 10
230.0
 20
287.0000000000036
 30
0.0
 11
230.0
 21
280.0000000000036
 31
0.0
1001
AcDbBlockRepETag
1070
     1
1071
       55
1005
596
  0
LINE
  5
597
330
4D8
100
AcDbEntity
  8
frame
  6
ByBlock
100
AcDbLine
 10
230.085
 20
287.0000000000036
 30
0.0
 11
230.085
 21
280.0000000000036
 31
0.0
1001
AcDbBlockRepETag
1070
     1
1071
       56
1005
597
  0
LINE
  5
598
330
4D8
100
AcDbEntity
  8
frame
  6
ByBlock
100
AcDbLine
 10
229.915
 20
287.0000000000036
 30
0.0
 11
229.915
 21
280.0000000000036
 31
0.0
1001
AcDbBlockRepETag
1070
     1
1071
       57
1005
598
  0
LINE
  5
599
330
4D8
100
AcDbEntity
  8
frame
  6
ByBlock
100
AcDbLine
 10
327.0
 20
287.0000000000036
 30
0.0
 11
327.0
 21
280.0000000000036
 31
0.0
1001
AcDbBlockRepETag
1070
     1
1071
       58
1005
599
  0
LINE
  5
59A
330
4D8
100
AcDbEntity
  8
frame
  6
ByBlock
100
AcDbLine
 10
327.085
 20
287.0000000000036
 30
0.0
 11
327.085
 21
280.0000000000036
 31
0.0
1001
AcDbBlockRepETag
1070
     1
1071
       59
1005
59A
  0
LINE
  5
59B
330
4D8
100
AcDbEntity
  8
frame
  6
ByBlock
100
AcDbLine
 10
326.915
 20
287.0000000000036
 30
0.0
 11
326.915
 21
280.0000000000036
 31
0.0
1001
AcDbBlockRepETag
1070
     1
1071
       60
1005
59B
  0
LINE
  5
59C
330
4D8
100
AcDbEntity
  8
frame
  6
ByBlock
100
AcDbLine
 10
342.0
 20
287.0000000000036
 30
0.0
 11
342.0
 21
280.0000000000036
 31
0.0
1001
AcDbBlockRepETag
1070
     1
1071
       61
1005
59C
  0
LINE
  5
59D
330
4D8
100
AcDbEntity
  8
frame
  6
ByBlock
100
AcDbLine
 10
342.0850000000001
 20
287.0000000000036
 30
0.0
 11
342.0850000000001
 21
280.0000000000036
 31
0.0
1001
AcDbBlockRepETag
1070
     1
1071
       62
1005
59D
  0
LINE
  5
59E
330
4D8
100
AcDbEntity
  8
frame
  6
ByBlock
100
AcDbLine
 10
341.915
 20
287.0000000000036
 30
0.0
 11
341.915
 21
280.0000000000036
 31
0.0
1001
AcDbBlockRepETag
1070
     1
1071
       63
1005
59E
  0
LINE
  5
59F
330
4D8
100
AcDbEntity
  8
frame
  6
ByBlock
100
AcDbLine
 10
367.0
 20
287.0000000000036
 30
0.0
 11
367.0
 21
280.0000000000036
 31
0.0
1001
AcDbBlockRepETag
1070
     1
1071
       64
1005
59F
  0
LINE
  5
5A0
330
4D8
100
AcDbEntity
  8
frame
  6
ByBlock
100
AcDbLine
 10
367.0850000000001
 20
287.0000000000036
 30
0.0
 11
367.0850000000001
 21
280.0000000000036
 31
0.0
1001
AcDbBlockRepETag
1070
     1
1071
       65
1005
5A0
  0
LINE
  5
5A1
330
4D8
100
AcDbEntity
  8
frame
  6
ByBlock
100
AcDbLine
 10
366.915
 20
287.0000000000036
 30
0.0
 11
366.915
 21
280.0000000000036
 31
0.0
1001
AcDbBlockRepETag
1070
     1
1071
       66
1005
5A1
  0
LINE
  5
5A2
330
4D8
100
AcDbEntity
  8
frame
  6
ByBlock
100
AcDbLine
 10
382.0
 20
287.0000000000036
 30
0.0
 11
382.0
 21
280.0000000000036
 31
0.0
1001
AcDbBlockRepETag
1070
     1
1071
       67
1005
5A2
  0
LINE
  5
5A3
330
4D8
100
AcDbEntity
  8
frame
  6
ByBlock
100
AcDbLine
 10
382.085
 20
287.0000000000036
 30
0.0
 11
382.085
 21
280.0000000000036
 31
0.0
1001
AcDbBlockRepETag
1070
     1
1071
       68
1005
5A3
  0
LINE
  5
5A4
330
4D8
100
AcDbEntity
  8
frame
  6
ByBlock
100
AcDbLine
 10
381.915
 20
287.0000000000036
 30
0.0
 11
381.915
 21
280.0000000000036
 31
0.0
1001
AcDbBlockRepETag
1070
     1
1071
       69
1005
5A4
  0
LINE
  5
5A5
330
4D8
100
AcDbEntity
  8
frame
  6
ByBlock
100
AcDbLine
 10
230.0
 20
45.00000000000365
 30
0.0
 11
230.0
 21
38.00000000000364
 31
0.0
1001
AcDbBlockRepETag
1070
     1
1071
       70
1005
5A5
  0
LINE
  5
5A6
330
4D8
100
AcDbEntity
  8
frame
  6
ByBlock
100
AcDbLine
 10
230.085
 20
45.00000000000365
 30
0.0
 11
230.085
 21
38.00000000000364
 31
0.0
1001
AcDbBlockRepETag
1070
     1
1071
       71
1005
5A6
  0
LINE
  5
5A7
330
4D8
100
AcDbEntity
  8
frame
  6
ByBlock
100
AcDbLine
 10
229.915
 20
45.00000000000365
 30
0.0
 11
229.915
 21
38.00000000000364
 31
0.0
1001
AcDbBlockRepETag
1070
     1
1071
       72
1005
5A7
  0
LINE
  5
5A8
330
4D8
100
AcDbEntity
  8
frame
  6
ByBlock
100
AcDbLine
 10
280.0
 20
38.00000000000364
 30
0.0
 11
280.0
 21
45.00000000000365
 31
0.0
1001
AcDbBlockRepETag
1070
     1
1071
       73
1005
5A8
  0
LINE
  5
5A9
330
4D8
100
AcDbEntity
  8
frame
  6
ByBlock
100
AcDbLine
 10
280.085
 20
38.00000000000364
 30
0.0
 11
280.085
 21
45.00000000000365
 31
0.0
1001
AcDbBlockRepETag
1070
     1
1071
       74
1005
5A9
  0
LINE
  5
5AA
330
4D8
100
AcDbEntity
  8
frame
  6
ByBlock
100
AcDbLine
 10
279.915
 20
38.00000000000364
 30
0.0
 11
279.915
 21
45.00000000000365
 31
0.0
1001
AcDbBlockRepETag
1070
     1
1071
       75
1005
5AA
  0
LINE
  5
5AB
330
4D8
100
AcDbEntity
  8
frame
  6
ByBlock
100
AcDbLine
 10
308.0
 20
45.00000000000365
 30
0.0
 11
308.0
 21
38.00000000000364
 31
0.0
1001
AcDbBlockRepETag
1070
     1
1071
       76
1005
5AB
  0
LINE
  5
5AC
330
4D8
100
AcDbEntity
  8
frame
  6
ByBlock
100
AcDbLine
 10
308.085
 20
45.00000000000365
 30
0.0
 11
308.085
 21
38.00000000000364
 31
0.0
1001
AcDbBlockRepETag
1070
     1
1071
       77
1005
5AC
  0
LINE
  5
5AD
330
4D8
100
AcDbEntity
  8
frame
  6
ByBlock
100
AcDbLine
 10
307.915
 20
45.00000000000365
 30
0.0
 11
307.915
 21
38.00000000000364
 31
0.0
1001
AcDbBlockRepETag
1070
     1
1071
       78
1005
5AD
  0
LINE
  5
5AE
330
4D8
100
AcDbEntity
  8
frame
  6
ByBlock
100
AcDbLine
 10
315.0
 20
45.00000000000365
 30
0.0
 11
315.0
 21
38.00000000000364
 31
0.0
1001
AcDbBlockRepETag
1070
     1
1071
       79
1005
5AE
  0
LINE
  5
5AF
330
4D8
100
AcDbEntity
  8
frame
  6
ByBlock
100
AcDbLine
 10
315.0850000000001
 20
45.00000000000365
 30
0.0
 11
315.0850000000001
 21
38.00000000000364
 31
0.0
1001
AcDbBlockRepETag
1070
     1
1071
       80
1005
5AF
  0
LINE
  5
5B0
330
4D8
100
AcDbEntity
  8
frame
  6
ByBlock
100
AcDbLine
 10
314.915
 20
45.00000000000365
 30
0.0
 11
314.915
 21
38.00000000000364
 31
0.0
1001
AcDbBlockRepETag
1070
     1
1071
       81
1005
5B0
  0
LINE
  5
5B1
330
4D8
100
AcDbEntity
  8
frame
  6
ByBlock
100
AcDbLine
 10
365.0
 20
45.00000000000365
 30
0.0
 11
365.0
 21
38.00000000000364
 31
0.0
1001
AcDbBlockRepETag
1070
     1
1071
       82
1005
5B1
  0
LINE
  5
5B2
330
4D8
100
AcDbEntity
  8
frame
  6
ByBlock
100
AcDbLine
 10
365.0850000000001
 20
45.00000000000365
 30
0.0
 11
365.0850000000001
 21
38.00000000000364
 31
0.0
1001
AcDbBlockRepETag
1070
     1
1071
       83
1005
5B2
  0
LINE
  5
5B3
330
4D8
100
AcDbEntity
  8
frame
  6
ByBlock
100
AcDbLine
 10
364.915
 20
45.00000000000365
 30
0.0
 11
364.915
 21
38.00000000000364
 31
0.0
1001
AcDbBlockRepETag
1070
     1
1071
       84
1005
5B3
  0
LINE
  5
5B4
330
4D8
100
AcDbEntity
  8
frame
  6
ByBlock
100
AcDbLine
 10
222.9999999999991
 20
38.00000000000364
 30
0.0
 11
407.0
 21
38.00000000000364
 31
0.0
1001
AcDbBlockRepETag
1070
     1
1071
       85
1005
5B4
  0
LINE
  5
5B5
330
4D8
100
AcDbEntity
  8
frame
  6
ByBlock
100
AcDbLine
 10
222.9999999999991
 20
37.91500000000269
 30
0.0
 11
407.0
 21
37.91500000000269
 31
0.0
1001
AcDbBlockRepETag
1070
     1
1071
       86
1005
5B5
  0
LINE
  5
5B6
330
4D8
100
AcDbEntity
  8
frame
  6
ByBlock
100
AcDbLine
 10
222.9999999999991
 20
38.08500000000277
 30
0.0
 11
407.0
 21
38.08500000000277
 31
0.0
1001
AcDbBlockRepETag
1070
     1
1071
       87
1005
5B6
  0
LINE
  5
5B7
330
4D8
100
AcDbEntity
  8
frame
  6
ByBlock
100
AcDbLine
 10
222.9999999999991
 20
31.00000000000364
 30
0.0
 11
407.0
 21
31.00000000000364
 31
0.0
1001
AcDbBlockRepETag
1070
     1
1071
       88
1005
5B7
  0
LINE
  5
5B8
330
4D8
100
AcDbEntity
  8
frame
  6
ByBlock
100
AcDbLine
 10
222.9999999999991
 20
30.91500000000269
 30
0.0
 11
407.0
 21
30.91500000000269
 31
0.0
1001
AcDbBlockRepETag
1070
     1
1071
       89
1005
5B8
  0
LINE
  5
5B9
330
4D8
100
AcDbEntity
  8
frame
  6
ByBlock
100
AcDbLine
 10
222.9999999999991
 20
31.08500000000276
 30
0.0
 11
407.0
 21
31.08500000000276
 31
0.0
1001
AcDbBlockRepETag
1070
     1
1071
       90
1005
5B9
  0
LINE
  5
5BA
330
4D8
100
AcDbEntity
  8
frame
  6
ByBlock
100
AcDbLine
 10
312.5
 20
24.00000000000364
 30
0.0
 11
407.0
 21
24.00000000000364
 31
0.0
1001
AcDbBlockRepETag
1070
     1
1071
       91
1005
5BA
  0
LINE
  5
5BB
330
4D8
100
AcDbEntity
  8
frame
  6
ByBlock
100
AcDbLine
 10
312.5
 20
23.91500000000269
 30
0.0
 11
407.0
 21
23.91500000000269
 31
0.0
1001
AcDbBlockRepETag
1070
     1
1071
       92
1005
5BB
  0
LINE
  5
5BC
330
4D8
100
AcDbEntity
  8
frame
  6
ByBlock
100
AcDbLine
 10
312.5
 20
24.08500000000277
 30
0.0
 11
407.0
 21
24.08500000000277
 31
0.0
1001
AcDbBlockRepETag
1070
     1
1071
       93
1005
5BC
  0
LINE
  5
5BD
330
4D8
100
AcDbEntity
  8
frame
  6
ByBlock
100
AcDbLine
 10
312.5
 20
17.00000000000364
 30
0.0
 11
407.0
 21
17.00000000000364
 31
0.0
1001
AcDbBlockRepETag
1070
     1
1071
       94
1005
5BD
  0
LINE
  5
5BE
330
4D8
100
AcDbEntity
  8
frame
  6
ByBlock
100
AcDbLine
 10
312.5
 20
16.91500000000269
 30
0.0
 11
407.0
 21
16.91500000000269
 31
0.0
1001
AcDbBlockRepETag
1070
     1
1071
       95
1005
5BE
  0
LINE
  5
5BF
330
4D8
100
AcDbEntity
  8
frame
  6
ByBlock
100
AcDbLine
 10
312.5
 20
17.08500000000276
 30
0.0
 11
407.0
 21
17.08500000000276
 31
0.0
1001
AcDbBlockRepETag
1070
     1
1071
       96
1005
5BF
  0
LINE
  5
5C0
330
4D8
100
AcDbEntity
  8
frame
  6
ByBlock
100
AcDbLine
 10
236.0
 20
38.00000000000364
 30
0.0
 11
236.0
 21
31.00000000000364
 31
0.0
1001
AcDbBlockRepETag
1070
     1
1071
       97
1005
5C0
  0
LINE
  5
5C1
330
4D8
100
AcDbEntity
  8
frame
  6
ByBlock
100
AcDbLine
 10
239.0
 20
31.00000000000364
 30
0.0
 11
239.0
 21
38.00000000000364
 31
0.0
1001
AcDbBlockRepETag
1070
     1
1071
       98
1005
5C1
  0
LINE
  5
5C2
330
4D8
100
AcDbEntity
  8
frame
  6
ByBlock
100
AcDbLine
 10
251.0
 20
38.00000000000364
 30
0.0
 11
251.0
 21
31.00000000000364
 31
0.0
1001
AcDbBlockRepETag
1070
     1
1071
       99
1005
5C2
  0
LINE
  5
5C3
330
4D8
100
AcDbEntity
  8
frame
  6
ByBlock
100
AcDbLine
 10
258.0
 20
38.00000000000364
 30
0.0
 11
258.0
 21
31.00000000000364
 31
0.0
1001
AcDbBlockRepETag
1070
     1
1071
      100
1005
5C3
  0
LINE
  5
5C4
330
4D8
100
AcDbEntity
  8
frame
  6
ByBlock
100
AcDbLine
 10
261.0
 20
38.00000000000364
 30
0.0
 11
261.0
 21
31.00000000000364
 31
0.0
1001
AcDbBlockRepETag
1070
     1
1071
      101
1005
5C4
  0
LINE
  5
5C5
330
4D8
100
AcDbEntity
  8
frame
  6
ByBlock
100
AcDbLine
 10
315.5
 20
38.00000000000364
 30
0.0
 11
315.5
 21
10.00000000000364
 31
0.0
1001
AcDbBlockRepETag
1070
     1
1071
      102
1005
5C5
  0
LINE
  5
5C6
330
4D8
100
AcDbEntity
  8
frame
  6
ByBlock
100
AcDbLine
 10
315.585
 20
38.00000000000364
 30
0.0
 11
315.585
 21
10.00000000000364
 31
0.0
1001
AcDbBlockRepETag
1070
     1
1071
      103
1005
5C6
  0
LINE
  5
5C7
330
4D8
100
AcDbEntity
  8
frame
  6
ByBlock
100
AcDbLine
 10
315.415
 20
38.00000000000364
 30
0.0
 11
315.415
 21
10.00000000000364
 31
0.0
1001
AcDbBlockRepETag
1070
     1
1071
      104
1005
5C7
  0
LINE
  5
5C8
330
4D8
100
AcDbEntity
  8
frame
  6
ByBlock
100
AcDbLine
 10
312.5
 20
38.00000000000364
 30
0.0
 11
312.5
 21
10.00000000000364
 31
0.0
1001
AcDbBlockRepETag
1070
     1
1071
      105
1005
5C8
  0
LINE
  5
5C9
330
4D8
100
AcDbEntity
  8
frame
  6
ByBlock
100
AcDbLine
 10
312.585
 20
38.00000000000364
 30
0.0
 11
312.585
 21
10.00000000000364
 31
0.0
1001
AcDbBlockRepETag
1070
     1
1071
      106
1005
5C9
  0
LINE
  5
5CA
330
4D8
100
AcDbEntity
  8
frame
  6
ByBlock
100
AcDbLine
 10
312.415
 20
38.00000000000364
 30
0.0
 11
312.415
 21
10.00000000000364
 31
0.0
1001
AcDbBlockRepETag
1070
     1
1071
      107
1005
5CA
  0
LINE
  5
5CB
330
4D8
100
AcDbEntity
  8
frame
  6
ByBlock
100
AcDbLine
 10
209.9999999999991
 20
0.0
 30
0.0
 11
209.9999999999982
 21
10.0
 31
0.0
1001
AcDbBlockRepETag
1070
     1
1071
      108
1005
5CB
  0
LINE
  5
5CC
330
4D8
100
AcDbEntity
  8
frame
  6
ByBlock
100
AcDbLine
 10
210.159999999999
 20
0.0
 30
0.0
 11
210.159999999999
 21
10.0
 31
0.0
1001
AcDbBlockRepETag
1070
     1
1071
      109
1005
5CC
  0
LINE
  5
5CD
330
4D8
100
AcDbEntity
  8
frame
  6
ByBlock
100
AcDbLine
 10
209.8399999999992
 20
0.0
 30
0.0
 11
209.8399999999983
 21
10.0
 31
0.0
1001
AcDbBlockRepETag
1070
     1
1071
      110
1005
5CD
  0
LINE
  5
5CE
330
4D8
100
AcDbEntity
  8
frame
  6
ByBlock
100
AcDbLine
 10
420.0
 20
148.5
 30
0.0
 11
406.9999999999991
 21
148.5
 31
0.0
1001
AcDbBlockRepETag
1070
     1
1071
      111
1005
5CE
  0
LINE
  5
5CF
330
4D8
100
AcDbEntity
  8
frame
  6
ByBlock
100
AcDbLine
 10
420.0
 20
148.3400000000001
 30
0.0
 11
406.9999999999991
 21
148.3400000000001
 31
0.0
1001
AcDbBlockRepETag
1070
     1
1071
      112
1005
5CF
  0
LINE
  5
5D0
330
4D8
100
AcDbEntity
  8
frame
  6
ByBlock
100
AcDbLine
 10
420.0
 20
148.6600000000017
 30
0.0
 11
406.9999999999991
 21
148.6600000000017
 31
0.0
1001
AcDbBlockRepETag
1070
     1
1071
      113
1005
5D0
  0
LINE
  5
5D1
330
4D8
100
AcDbEntity
  8
frame
  6
ByBlock
100
AcDbLine
 10
209.9999999999991
 20
297.0
 30
0.0
 11
209.9999999999991
 21
287.0
 31
0.0
1001
AcDbBlockRepETag
1070
     1
1071
      114
1005
5D1
  0
LINE
  5
5D2
330
4D8
100
AcDbEntity
  8
frame
  6
ByBlock
100
AcDbLine
 10
209.8399999999992
 20
297.0
 30
0.0
 11
209.8399999999992
 21
287.0
 31
0.0
1001
AcDbBlockRepETag
1070
     1
1071
      115
1005
5D2
  0
LINE
  5
5D3
330
4D8
100
AcDbEntity
  8
frame
  6
ByBlock
100
AcDbLine
 10
210.159999999999
 20
297.0
 30
0.0
 11
210.159999999999
 21
287.0
 31
0.0
1001
AcDbBlockRepETag
1070
     1
1071
      116
1005
5D3
  0
LINE
  5
5D4
330
4D8
100
AcDbEntity
  8
frame
  6
ByBlock
100
AcDbLine
 10
0.0
 20
148.5
 30
0.0
 11
12.99999999999909
 21
148.5
 31
0.0
1001
AcDbBlockRepETag
1070
     1
1071
      117
1005
5D4
  0
LINE
  5
5D5
330
4D8
100
AcDbEntity
  8
frame
  6
ByBlock
100
AcDbLine
 10
0.0
 20
148.3400000000001
 30
0.0
 11
12.99999999999909
 21
148.3400000000001
 31
0.0
1001
AcDbBlockRepETag
1070
     1
1071
      118
1005
5D5
  0
LINE
  5
5D6
330
4D8
100
AcDbEntity
  8
frame
  6
ByBlock
100
AcDbLine
 10
0.0
 20
148.6600000000017
 30
0.0
 11
12.99999999999909
 21
148.6600000000017
 31
0.0
1001
AcDbBlockRepETag
1070
     1
1071
      119
1005
5D6
  0
LWPOLYLINE
  5
5D7
330
4D8
100
AcDbEntity
  8
frame
  6
ByBlock
100
AcDbPolyline
 90
        3
 70
     0
 43
0.0
 10
407.0
 20
45.00000000000365
 10
222.9999999999991
 20
45.00000000000365
 10
222.9999999999991
 20
10.0
1001
AcDbBlockRepETag
1070
     1
1071
      120
1005
5D7
  0
LWPOLYLINE
  5
5D8
330
4D8
100
AcDbEntity
  8
frame
  6
ByBlock
100
AcDbPolyline
 90
        3
 70
     0
 43
0.0
 10
407.0
 20
45.08500000000274
 10
222.914999999999
 20
45.08500000000274
 10
222.914999999999
 20
10.0
1001
AcDbBlockRepETag
1070
     1
1071
      121
1005
5D8
  0
LWPOLYLINE
  5
5D9
330
4D8
100
AcDbEntity
  8
frame
  6
ByBlock
100
AcDbPolyline
 90
        3
 70
     0
 43
0.0
 10
407.0
 20
44.91500000000269
 10
223.0849999999991
 20
44.91500000000269
 10
223.0849999999991
 20
10.0
1001
AcDbBlockRepETag
1070
     1
1071
      122
1005
5D9
  0
LINE
  5
5DA
330
4D8
100
AcDbEntity
  8
frame
  6
ByBlock
100
AcDbLine
 10
222.9999999999991
 20
45.00000000000365
 30
0.0
 11
222.9999999999991
 21
52.00000000000365
 31
0.0
1001
AcDbBlockRepETag
1070
     1
1071
      123
1005
5DA
  0
LWPOLYLINE
  5
5DB
330
4D8
100
AcDbEntity
  8
frame
  6
ByBlock
100
AcDbPolyline
 90
        3
 70
     0
 43
0.0
 10
407.0
 20
280.0000000000036
 10
223.0
 20
280.0000000000036
 10
223.0
 20
287.0
1001
AcDbBlockRepETag
1070
     1
1071
      124
1005
5DB
  0
LWPOLYLINE
  5
5DC
330
4D8
100
AcDbEntity
  8
frame
  6
ByBlock
100
AcDbPolyline
 90
        3
 70
     0
 43
0.0
 10
407.0
 20
280.0850000000028
 10
223.085
 20
280.0850000000028
 10
223.085
 20
287.0
1001
AcDbBlockRepETag
1070
     1
1071
      125
1005
5DC
  0
LWPOLYLINE
  5
5DD
330
4D8
100
AcDbEntity
  8
frame
  6
ByBlock
100
AcDbPolyline
 90
        3
 70
     0
 43
0.0
 10
407.0
 20
279.9150000000027
 10
222.915
 20
279.9150000000027
 10
222.915
 20
287.0
1001
AcDbBlockRepETag
1070
     1
1071
      126
1005
5DD
  0
LWPOLYLINE
  5
5DE
330
4D8
100
AcDbEntity
  8
frame
  6
ByBlock
100
AcDbPolyline
 90
        4
 70
     1
 43
0.0
 10
234.5999999999995
 20
32.02453525127749
 10
230.5942130249651
 20
33.21128572090856
 10
230.5942130249651
 20
35.45924095267765
 10
234.5999999999995
 20
36.64599142230509
1001
AcDbBlockRepETag
1070
     1
1071
      127
1005
5DE
  0
LWPOLYLINE
  5
5DF
330
4D8
100
AcDbEntity
  8
frame
  6
ByBlock
100
AcDbPolyline
 90
        4
 70
     1
 43
0.0
 10
234.6849999999986
 20
31.9107014793517
 10
230.509213024965
 20
33.14781598009358
 10
230.509213024965
 20
35.52271069349081
 10
234.6849999999986
 20
36.75982519423087
1001
AcDbBlockRepETag
1070
     1
1071
      128
1005
5DF
  0
LWPOLYLINE
  5
5E0
330
4D8
100
AcDbEntity
  8
frame
  6
ByBlock
100
AcDbPolyline
 90
        4
 70
     1
 43
0.0
 10
234.5149999999994
 20
32.13836902320327
 10
230.6792130249651
 20
33.27475546172173
 10
230.6792130249651
 20
35.39577121186268
 10
234.5149999999994
 20
36.53215765038112
1001
AcDbBlockRepETag
1070
     1
1071
      129
1005
5E0
  0
CIRCLE
  5
5E1
330
4D8
100
AcDbEntity
  8
frame
100
AcDbCircle
 10
226.6985756137892
 20
34.3352633367922
 30
0.0
 40
1.123977615884085
1001
AcDbBlockRepETag
1070
     1
1071
      130
1005
5E1
  0
CIRCLE
  5
5E2
330
4D8
100
AcDbEntity
  8
frame
100
AcDbCircle
 10
226.6985756137892
 20
34.3352633367922
 30
0.0
 40
1.208977615884085
1001
AcDbBlockRepETag
1070
     1
1071
      131
1005
5E2
  0
CIRCLE
  5
5E3
330
4D8
100
AcDbEntity
  8
frame
100
AcDbCircle
 10
226.6985756137892
 20
34.3352633367922
 30
0.0
 40
1.038977615884085
1001
AcDbBlockRepETag
1070
     1
1071
      132
1005
5E3
  0
CIRCLE
  5
5E4
330
4D8
100
AcDbEntity
  8
frame
100
AcDbCircle
 10
226.6985756137892
 20
34.3352633367922
 30
0.0
 40
2.310728085513118
1001
AcDbBlockRepETag
1070
     1
1071
      133
1005
5E4
  0
CIRCLE
  5
5E5
330
4D8
100
AcDbEntity
  8
frame
100
AcDbCircle
 10
226.6985756137892
 20
34.3352633367922
 30
0.0
 40
2.395728085513117
1001
AcDbBlockRepETag
1070
     1
1071
      134
1005
5E5
  0
CIRCLE
  5
5E6
330
4D8
100
AcDbEntity
  8
frame
100
AcDbCircle
 10
226.6985756137892
 20
34.3352633367922
 30
0.0
 40
2.225728085513118
1001
AcDbBlockRepETag
1070
     1
1071
      135
1005
5E6
  0
LINE
  5
5E7
330
4D8
100
AcDbEntity
  8
frame
100
AcDbLine
 10
229.9942130249647
 20
34.3352633367922
 30
0.0
 11
231.9942130249647
 21
34.3352633367922
 31
0.0
1001
AcDbBlockRepETag
1070
     1
1071
      136
1005
5E7
  0
LINE
  5
5E8
330
4D8
100
AcDbEntity
  8
frame
100
AcDbLine
 10
232.4942130249647
 20
34.3352633367922
 30
0.0
 11
232.9942130249647
 21
34.3352633367922
 31
0.0
1001
AcDbBlockRepETag
1070
     1
1071
      137
1005
5E8
  0
LINE
  5
5E9
330
4D8
100
AcDbEntity
  8
frame
100
AcDbLine
 10
233.4942130249647
 20
34.3352633367922
 30
0.0
 11
235.1999999999998
 21
34.3352633367922
 31
0.0
1001
AcDbBlockRepETag
1070
     1
1071
      138
1005
5E9
  0
LINE
  5
5EA
330
4D8
100
AcDbEntity
  8
frame
100
AcDbLine
 10
223.8000000000002
 20
34.3352633367922
 30
0.0
 11
224.9985756137894
 21
34.3352633367922
 31
0.0
1001
AcDbBlockRepETag
1070
     1
1071
      139
1005
5EA
  0
LINE
  5
5EB
330
4D8
100
AcDbEntity
  8
frame
100
AcDbLine
 10
225.4985756137894
 20
34.3352633367922
 30
0.0
 11
225.9985756137894
 21
34.3352633367922
 31
0.0
1001
AcDbBlockRepETag
1070
     1
1071
      140
1005
5EB
  0
LINE
  5
5EC
330
4D8
100
AcDbEntity
  8
frame
100
AcDbLine
 10
226.4985756137894
 20
34.3352633367922
 30
0.0
 11
229.5971512275782
 21
34.3352633367922
 31
0.0
1001
AcDbBlockRepETag
1070
     1
1071
      141
1005
5EC
  0
LINE
  5
5ED
330
4D8
100
AcDbEntity
  8
frame
100
AcDbLine
 10
226.6985756137892
 20
37.23383895058214
 30
0.0
 11
226.6985756137892
 21
36.03526333679293
 31
0.0
1001
AcDbBlockRepETag
1070
     1
1071
      142
1005
5ED
  0
LINE
  5
5EE
330
4D8
100
AcDbEntity
  8
frame
100
AcDbLine
 10
226.6985756137892
 20
35.53526333679292
 30
0.0
 11
226.6985756137892
 21
35.03526333679293
 31
0.0
1001
AcDbBlockRepETag
1070
     1
1071
      143
1005
5EE
  0
LINE
  5
5EF
330
4D8
100
AcDbEntity
  8
frame
100
AcDbLine
 10
226.6985756137892
 20
34.53526333679292
 30
0.0
 11
226.6985756137892
 21
31.43668772300407
 31
0.0
1001
AcDbBlockRepETag
1070
     1
1071
      144
1005
5EF
  0
LWPOLYLINE
  5
5F0
330
4D8
100
AcDbEntity
  8
frame
  6
ByBlock
100
AcDbPolyline
 90
        4
 70
     1
 43
0.0
 10
249.996901273531
 20
20.30329643996447
 10
254.8134257250913
 20
25.11982089152662
 42
0.9999999999997582
 10
253.1737578266884
 20
26.75948878992858
 10
248.3572333751272
 20
21.94296433836826
 42
1.000000000000484
1001
AcDbBlockRepETag
1070
     1
1071
      145
1005
5F0
  0
LWPOLYLINE
  5
5F1
330
4D8
100
AcDbEntity
  8
frame
  6
ByBlock
100
AcDbPolyline
 90
        4
 70
     1
 43
0.0
 10
249.9367971971306
 20
20.36340051636398
 10
254.75332164869
 20
25.17992496792613
 42
1.0
 10
253.2338619030888
 20
26.69938471352725
 10
248.4173374515285
 20
21.88286026196875
 42
1.0
1001
AcDbBlockRepETag
1070
     1
1071
      146
1005
5F1
  0
LWPOLYLINE
  5
5F2
330
4D8
100
AcDbEntity
  8
frame
  6
ByBlock
100
AcDbPolyline
 90
        4
 70
     1
 43
0.0
 10
250.0570053499323
 20
20.24319236356314
 10
254.8735298014917
 20
25.05971681512529
 42
1.0
 10
253.1136537502871
 20
26.81959286632809
 10
248.2971292987268
 20
22.00306841476959
 42
1.0
1001
AcDbBlockRepETag
1070
     1
1071
      147
1005
5F2
  0
LWPOLYLINE
  5
5F3
330
4D8
100
AcDbEntity
  8
frame
  6
ByBlock
100
AcDbPolyline
 90
        6
 70
     1
 43
0.0
 10
233.6579304050829
 20
22.87921870190257
 42
0.5040414943243567
 10
233.8658227433362
 20
23.16016907249468
 10
232.8801784101006
 20
26.38406642075097
 42
0.7399610750323026
 10
232.464393733595
 20
26.38406642075097
 10
231.4787494003613
 20
23.16016907249468
 42
0.5040414943247417
 10
231.6866417386127
 20
22.87921870190257
1001
AcDbBlockRepETag
1070
     1
1071
      148
1005
5F3
  0
LWPOLYLINE
  5
5F4
330
4D8
100
AcDbEntity
  8
frame
  6
ByBlock
100
AcDbPolyline
 90
        6
 70
     1
 43
0.0
 10
233.6579304050829
 20
22.79421870190345
 42
0.504041494324358
 10
233.9471086475933
 20
23.18502066739529
 10
232.9614643143577
 20
26.40891801565158
 42
0.7399610750322863
 10
232.3831078293379
 20
26.40891801565158
 10
231.3974634961041
 20
23.18502066739711
 42
0.5040414943247422
 10
231.6866417386127
 20
22.79421870190345
1001
AcDbBlockRepETag
1070
     1
1071
      149
1005
5F4
  0
LWPOLYLINE
  5
5F5
330
4D8
100
AcDbEntity
  8
frame
  6
ByBlock
100
AcDbPolyline
 90
        6
 70
     1
 43
0.0
 10
233.6579304050829
 20
22.96421870190352
 42
0.5040414943243489
 10
233.784536839079
 20
23.13531747759407
 10
232.7988925058444
 20
26.35921482584854
 42
0.7399610750322957
 10
232.5456796378521
 20
26.35921482585036
 10
231.5600353046175
 20
23.13531747759407
 42
0.5040414943247367
 10
231.6866417386136
 20
22.96421870190352
1001
AcDbBlockRepETag
1070
     1
1071
      150
1005
5F5
  0
LWPOLYLINE
  5
5F6
330
4D8
100
AcDbEntity
  8
frame
  6
ByBlock
100
AcDbPolyline
 90
       26
 70
     1
 43
0.0
 10
234.2359701769792
 20
21.94947136993869
 10
234.944910887607
 20
19.63063079022868
 42
-0.5040414943260745
 10
234.6677211032711
 20
19.25603029610647
 10
234.2664889703992
 20
19.25603029610647
 42
0.4142135623730951
 10
234.1215614341672
 20
19.11110275987448
 10
234.1215614341672
 20
18.53139261494652
 10
238.4693875211242
 20
18.53139261494652
 10
238.4693875211242
 20
19.11110275987448
 42
0.4142135623730951
 10
238.3244599848922
 20
19.25603029610647
 10
237.8281068345032
 20
19.25603029610465
 42
-0.3297505471416469
 10
237.4816196040811
 20
19.5124173596123
 10
234.7242421532091
 20
28.53139261494654
 10
232.363149584633
 20
28.53139261494654
 10
229.6057721337602
 20
19.5124173596123
 42
-0.3297505471416475
 10
229.259284903339
 20
19.25603029610647
 10
228.9041701298192
 20
19.25603029610647
 42
0.4142135623730951
 10
228.7592425935882
 20
19.11110275987448
 10
228.7592425935882
 20
18.53139261494652
 10
231.0780831732973
 20
18.53139261494652
 10
231.0780831732973
 20
19.11110275987448
 42
0.4142135623730951
 10
230.9331556370662
 20
19.25603029610647
 10
230.5789218782566
 20
19.25603029610647
 42
-0.5040414943243619
 10
230.3710295400033
 20
19.53698066669858
 10
231.124279045046
 20
22.00074878264059
 42
-0.329750547139216
 10
231.3321713832993
 20
22.15458102074263
 10
233.9587803926424
 20
22.15458102074444
 42
-0.3297505471401503
1001
AcDbBlockRepETag
1070
     1
1071
      151
1005
5F6
  0
LWPOLYLINE
  5
5F7
330
4D8
100
AcDbEntity
  8
frame
  6
ByBlock
100
AcDbPolyline
 90
       26
 70
     1
 43
0.0
 10
234.1546842727221
 20
21.92461977503808
 10
234.8636249833498
 20
19.60577919532625
 42
-0.5040414943260704
 10
234.6677211032711
 20
19.3410302961056
 10
234.2664889703992
 20
19.3410302961056
 42
0.4142135623730974
 10
234.0365614341672
 20
19.11110275987448
 10
234.0365614341672
 20
18.44639261494558
 10
238.5543875211242
 20
18.44639261494558
 10
238.5543875211242
 20
19.11110275987448
 42
0.4142135623730974
 10
238.3244599848922
 20
19.3410302961056
 10
237.8281068345032
 20
19.3410302961056
 42
-0.3297505471416459
 10
237.5629055083382
 20
19.53726895451473
 10
234.7871388445865
 20
28.61639261494565
 10
232.3002528932557
 20
28.61639261494565
 10
229.5244862295031
 20
19.53726895451473
 42
-0.3297505471416504
 10
229.259284903339
 20
19.3410302961056
 10
228.9041701298192
 20
19.3410302961056
 42
0.4142135623730974
 10
228.6742425935881
 20
19.11110275987448
 10
228.6742425935881
 20
18.44639261494558
 10
231.1630831732973
 20
18.44639261494558
 10
231.1630831732973
 20
19.11110275987448
 42
0.4142135623730974
 10
230.9331556370662
 20
19.3410302961056
 10
230.5789218782566
 20
19.3410302961056
 42
-0.5040414943243603
 10
230.4523154442595
 20
19.51212907179615
 10
231.2055649493032
 20
21.97589718773816
 42
-0.3297505471392114
 10
231.3321713832993
 20
22.0695810207435
 10
233.9587803926424
 20
22.0695810207435
 42
-0.3297505471401487
1001
AcDbBlockRepETag
1070
     1
1071
      152
1005
5F7
  0
LWPOLYLINE
  5
5F8
330
4D8
100
AcDbEntity
  8
frame
  6
ByBlock
100
AcDbPolyline
 90
       26
 70
     1
 43
0.0
 10
234.3172560812363
 20
21.97432296484112
 10
235.0261967918641
 20
19.65548238512929
 42
-0.5040414943260731
 10
234.6677211032711
 20
19.17103029610553
 10
234.2664889703992
 20
19.17103029610553
 42
0.4142135623730869
 10
234.2065614341673
 20
19.11110275987448
 10
234.2065614341673
 20
18.61639261494565
 10
238.384387521124
 20
18.61639261494565
 10
238.384387521124
 20
19.11110275987448
 42
0.4142135623730869
 10
238.3244599848922
 20
19.17103029610553
 10
237.8281068345032
 20
19.17103029610553
 42
-0.3297505471416466
 10
237.4003336998239
 20
19.48756576471169
 10
234.6613454618319
 20
28.44639261494558
 10
232.4260462760103
 20
28.44639261494558
 10
229.6870580380173
 20
19.48756576471169
 42
-0.3297505471416456
 10
229.259284903339
 20
19.17103029610553
 10
228.9041701298192
 20
19.17103029610553
 42
0.4142135623730869
 10
228.8442425935882
 20
19.11110275987448
 10
228.8442425935882
 20
18.61639261494565
 10
230.9930831732972
 20
18.61639261494565
 10
230.9930831732972
 20
19.11110275987448
 42
0.4142135623730869
 10
230.9331556370662
 20
19.17103029610553
 10
230.5789218782566
 20
19.17103029610553
 42
-0.5040414943243603
 10
230.2897436357461
 20
19.56183226159919
 10
231.0429931407898
 20
22.02560037754119
 42
-0.3297505471392168
 10
231.3321713832993
 20
22.23958102074357
 10
233.9587803926424
 20
22.23958102074357
 42
-0.3297505471401506
1001
AcDbBlockRepETag
1070
     1
1071
      153
1005
5F8
  0
LWPOLYLINE
  5
5F9
330
4D8
100
AcDbEntity
  8
frame
  6
ByBlock
100
AcDbPolyline
 90
       26
 70
     1
 43
0.0
 10
245.9329662872642
 20
26.29672794012004
 10
245.8606918689502
 20
28.53139261494654
 10
241.8751846225732
 20
28.53139261494654
 10
237.8896773761962
 20
28.53139261494654
 10
237.8174029578813
 20
26.29672794012004
 42
0.8721984941219423
 10
238.5251335900921
 20
26.17622796726938
 10
238.8149313892036
 20
27.09686812119617
 42
-0.3274643887701543
 10
239.7826145852141
 20
27.80675493378658
 10
239.9911266515583
 20
27.80675493378658
 42
-0.4142135623730951
 10
240.4983730283702
 20
27.29950855697462
 10
240.4983730283684
 20
19.61834913668463
 42
-0.4142135623730951
 10
240.1360541877902
 20
19.25603029610647
 10
239.8461991153272
 20
19.25603029610647
 42
0.4142135623730951
 10
239.7012715790952
 20
19.11110275987448
 10
239.7012715790952
 20
18.53139261494652
 10
241.8751846225732
 20
18.53139261494652
 10
244.0490976660512
 20
18.53139261494652
 10
244.0490976660512
 20
19.11110275987448
 42
0.4142135623730951
 10
243.9041701298202
 20
19.25603029610647
 10
243.6143150573562
 20
19.25603029610465
 42
-0.4142135623730951
 10
243.2519962167762
 20
19.61834913668463
 10
243.2519962167762
 20
27.29950855697462
 42
-0.4142135623730951
 10
243.7592425935882
 20
27.80675493378658
 10
243.9677546599323
 20
27.80675493378658
 42
-0.3274643887701542
 10
244.9354378559428
 20
27.09686812119617
 10
245.2252356550543
 20
26.17622796726938
 42
0.872198494121949
1001
AcDbBlockRepETag
1070
     1
1071
      154
1005
5F9
  0
LWPOLYLINE
  5
5FA
330
4D8
100
AcDbEntity
  8
frame
  6
ByBlock
100
AcDbPolyline
 90
       26
 70
     1
 43
0.0
 10
246.0179218658004
 20
26.29947560740584
 10
245.942987209658
 20
28.61639261494565
 10
241.8751846225732
 20
28.61639261494565
 10
237.8073820354875
 20
28.61639261494565
 10
237.7324473793442
 20
26.29947560740584
 42
0.8721984941219334
 10
238.6062116178718
 20
26.15070634092445
 10
238.8960094169834
 20
27.07134649485124
 42
-0.3274643887701552
 10
239.7826145852141
 20
27.72175493378745
 10
239.9911266515583
 20
27.72175493378745
 42
-0.414213562373094
 10
240.4133730283702
 20
27.29950855697462
 10
240.4133730283693
 20
19.61834913668463
 42
-0.4142135623730935
 10
240.1360541877902
 20
19.3410302961056
 10
239.8461991153272
 20
19.3410302961056
 42
0.4142135623730974
 10
239.6162715790952
 20
19.11110275987448
 10
239.6162715790952
 20
18.44639261494558
 10
241.8751846225732
 20
18.44639261494558
 10
244.1340976660513
 20
18.44639261494558
 10
244.1340976660513
 20
19.11110275987448
 42
0.4142135623730974
 10
243.9041701298202
 20
19.3410302961056
 10
243.6143150573562
 20
19.3410302961056
 42
-0.4142135623730935
 10
243.3369962167763
 20
19.61834913668463
 10
243.3369962167763
 20
27.29950855697462
 42
-0.414213562373094
 10
243.7592425935882
 20
27.72175493378745
 10
243.9677546599323
 20
27.72175493378745
 42
-0.3274643887701549
 10
244.8543598281631
 20
27.07134649485124
 10
245.1441576272737
 20
26.15070634092445
 42
0.8721984941219462
1001
AcDbBlockRepETag
1070
     1
1071
      155
1005
5FA
  0
LWPOLYLINE
  5
5FB
330
4D8
100
AcDbEntity
  8
frame
  6
ByBlock
100
AcDbPolyline
 90
       26
 70
     1
 43
0.0
 10
245.848010708728
 20
26.29398027283424
 10
245.7783965282424
 20
28.44639261494558
 10
241.8751846225732
 20
28.44639261494558
 10
237.971972716904
 20
28.44639261494558
 10
237.9023585364175
 20
26.29398027283424
 42
0.8721984941219337
 10
238.4440555623123
 20
26.2017495936143
 10
238.7338533614238
 20
27.1223897475411
 42
-0.327464388770155
 10
239.7826145852141
 20
27.89175493378753
 10
239.9911266515583
 20
27.89175493378753
 42
-0.4142135623730959
 10
240.5833730283703
 20
27.29950855697462
 10
240.5833730283684
 20
19.61834913668463
 42
-0.4142135623730962
 10
240.1360541877902
 20
19.17103029610553
 10
239.8461991153272
 20
19.17103029610553
 42
0.4142135623730869
 10
239.7862715790952
 20
19.11110275987448
 10
239.7862715790952
 20
18.61639261494565
 10
241.8751846225732
 20
18.61639261494565
 10
243.9640976660512
 20
18.61639261494565
 10
243.9640976660512
 20
19.11110275987448
 42
0.4142135623730869
 10
243.9041701298202
 20
19.17103029610553
 10
243.6143150573562
 20
19.17103029610553
 42
-0.414213562373096
 10
243.1669962167762
 20
19.61834913668463
 10
243.1669962167762
 20
27.29950855697462
 42
-0.4142135623730959
 10
243.7592425935882
 20
27.89175493378753
 10
243.9677546599323
 20
27.89175493378753
 42
-0.3274643887701536
 10
245.0165158837235
 20
27.1223897475411
 10
245.3063136828341
 20
26.2017495936143
 42
0.8721984941219799
1001
AcDbBlockRepETag
1070
     1
1071
      156
1005
5FB
  0
LWPOLYLINE
  5
5FC
330
4D8
100
AcDbEntity
  8
frame
  6
ByBlock
100
AcDbPolyline
 90
       40
 70
     1
 43
0.0
 10
268.6143150573562
 20
19.25603029610647
 42
-0.4142135623730951
 10
268.7592425935882
 20
19.11110275987448
 10
268.7592425935882
 20
18.53139261494652
 10
264.7012715790952
 20
18.53139261494652
 10
264.7012715790952
 20
19.11110275987448
 42
-0.4142135623730951
 10
264.8461991153272
 20
19.25603029610647
 10
265.1360541877912
 20
19.25603029610647
 42
0.4142135623730951
 10
265.4983730283702
 20
19.61834913668463
 10
265.4983730283702
 20
27.59605675325656
 42
0.8769764629942649
 10
265.0709978487421
 20
27.65232176306018
 10
262.6270522492841
 20
18.53139261494652
 10
261.9315323342799
 20
18.53139261494652
 10
259.4764728456794
 20
27.69379936200858
 42
0.8769764629925763
 10
259.0490976660522
 20
27.63753435220315
 10
259.0490976660522
 20
19.47342160045446
 42
0.4142135623730951
 10
259.2664889703992
 20
19.25603029610647
 10
259.4838802747472
 20
19.25603029610647
 42
-0.4142135623730951
 10
259.6288078109792
 20
19.11110275987448
 10
259.6288078109792
 20
18.53139261494652
 10
257.5998223037323
 20
18.53139261494652
 10
257.5998223037323
 20
19.11110275987448
 42
-0.4142135623730951
 10
257.7447498399642
 20
19.25603029610647
 10
258.1070686805442
 20
19.25603029610647
 42
0.4142135623730951
 10
258.3244599848922
 20
19.47342160045446
 10
258.3244599848922
 20
27.5893636294386
 42
0.4142135623730951
 10
258.1070686805442
 20
27.80675493378658
 10
257.7447498399642
 20
27.80675493378658
 42
-0.4142135623730951
 10
257.5998223037323
 20
27.95168247001857
 10
257.5998223037323
 20
28.53139261494654
 10
261.8027208544571
 20
28.53139261494654
 10
262.9695485733801
 20
24.1767322842461
 42
0.7673269879785563
 10
263.3895163239404
 20
24.1767322842461
 10
264.5563440428632
 20
28.53139261494654
 10
268.7592425935882
 20
28.53139261494654
 10
268.7592425935882
 20
27.95168247001857
 42
-0.4142135623730951
 10
268.6143150573562
 20
27.80675493378658
 10
268.3244599848922
 20
27.80675493378658
 42
0.4142135623730951
 10
267.9621411443122
 20
27.44443609320661
 10
267.9621411443122
 20
19.61834913668463
 42
0.4142135623730951
 10
268.3244599848922
 20
19.25603029610647
1001
AcDbBlockRepETag
1070
     1
1071
      157
1005
5FC
  0
LWPOLYLINE
  5
5FD
330
4D8
100
AcDbEntity
  8
frame
  6
ByBlock
100
AcDbPolyline
 90
       40
 70
     1
 43
0.0
 10
268.6143150573562
 20
19.3410302961056
 42
-0.4142135623730974
 10
268.8442425935882
 20
19.11110275987448
 10
268.8442425935882
 20
18.44639261494558
 10
264.6162715790952
 20
18.44639261494558
 10
264.6162715790952
 20
19.11110275987448
 42
-0.4142135623730974
 10
264.8461991153272
 20
19.3410302961056
 10
265.1360541877912
 20
19.3410302961056
 42
0.4142135623730935
 10
265.4133730283702
 20
19.61834913668463
 10
265.4133730283702
 20
27.59605675325656
 42
0.8769764629942653
 10
265.1531015439768
 20
27.63032214422674
 10
262.6922750432623
 20
18.44639261494558
 10
261.8663095403017
 20
18.44639261494558
 10
259.3943691504446
 20
27.67179974317333
 42
0.8769764629924258
 10
259.1340976660522
 20
27.63753435220315
 10
259.1340976660522
 20
19.47342160045446
 42
0.4142135623730835
 10
259.2664889703992
 20
19.3410302961056
 10
259.4838802747472
 20
19.3410302961056
 42
-0.4142135623730974
 10
259.7138078109793
 20
19.11110275987448
 10
259.7138078109793
 20
18.44639261494558
 10
257.5148223037321
 20
18.44639261494558
 10
257.5148223037321
 20
19.11110275987448
 42
-0.4142135623730974
 10
257.7447498399642
 20
19.3410302961056
 10
258.1070686805442
 20
19.3410302961056
 42
0.4142135623730913
 10
258.2394599848921
 20
19.47342160045446
 10
258.2394599848921
 20
27.5893636294386
 42
0.4142135623730913
 10
258.1070686805442
 20
27.72175493378745
 10
257.7447498399642
 20
27.72175493378745
 42
-0.4142135623730974
 10
257.5148223037321
 20
27.95168247001857
 10
257.5148223037321
 20
28.61639261494565
 10
261.8679436484354
 20
28.61639261494565
 10
263.0516522686148
 20
24.19873190308135
 42
0.767326987978615
 10
263.3074126287056
 20
24.19873190308135
 10
264.491121248885
 20
28.61639261494565
 10
268.8442425935882
 20
28.61639261494565
 10
268.8442425935882
 20
27.95168247001857
 42
-0.4142135623730974
 10
268.6143150573562
 20
27.72175493378745
 10
268.3244599848922
 20
27.72175493378745
 42
0.4142135623730896
 10
268.0471411443122
 20
27.44443609320661
 10
268.0471411443122
 20
19.61834913668463
 42
0.4142135623730895
 10
268.3244599848922
 20
19.3410302961056
1001
AcDbBlockRepETag
1070
     1
1071
      158
1005
5FD
  0
LWPOLYLINE
  5
5FE
330
4D8
100
AcDbEntity
  8
frame
  6
ByBlock
100
AcDbPolyline
 90
       40
 70
     1
 43
0.0
 10
268.6143150573562
 20
19.17103029610553
 42
-0.4142135623730869
 10
268.6742425935881
 20
19.11110275987448
 10
268.6742425935881
 20
18.61639261494565
 10
264.7862715790952
 20
18.61639261494565
 10
264.7862715790952
 20
19.11110275987448
 42
-0.4142135623730869
 10
264.8461991153272
 20
19.17103029610553
 10
265.1360541877912
 20
19.17103029610553
 42
0.4142135623730962
 10
265.5833730283703
 20
19.61834913668463
 10
265.5833730283703
 20
27.59605675325656
 42
0.8769764629943033
 10
264.9888941535073
 20
27.67432138189362
 10
262.561829455306
 20
18.61639261494565
 10
261.996755128258
 20
18.61639261494565
 10
259.5585765409132
 20
27.71579898084202
 42
0.8769764629925827
 10
258.9640976660521
 20
27.63753435220315
 10
258.9640976660521
 20
19.47342160045446
 42
0.4142135623731002
 10
259.2664889703983
 20
19.17103029610553
 10
259.4838802747472
 20
19.17103029610553
 42
-0.4142135623730869
 10
259.5438078109792
 20
19.11110275987448
 10
259.5438078109792
 20
18.61639261494565
 10
257.6848223037323
 20
18.61639261494565
 10
257.6848223037323
 20
19.11110275987448
 42
-0.4142135623730869
 10
257.7447498399642
 20
19.17103029610553
 10
258.1070686805442
 20
19.17103029610553
 42
0.4142135623730966
 10
258.4094599848922
 20
19.47342160045446
 10
258.4094599848922
 20
27.5893636294386
 42
0.4142135623730966
 10
258.1070686805442
 20
27.89175493378753
 10
257.7447498399642
 20
27.89175493378753
 42
-0.4142135623730869
 10
257.6848223037323
 20
27.95168247001857
 10
257.6848223037323
 20
28.44639261494558
 10
261.7374980604791
 20
28.44639261494558
 10
262.8874448781453
 20
24.15473266541268
 42
0.7673269879785485
 10
263.4716200191751
 20
24.15473266541268
 10
264.6215668368413
 20
28.44639261494558
 10
268.6742425935881
 20
28.44639261494558
 10
268.6742425935881
 20
27.95168247001857
 42
-0.4142135623730869
 10
268.6143150573562
 20
27.89175493378753
 10
268.3244599848922
 20
27.89175493378753
 42
0.4142135623730962
 10
267.8771411443122
 20
27.44443609320661
 10
267.8771411443122
 20
19.61834913668463
 42
0.4142135623730985
 10
268.3244599848922
 20
19.17103029610553
1001
AcDbBlockRepETag
1070
     1
1071
      159
1005
5FE
  0
CIRCLE
  5
5FF
330
4D8
100
AcDbEntity
  8
frame
100
AcDbCircle
 10
251.6056181890681
 20
23.63139261494507
 30
0.0
 40
5.269566433505018
1001
AcDbBlockRepETag
1070
     1
1071
      160
1005
5FF
  0
CIRCLE
  5
600
330
4D8
100
AcDbEntity
  8
frame
100
AcDbCircle
 10
251.6056181890681
 20
23.63139261494507
 30
0.0
 40
5.354566433505018
1001
AcDbBlockRepETag
1070
     1
1071
      161
1005
600
  0
CIRCLE
  5
601
330
4D8
100
AcDbEntity
  8
frame
100
AcDbCircle
 10
251.6056181890681
 20
23.63139261494507
 30
0.0
 40
5.184566433505018
1001
AcDbBlockRepETag
1070
     1
1071
      162
1005
601
  0
LINE
  5
602
330
4D8
100
AcDbEntity
  8
frame
  6
ByBlock
100
AcDbLine
 10
222.9999999999991
 20
273.0000000000036
 30
0.0
 11
223.0
 21
280.0000000000036
 31
0.0
1001
AcDbBlockRepETag
1070
     1
1071
      163
1005
602
  0
LINE
  5
603
330
4D8
100
AcDbEntity
  8
frame
  6
ByBlock
100
AcDbLine
 10
222.9999999999991
 20
273.0000000000036
 30
0.0
 11
407.0
 21
273.0000000000036
 31
0.0
1001
AcDbBlockRepETag
1070
     1
1071
      164
1005
603
  0
LINE
  5
604
330
4D8
100
AcDbEntity
  8
frame
  6
ByBlock
100
AcDbLine
 10
367.0
 20
280.0000000000036
 30
0.0
 11
367.0
 21
273.0000000000036
 31
0.0
1001
AcDbBlockRepETag
1070
     1
1071
      165
1005
604
  0
LINE
  5
605
330
4D8
100
AcDbEntity
  8
frame
  6
ByBlock
100
AcDbLine
 10
342.0
 20
280.0000000000036
 30
0.0
 11
342.0
 21
273.0000000000036
 31
0.0
1001
AcDbBlockRepETag
1070
     1
1071
      166
1005
605
  0
LINE
  5
606
330
4D8
100
AcDbEntity
  8
frame
  6
ByBlock
100
AcDbLine
 10
327.0
 20
280.0000000000036
 30
0.0
 11
327.0
 21
273.0000000000036
 31
0.0
1001
AcDbBlockRepETag
1070
     1
1071
      167
1005
606
  0
LINE
  5
607
330
4D8
100
AcDbEntity
  8
frame
  6
ByBlock
100
AcDbLine
 10
230.0
 20
280.0000000000036
 30
0.0
 11
230.0
 21
273.0000000000036
 31
0.0
1001
AcDbBlockRepETag
1070
     1
1071
      168
1005
607
  0
LINE
  5
608
330
4D8
100
AcDbEntity
  8
frame
  6
ByBlock
100
AcDbLine
 10
382.0
 20
280.0000000000036
 30
0.0
 11
382.0
 21
273.0000000000036
 31
0.0
1001
AcDbBlockRepETag
1070
     1
1071
      169
1005
608
  0
ATTDEF
  5
609
102
{ACAD_XDICTIONARY
360
60A
102
}
330
4D8
100
AcDbEntity
  8
frame
  6
ByBlock
100
AcDbText
 10
226.5
 20
275.0000000000036
 30
0.0
 40
3.0
  1

 41
0.9
  7
ATOM
 72
     1
 11
226.5
 21
276.5000000000036
 31
0.0
100
AcDbAttributeDefinition
  3
改番?
  2
改番
 70
     0
 74
     2
1001
AcDbBlockRepETag
1070
     1
1071
      171
1005
0
1001
AcadAnnotative
1000
AnnotativeData
1002
{
1070
     1
1070
     0
1002
}
1001
AcDbAttr
1070
     0
1070
     1
  0
ATTDEF
  5
60E
102
{ACAD_XDICTIONARY
360
60F
102
}
330
4D8
100
AcDbEntity
  8
frame
  6
ByBlock
100
AcDbText
 10
278.5
 20
275.0000000000036
 30
0.0
 40
3.0
  1

 41
0.9
  7
ATOM
 72
     1
 11
278.5
 21
276.5000000000036
 31
0.0
100
AcDbAttributeDefinition
  3
改正理由?
  2
改　　　　正　　　　理　　　　由
 70
     0
 74
     2
1001
AcDbBlockRepETag
1070
     1
1071
      170
1005
0
1001
AcadAnnotative
1000
AnnotativeData
1002
{
1070
     1
1070
     0
1002
}
1001
AcDbAttr
1070
     0
1070
     1
  0
ATTDEF
  5
613
102
{ACAD_XDICTIONARY
360
614
102
}
330
4D8
100
AcDbEntity
  8
frame
  6
ByBlock
100
AcDbText
 10
334.5
 20
275.0000000000036
 30
0.0
 40
3.0
  1

 41
0.9
  7
ATOM
 72
     1
 11
334.5
 21
276.5000000000036
 31
0.0
100
AcDbAttributeDefinition
  3
改正承認?
  2
改正承認
 70
     0
 74
     2
1001
AcDbBlockRepETag
1070
     1
1071
      172
1005
0
1001
AcadAnnotative
1000
AnnotativeData
1002
{
1070
     1
1070
     0
1002
}
1001
AcDbAttr
1070
     0
1070
     1
  0
ATTDEF
  5
618
102
{ACAD_XDICTIONARY
360
619
102
}
330
4D8
100
AcDbEntity
  8
frame
  6
ByBlock
100
AcDbText
 10
354.5
 20
275.0000000000036
 30
0.0
 40
3.0
  1

 41
0.9
  7
ATOM
 72
     1
 11
354.5
 21
276.5000000000036
 31
0.0
100
AcDbAttributeDefinition
  3
改正承認日?
  2
改正承認日
 70
     0
 74
     2
1001
AcDbBlockRepETag
1070
     1
1071
      173
1005
0
1001
AcadAnnotative
1000
AnnotativeData
1002
{
1070
     1
1070
     0
1002
}
1001
AcDbAttr
1070
     0
1070
     1
  0
ATTDEF
  5
61D
102
{ACAD_XDICTIONARY
360
61E
102
}
330
4D8
100
AcDbEntity
  8
frame
  6
ByBlock
100
AcDbText
 10
374.5
 20
275.0000000000036
 30
0.0
 40
3.0
  1

 41
0.9
  7
ATOM
 72
     1
 11
374.5
 21
276.5000000000036
 31
0.0
100
AcDbAttributeDefinition
  3
改正担当?
  2
改正担当
 70
     0
 74
     2
1001
AcDbBlockRepETag
1070
     1
1071
      174
1005
0
1001
AcadAnnotative
1000
AnnotativeData
1002
{
1070
     1
1070
     0
1002
}
1001
AcDbAttr
1070
     0
1070
     1
  0
ATTDEF
  5
622
102
{ACAD_XDICTIONARY
360
623
102
}
330
4D8
100
AcDbEntity
  8
frame
  6
ByBlock
100
AcDbText
 10
394.5
 20
275.0000000000036
 30
0.0
 40
3.0
  1

 41
0.9
  7
ATOM
 72
     1
 11
394.5
 21
276.5000000000036
 31
0.0
100
AcDbAttributeDefinition
  3
改正日?
  2
改正日
 70
     0
 74
     2
1001
AcDbBlockRepETag
1070
     1
1071
      175
1005
0
1001
AcadAnnotative
1000
AnnotativeData
1002
{
1070
     1
1070
     0
1002
}
1001
AcDbAttr
1070
     0
1070
     1
  0
ATTDEF
  5
627
102
{ACAD_XDICTIONARY
360
628
102
}
330
4D8
100
AcDbEntity
  8
frame
  6
ByBlock
100
AcDbText
 10
286.75
 20
32.75000000000364
 30
0.0
 40
3.5
  1

 41
0.9
  7
ATOM
 72
     1
 11
286.75
 21
34.50000000000364
 31
0.0
100
AcDbAttributeDefinition
  3
名称?
  2
名称
 70
     0
 74
     2
1001
AcDbBlockRepETag
1070
     1
1071
      185
1005
0
1001
AcadAnnotative
1000
AnnotativeData
1002
{
1070
     1
1070
     0
1002
}
1001
AcDbAttr
1070
     0
1070
     1
  0
ATTDEF
  5
62C
102
{ACAD_XDICTIONARY
360
62D
102
}
330
4D8
100
AcDbEntity
  8
frame
  6
ByBlock
100
AcDbText
 10
245.0
 20
32.7858983848655
 30
0.0
 40
3.5
  1

 41
0.9
  7
ATOM
 72
     1
 11
245.0
 21
34.5358983848655
 31
0.0
100
AcDbAttributeDefinition
  3
尺度?
  2
尺度
 70
     0
 74
     2
1001
AcDbBlockRepETag
1070
     1
1071
      184
1005
0
1001
AcadAnnotative
1000
AnnotativeData
1002
{
1070
     1
1070
     0
1002
}
1001
AcDbAttr
1070
     0
1070
     1
  0
ATTDEF
  5
631
102
{ACAD_XDICTIONARY
360
632
102
}
330
4D8
100
AcDbEntity
  8
frame
  6
ByBlock
100
AcDbText
 10
322.25
 20
32.75000000000364
 30
0.0
 40
3.5
  1

 41
0.9
  7
ATOM
 72
     1
 11
322.25
 21
34.50000000000364
 31
0.0
100
AcDbAttributeDefinition
  3
承認?
  2
承認
 70
     0
 74
     2
1001
AcDbBlockRepETag
1070
     1
1071
      182
1005
0
1001
AcadAnnotative
1000
AnnotativeData
1002
{
1070
     1
1070
     0
1002
}
1001
AcDbAttr
1070
     0
1070
     1
  0
ATTDEF
  5
636
102
{ACAD_XDICTIONARY
360
637
102
}
330
4D8
100
AcDbEntity
  8
frame
  6
ByBlock
100
AcDbText
 10
322.25
 20
25.75000000000364
 30
0.0
 40
3.5
  1

 41
0.9
  7
ATOM
 72
     1
 11
322.25
 21
27.50000000000364
 31
0.0
100
AcDbAttributeDefinition
  3
検図?
  2
検図
 70
     0
 74
     2
1001
AcDbBlockRepETag
1070
     1
1071
      183
1005
0
1001
AcadAnnotative
1000
AnnotativeData
1002
{
1070
     1
1070
     0
1002
}
1001
AcDbAttr
1070
     0
1070
     1
  0
ATTDEF
  5
63B
102
{ACAD_XDICTIONARY
360
63C
102
}
330
4D8
100
AcDbEntity
  8
frame
  6
ByBlock
100
AcDbText
 10
322.25
 20
18.75000000000364
 30
0.0
 40
3.5
  1

 41
0.9
  7
ATOM
 72
     1
 11
322.25
 21
20.50000000000364
 31
0.0
100
AcDbAttributeDefinition
  3
設計?
  2
設計
 70
     0
 74
     2
1001
AcDbBlockRepETag
1070
     1
1071
      186
1005
0
1001
AcadAnnotative
1000
AnnotativeData
1002
{
1070
     1
1070
     0
1002
}
1001
AcDbAttr
1070
     0
1070
     1
  0
ATTDEF
  5
640
102
{ACAD_XDICTIONARY
360
641
102
}
330
4D8
100
AcDbEntity
  8
frame
  6
ByBlock
100
AcDbText
 10
322.25
 20
11.75000000000364
 30
0.0
 40
3.5
  1

 41
0.9
  7
ATOM
 72
     1
 11
322.25
 21
13.50000000000364
 31
0.0
100
AcDbAttributeDefinition
  3
作図?
  2
作図
 70
     0
 74
     2
1001
AcDbBlockRepETag
1070
     1
1071
      187
1005
0
1001
AcadAnnotative
1000
AnnotativeData
1002
{
1070
     1
1070
     0
1002
}
1001
AcDbAttr
1070
     0
1070
     1
  0
ATTDEF
  5
645
102
{ACAD_XDICTIONARY
360
646
102
}
330
4D8
100
AcDbEntity
  8
frame
  6
ByBlock
100
AcDbText
 10
340.0
 20
32.75000000000364
 30
0.0
 40
3.5
  1

 41
0.8
  7
ATOM
 72
     1
 11
340.0
 21
34.50000000000364
 31
0.0
100
AcDbAttributeDefinition
  3
承認日?
  2
承認日
 70
     0
 74
     2
1001
AcDbBlockRepETag
1070
     1
1071
      191
1005
0
1001
AcadAnnotative
1000
AnnotativeData
1002
{
1070
     1
1070
     0
1002
}
1001
AcDbAttr
1070
     0
1070
     1
  0
ATTDEF
  5
64A
102
{ACAD_XDICTIONARY
360
64B
102
}
330
4D8
100
AcDbEntity
  8
frame
  6
ByBlock
100
AcDbText
 10
340.0
 20
25.75000000000364
 30
0.0
 40
3.5
  1

 41
0.8
  7
ATOM
 72
     1
 11
340.0
 21
27.50000000000364
 31
0.0
100
AcDbAttributeDefinition
  3
検図日?
  2
検図日
 70
     0
 74
     2
1001
AcDbBlockRepETag
1070
     1
1071
      190
1005
0
1001
AcadAnnotative
1000
AnnotativeData
1002
{
1070
     1
1070
     0
1002
}
1001
AcDbAttr
1070
     0
1070
     1
  0
ATTDEF
  5
64F
102
{ACAD_XDICTIONARY
360
650
102
}
330
4D8
100
AcDbEntity
  8
frame
  6
ByBlock
100
AcDbText
 10
340.0
 20
18.75000000000364
 30
0.0
 40
3.5
  1

 41
0.8
  7
ATOM
 72
     1
 11
340.0
 21
20.50000000000364
 31
0.0
100
AcDbAttributeDefinition
  3
設計日?
  2
設計日
 70
     0
 74
     2
1001
AcDbBlockRepETag
1070
     1
1071
      189
1005
0
1001
AcadAnnotative
1000
AnnotativeData
1002
{
1070
     1
1070
     0
1002
}
1001
AcDbAttr
1070
     0
1070
     1
  0
ATTDEF
  5
654
102
{ACAD_XDICTIONARY
360
655
102
}
330
4D8
100
AcDbEntity
  8
frame
  6
ByBlock
100
AcDbText
 10
340.0
 20
11.75000000000364
 30
0.0
 40
3.5
  1

 41
0.8
  7
ATOM
 72
     1
 11
340.0
 21
13.50000000000364
 31
0.0
100
AcDbAttributeDefinition
  3
作図日?
  2
作図日
 70
     0
 74
     2
1001
AcDbBlockRepETag
1070
     1
1071
      188
1005
0
1001
AcadAnnotative
1000
AnnotativeData
1002
{
1070
     1
1070
     0
1002
}
1001
AcDbAttr
1070
     0
1070
     1
  0
ATTDEF
  5
659
102
{ACAD_XDICTIONARY
360
65A
102
}
330
4D8
100
AcDbEntity
  8
frame
  6
ByBlock
100
AcDbText
 10
380.5
 20
32.75000000000364
 30
0.0
 40
3.5
  1

 41
0.9
  7
ATOM
 72
     1
 11
380.5
 21
34.50000000000364
 31
0.0
100
AcDbAttributeDefinition
  3
品名?
  2
品名
 70
     0
 74
     2
1001
AcDbBlockRepETag
1070
     1
1071
      195
1005
0
1001
AcadAnnotative
1000
AnnotativeData
1002
{
1070
     1
1070
     0
1002
}
1001
AcDbAttr
1070
     0
1070
     1
  0
ATTDEF
  5
65E
102
{ACAD_XDICTIONARY
360
65F
102
}
330
4D8
100
AcDbEntity
  8
frame
  6
ByBlock
100
AcDbText
 10
380.5
 20
25.75000000000364
 30
0.0
 40
3.5
  1

 41
0.9
  7
ATOM
 72
     1
 11
380.5
 21
27.50000000000364
 31
0.0
100
AcDbAttributeDefinition
  3
品番?
  2
品番
 70
     0
 74
     2
1001
AcDbBlockRepETag
1070
     1
1071
      194
1005
0
1001
AcadAnnotative
1000
AnnotativeData
1002
{
1070
     1
1070
     0
1002
}
1001
AcDbAttr
1070
     0
1070
     1
  0
ATTDEF
  5
663
102
{ACAD_XDICTIONARY
360
664
102
}
330
4D8
100
AcDbEntity
  8
frame
  6
ByBlock
100
AcDbText
 10
380.5
 20
18.75000000000364
 30
0.0
 40
3.5
  1

 41
0.9
  7
ATOM
 72
     1
 11
380.5
 21
20.50000000000364
 31
0.0
100
AcDbAttributeDefinition
  3
図名?
  2
図名
 70
     0
 74
     2
1001
AcDbBlockRepETag
1070
     1
1071
      193
1005
0
1001
AcadAnnotative
1000
AnnotativeData
1002
{
1070
     1
1070
     0
1002
}
1001
AcDbAttr
1070
     0
1070
     1
  0
ATTDEF
  5
668
102
{ACAD_XDICTIONARY
360
669
102
}
330
4D8
100
AcDbEntity
  8
frame
  6
ByBlock
100
AcDbText
 10
375.25
 20
11.75000000000182
 30
0.0
 40
3.5
  1

 41
0.9
  7
ATOM
 72
     1
 11
375.25
 21
13.50000000000182
 31
0.0
100
AcDbAttributeDefinition
  3
図番?
  2
図番
 70
     0
 74
     2
1001
AcDbBlockRepETag
1070
     1
1071
      192
1005
0
1001
AcadAnnotative
1000
AnnotativeData
1002
{
1070
     1
1070
     0
1002
}
1001
AcDbAttr
1070
     0
1070
     1
  0
ATTDEF
  5
66D
102
{ACAD_XDICTIONARY
360
66E
102
}
330
4D8
100
AcDbEntity
  8
frame
  6
ByBlock
100
AcDbText
 10
226.5
 20
47.00000000000363
 30
0.0
 40
3.0
  1

 41
0.9
  7
ATOM
 72
     1
 11
226.5
 21
48.50000000000363
 31
0.0
100
AcDbAttributeDefinition
  3
部番?
  2
部番
 70
     0
 74
     2
1001
AcDbBlockRepETag
1070
     1
1071
      181
1005
0
1001
AcadAnnotative
1000
AnnotativeData
1002
{
1070
     1
1070
     0
1002
}
1001
AcDbAttr
1070
     0
1070
     1
  0
ATTDEF
  5
672
102
{ACAD_XDICTIONARY
360
673
102
}
330
4D8
100
AcDbEntity
  8
frame
  6
ByBlock
100
AcDbText
 10
255.0
 20
47.00000000000363
 30
0.0
 40
3.0
  1

 41
0.9
  7
ATOM
 72
     1
 11
255.0
 21
48.50000000000363
 31
0.0
100
AcDbAttributeDefinition
  3
部品名?
  2
部　　　　品　　　　名
 70
     0
 74
     2
1001
AcDbBlockRepETag
1070
     1
1071
      196
1005
0
1001
AcadAnnotative
1000
AnnotativeData
1002
{
1070
     1
1070
     0
1002
}
1001
AcDbAttr
1070
     0
1070
     1
  0
ATTDEF
  5
677
102
{ACAD_XDICTIONARY
360
678
102
}
330
4D8
100
AcDbEntity
  8
frame
  6
ByBlock
100
AcDbText
 10
294.0
 20
47.00000000000363
 30
0.0
 40
3.0
  1

 41
0.9
  7
ATOM
 72
     1
 11
294.0
 21
48.50000000000363
 31
0.0
100
AcDbAttributeDefinition
  3
材質?
  2
材　　質
 70
     0
 74
     2
1001
AcDbBlockRepETag
1070
     1
1071
      197
1005
0
1001
AcadAnnotative
1000
AnnotativeData
1002
{
1070
     1
1070
     0
1002
}
1001
AcDbAttr
1070
     0
1070
     1
  0
ATTDEF
  5
67C
102
{ACAD_XDICTIONARY
360
67D
102
}
330
4D8
100
AcDbEntity
  8
frame
  6
ByBlock
100
AcDbText
 10
311.5
 20
47.00000000000363
 30
0.0
 40
3.0
  1

 41
0.9
  7
ATOM
 72
     1
 11
311.5
 21
48.50000000000363
 31
0.0
100
AcDbAttributeDefinition
  3
数量?
  2
数量
 70
     0
 74
     2
1001
AcDbBlockRepETag
1070
     1
1071
      178
1005
0
1001
AcadAnnotative
1000
AnnotativeData
1002
{
1070
     1
1070
     0
1002
}
1001
AcDbAttr
1070
     0
1070
     1
  0
ATTDEF
  5
681
102
{ACAD_XDICTIONARY
360
682
102
}
330
4D8
100
AcDbEntity
  8
frame
  6
ByBlock
100
AcDbText
 10
340.0
 20
47.00000000000363
 30
0.0
 40
3.0
  1

 41
0.9
  7
ATOM
 72
     1
 11
340.0
 21
48.50000000000363
 31
0.0
100
AcDbAttributeDefinition
  3
表面処理?
  2
表　　面　　処　　理
 70
     0
 74
     2
1001
AcDbBlockRepETag
1070
     1
1071
      198
1005
0
1001
AcadAnnotative
1000
AnnotativeData
1002
{
1070
     1
1070
     0
1002
}
1001
AcDbAttr
1070
     0
1070
     1
  0
ATTDEF
  5
686
102
{ACAD_XDICTIONARY
360
687
102
}
330
4D8
100
AcDbEntity
  8
frame
  6
ByBlock
100
AcDbText
 10
386.0
 20
47.00000000000363
 30
0.0
 40
3.0
  1

 41
0.9
  7
ATOM
 72
     1
 11
386.0
 21
48.50000000000363
 31
0.0
100
AcDbAttributeDefinition
  3
備考?
  2
備　　　考
 70
     0
 74
     2
1001
AcDbBlockRepETag
1070
     1
1071
      199
1005
0
1001
AcadAnnotative
1000
AnnotativeData
1002
{
1070
     1
1070
     0
1002
}
1001
AcDbAttr
1070
     0
1070
     1
  0
ENDBLK
  5
4DA
330
4D8
100
AcDbEntity
  8
0
100
AcDbBlockEnd
  0
ENDSEC
  0
SECTION
  2
ENTITIES
  0
LINE
  5
9D
330
67
100
AcDbEntity
  8
1
  6
Continuous
 62
     7
100
AcDbLine
 10
-17.68308727545764
 20
405.7436714207543
 30
0.0
 11
-19.27352882211244
 21
405.7436714207543
 31
0.0
  0
LINE
  5
A1
330
67
100
AcDbEntity
  8
1
  6
Continuous
 62
     7
100
AcDbLine
 10
-17.68308727545764
 20
408.8185250776201
 30
0.0
 11
-17.68308727545764
 21
405.7436714207543
 31
0.0
  0
LINE
  5
A2
330
67
100
AcDbEntity
  8
1
  6
Continuous
 62
     7
100
AcDbLine
 10
-20.86397036876724
 20
408.8185250776201
 30
0.0
 11
-17.68308727545764
 21
408.8185250776201
 31
0.0
  0
LINE
  5
A3
330
67
100
AcDbEntity
  8
1
  6
Continuous
 62
     7
100
AcDbLine
 10
-34.64779710644234
 20
405.7436714207543
 30
0.0
 11
-37.29853301753337
 21
405.7436714207543
 31
0.0
  0
LINE
  5
A4
330
67
100
AcDbEntity
  8
1
  6
Continuous
 62
     7
100
AcDbLine
 10
-34.64779710644234
 20
408.8185250776201
 30
0.0
 11
-34.64779710644234
 21
405.7436714207543
 31
0.0
  0
LINE
  5
A5
330
67
100
AcDbEntity
  8
1
  6
Continuous
 62
     7
100
AcDbLine
 10
-31.46691401313274
 20
408.8185250776201
 30
0.0
 11
-34.64779710644234
 21
408.8185250776201
 31
0.0
  0
LINE
  5
A6
330
67
100
AcDbEntity
  8
1
  6
Continuous
 62
     7
100
AcDbLine
 10
-23.51470627985873
 20
382.8413131489249
 30
0.0
 11
-20.86397036876724
 21
382.8413131489249
 31
0.0
  0
LINE
  5
A7
330
67
100
AcDbEntity
  8
1
  6
Continuous
 62
     7
100
AcDbLine
 10
-23.51470627985873
 20
382.8413131489249
 30
0.0
 11
-23.51470627985873
 21
377.5398413267424
 31
0.0
  0
LINE
  5
A8
330
67
100
AcDbEntity
  8
1
  6
Continuous
 62
     7
100
AcDbLine
 10
-28.81617810204125
 20
382.8413131489249
 30
0.0
 11
-23.51470627985873
 21
382.8413131489249
 31
0.0
  0
LINE
  5
A9
330
67
100
AcDbEntity
  8
1
  6
Continuous
 62
     7
100
AcDbLine
 10
-28.81617810204125
 20
382.8413131489249
 30
0.0
 11
-28.81617810204125
 21
377.5398413267424
 31
0.0
  0
LINE
  5
AA
330
67
100
AcDbEntity
  8
1
  6
Continuous
 62
     7
100
AcDbLine
 10
-31.46691401313274
 20
382.8413131489249
 30
0.0
 11
-28.81617810204125
 21
382.8413131489249
 31
0.0
  0
LINE
  5
AB
330
67
100
AcDbEntity
  8
1
  6
Continuous
 62
     7
100
AcDbLine
 10
-31.46691401313274
 20
408.8185250776201
 30
0.0
 11
-31.46691401313274
 21
382.8413131489249
 31
0.0
  0
LINE
  5
AC
330
67
100
AcDbEntity
  8
1
  6
Continuous
 62
     7
100
AcDbLine
 10
-20.86397036876724
 20
408.8185250776201
 30
0.0
 11
-31.46691401313274
 21
408.8185250776201
 31
0.0
  0
LINE
  5
AD
330
67
100
AcDbEntity
  8
1
  6
Continuous
 62
     7
100
AcDbLine
 10
-20.86397036876724
 20
408.8185250776201
 30
0.0
 11
-20.86397036876724
 21
382.8413131489249
 31
0.0
  0
LINE
  5
AE
330
67
100
AcDbEntity
  8
1
  6
Continuous
 62
     7
100
AcDbLine
 10
-13.97205699992946
 20
387.5066083524459
 30
0.0
 11
-13.97205699992946
 21
404.6833770563178
 31
0.0
  0
LINE
  5
AF
330
67
100
AcDbEntity
  8
1
  6
CENTER_NEW
 62
     2
100
AcDbLine
 10
-21.92426473320393
 20
396.0949927043819
 30
0.0
 11
-12.38161545327466
 21
396.0949927043819
 31
0.0
  0
LINE
  5
B0
330
67
100
AcDbEntity
  8
1
  6
Continuous
 62
     7
100
AcDbLine
 10
-20.33382318654867
 20
401.6085233994515
 30
0.0
 11
-20.33382318654867
 21
390.5814620093122
 31
0.0
  0
LINE
  5
B1
330
67
100
AcDbEntity
  8
1
  6
Continuous
 62
     7
100
AcDbLine
 10
-20.33382318654867
 20
390.5814620093122
 30
0.0
 11
-20.86397036876724
 21
390.5814620093122
 31
0.0
  0
LINE
  5
B2
330
67
100
AcDbEntity
  8
1
  6
Continuous
 62
     7
100
AcDbLine
 10
-20.33382318654867
 20
404.6833770563178
 30
0.0
 11
-20.33382318654867
 21
401.6085233994515
 31
0.0
  0
LINE
  5
B3
330
67
100
AcDbEntity
  8
1
  6
Continuous
 62
     7
100
AcDbLine
 10
-20.86397036876724
 20
401.6085233994515
 30
0.0
 11
-20.33382318654867
 21
401.6085233994515
 31
0.0
  0
LINE
  5
B4
330
67
100
AcDbEntity
  8
1
  6
Continuous
 62
     7
100
AcDbLine
 10
-15.03235136436615
 20
405.7436714207543
 30
0.0
 11
-17.68308727545764
 21
405.7436714207543
 31
0.0
  0
LINE
  5
B5
330
67
100
AcDbEntity
  8
1
  6
Continuous
 62
     7
100
AcDbLine
 10
-20.33382318654867
 20
390.5814620093122
 30
0.0
 11
-20.33382318654867
 21
387.5066083524459
 31
0.0
  0
LINE
  5
B6
330
67
100
AcDbEntity
  8
1
  6
Continuous
 62
     7
100
AcDbLine
 10
-19.27352882211244
 20
386.4463139880094
 30
0.0
 11
-15.03235136436615
 21
386.4463139880094
 31
0.0
  0
LINE
  5
B7
330
67
100
AcDbEntity
  8
1
  6
Continuous
 62
     7
100
AcDbLine
 10
-38.35882738197006
 20
404.6833770563178
 30
0.0
 11
-38.35882738197006
 21
387.5066083524459
 31
0.0
  0
LINE
  5
B8
330
67
100
AcDbEntity
  8
1
  6
CENTER_NEW
 62
     2
100
AcDbLine
 10
-39.94926892862486
 20
396.0949927043819
 30
0.0
 11
-21.92426473320393
 21
396.0949927043819
 31
0.0
  0
LINE
  5
B9
330
67
100
AcDbEntity
  8
1
  6
Continuous
 62
     7
100
AcDbLine
 10
-31.99706119535085
 20
390.5814620093122
 30
0.0
 11
-31.99706119535085
 21
401.6085233994515
 31
0.0
  0
LINE
  5
BA
330
67
100
AcDbEntity
  8
1
  6
Continuous
 62
     7
100
AcDbLine
 10
-31.46691401313274
 20
390.5814620093122
 30
0.0
 11
-31.99706119535085
 21
390.5814620093122
 31
0.0
  0
LINE
  5
BB
330
67
100
AcDbEntity
  8
1
  6
Continuous
 62
     7
100
AcDbLine
 10
-31.99706119535085
 20
401.6085233994515
 30
0.0
 11
-31.99706119535085
 21
404.6833770563178
 31
0.0
  0
LINE
  5
BC
330
67
100
AcDbEntity
  8
1
  6
Continuous
 62
     7
100
AcDbLine
 10
-31.99706119535085
 20
401.6085233994515
 30
0.0
 11
-31.46691401313274
 21
401.6085233994515
 31
0.0
  0
LINE
  5
BD
330
67
100
AcDbEntity
  8
1
  6
Continuous
 62
     7
100
AcDbLine
 10
-33.05735555978754
 20
405.7436714207543
 30
0.0
 11
-34.64779710644234
 21
405.7436714207543
 31
0.0
  0
LINE
  5
BE
330
67
100
AcDbEntity
  8
1
  6
Continuous
 62
     7
100
AcDbLine
 10
-31.99706119535085
 20
387.5066083524459
 30
0.0
 11
-31.99706119535085
 21
390.5814620093122
 31
0.0
  0
LINE
  5
BF
330
67
100
AcDbEntity
  8
1
  6
Continuous
 62
     7
100
AcDbLine
 10
-37.29853301753337
 20
386.4463139880094
 30
0.0
 11
-33.05735555978754
 21
386.4463139880094
 31
0.0
  0
LINE
  5
C0
330
67
100
AcDbEntity
  8
1
  6
Continuous
 62
     7
100
AcDbLine
 10
100.6993067335779
 20
382.8413131489249
 30
0.0
 11
101.6800790206816
 21
382.8413131489249
 31
0.0
  0
LINE
  5
C1
330
67
100
AcDbEntity
  8
1
  6
Continuous
 62
     7
100
AcDbLine
 10
100.6993067335779
 20
382.8413131489249
 30
0.0
 11
100.6993067335779
 21
377.5398413267424
 31
0.0
  0
LINE
  5
C2
330
67
100
AcDbEntity
  8
1
  6
Continuous
 62
     7
100
AcDbLine
 10
94.3101570311828
 20
382.8413131489249
 30
0.0
 11
100.6993067335779
 21
382.8413131489249
 31
0.0
  0
LINE
  5
C3
330
67
100
AcDbEntity
  8
1
  6
Continuous
 62
     7
100
AcDbLine
 10
94.3101570311828
 20
382.8413131489249
 30
0.0
 11
94.3101570311828
 21
377.5398413267424
 31
0.0
  0
LINE
  5
C4
330
67
100
AcDbEntity
  8
1
  6
Continuous
 62
     7
100
AcDbLine
 10
93.35676825985499
 20
382.8413131489249
 30
0.0
 11
94.3101570311828
 21
382.8413131489249
 31
0.0
  0
LINE
  5
C5
330
67
100
AcDbEntity
  8
1
  6
Continuous
 62
     7
100
AcDbLine
 10
93.35676825985499
 20
377.5398413267424
 30
0.0
 11
93.35676825985499
 21
382.8413131489249
 31
0.0
  0
LINE
  5
C6
330
67
100
AcDbEntity
  8
1
  6
Continuous
 62
     7
100
AcDbLine
 10
101.6800790206816
 20
382.8413131489249
 30
0.0
 11
125.0860771156185
 21
382.8413131489249
 31
0.0
  0
LINE
  5
C7
330
67
100
AcDbEntity
  8
1
  6
Continuous
 62
     7
100
AcDbLine
 10
101.6800790206816
 20
382.8413131489249
 30
0.0
 11
101.6800790206816
 21
377.5398413267424
 31
0.0
  0
LINE
  5
C9
330
67
100
AcDbEntity
  8
1
  6
Continuous
 62
     7
100
AcDbLine
 10
103.3500426446694
 20
390.2633736999808
 30
0.0
 11
103.3500426446694
 21
396.0949927043819
 31
0.0
  0
LINE
  5
CA
330
67
100
AcDbEntity
  8
1
  6
Continuous
 62
     7
100
AcDbLine
 10
97.51842364026837
 20
390.2633736999808
 30
0.0
 11
103.3500426446694
 21
390.2633736999808
 31
0.0
  0
LINE
  5
CB
330
67
100
AcDbEntity
  8
1
  6
Continuous
 62
     7
100
AcDbLine
 10
108.5454850304086
 20
405.5125317855802
 30
0.0
 11
108.5454850304086
 21
408.8185250776201
 31
0.0
  0
LINE
  5
CC
330
67
100
AcDbEntity
  8
1
  6
Continuous
 62
     7
100
AcDbLine
 10
86.49136225012808
 20
408.8185250776201
 30
0.0
 11
69.95077016491814
 21
408.8185250776201
 31
0.0
  0
LINE
  5
CD
330
67
100
AcDbEntity
  8
1
  6
Continuous
 62
     7
100
AcDbLine
 10
86.49136225012808
 20
408.8185250776201
 30
0.0
 11
86.49136225012808
 21
405.5125317855802
 31
0.0
  0
LINE
  5
CE
330
67
100
AcDbEntity
  8
1
  6
Continuous
 62
     7
100
AcDbLine
 10
91.68680463586722
 20
390.2633736999808
 30
0.0
 11
97.51842364026837
 21
390.2633736999808
 31
0.0
  0
LINE
  5
CF
330
67
100
AcDbEntity
  8
1
  6
Continuous
 62
     7
100
AcDbLine
 10
91.68680463586722
 20
396.0949927043819
 30
0.0
 11
91.68680463586722
 21
390.2633736999808
 31
0.0
  0
LINE
  5
D0
330
67
100
AcDbEntity
  8
1
  6
Continuous
 62
     7
100
AcDbLine
 10
69.95077016491814
 20
408.8185250776201
 30
0.0
 11
69.95077016491814
 21
382.8413131489249
 31
0.0
  0
LINE
  5
D1
330
67
100
AcDbEntity
  8
1
  6
Continuous
 62
     7
100
AcDbLine
 10
125.0860771156185
 20
408.8185250776201
 30
0.0
 11
86.49136225012808
 21
408.8185250776201
 31
0.0
  0
LINE
  5
D2
330
67
100
AcDbEntity
  8
1
  6
Continuous
 62
     7
100
AcDbLine
 10
125.0860771156185
 20
382.8413131489249
 30
0.0
 11
125.0860771156185
 21
408.8185250776201
 31
0.0
  0
LINE
  5
D3
330
67
100
AcDbEntity
  8
1
  6
Continuous
 62
     7
100
AcDbLine
 10
69.95077016491814
 20
382.8413131489249
 30
0.0
 11
93.35676825985499
 21
382.8413131489249
 31
0.0
  0
LINE
  5
D4
330
67
100
AcDbEntity
  8
1
  6
Continuous
 62
     7
100
AcDbLine
 10
72.60150607600962
 20
377.5398413267424
 30
0.0
 11
72.60150607600962
 21
329.8265949270978
 31
0.0
  0
LINE
  5
D6
330
67
100
AcDbEntity
  8
1
  6
Continuous
 62
     7
100
AcDbLine
 10
72.60150607600962
 20
377.5398413267424
 30
0.0
 11
72.07135889379151
 21
377.5398413267424
 31
0.0
  0
LINE
  5
D7
330
67
100
AcDbEntity
  8
1
  6
Continuous
 62
     7
100
AcDbLine
 10
68.36032861826334
 20
377.5398413267424
 30
0.0
 11
68.36032861826334
 21
330.356742109316
 31
0.0
  0
LINE
  5
D8
330
67
100
AcDbEntity
  8
1
  6
Continuous
 62
     7
100
AcDbLine
 10
68.36032861826334
 20
330.356742109316
 30
0.0
 11
72.07135889379151
 21
330.356742109316
 31
0.0
  0
LINE
  5
D9
330
67
100
AcDbEntity
  8
1
  6
Continuous
 62
     7
100
AcDbLine
 10
72.60150607600962
 20
330.8868892915346
 30
0.0
 11
72.60150607600962
 21
377.5398413267424
 31
0.0
  0
LINE
  5
DA
330
67
100
AcDbEntity
  8
1
  6
Continuous
 62
     7
100
AcDbLine
 10
72.60150607600962
 20
330.8868892915346
 30
0.0
 11
72.07135889379151
 21
330.356742109316
 31
0.0
  0
LINE
  5
DB
330
67
100
AcDbEntity
  8
1
  6
Continuous
 62
     7
100
AcDbLine
 10
72.07135889379151
 20
330.356742109316
 30
0.0
 11
72.07135889379151
 21
377.5398413267424
 31
0.0
  0
LINE
  5
DC
330
67
100
AcDbEntity
  8
1
  6
Continuous
 62
     7
100
AcDbLine
 10
72.07135889379151
 20
377.5398413267424
 30
0.0
 11
68.36032861826334
 21
377.5398413267424
 31
0.0
  0
LINE
  5
DD
330
67
100
AcDbEntity
  8
1
  6
CENTER_NEW
 62
     2
100
AcDbLine
 10
125.0966800592627
 20
396.0949927043819
 30
0.0
 11
103.8695868832433
 21
396.0949927043819
 31
0.0
  0
LINE
  5
DE
330
67
100
AcDbEntity
  8
1
  6
CENTER_NEW
 62
     2
100
AcDbLine
 10
114.483133471253
 20
406.7085392923917
 30
0.0
 11
114.483133471253
 21
385.4814461163721
 31
0.0
  0
LINE
  5
DF
330
67
100
AcDbEntity
  8
1
  6
CENTER_NEW
 62
     2
100
AcDbLine
 10
91.16726039729336
 20
396.0949927043819
 30
0.0
 11
69.9401672212739
 21
396.0949927043819
 31
0.0
  0
LINE
  5
E0
330
67
100
AcDbEntity
  8
1
  6
CENTER_NEW
 62
     2
100
AcDbLine
 10
80.55371380928361
 20
406.7085392923917
 30
0.0
 11
80.55371380928361
 21
385.4814461163721
 31
0.0
  0
ARC
  5
E1
330
67
100
AcDbEntity
  8
1
  6
Continuous
 62
     7
100
AcDbCircle
 10
114.483133471253
 20
396.0949927043819
 30
0.0
 40
11.13309082658373
100
AcDbArc
 50
122.230952635504
 51
180.0
  0
ARC
  5
E2
330
67
100
AcDbEntity
  8
1
  6
Continuous
 62
     7
100
AcDbCircle
 10
80.55371380928361
 20
396.0949927043819
 30
0.0
 40
11.13309082658371
100
AcDbArc
 50
0.0
 51
57.76904736449592
  0
CIRCLE
  5
E6
330
67
100
AcDbEntity
  8
1
  6
Continuous
 62
     7
100
AcDbCircle
 10
114.483133471253
 20
396.0949927043819
 30
0.0
 40
3.551986120862379
  0
CIRCLE
  5
E7
330
67
100
AcDbEntity
  8
1
  6
Continuous
 62
     7
100
AcDbCircle
 10
114.483133471253
 20
396.0949927043819
 30
0.0
 40
4.029118584858819
  0
CIRCLE
  5
E8
330
67
100
AcDbEntity
  8
1
  6
Continuous
 62
     7
100
AcDbCircle
 10
114.483133471253
 20
396.0949927043819
 30
0.0
 40
5.831619004400993
  0
CIRCLE
  5
E9
330
67
100
AcDbEntity
  8
1
  6
Continuous
 62
     7
100
AcDbCircle
 10
114.483133471253
 20
396.0949927043819
 30
0.0
 40
9.64867871637251
  0
CIRCLE
  5
EA
330
67
100
AcDbEntity
  8
1
  6
Continuous
 62
     7
100
AcDbCircle
 10
80.55371380928361
 20
396.0949927043819
 30
0.0
 40
3.551986120862379
  0
CIRCLE
  5
EB
330
67
100
AcDbEntity
  8
1
  6
Continuous
 62
     7
100
AcDbCircle
 10
80.55371380928361
 20
396.0949927043819
 30
0.0
 40
4.029118584858812
  0
CIRCLE
  5
EC
330
67
100
AcDbEntity
  8
1
  6
Continuous
 62
     7
100
AcDbCircle
 10
80.55371380928361
 20
396.0949927043819
 30
0.0
 40
5.831619004400992
  0
CIRCLE
  5
ED
330
67
100
AcDbEntity
  8
1
  6
Continuous
 62
     7
100
AcDbCircle
 10
80.55371380928361
 20
396.0949927043819
 30
0.0
 40
9.648678716372511
  0
CIRCLE
  5
EE
330
67
100
AcDbEntity
  8
1
  6
Continuous
 62
     7
100
AcDbCircle
 10
97.51842364026837
 20
406.1677891665291
 30
0.0
 40
1.325367955545679
  0
ARC
  5
EF
330
67
100
AcDbEntity
  8
1
  6
Continuous
 62
     7
100
AcDbCircle
 10
-15.03235136436615
 20
387.5066083524459
 30
0.0
 40
1.060294364436544
100
AcDbArc
 50
270.0
 51
0.0
  0
ARC
  5
F0
330
67
100
AcDbEntity
  8
1
  6
Continuous
 62
     7
100
AcDbCircle
 10
-15.03235136436615
 20
404.6833770563178
 30
0.0
 40
1.060294364436544
100
AcDbArc
 50
0.0
 51
90.0
  0
ARC
  5
F1
330
67
100
AcDbEntity
  8
1
  6
Continuous
 62
     7
100
AcDbCircle
 10
-19.27352882211244
 20
404.6833770563178
 30
0.0
 40
1.060294364436544
100
AcDbArc
 50
90.0
 51
180.0
  0
ARC
  5
F2
330
67
100
AcDbEntity
  8
1
  6
Continuous
 62
     7
100
AcDbCircle
 10
-19.27352882211244
 20
387.5066083524459
 30
0.0
 40
1.060294364436544
100
AcDbArc
 50
180.0
 51
270.0
  0
ARC
  5
F3
330
67
100
AcDbEntity
  8
1
  6
Continuous
 62
     7
100
AcDbCircle
 10
-37.29853301753337
 20
387.5066083524459
 30
0.0
 40
1.060294364436544
100
AcDbArc
 50
180.0
 51
270.0
  0
ARC
  5
F4
330
67
100
AcDbEntity
  8
1
  6
Continuous
 62
     7
100
AcDbCircle
 10
-37.29853301753337
 20
404.6833770563178
 30
0.0
 40
1.060294364436544
100
AcDbArc
 50
90.0
 51
180.0
  0
ARC
  5
F5
330
67
100
AcDbEntity
  8
1
  6
Continuous
 62
     7
100
AcDbCircle
 10
-33.05735555978754
 20
404.6833770563178
 30
0.0
 40
1.060294364436544
100
AcDbArc
 50
0.0
 51
90.0
  0
ARC
  5
F6
330
67
100
AcDbEntity
  8
1
  6
Continuous
 62
     7
100
AcDbCircle
 10
-33.05735555978754
 20
387.5066083524459
 30
0.0
 40
1.060294364436544
100
AcDbArc
 50
270.0
 51
0.0
  0
LINE
  5
24E
330
67
100
AcDbEntity
  8
1
  6
Continuous
 62
     7
100
AcDbLine
 10
107.0610729201971
 20
377.5398413267424
 30
0.0
 11
106.0007785557609
 21
377.5398413267424
 31
0.0
  0
LINE
  5
24F
330
67
100
AcDbEntity
  8
1
  6
Continuous
 62
     7
100
AcDbLine
 10
72.60150607600962
 20
329.8265949270978
 30
0.0
 11
106.0007785557609
 21
329.8265949270978
 31
0.0
  0
LINE
  5
250
330
67
100
AcDbEntity
  8
1
  6
Continuous
 62
     7
100
AcDbLine
 10
107.0610729201971
 20
330.8868892915346
 30
0.0
 11
107.0610729201971
 21
377.5398413267424
 31
0.0
  0
LINE
  5
251
330
67
100
AcDbEntity
  8
1
  6
Continuous
 62
     7
100
AcDbLine
 10
107.0610729201971
 20
330.8868892915346
 30
0.0
 11
106.0007785557609
 21
329.8265949270978
 31
0.0
  0
LINE
  5
252
330
67
100
AcDbEntity
  8
1
  6
Continuous
 62
     7
100
AcDbLine
 10
106.0007785557609
 20
329.8265949270978
 30
0.0
 11
106.0007785557609
 21
377.5398413267424
 31
0.0
  0
LINE
  5
253
330
67
100
AcDbEntity
  8
1
  6
Continuous
 62
     7
100
AcDbLine
 10
106.0007785557609
 20
377.5398413267424
 30
0.0
 11
101.1499318384635
 21
377.5398413267424
 31
0.0
  0
LINE
  5
256
330
67
100
AcDbEntity
  8
1
  6
Continuous
 62
     7
100
AcDbLine
 10
-17.78911671190099
 20
377.5398413267424
 30
0.0
 11
-34.54176766999808
 21
377.5398413267424
 31
0.0
  0
LINE
  5
257
330
67
100
AcDbEntity
  8
1
  6
Continuous
 62
     7
100
AcDbLine
 10
-34.54176766999808
 20
377.5398413267424
 30
0.0
 11
-34.54176766999808
 21
338.2029204061467
 31
0.0
  0
LINE
  5
258
330
67
100
AcDbEntity
  8
1
  6
Continuous
 62
     7
100
AcDbLine
 10
-17.78911671190099
 20
338.2029204061467
 30
0.0
 11
-17.78911671190099
 21
377.5398413267424
 31
0.0
  0
LINE
  5
259
330
67
100
AcDbEntity
  8
1
  6
Continuous
 62
     7
100
AcDbLine
 10
101.1499318384635
 20
377.5398413267424
 30
0.0
 11
93.88691544207311
 21
377.5398413267424
 31
0.0
  0
LINE
  5
25A
330
67
100
AcDbEntity
  8
1
  6
Continuous
 62
     7
100
AcDbLine
 10
93.88691544207311
 20
377.5398413267424
 30
0.0
 11
72.60150607600962
 21
377.5398413267424
 31
0.0
  0
ARC
  5
25B
330
67
100
AcDbEntity
  8
1
  6
Continuous
 62
     7
100
AcDbCircle
 10
-26.16544219094976
 20
338.2029204061467
 30
0.0
 40
8.376325479048555
100
AcDbArc
 50
180.0
 51
270.0
  0
ARC
  5
25C
330
67
100
AcDbEntity
  8
1
  6
Continuous
 62
     7
100
AcDbCircle
 10
-26.16544219094976
 20
338.2029204061467
 30
0.0
 40
8.376325479048706
100
AcDbArc
 50
270.0
 51
0.0
  0
LINE
  5
25D
330
67
100
AcDbEntity
  8
1
  6
Continuous
 62
     7
100
AcDbLine
 10
-25.741324445175
 20
340.1114502621329
 30
0.0
 11
-25.741324445175
 21
341.3838034994562
 31
0.0
  0
LINE
  5
25E
330
67
100
AcDbEntity
  8
1
  6
Continuous
 62
     7
100
AcDbLine
 10
-24.04485346207684
 20
339.6873325163581
 30
0.0
 11
-25.31720669940023
 21
339.6873325163581
 31
0.0
  0
LINE
  5
25F
330
67
100
AcDbEntity
  8
1
  6
Continuous
 62
     7
100
AcDbLine
 10
-24.04485346207684
 20
338.8390970248086
 30
0.0
 11
-24.04485346207684
 21
339.6873325163581
 31
0.0
  0
LINE
  5
260
330
67
100
AcDbEntity
  8
1
  6
Continuous
 62
     7
100
AcDbLine
 10
-25.31720669940023
 20
338.8390970248086
 30
0.0
 11
-24.04485346207684
 21
338.8390970248086
 31
0.0
  0
LINE
  5
261
330
67
100
AcDbEntity
  8
1
  6
Continuous
 62
     7
100
AcDbLine
 10
-25.741324445175
 20
337.1426260417099
 30
0.0
 11
-25.741324445175
 21
338.4149792790338
 31
0.0
  0
LINE
  5
262
330
67
100
AcDbEntity
  8
1
  6
Continuous
 62
     7
100
AcDbLine
 10
-26.58955993672407
 20
337.1426260417099
 30
0.0
 11
-25.741324445175
 21
337.1426260417099
 31
0.0
  0
LINE
  5
263
330
67
100
AcDbEntity
  8
1
  6
Continuous
 62
     7
100
AcDbLine
 10
-26.58955993672407
 20
338.4149792790338
 30
0.0
 11
-26.58955993672407
 21
337.1426260417099
 31
0.0
  0
LINE
  5
264
330
67
100
AcDbEntity
  8
1
  6
Continuous
 62
     7
100
AcDbLine
 10
-28.28603091982314
 20
338.8390970248086
 30
0.0
 11
-27.01367768249884
 21
338.8390970248086
 31
0.0
  0
LINE
  5
265
330
67
100
AcDbEntity
  8
1
  6
Continuous
 62
     7
100
AcDbLine
 10
-28.28603091982314
 20
339.6873325163581
 30
0.0
 11
-28.28603091982314
 21
338.8390970248086
 31
0.0
  0
LINE
  5
266
330
67
100
AcDbEntity
  8
1
  6
Continuous
 62
     7
100
AcDbLine
 10
-27.01367768249884
 20
339.6873325163581
 30
0.0
 11
-28.28603091982314
 21
339.6873325163581
 31
0.0
  0
LINE
  5
267
330
67
100
AcDbEntity
  8
1
  6
Continuous
 62
     7
100
AcDbLine
 10
-26.58955993672407
 20
341.3838034994562
 30
0.0
 11
-26.58955993672407
 21
340.1114502621329
 31
0.0
  0
LINE
  5
268
330
67
100
AcDbEntity
  8
1
  6
Continuous
 62
     7
100
AcDbLine
 10
-25.741324445175
 20
341.3838034994562
 30
0.0
 11
-26.58955993672407
 21
341.3838034994562
 31
0.0
  0
LINE
  5
269
330
67
100
AcDbEntity
  8
1
  6
Continuous
 62
     7
100
AcDbLine
 10
-25.63529500873165
 20
352.5168943260398
 30
0.0
 11
-25.63529500873165
 21
354.1073358726947
 31
0.0
  0
LINE
  5
26A
330
67
100
AcDbEntity
  8
1
  6
Continuous
 62
     7
100
AcDbLine
 10
-23.51470627985873
 20
351.9867471438217
 30
0.0
 11
-25.10514782651354
 21
351.9867471438217
 31
0.0
  0
LINE
  5
26B
330
67
100
AcDbEntity
  8
1
  6
Continuous
 62
     7
100
AcDbLine
 10
-23.51470627985873
 20
350.926452779385
 30
0.0
 11
-23.51470627985873
 21
351.9867471438217
 31
0.0
  0
LINE
  5
26C
330
67
100
AcDbEntity
  8
1
  6
Continuous
 62
     7
100
AcDbLine
 10
-25.10514782651354
 20
350.926452779385
 30
0.0
 11
-23.51470627985873
 21
350.926452779385
 31
0.0
  0
LINE
  5
26D
330
67
100
AcDbEntity
  8
1
  6
Continuous
 62
     7
100
AcDbLine
 10
-25.63529500873165
 20
348.8058640505122
 30
0.0
 11
-25.63529500873165
 21
350.3963055971669
 31
0.0
  0
LINE
  5
26E
330
67
100
AcDbEntity
  8
1
  6
Continuous
 62
     7
100
AcDbLine
 10
-26.69558937316833
 20
348.8058640505122
 30
0.0
 11
-25.63529500873165
 21
348.8058640505122
 31
0.0
  0
LINE
  5
26F
330
67
100
AcDbEntity
  8
1
  6
Continuous
 62
     7
100
AcDbLine
 10
-26.69558937316833
 20
350.3963055971669
 30
0.0
 11
-26.69558937316833
 21
348.8058640505122
 31
0.0
  0
LINE
  5
270
330
67
100
AcDbEntity
  8
1
  6
Continuous
 62
     7
100
AcDbLine
 10
-28.81617810204125
 20
350.926452779385
 30
0.0
 11
-27.22573655538645
 21
350.926452779385
 31
0.0
  0
LINE
  5
271
330
67
100
AcDbEntity
  8
1
  6
Continuous
 62
     7
100
AcDbLine
 10
-28.81617810204125
 20
351.9867471438217
 30
0.0
 11
-28.81617810204125
 21
350.926452779385
 31
0.0
  0
LINE
  5
272
330
67
100
AcDbEntity
  8
1
  6
Continuous
 62
     7
100
AcDbLine
 10
-27.22573655538645
 20
351.9867471438217
 30
0.0
 11
-28.81617810204125
 21
351.9867471438217
 31
0.0
  0
LINE
  5
273
330
67
100
AcDbEntity
  8
1
  6
Continuous
 62
     7
100
AcDbLine
 10
-26.69558937316833
 20
354.1073358726947
 30
0.0
 11
-26.69558937316833
 21
352.5168943260398
 31
0.0
  0
LINE
  5
274
330
67
100
AcDbEntity
  8
1
  6
Continuous
 62
     7
100
AcDbLine
 10
-25.63529500873165
 20
354.1073358726947
 30
0.0
 11
-26.69558937316833
 21
354.1073358726947
 31
0.0
  0
LINE
  5
275
330
67
100
AcDbEntity
  8
1
  6
Continuous
 62
     3
100
AcDbLine
 10
-33.48147330556185
 20
355.3132157529879
 30
0.0
 11
-31.79820891902409
 21
358.761698461102
 31
0.0
  0
LINE
  5
276
330
67
100
AcDbEntity
  8
1
  6
Continuous
 62
     3
100
AcDbLine
 10
-31.79820891902409
 20
358.761698461102
 30
0.0
 11
-31.30551794603798
 21
358.3370045288168
 31
0.0
  0
LINE
  5
277
330
67
100
AcDbEntity
  8
1
  6
Continuous
 62
     3
100
AcDbLine
 10
-30.31423477644785
 20
357.4825298775988
 30
0.0
 11
-33.48147330556185
 21
355.3132157529879
 31
0.0
  0
LINE
  5
278
330
67
100
AcDbEntity
  8
1
  6
Continuous
 62
     3
100
AcDbLine
 10
-30.81102603021236
 20
357.9107582045911
 30
0.0
 11
-30.31423477644785
 21
357.4825298775988
 31
0.0
  0
LINE
  5
279
330
67
100
AcDbEntity
  8
1
  6
Continuous
 62
     3
100
AcDbLine
 10
-21.025366435862
 20
358.3370045288168
 30
0.0
 11
-20.53267546287498
 21
358.761698461102
 31
0.0
  0
LINE
  5
27A
330
67
100
AcDbEntity
  8
1
  6
Continuous
 62
     3
100
AcDbLine
 10
-22.01664960545167
 20
357.4825298775988
 30
0.0
 11
-21.51985835168716
 21
357.9107582045911
 31
0.0
  0
LINE
  5
27B
330
67
100
AcDbEntity
  8
1
  6
Continuous
 62
     3
100
AcDbLine
 10
-18.84941107633767
 20
355.3132157529879
 30
0.0
 11
-22.01664960545167
 21
357.4825298775988
 31
0.0
  0
LINE
  5
27C
330
67
100
AcDbEntity
  8
1
  6
Continuous
 62
     3
100
AcDbLine
 10
-20.53267546287498
 20
358.761698461102
 30
0.0
 11
-18.84941107633767
 21
355.3132157529879
 31
0.0
  0
LINE
  5
27D
330
67
100
AcDbEntity
  8
1
  6
CENTER_NEW
 62
     2
100
AcDbLine
 10
-22.45441191542204
 20
364.816308953504
 30
0.0
 11
-29.87647246647794
 21
364.816308953504
 31
0.0
  0
LINE
  5
27E
330
67
100
AcDbEntity
  8
1
  6
CENTER_NEW
 62
     2
100
AcDbLine
 10
-32.79228196867825
 20
351.4565999616036
 30
0.0
 11
-19.53860241322127
 21
351.4565999616036
 31
0.0
  0
LINE
  5
27F
330
67
100
AcDbEntity
  8
1
  6
CENTER_NEW
 62
     2
100
AcDbLine
 10
-20.59889677765796
 20
339.2632147705833
 30
0.0
 11
-31.73198760424157
 21
339.2632147705833
 31
0.0
  0
LINE
  5
280
330
67
100
AcDbEntity
  8
1
  6
Continuous
 62
     7
100
AcDbLine
 10
-17.78911671190099
 20
377.5398413267424
 30
0.0
 11
-34.54176766999808
 21
377.5398413267424
 31
0.0
  0
LINE
  5
281
330
67
100
AcDbEntity
  8
1
  6
Continuous
 62
     7
100
AcDbLine
 10
-34.54176766999808
 20
377.5398413267424
 30
0.0
 11
-34.54176766999808
 21
338.7330675883648
 31
0.0
  0
LINE
  5
282
330
67
100
AcDbEntity
  8
1
  6
Continuous
 62
     7
100
AcDbLine
 10
-17.78911671190099
 20
338.7330675883648
 30
0.0
 11
-17.78911671190099
 21
377.5398413267424
 31
0.0
  0
LINE
  5
283
330
67
100
AcDbEntity
  8
1
  6
CENTER_NEW
 62
     2
100
AcDbLine
 10
-26.16544219094976
 20
409.8788194420569
 30
0.0
 11
-26.16544219094976
 21
324.5251231049153
 31
0.0
  0
ARC
  5
286
330
67
100
AcDbEntity
  8
1
  6
Continuous
 62
     3
100
AcDbCircle
 10
-26.16544219094976
 20
351.4565999616036
 30
0.0
 40
8.588384351935996
100
AcDbArc
 50
53.23805847507671
 51
126.7619415249233
  0
ARC
  5
287
330
67
100
AcDbEntity
  8
1
  6
Continuous
 62
     3
100
AcDbCircle
 10
-26.16544219094976
 20
351.4565999616036
 30
0.0
 40
7.952207733274089
100
AcDbArc
 50
54.25435774073018
 51
125.7456422592698
  0
ARC
  5
28C
330
67
100
AcDbEntity
  8
1
  6
Continuous
 62
     7
100
AcDbCircle
 10
-26.16544219094976
 20
338.7330675883648
 30
0.0
 40
8.376325479048555
100
AcDbArc
 50
180.0
 51
0.0
  0
ARC
  5
28D
330
67
100
AcDbEntity
  8
1
  6
Continuous
 62
     7
100
AcDbCircle
 10
-25.31720669940023
 20
340.1114502621329
 30
0.0
 40
0.4241177457746539
100
AcDbArc
 50
180.0
 51
270.0
  0
ARC
  5
28E
330
67
100
AcDbEntity
  8
1
  6
Continuous
 62
     7
100
AcDbCircle
 10
-27.01367768249884
 20
340.1114502621329
 30
0.0
 40
0.4241177457746315
100
AcDbArc
 50
270.0
 51
0.0
  0
ARC
  5
28F
330
67
100
AcDbEntity
  8
1
  6
Continuous
 62
     7
100
AcDbCircle
 10
-27.01367768249884
 20
338.4149792790338
 30
0.0
 40
0.4241177457746539
100
AcDbArc
 50
0.0
 51
90.0
  0
ARC
  5
290
330
67
100
AcDbEntity
  8
1
  6
Continuous
 62
     7
100
AcDbCircle
 10
-25.31720669940023
 20
338.4149792790338
 30
0.0
 40
0.4241177457745033
100
AcDbArc
 50
90.0
 51
180.0
  0
ARC
  5
291
330
67
100
AcDbEntity
  8
1
  6
Continuous
 62
     7
100
AcDbCircle
 10
-25.10514782651354
 20
352.5168943260398
 30
0.0
 40
0.5301471822182722
100
AcDbArc
 50
180.0
 51
270.0
  0
ARC
  5
292
330
67
100
AcDbEntity
  8
1
  6
Continuous
 62
     7
100
AcDbCircle
 10
-27.22573655538645
 20
352.5168943260398
 30
0.0
 40
0.5301471822182722
100
AcDbArc
 50
270.0
 51
0.0
  0
ARC
  5
293
330
67
100
AcDbEntity
  8
1
  6
Continuous
 62
     7
100
AcDbCircle
 10
-27.22573655538645
 20
350.3963055971669
 30
0.0
 40
0.5301471822182722
100
AcDbArc
 50
0.0
 51
90.0
  0
ARC
  5
294
330
67
100
AcDbEntity
  8
1
  6
Continuous
 62
     7
100
AcDbCircle
 10
-25.10514782651354
 20
350.3963055971669
 30
0.0
 40
0.5301471822182722
100
AcDbArc
 50
90.0
 51
180.0
  0
TEXT
  5
745
330
67
100
AcDbEntity
  8
1
 62
     3
100
AcDbText
 10
-32.74806769368081
 20
365.0813825446129
 30
0.0
 40
3.711030275527904
  1
下
 41
0.8009999999999999
  7
CONVERTER_11
100
AcDbText
  0
TEXT
  5
746
330
67
100
AcDbEntity
  8
1
 62
     3
100
AcDbText
 10
-22.35718292220292
 20
365.0813825446129
 30
0.0
 40
3.711030275527904
  1
上
 41
0.8009999999999999
  7
CONVERTER_11
100
AcDbText
  0
ARC
  5
747
330
67
100
AcDbEntity
  8
1
  6
Continuous
 62
     7
100
AcDbCircle
 10
-26.16544219094976
 20
364.8163089535038
 30
0.0
 40
2.65073591109126
100
AcDbArc
 50
90.0
 51
270.0
  0
ARC
  5
748
330
67
100
AcDbEntity
  8
1
  6
Continuous
 62
     7
100
AcDbCircle
 10
-26.16544219094976
 20
364.8163089535038
 30
0.0
 40
2.65073591109126
100
AcDbArc
 50
270.0
 51
90.0
  0
ARC
  5
749
330
67
100
AcDbEntity
  8
1
  6
Continuous
 62
     7
100
AcDbCircle
 10
-26.16544219094976
 20
364.8163089535037
 30
0.0
 40
1.749485701320509
100
AcDbArc
 50
90.0
 51
270.0
  0
ARC
  5
74A
330
67
100
AcDbEntity
  8
1
  6
Continuous
 62
     7
100
AcDbCircle
 10
-26.16544219094976
 20
364.8163089535037
 30
0.0
 40
1.749485701320566
100
AcDbArc
 50
270.0
 51
90.0
  0
ARC
  5
74B
330
67
100
AcDbEntity
  8
1
  6
Continuous
 62
     7
100
AcDbCircle
 10
-26.16544219094976
 20
351.4565999616036
 30
0.0
 40
5.566545413291805
100
AcDbArc
 50
90.0
 51
270.0
  0
ARC
  5
74C
330
67
100
AcDbEntity
  8
1
  6
Continuous
 62
     7
100
AcDbCircle
 10
-26.16544219094976
 20
351.4565999616036
 30
0.0
 40
5.566545413291748
100
AcDbArc
 50
270.0
 51
90.0
  0
ARC
  5
74D
330
67
100
AcDbEntity
  8
1
  6
Continuous
 62
     7
100
AcDbCircle
 10
-26.16544219094976
 20
339.2632147705831
 30
0.0
 40
4.50625104885529
100
AcDbArc
 50
90.0
 51
270.0
  0
ARC
  5
74E
330
67
100
AcDbEntity
  8
1
  6
Continuous
 62
     7
100
AcDbCircle
 10
-26.16544219094976
 20
339.2632147705831
 30
0.0
 40
4.506251048855233
100
AcDbArc
 50
270.0
 51
90.0
  0
ARC
  5
74F
330
67
100
AcDbEntity
  8
1
  6
Continuous
 62
     7
100
AcDbCircle
 10
-26.16544219094999
 20
351.4565999616034
 30
0.0
 40
5.301471822182652
100
AcDbArc
 50
84.26082952273239
 51
264.2608295227323
  0
ARC
  5
750
330
67
100
AcDbEntity
  8
1
  6
Continuous
 62
     7
100
AcDbCircle
 10
-26.16544219094999
 20
351.4565999616034
 30
0.0
 40
5.301471822182652
100
AcDbArc
 50
264.2608295227323
 51
84.26082952273239
  0
ARC
  5
751
330
67
100
AcDbEntity
  8
1
  6
Continuous
 62
     7
100
AcDbCircle
 10
-26.16544219094976
 20
339.2632147705831
 30
0.0
 40
4.135148021302711
100
AcDbArc
 50
90.0
 51
270.0
  0
ARC
  5
752
330
67
100
AcDbEntity
  8
1
  6
Continuous
 62
     7
100
AcDbCircle
 10
-26.16544219094976
 20
339.2632147705831
 30
0.0
 40
4.135148021302711
100
AcDbArc
 50
270.0
 51
90.0
  0
LINE
  5
75C
330
67
100
AcDbEntity
  8
frame
100
AcDbLine
 10
99.87141517982355
 20
406.1677891665291
 30
0.0
 11
95.16543210071318
 21
406.1677891665291
 31
0.0
  0
LINE
  5
75D
330
67
100
AcDbEntity
  8
frame
100
AcDbLine
 10
97.51842364026837
 20
408.5207807060843
 30
0.0
 11
97.51842364026837
 21
403.8147976269739
 31
0.0
  0
ENDSEC
  0
SECTION
  2
OBJECTS
  0
DICTIONARY
  5
C
330
0
100
AcDbDictionary
281
     1
  3
ACAD_CIP_PREVIOUS_PRODUCT_INFO
350
707
  3
ACAD_COLOR
350
5E
  3
ACAD_GROUP
350
D
  3
ACAD_LAYOUT
350
5D
  3
ACAD_MATERIAL
350
10
  3
ACAD_MLEADERSTYLE
350
61
  3
ACAD_MLINESTYLE
350
5A
  3
ACAD_PLOTSETTINGS
350
5C
  3
ACAD_PLOTSTYLENAME
350
E
  3
ACAD_SCALELIST
350
3D
  3
ACAD_TABLESTYLE
350
5F
  3
ACAD_VISUALSTYLE
350
29
  3
ACDB_RECOMPOSE_DATA
350
772
  3
AcDbVariableDictionary
350
68B
  3
ASE_INDEX_DICTIONARY
350
75F
  3
DWGPROPS
350
773
  0
DICTIONARY
  5
6A2
330
2
100
AcDbDictionary
280
     1
281
     1
  3
ACAD_LAYERSTATES
360
6A3
  0
DICTIONARY
  5
698
330
4F
100
AcDbDictionary
280
     1
281
     1
  3
ADSK_XREC_LAYER_RECONCILED
360
699
  0
DICTIONARY
  5
9A
330
99
100
AcDbDictionary
280
     1
281
     1
  3
ADSK_XREC_LAYER_RECONCILED
360
9B
  0
DICTIONARY
  5
9F
330
9E
100
AcDbDictionary
280
     1
281
     1
  3
ADSK_XREC_LAYER_RECONCILED
360
A0
  0
DICTIONARY
  5
29D
330
29C
100
AcDbDictionary
280
     1
281
     1
  3
ADSK_XREC_LAYER_RECONCILED
360
29E
  0
DICTIONARY
  5
76A
330
769
100
AcDbDictionary
280
     1
281
     1
  3
ASDK_XREC_ANNO_SCALE_INFO
360
76B
  0
DICTIONARY
  5
299
330
67
100
AcDbDictionary
280
     1
281
     1
  3
ACAD_SORTENTS
360
29A
  0
DICTIONARY
  5
2A0
330
29F
100
AcDbDictionary
280
     1
281
     1
  3
AcDbBlockTableRecordData
360
7A1
  0
DICTIONARY
  5
2B6
330
2B5
100
AcDbDictionary
280
     1
281
     1
  3
AcDbContextDataManager
360
2B7
  0
DICTIONARY
  5
2BB
330
2BA
100
AcDbDictionary
280
     1
281
     1
  3
AcDbContextDataManager
360
2BC
  0
DICTIONARY
  5
2C0
330
2BF
100
AcDbDictionary
280
     1
281
     1
  3
AcDbContextDataManager
360
2C1
  0
DICTIONARY
  5
2C5
330
2C4
100
AcDbDictionary
280
     1
281
     1
  3
AcDbContextDataManager
360
2C6
  0
DICTIONARY
  5
2CA
330
2C9
100
AcDbDictionary
280
     1
281
     1
  3
AcDbContextDataManager
360
2CB
  0
DICTIONARY
  5
2CF
330
2CE
100
AcDbDictionary
280
     1
281
     1
  3
AcDbContextDataManager
360
2D0
  0
DICTIONARY
  5
2D4
330
2D3
100
AcDbDictionary
280
     1
281
     1
  3
AcDbContextDataManager
360
2D5
  0
DICTIONARY
  5
2D9
330
2D8
100
AcDbDictionary
280
     1
281
     1
  3
AcDbContextDataManager
360
2DA
  0
DICTIONARY
  5
2DE
330
2DD
100
AcDbDictionary
280
     1
281
     1
  3
AcDbContextDataManager
360
2DF
  0
DICTIONARY
  5
2E3
330
2E2
100
AcDbDictionary
280
     1
281
     1
  3
AcDbContextDataManager
360
2E4
  0
DICTIONARY
  5
2E8
330
2E7
100
AcDbDictionary
280
     1
281
     1
  3
AcDbContextDataManager
360
2E9
  0
DICTIONARY
  5
2ED
330
2EC
100
AcDbDictionary
280
     1
281
     1
  3
AcDbContextDataManager
360
2EE
  0
DICTIONARY
  5
2F2
330
2F1
100
AcDbDictionary
280
     1
281
     1
  3
AcDbContextDataManager
360
2F3
  0
DICTIONARY
  5
2F7
330
2F6
100
AcDbDictionary
280
     1
281
     1
  3
AcDbContextDataManager
360
2F8
  0
DICTIONARY
  5
2FC
330
2FB
100
AcDbDictionary
280
     1
281
     1
  3
AcDbContextDataManager
360
2FD
  0
DICTIONARY
  5
301
330
300
100
AcDbDictionary
280
     1
281
     1
  3
AcDbContextDataManager
360
302
  0
DICTIONARY
  5
306
330
305
100
AcDbDictionary
280
     1
281
     1
  3
AcDbContextDataManager
360
307
  0
DICTIONARY
  5
30B
330
30A
100
AcDbDictionary
280
     1
281
     1
  3
AcDbContextDataManager
360
30C
  0
DICTIONARY
  5
310
330
30F
100
AcDbDictionary
280
     1
281
     1
  3
AcDbContextDataManager
360
311
  0
DICTIONARY
  5
315
330
314
100
AcDbDictionary
280
     1
281
     1
  3
AcDbContextDataManager
360
316
  0
DICTIONARY
  5
31A
330
319
100
AcDbDictionary
280
     1
281
     1
  3
AcDbContextDataManager
360
31B
  0
DICTIONARY
  5
31F
330
31E
100
AcDbDictionary
280
     1
281
     1
  3
AcDbContextDataManager
360
320
  0
DICTIONARY
  5
324
330
323
100
AcDbDictionary
280
     1
281
     1
  3
AcDbContextDataManager
360
325
  0
DICTIONARY
  5
329
330
328
100
AcDbDictionary
280
     1
281
     1
  3
AcDbContextDataManager
360
32A
  0
DICTIONARY
  5
32E
330
32D
100
AcDbDictionary
280
     1
281
     1
  3
AcDbContextDataManager
360
32F
  0
DICTIONARY
  5
333
330
332
100
AcDbDictionary
280
     1
281
     1
  3
AcDbContextDataManager
360
334
  0
DICTIONARY
  5
338
330
337
100
AcDbDictionary
280
     1
281
     1
  3
AcDbContextDataManager
360
339
  0
DICTIONARY
  5
33D
330
33C
100
AcDbDictionary
280
     1
281
     1
  3
AcDbContextDataManager
360
33E
  0
DICTIONARY
  5
342
330
341
100
AcDbDictionary
280
     1
281
     1
  3
AcDbContextDataManager
360
343
  0
DICTIONARY
  5
347
330
346
100
AcDbDictionary
280
     1
281
     1
  3
AcDbContextDataManager
360
348
  0
DICTIONARY
  5
34C
330
34B
100
AcDbDictionary
280
     1
281
     1
  3
AcDbContextDataManager
360
34D
  0
DICTIONARY
  5
351
330
350
100
AcDbDictionary
280
     1
281
     1
  3
AcDbContextDataManager
360
352
  0
DICTIONARY
  5
356
330
355
100
AcDbDictionary
280
     1
281
     1
  3
AcDbContextDataManager
360
357
  0
DICTIONARY
  5
3D2
330
3D1
100
AcDbDictionary
280
     1
281
     1
  3
AcDbContextDataManager
360
3D3
  0
DICTIONARY
  5
3D7
330
3D6
100
AcDbDictionary
280
     1
281
     1
  3
AcDbContextDataManager
360
3D8
  0
DICTIONARY
  5
3DC
330
3DB
100
AcDbDictionary
280
     1
281
     1
  3
AcDbContextDataManager
360
3DD
  0
DICTIONARY
  5
3E1
330
3E0
100
AcDbDictionary
280
     1
281
     1
  3
AcDbContextDataManager
360
3E2
  0
DICTIONARY
  5
3E6
330
3E5
100
AcDbDictionary
280
     1
281
     1
  3
AcDbContextDataManager
360
3E7
  0
DICTIONARY
  5
3EB
330
3EA
100
AcDbDictionary
280
     1
281
     1
  3
AcDbContextDataManager
360
3EC
  0
DICTIONARY
  5
3F0
330
3EF
100
AcDbDictionary
280
     1
281
     1
  3
AcDbContextDataManager
360
3F1
  0
DICTIONARY
  5
3F5
330
3F4
100
AcDbDictionary
280
     1
281
     1
  3
AcDbContextDataManager
360
3F6
  0
DICTIONARY
  5
3FA
330
3F9
100
AcDbDictionary
280
     1
281
     1
  3
AcDbContextDataManager
360
3FB
  0
DICTIONARY
  5
3FF
330
3FE
100
AcDbDictionary
280
     1
281
     1
  3
AcDbContextDataManager
360
400
  0
DICTIONARY
  5
404
330
403
100
AcDbDictionary
280
     1
281
     1
  3
AcDbContextDataManager
360
405
  0
DICTIONARY
  5
409
330
408
100
AcDbDictionary
280
     1
281
     1
  3
AcDbContextDataManager
360
40A
  0
DICTIONARY
  5
40E
330
40D
100
AcDbDictionary
280
     1
281
     1
  3
AcDbContextDataManager
360
40F
  0
DICTIONARY
  5
413
330
412
100
AcDbDictionary
280
     1
281
     1
  3
AcDbContextDataManager
360
414
  0
DICTIONARY
  5
418
330
417
100
AcDbDictionary
280
     1
281
     1
  3
AcDbContextDataManager
360
419
  0
DICTIONARY
  5
41D
330
41C
100
AcDbDictionary
280
     1
281
     1
  3
AcDbContextDataManager
360
41E
  0
DICTIONARY
  5
422
330
421
100
AcDbDictionary
280
     1
281
     1
  3
AcDbContextDataManager
360
423
  0
DICTIONARY
  5
427
330
426
100
AcDbDictionary
280
     1
281
     1
  3
AcDbContextDataManager
360
428
  0
DICTIONARY
  5
42C
330
42B
100
AcDbDictionary
280
     1
281
     1
  3
AcDbContextDataManager
360
42D
  0
DICTIONARY
  5
431
330
430
100
AcDbDictionary
280
     1
281
     1
  3
AcDbContextDataManager
360
432
  0
DICTIONARY
  5
436
330
435
100
AcDbDictionary
280
     1
281
     1
  3
AcDbContextDataManager
360
437
  0
DICTIONARY
  5
43B
330
43A
100
AcDbDictionary
280
     1
281
     1
  3
AcDbContextDataManager
360
43C
  0
DICTIONARY
  5
440
330
43F
100
AcDbDictionary
280
     1
281
     1
  3
AcDbContextDataManager
360
441
  0
DICTIONARY
  5
445
330
444
100
AcDbDictionary
280
     1
281
     1
  3
AcDbContextDataManager
360
446
  0
DICTIONARY
  5
44A
330
449
100
AcDbDictionary
280
     1
281
     1
  3
AcDbContextDataManager
360
44B
  0
DICTIONARY
  5
44F
330
44E
100
AcDbDictionary
280
     1
281
     1
  3
AcDbContextDataManager
360
450
  0
DICTIONARY
  5
4EE
330
4ED
100
AcDbDictionary
280
     1
281
     1
  3
AcDbContextDataManager
360
4EF
  0
DICTIONARY
  5
4F3
330
4F2
100
AcDbDictionary
280
     1
281
     1
  3
AcDbContextDataManager
360
4F4
  0
DICTIONARY
  5
4F8
330
4F7
100
AcDbDictionary
280
     1
281
     1
  3
AcDbContextDataManager
360
4F9
  0
DICTIONARY
  5
4FD
330
4FC
100
AcDbDictionary
280
     1
281
     1
  3
AcDbContextDataManager
360
4FE
  0
DICTIONARY
  5
502
330
501
100
AcDbDictionary
280
     1
281
     1
  3
AcDbContextDataManager
360
503
  0
DICTIONARY
  5
507
330
506
100
AcDbDictionary
280
     1
281
     1
  3
AcDbContextDataManager
360
508
  0
DICTIONARY
  5
50C
330
50B
100
AcDbDictionary
280
     1
281
     1
  3
AcDbContextDataManager
360
50D
  0
DICTIONARY
  5
511
330
510
100
AcDbDictionary
280
     1
281
     1
  3
AcDbContextDataManager
360
512
  0
DICTIONARY
  5
516
330
515
100
AcDbDictionary
280
     1
281
     1
  3
AcDbContextDataManager
360
517
  0
DICTIONARY
  5
51B
330
51A
100
AcDbDictionary
280
     1
281
     1
  3
AcDbContextDataManager
360
51C
  0
DICTIONARY
  5
520
330
51F
100
AcDbDictionary
280
     1
281
     1
  3
AcDbContextDataManager
360
521
  0
DICTIONARY
  5
525
330
524
100
AcDbDictionary
280
     1
281
     1
  3
AcDbContextDataManager
360
526
  0
DICTIONARY
  5
52A
330
529
100
AcDbDictionary
280
     1
281
     1
  3
AcDbContextDataManager
360
52B
  0
DICTIONARY
  5
52F
330
52E
100
AcDbDictionary
280
     1
281
     1
  3
AcDbContextDataManager
360
530
  0
DICTIONARY
  5
534
330
533
100
AcDbDictionary
280
     1
281
     1
  3
AcDbContextDataManager
360
535
  0
DICTIONARY
  5
539
330
538
100
AcDbDictionary
280
     1
281
     1
  3
AcDbContextDataManager
360
53A
  0
DICTIONARY
  5
53E
330
53D
100
AcDbDictionary
280
     1
281
     1
  3
AcDbContextDataManager
360
53F
  0
DICTIONARY
  5
543
330
542
100
AcDbDictionary
280
     1
281
     1
  3
AcDbContextDataManager
360
544
  0
DICTIONARY
  5
548
330
547
100
AcDbDictionary
280
     1
281
     1
  3
AcDbContextDataManager
360
549
  0
DICTIONARY
  5
54D
330
54C
100
AcDbDictionary
280
     1
281
     1
  3
AcDbContextDataManager
360
54E
  0
DICTIONARY
  5
552
330
551
100
AcDbDictionary
280
     1
281
     1
  3
AcDbContextDataManager
360
553
  0
DICTIONARY
  5
557
330
556
100
AcDbDictionary
280
     1
281
     1
  3
AcDbContextDataManager
360
558
  0
DICTIONARY
  5
55C
330
55B
100
AcDbDictionary
280
     1
281
     1
  3
AcDbContextDataManager
360
55D
  0
DICTIONARY
  5
561
330
560
100
AcDbDictionary
280
     1
281
     1
  3
AcDbContextDataManager
360
562
  0
DICTIONARY
  5
566
330
565
100
AcDbDictionary
280
     1
281
     1
  3
AcDbContextDataManager
360
567
  0
DICTIONARY
  5
56B
330
56A
100
AcDbDictionary
280
     1
281
     1
  3
AcDbContextDataManager
360
56C
  0
DICTIONARY
  5
570
330
56F
100
AcDbDictionary
280
     1
281
     1
  3
AcDbContextDataManager
360
571
  0
DICTIONARY
  5
575
330
574
100
AcDbDictionary
280
     1
281
     1
  3
AcDbContextDataManager
360
576
  0
DICTIONARY
  5
57A
330
579
100
AcDbDictionary
280
     1
281
     1
  3
AcDbContextDataManager
360
57B
  0
DICTIONARY
  5
57F
330
57E
100
AcDbDictionary
280
     1
281
     1
  3
AcDbContextDataManager
360
580
  0
DICTIONARY
  5
584
330
583
100
AcDbDictionary
280
     1
281
     1
  3
AcDbContextDataManager
360
585
  0
DICTIONARY
  5
589
330
588
100
AcDbDictionary
280
     1
281
     1
  3
AcDbContextDataManager
360
58A
  0
DICTIONARY
  5
58E
330
58D
100
AcDbDictionary
280
     1
281
     1
  3
AcDbContextDataManager
360
58F
  0
DICTIONARY
  5
60A
330
609
100
AcDbDictionary
280
     1
281
     1
  3
AcDbContextDataManager
360
60B
  0
DICTIONARY
  5
60F
330
60E
100
AcDbDictionary
280
     1
281
     1
  3
AcDbContextDataManager
360
610
  0
DICTIONARY
  5
614
330
613
100
AcDbDictionary
280
     1
281
     1
  3
AcDbContextDataManager
360
615
  0
DICTIONARY
  5
619
330
618
100
AcDbDictionary
280
     1
281
     1
  3
AcDbContextDataManager
360
61A
  0
DICTIONARY
  5
61E
330
61D
100
AcDbDictionary
280
     1
281
     1
  3
AcDbContextDataManager
360
61F
  0
DICTIONARY
  5
623
330
622
100
AcDbDictionary
280
     1
281
     1
  3
AcDbContextDataManager
360
624
  0
DICTIONARY
  5
628
330
627
100
AcDbDictionary
280
     1
281
     1
  3
AcDbContextDataManager
360
629
  0
DICTIONARY
  5
62D
330
62C
100
AcDbDictionary
280
     1
281
     1
  3
AcDbContextDataManager
360
62E
  0
DICTIONARY
  5
632
330
631
100
AcDbDictionary
280
     1
281
     1
  3
AcDbContextDataManager
360
633
  0
DICTIONARY
  5
637
330
636
100
AcDbDictionary
280
     1
281
     1
  3
AcDbContextDataManager
360
638
  0
DICTIONARY
  5
63C
330
63B
100
AcDbDictionary
280
     1
281
     1
  3
AcDbContextDataManager
360
63D
  0
DICTIONARY
  5
641
330
640
100
AcDbDictionary
280
     1
281
     1
  3
AcDbContextDataManager
360
642
  0
DICTIONARY
  5
646
330
645
100
AcDbDictionary
280
     1
281
     1
  3
AcDbContextDataManager
360
647
  0
DICTIONARY
  5
64B
330
64A
100
AcDbDictionary
280
     1
281
     1
  3
AcDbContextDataManager
360
64C
  0
DICTIONARY
  5
650
330
64F
100
AcDbDictionary
280
     1
281
     1
  3
AcDbContextDataManager
360
651
  0
DICTIONARY
  5
655
330
654
100
AcDbDictionary
280
     1
281
     1
  3
AcDbContextDataManager
360
656
  0
DICTIONARY
  5
65A
330
659
100
AcDbDictionary
280
     1
281
     1
  3
AcDbContextDataManager
360
65B
  0
DICTIONARY
  5
65F
330
65E
100
AcDbDictionary
280
     1
281
     1
  3
AcDbContextDataManager
360
660
  0
DICTIONARY
  5
664
330
663
100
AcDbDictionary
280
     1
281
     1
  3
AcDbContextDataManager
360
665
  0
DICTIONARY
  5
669
330
668
100
AcDbDictionary
280
     1
281
     1
  3
AcDbContextDataManager
360
66A
  0
DICTIONARY
  5
66E
330
66D
100
AcDbDictionary
280
     1
281
     1
  3
AcDbContextDataManager
360
66F
  0
DICTIONARY
  5
673
330
672
100
AcDbDictionary
280
     1
281
     1
  3
AcDbContextDataManager
360
674
  0
DICTIONARY
  5
678
330
677
100
AcDbDictionary
280
     1
281
     1
  3
AcDbContextDataManager
360
679
  0
DICTIONARY
  5
67D
330
67C
100
AcDbDictionary
280
     1
281
     1
  3
AcDbContextDataManager
360
67E
  0
DICTIONARY
  5
682
330
681
100
AcDbDictionary
280
     1
281
     1
  3
AcDbContextDataManager
360
683
  0
DICTIONARY
  5
687
330
686
100
AcDbDictionary
280
     1
281
     1
  3
AcDbContextDataManager
360
688
  0
XRECORD
  5
707
102
{ACAD_REACTORS
330
C
102
}
330
C
100
AcDbXrecord
280
     1
300
ACD
300
2012
300
ACD_F_S
  0
DICTIONARY
  5
5E
102
{ACAD_REACTORS
330
C
102
}
330
C
100
AcDbDictionary
281
     1
  0
DICTIONARY
  5
D
102
{ACAD_REACTORS
330
C
102
}
330
C
100
AcDbDictionary
281
     1
  0
DICTIONARY
  5
5D
102
{ACAD_REACTORS
330
C
102
}
330
C
100
AcDbDictionary
281
     1
  3
Model
350
6A
  3
レイアウト1
350
66
  3
レイアウト2
350
6E
  0
DICTIONARY
  5
10
102
{ACAD_REACTORS
330
C
102
}
330
C
100
AcDbDictionary
281
     1
  3
ByBlock
350
19
  3
ByLayer
350
11
  3
Global
350
21
  0
DICTIONARY
  5
61
102
{ACAD_REACTORS
330
C
102
}
330
C
100
AcDbDictionary
281
     1
  3
Standard
350
62
  0
DICTIONARY
  5
5A
102
{ACAD_REACTORS
330
C
102
}
330
C
100
AcDbDictionary
281
     1
  3
Standard
350
5B
  0
DICTIONARY
  5
5C
102
{ACAD_REACTORS
330
C
102
}
330
C
100
AcDbDictionary
281
     1
  0
ACDBDICTIONARYWDFLT
  5
E
102
{ACAD_REACTORS
330
C
102
}
330
C
100
AcDbDictionary
281
     1
  3
invisible
350
84
  3
Normal
350
F
  3
Style 1
350
85
100
AcDbDictionaryWithDefault
340
F
  0
DICTIONARY
  5
3D
102
{ACAD_REACTORS
330
C
102
}
330
C
100
AcDbDictionary
281
     1
  3
*A1
350
86
  3
*A10
350
8E
  3
*A11
350
8F
  3
*A12
350
90
  3
*A13
350
91
  3
*A14
350
92
  3
*A15
350
93
  3
*A16
350
94
  3
*A17
350
95
  3
*A18
350
96
  3
*A2
350
97
  3
*A3
350
87
  3
*A4
350
88
  3
*A5
350
89
  3
*A6
350
8A
  3
*A7
350
8B
  3
*A8
350
8C
  3
*A9
350
8D
  3
A0
350
3E
  3
A1
350
3F
  3
A2
350
40
  3
A3
350
41
  3
A4
350
42
  3
A5
350
43
  3
A6
350
44
  3
A7
350
45
  3
A8
350
46
  3
A9
350
47
  3
B0
350
48
  3
B1
350
49
  3
B2
350
4A
  3
B3
350
4B
  3
B4
350
4C
  3
B5
350
4D
  3
B6
350
4E
  0
DICTIONARY
  5
5F
102
{ACAD_REACTORS
330
C
102
}
330
C
100
AcDbDictionary
281
     1
  3
Standard
350
60
  0
DICTIONARY
  5
29
102
{ACAD_REACTORS
330
C
102
}
330
C
100
AcDbDictionary
281
     1
  3
2dWireframe
350
2F
  3
3D Hidden
350
31
  3
3dWireframe
350
30
  3
Basic
350
2E
  3
Brighten
350
35
  3
ColorChange
350
39
  3
Conceptual
350
32
  3
Dim
350
34
  3
EdgeColorOff
350
3C
  3
Facepattern
350
38
  3
Flat
350
2A
  3
FlatWithEdges
350
2B
  3
Gouraud
350
2C
  3
GouraudWithEdges
350
2D
  3
Hidden
350
6E0
  3
JitterOff
350
3A
  3
Linepattern
350
37
  3
OverhangOff
350
3B
  3
Realistic
350
33
  3
Shaded
350
6E5
  3
Shaded with edges
350
6E4
  3
Shades of Gray
350
6E1
  3
Sketchy
350
6E2
  3
Thicken
350
36
  3
Wireframe
350
6DF
  3
X-Ray
350
6E3
  0
XRECORD
  5
772
102
{ACAD_REACTORS
330
C
102
}
330
C
100
AcDbXrecord
280
     1
 90
        1
330
60
330
2B5
330
2BA
330
2BF
330
2C4
330
2C9
330
2CE
330
2D3
330
2D8
330
2DD
330
2E2
330
2E7
330
2EC
330
2F1
330
2F6
330
2FB
330
300
330
305
330
30A
330
30F
330
314
330
319
330
31E
330
323
330
328
330
32D
330
332
330
337
330
33C
330
341
330
346
330
34B
330
350
330
355
  0
DICTIONARY
  5
68B
102
{ACAD_REACTORS
330
C
102
}
330
C
100
AcDbDictionary
281
     1
  3
ANNOALLVISIBLE
350
68E
  3
CANNOSCALE
350
68F
  3
CMLEADERSTYLE
350
68D
  3
CTABLESTYLE
350
68C
  3
DIMASSOC
350
766
  3
HIDETEXT
350
764
  3
INDEXCTL
350
763
  3
LAYEREVAL
350
690
  3
LAYERNOTIFY
350
691
  3
LIGHTINGUNITS
350
69B
  3
MSLTSCALE
350
69A
  3
SORTENTS
350
762
  3
XCLIPFRAME
350
765
  0
DICTIONARY
  5
75F
102
{ACAD_REACTORS
330
C
102
}
330
C
100
AcDbDictionary
281
     1
  3
ASEBlockHierarchyIndexRecord
350
761
1001
DCO15
1040
1882589273.483
  0
XRECORD
  5
773
102
{ACAD_REACTORS
330
C
102
}
330
C
100
AcDbXrecord
280
     1
  1
DWGPROPS COOKIE
  2

  3

  4

  6

  7

  8
0035sekine
  9

300
=
301
=
302
=
303
=
304
=
305
=
306
=
307
=
308
=
309
=
 40
0.0025000462962963
 41
2455603.720338797
 42
2457592.439554201
  1

 90
        0
  0
DICTIONARY
  5
6A3
102
{ACAD_REACTORS
330
6A2
102
}
330
6A2
100
AcDbDictionary
281
     1
  3
2008 Model_2011-2-10_Scale 1
350
6A7
  3
2008 Model_2016-7-22_Scale 1
350
76F
  0
XRECORD
  5
699
102
{ACAD_REACTORS
330
698
102
}
330
698
100
AcDbXrecord
280
     1
290
     1
  0
XRECORD
  5
9B
102
{ACAD_REACTORS
330
9A
102
}
330
9A
100
AcDbXrecord
280
     1
290
     1
  0
XRECORD
  5
A0
102
{ACAD_REACTORS
330
9F
102
}
330
9F
100
AcDbXrecord
280
     1
290
     1
  0
XRECORD
  5
29E
102
{ACAD_REACTORS
330
29D
102
}
330
29D
100
AcDbXrecord
280
     1
290
     1
  0
XRECORD
  5
76B
102
{ACAD_REACTORS
330
76A
102
}
330
76A
100
AcDbXrecord
280
     1
 70
     1
340
3E
340
29C
 70
    -1
  0
SORTENTSTABLE
  5
29A
102
{ACAD_REACTORS
330
299
102
}
330
299
100
AcDbSortentsTable
330
67
331
C0
  5
23A
331
D0
  5
24A
331
D8
  5
252
331
257
  5
F4
331
25F
  5
A2
331
267
  5
AA
331
26F
  5
B2
331
74C
  5
D6
331
E0
  5
25A
331
A1
  5
21B
331
E8
  5
262
331
A9
  5
223
331
F0
  5
26A
331
B1
  5
22B
331
B9
  5
233
331
277
  5
BA
331
27F
  5
C2
331
287
  5
D2
331
28F
  5
E0
331
C1
  5
23B
331
C9
  5
243
331
745
  5
E7
331
D1
  5
24B
331
D9
  5
253
331
250
  5
EB
331
258
  5
F5
331
260
  5
A3
331
268
  5
AB
331
74D
  5
D3
331
E1
  5
25B
331
A2
  5
21C
331
E9
  5
263
331
AA
  5
224
331
F1
  5
26B
331
B2
  5
22C
331
BA
  5
234
331
270
  5
B3
331
278
  5
BB
331
280
  5
C3
331
C2
  5
23C
331
CA
  5
244
331
746
  5
E6
331
D2
  5
24C
331
DA
  5
254
331
251
  5
EC
331
290
  5
E1
331
259
  5
F6
331
261
  5
A4
331
269
  5
AC
331
74E
  5
D4
331
E2
  5
25C
331
A3
  5
21D
331
EA
  5
264
331
AB
  5
225
331
F2
  5
26C
331
B3
  5
22D
331
BB
  5
235
331
271
  5
B4
331
279
  5
BC
331
281
  5
C4
331
C3
  5
23D
331
CB
  5
245
331
747
  5
DB
331
D3
  5
24D
331
24E
  5
E9
331
DB
  5
255
331
252
  5
ED
331
291
  5
E2
331
25A
  5
F7
331
262
  5
A5
331
26A
  5
AD
331
74F
  5
CF
331
A4
  5
21E
331
EB
  5
265
331
AC
  5
226
331
F3
  5
26D
331
B4
  5
22E
331
BC
  5
236
331
272
  5
B5
331
27A
  5
BD
331
282
  5
C5
331
C4
  5
23E
331
CC
  5
246
331
D4
  5
24E
331
24F
  5
EA
331
DC
  5
256
331
253
  5
EE
331
292
  5
E3
331
25B
  5
F8
331
263
  5
A6
331
26B
  5
AE
331
748
  5
DC
331
750
  5
D0
331
A5
  5
21F
331
EC
  5
266
331
AD
  5
227
331
F4
  5
26E
331
B5
  5
22F
331
BD
  5
237
331
273
  5
B6
331
27B
  5
BE
331
283
  5
C6
331
C5
  5
23F
331
9D
  5
21A
331
CD
  5
247
331
DD
  5
257
331
293
  5
E4
331
25C
  5
F9
331
264
  5
A7
331
26C
  5
AF
331
749
  5
D7
331
751
  5
C9
331
A6
  5
220
331
ED
  5
267
331
AE
  5
228
331
F5
  5
26F
331
B6
  5
230
331
BE
  5
238
331
274
  5
B7
331
27C
  5
BF
331
28C
  5
DD
331
C6
  5
240
331
CE
  5
248
331
D6
  5
250
331
DE
  5
258
331
294
  5
E5
331
25D
  5
9D
331
265
  5
A8
331
26D
  5
B0
331
74A
  5
DA
331
752
  5
CA
331
E6
  5
260
331
A7
  5
221
331
EE
  5
268
331
AF
  5
229
331
F6
  5
270
331
B7
  5
231
331
BF
  5
239
331
275
  5
B8
331
27D
  5
C0
331
28D
  5
DE
331
C7
  5
241
331
CF
  5
249
331
D7
  5
251
331
DF
  5
259
331
256
  5
F2
331
25E
  5
A1
331
266
  5
A9
331
26E
  5
B1
331
74B
  5
D5
331
E7
  5
261
331
A8
  5
222
331
EF
  5
269
331
B0
  5
22A
331
B8
  5
232
331
276
  5
B9
331
27E
  5
C1
331
286
  5
D1
331
28E
  5
DF
  0
DICTIONARY
  5
7A1
102
{ACAD_REACTORS
330
2A0
102
}
330
2A0
100
AcDbDictionary
280
     1
281
     1
  3
Edit
360
7A2
  0
DICTIONARY
  5
2B7
102
{ACAD_REACTORS
330
2B6
102
}
330
2B6
100
AcDbDictionary
281
     1
  3
ACDB_ANNOTATIONSCALES
350
2B8
  0
DICTIONARY
  5
2BC
102
{ACAD_REACTORS
330
2BB
102
}
330
2BB
100
AcDbDictionary
281
     1
  3
ACDB_ANNOTATIONSCALES
350
2BD
  0
DICTIONARY
  5
2C1
102
{ACAD_REACTORS
330
2C0
102
}
330
2C0
100
AcDbDictionary
281
     1
  3
ACDB_ANNOTATIONSCALES
350
2C2
  0
DICTIONARY
  5
2C6
102
{ACAD_REACTORS
330
2C5
102
}
330
2C5
100
AcDbDictionary
281
     1
  3
ACDB_ANNOTATIONSCALES
350
2C7
  0
DICTIONARY
  5
2CB
102
{ACAD_REACTORS
330
2CA
102
}
330
2CA
100
AcDbDictionary
281
     1
  3
ACDB_ANNOTATIONSCALES
350
2CC
  0
DICTIONARY
  5
2D0
102
{ACAD_REACTORS
330
2CF
102
}
330
2CF
100
AcDbDictionary
281
     1
  3
ACDB_ANNOTATIONSCALES
350
2D1
  0
DICTIONARY
  5
2D5
102
{ACAD_REACTORS
330
2D4
102
}
330
2D4
100
AcDbDictionary
281
     1
  3
ACDB_ANNOTATIONSCALES
350
2D6
  0
DICTIONARY
  5
2DA
102
{ACAD_REACTORS
330
2D9
102
}
330
2D9
100
AcDbDictionary
281
     1
  3
ACDB_ANNOTATIONSCALES
350
2DB
  0
DICTIONARY
  5
2DF
102
{ACAD_REACTORS
330
2DE
102
}
330
2DE
100
AcDbDictionary
281
     1
  3
ACDB_ANNOTATIONSCALES
350
2E0
  0
DICTIONARY
  5
2E4
102
{ACAD_REACTORS
330
2E3
102
}
330
2E3
100
AcDbDictionary
281
     1
  3
ACDB_ANNOTATIONSCALES
350
2E5
  0
DICTIONARY
  5
2E9
102
{ACAD_REACTORS
330
2E8
102
}
330
2E8
100
AcDbDictionary
281
     1
  3
ACDB_ANNOTATIONSCALES
350
2EA
  0
DICTIONARY
  5
2EE
102
{ACAD_REACTORS
330
2ED
102
}
330
2ED
100
AcDbDictionary
281
     1
  3
ACDB_ANNOTATIONSCALES
350
2EF
  0
DICTIONARY
  5
2F3
102
{ACAD_REACTORS
330
2F2
102
}
330
2F2
100
AcDbDictionary
281
     1
  3
ACDB_ANNOTATIONSCALES
350
2F4
  0
DICTIONARY
  5
2F8
102
{ACAD_REACTORS
330
2F7
102
}
330
2F7
100
AcDbDictionary
281
     1
  3
ACDB_ANNOTATIONSCALES
350
2F9
  0
DICTIONARY
  5
2FD
102
{ACAD_REACTORS
330
2FC
102
}
330
2FC
100
AcDbDictionary
281
     1
  3
ACDB_ANNOTATIONSCALES
350
2FE
  0
DICTIONARY
  5
302
102
{ACAD_REACTORS
330
301
102
}
330
301
100
AcDbDictionary
281
     1
  3
ACDB_ANNOTATIONSCALES
350
303
  0
DICTIONARY
  5
307
102
{ACAD_REACTORS
330
306
102
}
330
306
100
AcDbDictionary
281
     1
  3
ACDB_ANNOTATIONSCALES
350
308
  0
DICTIONARY
  5
30C
102
{ACAD_REACTORS
330
30B
102
}
330
30B
100
AcDbDictionary
281
     1
  3
ACDB_ANNOTATIONSCALES
350
30D
  0
DICTIONARY
  5
311
102
{ACAD_REACTORS
330
310
102
}
330
310
100
AcDbDictionary
281
     1
  3
ACDB_ANNOTATIONSCALES
350
312
  0
DICTIONARY
  5
316
102
{ACAD_REACTORS
330
315
102
}
330
315
100
AcDbDictionary
281
     1
  3
ACDB_ANNOTATIONSCALES
350
317
  0
DICTIONARY
  5
31B
102
{ACAD_REACTORS
330
31A
102
}
330
31A
100
AcDbDictionary
281
     1
  3
ACDB_ANNOTATIONSCALES
350
31C
  0
DICTIONARY
  5
320
102
{ACAD_REACTORS
330
31F
102
}
330
31F
100
AcDbDictionary
281
     1
  3
ACDB_ANNOTATIONSCALES
350
321
  0
DICTIONARY
  5
325
102
{ACAD_REACTORS
330
324
102
}
330
324
100
AcDbDictionary
281
     1
  3
ACDB_ANNOTATIONSCALES
350
326
  0
DICTIONARY
  5
32A
102
{ACAD_REACTORS
330
329
102
}
330
329
100
AcDbDictionary
281
     1
  3
ACDB_ANNOTATIONSCALES
350
32B
  0
DICTIONARY
  5
32F
102
{ACAD_REACTORS
330
32E
102
}
330
32E
100
AcDbDictionary
281
     1
  3
ACDB_ANNOTATIONSCALES
350
330
  0
DICTIONARY
  5
334
102
{ACAD_REACTORS
330
333
102
}
330
333
100
AcDbDictionary
281
     1
  3
ACDB_ANNOTATIONSCALES
350
335
  0
DICTIONARY
  5
339
102
{ACAD_REACTORS
330
338
102
}
330
338
100
AcDbDictionary
281
     1
  3
ACDB_ANNOTATIONSCALES
350
33A
  0
DICTIONARY
  5
33E
102
{ACAD_REACTORS
330
33D
102
}
330
33D
100
AcDbDictionary
281
     1
  3
ACDB_ANNOTATIONSCALES
350
33F
  0
DICTIONARY
  5
343
102
{ACAD_REACTORS
330
342
102
}
330
342
100
AcDbDictionary
281
     1
  3
ACDB_ANNOTATIONSCALES
350
344
  0
DICTIONARY
  5
348
102
{ACAD_REACTORS
330
347
102
}
330
347
100
AcDbDictionary
281
     1
  3
ACDB_ANNOTATIONSCALES
350
349
  0
DICTIONARY
  5
34D
102
{ACAD_REACTORS
330
34C
102
}
330
34C
100
AcDbDictionary
281
     1
  3
ACDB_ANNOTATIONSCALES
350
34E
  0
DICTIONARY
  5
352
102
{ACAD_REACTORS
330
351
102
}
330
351
100
AcDbDictionary
281
     1
  3
ACDB_ANNOTATIONSCALES
350
353
  0
DICTIONARY
  5
357
102
{ACAD_REACTORS
330
356
102
}
330
356
100
AcDbDictionary
281
     1
  3
ACDB_ANNOTATIONSCALES
350
358
  0
DICTIONARY
  5
3D3
102
{ACAD_REACTORS
330
3D2
102
}
330
3D2
100
AcDbDictionary
281
     1
  3
ACDB_ANNOTATIONSCALES
350
3D4
  0
DICTIONARY
  5
3D8
102
{ACAD_REACTORS
330
3D7
102
}
330
3D7
100
AcDbDictionary
281
     1
  3
ACDB_ANNOTATIONSCALES
350
3D9
  0
DICTIONARY
  5
3DD
102
{ACAD_REACTORS
330
3DC
102
}
330
3DC
100
AcDbDictionary
281
     1
  3
ACDB_ANNOTATIONSCALES
350
3DE
  0
DICTIONARY
  5
3E2
102
{ACAD_REACTORS
330
3E1
102
}
330
3E1
100
AcDbDictionary
281
     1
  3
ACDB_ANNOTATIONSCALES
350
3E3
  0
DICTIONARY
  5
3E7
102
{ACAD_REACTORS
330
3E6
102
}
330
3E6
100
AcDbDictionary
281
     1
  3
ACDB_ANNOTATIONSCALES
350
3E8
  0
DICTIONARY
  5
3EC
102
{ACAD_REACTORS
330
3EB
102
}
330
3EB
100
AcDbDictionary
281
     1
  3
ACDB_ANNOTATIONSCALES
350
3ED
  0
DICTIONARY
  5
3F1
102
{ACAD_REACTORS
330
3F0
102
}
330
3F0
100
AcDbDictionary
281
     1
  3
ACDB_ANNOTATIONSCALES
350
3F2
  0
DICTIONARY
  5
3F6
102
{ACAD_REACTORS
330
3F5
102
}
330
3F5
100
AcDbDictionary
281
     1
  3
ACDB_ANNOTATIONSCALES
350
3F7
  0
DICTIONARY
  5
3FB
102
{ACAD_REACTORS
330
3FA
102
}
330
3FA
100
AcDbDictionary
281
     1
  3
ACDB_ANNOTATIONSCALES
350
3FC
  0
DICTIONARY
  5
400
102
{ACAD_REACTORS
330
3FF
102
}
330
3FF
100
AcDbDictionary
281
     1
  3
ACDB_ANNOTATIONSCALES
350
401
  0
DICTIONARY
  5
405
102
{ACAD_REACTORS
330
404
102
}
330
404
100
AcDbDictionary
281
     1
  3
ACDB_ANNOTATIONSCALES
350
406
  0
DICTIONARY
  5
40A
102
{ACAD_REACTORS
330
409
102
}
330
409
100
AcDbDictionary
281
     1
  3
ACDB_ANNOTATIONSCALES
350
40B
  0
DICTIONARY
  5
40F
102
{ACAD_REACTORS
330
40E
102
}
330
40E
100
AcDbDictionary
281
     1
  3
ACDB_ANNOTATIONSCALES
350
410
  0
DICTIONARY
  5
414
102
{ACAD_REACTORS
330
413
102
}
330
413
100
AcDbDictionary
281
     1
  3
ACDB_ANNOTATIONSCALES
350
415
  0
DICTIONARY
  5
419
102
{ACAD_REACTORS
330
418
102
}
330
418
100
AcDbDictionary
281
     1
  3
ACDB_ANNOTATIONSCALES
350
41A
  0
DICTIONARY
  5
41E
102
{ACAD_REACTORS
330
41D
102
}
330
41D
100
AcDbDictionary
281
     1
  3
ACDB_ANNOTATIONSCALES
350
41F
  0
DICTIONARY
  5
423
102
{ACAD_REACTORS
330
422
102
}
330
422
100
AcDbDictionary
281
     1
  3
ACDB_ANNOTATIONSCALES
350
424
  0
DICTIONARY
  5
428
102
{ACAD_REACTORS
330
427
102
}
330
427
100
AcDbDictionary
281
     1
  3
ACDB_ANNOTATIONSCALES
350
429
  0
DICTIONARY
  5
42D
102
{ACAD_REACTORS
330
42C
102
}
330
42C
100
AcDbDictionary
281
     1
  3
ACDB_ANNOTATIONSCALES
350
42E
  0
DICTIONARY
  5
432
102
{ACAD_REACTORS
330
431
102
}
330
431
100
AcDbDictionary
281
     1
  3
ACDB_ANNOTATIONSCALES
350
433
  0
DICTIONARY
  5
437
102
{ACAD_REACTORS
330
436
102
}
330
436
100
AcDbDictionary
281
     1
  3
ACDB_ANNOTATIONSCALES
350
438
  0
DICTIONARY
  5
43C
102
{ACAD_REACTORS
330
43B
102
}
330
43B
100
AcDbDictionary
281
     1
  3
ACDB_ANNOTATIONSCALES
350
43D
  0
DICTIONARY
  5
441
102
{ACAD_REACTORS
330
440
102
}
330
440
100
AcDbDictionary
281
     1
  3
ACDB_ANNOTATIONSCALES
350
442
  0
DICTIONARY
  5
446
102
{ACAD_REACTORS
330
445
102
}
330
445
100
AcDbDictionary
281
     1
  3
ACDB_ANNOTATIONSCALES
350
447
  0
DICTIONARY
  5
44B
102
{ACAD_REACTORS
330
44A
102
}
330
44A
100
AcDbDictionary
281
     1
  3
ACDB_ANNOTATIONSCALES
350
44C
  0
DICTIONARY
  5
450
102
{ACAD_REACTORS
330
44F
102
}
330
44F
100
AcDbDictionary
281
     1
  3
ACDB_ANNOTATIONSCALES
350
451
  0
DICTIONARY
  5
4EF
102
{ACAD_REACTORS
330
4EE
102
}
330
4EE
100
AcDbDictionary
281
     1
  3
ACDB_ANNOTATIONSCALES
350
4F0
  0
DICTIONARY
  5
4F4
102
{ACAD_REACTORS
330
4F3
102
}
330
4F3
100
AcDbDictionary
281
     1
  3
ACDB_ANNOTATIONSCALES
350
4F5
  0
DICTIONARY
  5
4F9
102
{ACAD_REACTORS
330
4F8
102
}
330
4F8
100
AcDbDictionary
281
     1
  3
ACDB_ANNOTATIONSCALES
350
4FA
  0
DICTIONARY
  5
4FE
102
{ACAD_REACTORS
330
4FD
102
}
330
4FD
100
AcDbDictionary
281
     1
  3
ACDB_ANNOTATIONSCALES
350
4FF
  0
DICTIONARY
  5
503
102
{ACAD_REACTORS
330
502
102
}
330
502
100
AcDbDictionary
281
     1
  3
ACDB_ANNOTATIONSCALES
350
504
  0
DICTIONARY
  5
508
102
{ACAD_REACTORS
330
507
102
}
330
507
100
AcDbDictionary
281
     1
  3
ACDB_ANNOTATIONSCALES
350
509
  0
DICTIONARY
  5
50D
102
{ACAD_REACTORS
330
50C
102
}
330
50C
100
AcDbDictionary
281
     1
  3
ACDB_ANNOTATIONSCALES
350
50E
  0
DICTIONARY
  5
512
102
{ACAD_REACTORS
330
511
102
}
330
511
100
AcDbDictionary
281
     1
  3
ACDB_ANNOTATIONSCALES
350
513
  0
DICTIONARY
  5
517
102
{ACAD_REACTORS
330
516
102
}
330
516
100
AcDbDictionary
281
     1
  3
ACDB_ANNOTATIONSCALES
350
518
  0
DICTIONARY
  5
51C
102
{ACAD_REACTORS
330
51B
102
}
330
51B
100
AcDbDictionary
281
     1
  3
ACDB_ANNOTATIONSCALES
350
51D
  0
DICTIONARY
  5
521
102
{ACAD_REACTORS
330
520
102
}
330
520
100
AcDbDictionary
281
     1
  3
ACDB_ANNOTATIONSCALES
350
522
  0
DICTIONARY
  5
526
102
{ACAD_REACTORS
330
525
102
}
330
525
100
AcDbDictionary
281
     1
  3
ACDB_ANNOTATIONSCALES
350
527
  0
DICTIONARY
  5
52B
102
{ACAD_REACTORS
330
52A
102
}
330
52A
100
AcDbDictionary
281
     1
  3
ACDB_ANNOTATIONSCALES
350
52C
  0
DICTIONARY
  5
530
102
{ACAD_REACTORS
330
52F
102
}
330
52F
100
AcDbDictionary
281
     1
  3
ACDB_ANNOTATIONSCALES
350
531
  0
DICTIONARY
  5
535
102
{ACAD_REACTORS
330
534
102
}
330
534
100
AcDbDictionary
281
     1
  3
ACDB_ANNOTATIONSCALES
350
536
  0
DICTIONARY
  5
53A
102
{ACAD_REACTORS
330
539
102
}
330
539
100
AcDbDictionary
281
     1
  3
ACDB_ANNOTATIONSCALES
350
53B
  0
DICTIONARY
  5
53F
102
{ACAD_REACTORS
330
53E
102
}
330
53E
100
AcDbDictionary
281
     1
  3
ACDB_ANNOTATIONSCALES
350
540
  0
DICTIONARY
  5
544
102
{ACAD_REACTORS
330
543
102
}
330
543
100
AcDbDictionary
281
     1
  3
ACDB_ANNOTATIONSCALES
350
545
  0
DICTIONARY
  5
549
102
{ACAD_REACTORS
330
548
102
}
330
548
100
AcDbDictionary
281
     1
  3
ACDB_ANNOTATIONSCALES
350
54A
  0
DICTIONARY
  5
54E
102
{ACAD_REACTORS
330
54D
102
}
330
54D
100
AcDbDictionary
281
     1
  3
ACDB_ANNOTATIONSCALES
350
54F
  0
DICTIONARY
  5
553
102
{ACAD_REACTORS
330
552
102
}
330
552
100
AcDbDictionary
281
     1
  3
ACDB_ANNOTATIONSCALES
350
554
  0
DICTIONARY
  5
558
102
{ACAD_REACTORS
330
557
102
}
330
557
100
AcDbDictionary
281
     1
  3
ACDB_ANNOTATIONSCALES
350
559
  0
DICTIONARY
  5
55D
102
{ACAD_REACTORS
330
55C
102
}
330
55C
100
AcDbDictionary
281
     1
  3
ACDB_ANNOTATIONSCALES
350
55E
  0
DICTIONARY
  5
562
102
{ACAD_REACTORS
330
561
102
}
330
561
100
AcDbDictionary
281
     1
  3
ACDB_ANNOTATIONSCALES
350
563
  0
DICTIONARY
  5
567
102
{ACAD_REACTORS
330
566
102
}
330
566
100
AcDbDictionary
281
     1
  3
ACDB_ANNOTATIONSCALES
350
568
  0
DICTIONARY
  5
56C
102
{ACAD_REACTORS
330
56B
102
}
330
56B
100
AcDbDictionary
281
     1
  3
ACDB_ANNOTATIONSCALES
350
56D
  0
DICTIONARY
  5
571
102
{ACAD_REACTORS
330
570
102
}
330
570
100
AcDbDictionary
281
     1
  3
ACDB_ANNOTATIONSCALES
350
572
  0
DICTIONARY
  5
576
102
{ACAD_REACTORS
330
575
102
}
330
575
100
AcDbDictionary
281
     1
  3
ACDB_ANNOTATIONSCALES
350
577
  0
DICTIONARY
  5
57B
102
{ACAD_REACTORS
330
57A
102
}
330
57A
100
AcDbDictionary
281
     1
  3
ACDB_ANNOTATIONSCALES
350
57C
  0
DICTIONARY
  5
580
102
{ACAD_REACTORS
330
57F
102
}
330
57F
100
AcDbDictionary
281
     1
  3
ACDB_ANNOTATIONSCALES
350
581
  0
DICTIONARY
  5
585
102
{ACAD_REACTORS
330
584
102
}
330
584
100
AcDbDictionary
281
     1
  3
ACDB_ANNOTATIONSCALES
350
586
  0
DICTIONARY
  5
58A
102
{ACAD_REACTORS
330
589
102
}
330
589
100
AcDbDictionary
281
     1
  3
ACDB_ANNOTATIONSCALES
350
58B
  0
DICTIONARY
  5
58F
102
{ACAD_REACTORS
330
58E
102
}
330
58E
100
AcDbDictionary
281
     1
  3
ACDB_ANNOTATIONSCALES
350
590
  0
DICTIONARY
  5
60B
102
{ACAD_REACTORS
330
60A
102
}
330
60A
100
AcDbDictionary
281
     1
  3
ACDB_ANNOTATIONSCALES
350
60C
  0
DICTIONARY
  5
610
102
{ACAD_REACTORS
330
60F
102
}
330
60F
100
AcDbDictionary
281
     1
  3
ACDB_ANNOTATIONSCALES
350
611
  0
DICTIONARY
  5
615
102
{ACAD_REACTORS
330
614
102
}
330
614
100
AcDbDictionary
281
     1
  3
ACDB_ANNOTATIONSCALES
350
616
  0
DICTIONARY
  5
61A
102
{ACAD_REACTORS
330
619
102
}
330
619
100
AcDbDictionary
281
     1
  3
ACDB_ANNOTATIONSCALES
350
61B
  0
DICTIONARY
  5
61F
102
{ACAD_REACTORS
330
61E
102
}
330
61E
100
AcDbDictionary
281
     1
  3
ACDB_ANNOTATIONSCALES
350
620
  0
DICTIONARY
  5
624
102
{ACAD_REACTORS
330
623
102
}
330
623
100
AcDbDictionary
281
     1
  3
ACDB_ANNOTATIONSCALES
350
625
  0
DICTIONARY
  5
629
102
{ACAD_REACTORS
330
628
102
}
330
628
100
AcDbDictionary
281
     1
  3
ACDB_ANNOTATIONSCALES
350
62A
  0
DICTIONARY
  5
62E
102
{ACAD_REACTORS
330
62D
102
}
330
62D
100
AcDbDictionary
281
     1
  3
ACDB_ANNOTATIONSCALES
350
62F
  0
DICTIONARY
  5
633
102
{ACAD_REACTORS
330
632
102
}
330
632
100
AcDbDictionary
281
     1
  3
ACDB_ANNOTATIONSCALES
350
634
  0
DICTIONARY
  5
638
102
{ACAD_REACTORS
330
637
102
}
330
637
100
AcDbDictionary
281
     1
  3
ACDB_ANNOTATIONSCALES
350
639
  0
DICTIONARY
  5
63D
102
{ACAD_REACTORS
330
63C
102
}
330
63C
100
AcDbDictionary
281
     1
  3
ACDB_ANNOTATIONSCALES
350
63E
  0
DICTIONARY
  5
642
102
{ACAD_REACTORS
330
641
102
}
330
641
100
AcDbDictionary
281
     1
  3
ACDB_ANNOTATIONSCALES
350
643
  0
DICTIONARY
  5
647
102
{ACAD_REACTORS
330
646
102
}
330
646
100
AcDbDictionary
281
     1
  3
ACDB_ANNOTATIONSCALES
350
648
  0
DICTIONARY
  5
64C
102
{ACAD_REACTORS
330
64B
102
}
330
64B
100
AcDbDictionary
281
     1
  3
ACDB_ANNOTATIONSCALES
350
64D
  0
DICTIONARY
  5
651
102
{ACAD_REACTORS
330
650
102
}
330
650
100
AcDbDictionary
281
     1
  3
ACDB_ANNOTATIONSCALES
350
652
  0
DICTIONARY
  5
656
102
{ACAD_REACTORS
330
655
102
}
330
655
100
AcDbDictionary
281
     1
  3
ACDB_ANNOTATIONSCALES
350
657
  0
DICTIONARY
  5
65B
102
{ACAD_REACTORS
330
65A
102
}
330
65A
100
AcDbDictionary
281
     1
  3
ACDB_ANNOTATIONSCALES
350
65C
  0
DICTIONARY
  5
660
102
{ACAD_REACTORS
330
65F
102
}
330
65F
100
AcDbDictionary
281
     1
  3
ACDB_ANNOTATIONSCALES
350
661
  0
DICTIONARY
  5
665
102
{ACAD_REACTORS
330
664
102
}
330
664
100
AcDbDictionary
281
     1
  3
ACDB_ANNOTATIONSCALES
350
666
  0
DICTIONARY
  5
66A
102
{ACAD_REACTORS
330
669
102
}
330
669
100
AcDbDictionary
281
     1
  3
ACDB_ANNOTATIONSCALES
350
66B
  0
DICTIONARY
  5
66F
102
{ACAD_REACTORS
330
66E
102
}
330
66E
100
AcDbDictionary
281
     1
  3
ACDB_ANNOTATIONSCALES
350
670
  0
DICTIONARY
  5
674
102
{ACAD_REACTORS
330
673
102
}
330
673
100
AcDbDictionary
281
     1
  3
ACDB_ANNOTATIONSCALES
350
675
  0
DICTIONARY
  5
679
102
{ACAD_REACTORS
330
678
102
}
330
678
100
AcDbDictionary
281
     1
  3
ACDB_ANNOTATIONSCALES
350
67A
  0
DICTIONARY
  5
67E
102
{ACAD_REACTORS
330
67D
102
}
330
67D
100
AcDbDictionary
281
     1
  3
ACDB_ANNOTATIONSCALES
350
67F
  0
DICTIONARY
  5
683
102
{ACAD_REACTORS
330
682
102
}
330
682
100
AcDbDictionary
281
     1
  3
ACDB_ANNOTATIONSCALES
350
684
  0
DICTIONARY
  5
688
102
{ACAD_REACTORS
330
687
102
}
330
687
100
AcDbDictionary
281
     1
  3
ACDB_ANNOTATIONSCALES
350
689
  0
LAYOUT
  5
6A
102
{ACAD_XDICTIONARY
360
79D
102
}
102
{ACAD_REACTORS
330
5D
102
}
330
5D
100
AcDbPlotSettings
  1

  2
\\asrv0030\DocuCentre 230 - 本社９階　開発部
  4
A3
  6

 40
4.857749938964842
 41
4.942390441894531
 42
4.900054931640625
 43
4.857757568359375
 44
296.9683227539062
 45
419.9889831542968
 46
-4.894741058349608
 47
-4.905582427978513
 48
0.0
 49
0.0
140
0.0
141
0.0
142
1.0
143
1.287822093808346
 70
 11954
 72
     1
 73
     1
 74
     0
  7
monochrome.stb
 75
     0
147
0.7765047709678594
148
122.9905121899433
149
-160.1723871265185
100
AcDbLayout
  1
Model
 70
     1
 71
     0
 10
0.0
 20
0.0
 11
12.0
 21
9.0
 12
0.0
 22
0.0
 32
0.0
 14
0.0
 24
0.0
 34
0.0
 15
0.0
 25
0.0
 35
0.0
146
0.0
 13
0.0
 23
0.0
 33
0.0
 16
1.0
 26
0.0
 36
0.0
 17
0.0
 27
1.0
 37
0.0
 76
     0
330
67
331
52
1001
ACAD_PSEXT
1000
\\asrv0030\DocuCentre 230 - 本社９階　開発部
1000
FX DocuCentre 230
1000
本社９階　開発部
1000
xerxo　モノクロ複合機　2004年8月17日設置
1070
     0
  0
LAYOUT
  5
66
102
{ACAD_XDICTIONARY
360
79B
102
}
102
{ACAD_REACTORS
330
5D
102
}
330
5D
100
AcDbPlotSettings
  1

  2
Microsoft XPS Document Writer
  4

  6

 40
0.0
 41
0.0
 42
0.0
 43
0.0
 44
0.0
 45
0.0
 46
0.0
 47
0.0
 48
0.0
 49
0.0
140
0.0
141
0.0
142
1.0
143
1.0
 70
   688
 72
     0
 73
     0
 74
     5
  7

 75
    16
147
1.0
148
0.0
149
0.0
100
AcDbLayout
  1
レイアウト1
 70
     1
 71
     1
 10
0.0
 20
0.0
 11
12.0
 21
9.0
 12
0.0
 22
0.0
 32
0.0
 14
1.000000000000000E+20
 24
1.000000000000000E+20
 34
1.000000000000000E+20
 15
-1.000000000000000E+20
 25
-1.000000000000000E+20
 35
-1.000000000000000E+20
146
0.0
 13
0.0
 23
0.0
 33
0.0
 16
1.0
 26
0.0
 36
0.0
 17
0.0
 27
1.0
 37
0.0
 76
     0
330
63
  0
LAYOUT
  5
6E
102
{ACAD_XDICTIONARY
360
79F
102
}
102
{ACAD_REACTORS
330
5D
102
}
330
5D
100
AcDbPlotSettings
  1

  2
Microsoft XPS Document Writer
  4

  6

 40
0.0
 41
0.0
 42
0.0
 43
0.0
 44
0.0
 45
0.0
 46
0.0
 47
0.0
 48
0.0
 49
0.0
140
0.0
141
0.0
142
1.0
143
1.0
 70
   688
 72
     0
 73
     0
 74
     5
  7

 75
    16
147
1.0
148
0.0
149
0.0
100
AcDbLayout
  1
レイアウト2
 70
     1
 71
     2
 10
0.0
 20
0.0
 11
12.0
 21
9.0
 12
0.0
 22
0.0
 32
0.0
 14
0.0
 24
0.0
 34
0.0
 15
0.0
 25
0.0
 35
0.0
146
0.0
 13
0.0
 23
0.0
 33
0.0
 16
1.0
 26
0.0
 36
0.0
 17
0.0
 27
1.0
 37
0.0
 76
     0
330
6B
  0
MATERIAL
  5
19
102
{ACAD_XDICTIONARY
360
1A
102
}
102
{ACAD_REACTORS
330
10
102
}
330
10
100
AcDbMaterial
  1
ByBlock
 72
     0
 43
0.0208333333333333
 43
0.0
 43
0.0
 43
0.0
 43
0.0
 43
0.0208333333333333
 43
0.0
 43
0.0
 43
0.0
 43
0.0
 43
1.0
 43
0.0
 43
0.0
 43
0.0
 43
0.0
 43
1.0
 77
     0
 47
0.0208333333333333
 47
0.0
 47
0.0
 47
0.0
 47
0.0
 47
0.0208333333333333
 47
0.0
 47
0.0
 47
0.0
 47
0.0
 47
1.0
 47
0.0
 47
0.0
 47
0.0
 47
0.0
 47
1.0
171
     0
 49
0.0208333333333333
 49
0.0
 49
0.0
 49
0.0
 49
0.0
 49
0.0208333333333333
 49
0.0
 49
0.0
 49
0.0
 49
0.0
 49
1.0
 49
0.0
 49
0.0
 49
0.0
 49
0.0
 49
1.0
175
     0
142
0.0208333333333333
142
0.0
142
0.0
142
0.0
142
0.0
142
0.0208333333333333
142
0.0
142
0.0
142
0.0
142
0.0
142
1.0
142
0.0
142
0.0
142
0.0
142
0.0
142
1.0
179
     0
144
0.0208333333333333
144
0.0
144
0.0
144
0.0
144
0.0
144
0.0208333333333333
144
0.0
144
0.0
144
0.0
144
0.0
144
1.0
144
0.0
144
0.0
144
0.0
144
0.0
144
1.0
147
0.0208333333333333
147
0.0
147
0.0
147
0.0
147
0.0
147
0.0208333333333333
147
0.0
147
0.0
147
0.0
147
0.0
147
1.0
147
0.0
147
0.0
147
0.0
147
0.0
147
1.0
  0
MATERIAL
  5
11
102
{ACAD_XDICTIONARY
360
12
102
}
102
{ACAD_REACTORS
330
10
102
}
330
10
100
AcDbMaterial
  1
ByLayer
 72
     0
 43
0.0208333333333333
 43
0.0
 43
0.0
 43
0.0
 43
0.0
 43
0.0208333333333333
 43
0.0
 43
0.0
 43
0.0
 43
0.0
 43
1.0
 43
0.0
 43
0.0
 43
0.0
 43
0.0
 43
1.0
 77
     0
 47
0.0208333333333333
 47
0.0
 47
0.0
 47
0.0
 47
0.0
 47
0.0208333333333333
 47
0.0
 47
0.0
 47
0.0
 47
0.0
 47
1.0
 47
0.0
 47
0.0
 47
0.0
 47
0.0
 47
1.0
171
     0
 49
0.0208333333333333
 49
0.0
 49
0.0
 49
0.0
 49
0.0
 49
0.0208333333333333
 49
0.0
 49
0.0
 49
0.0
 49
0.0
 49
1.0
 49
0.0
 49
0.0
 49
0.0
 49
0.0
 49
1.0
175
     0
142
0.0208333333333333
142
0.0
142
0.0
142
0.0
142
0.0
142
0.0208333333333333
142
0.0
142
0.0
142
0.0
142
0.0
142
1.0
142
0.0
142
0.0
142
0.0
142
0.0
142
1.0
179
     0
144
0.0208333333333333
144
0.0
144
0.0
144
0.0
144
0.0
144
0.0208333333333333
144
0.0
144
0.0
144
0.0
144
0.0
144
1.0
144
0.0
144
0.0
144
0.0
144
0.0
144
1.0
147
0.0208333333333333
147
0.0
147
0.0
147
0.0
147
0.0
147
0.0208333333333333
147
0.0
147
0.0
147
0.0
147
0.0
147
1.0
147
0.0
147
0.0
147
0.0
147
0.0
147
1.0
  0
MATERIAL
  5
21
102
{ACAD_XDICTIONARY
360
22
102
}
102
{ACAD_REACTORS
330
10
102
}
330
10
100
AcDbMaterial
  1
Global
 72
     0
 43
0.0208333333333333
 43
0.0
 43
0.0
 43
0.0
 43
0.0
 43
0.0208333333333333
 43
0.0
 43
0.0
 43
0.0
 43
0.0
 43
1.0
 43
0.0
 43
0.0
 43
0.0
 43
0.0
 43
1.0
 77
     0
 47
0.0208333333333333
 47
0.0
 47
0.0
 47
0.0
 47
0.0
 47
0.0208333333333333
 47
0.0
 47
0.0
 47
0.0
 47
0.0
 47
1.0
 47
0.0
 47
0.0
 47
0.0
 47
0.0
 47
1.0
171
     0
 49
0.0208333333333333
 49
0.0
 49
0.0
 49
0.0
 49
0.0
 49
0.0208333333333333
 49
0.0
 49
0.0
 49
0.0
 49
0.0
 49
1.0
 49
0.0
 49
0.0
 49
0.0
 49
0.0
 49
1.0
175
     0
142
0.0208333333333333
142
0.0
142
0.0
142
0.0
142
0.0
142
0.0208333333333333
142
0.0
142
0.0
142
0.0
142
0.0
142
1.0
142
0.0
142
0.0
142
0.0
142
0.0
142
1.0
179
     0
144
0.0208333333333333
144
0.0
144
0.0
144
0.0
144
0.0
144
0.0208333333333333
144
0.0
144
0.0
144
0.0
144
0.0
144
1.0
144
0.0
144
0.0
144
0.0
144
0.0
144
1.0
147
0.0208333333333333
147
0.0
147
0.0
147
0.0
147
0.0
147
0.0208333333333333
147
0.0
147
0.0
147
0.0
147
0.0
147
1.0
147
0.0
147
0.0
147
0.0
147
0.0
147
1.0
  0
MLEADERSTYLE
  5
62
102
{ACAD_REACTORS
330
61
102
}
330
61
100
AcDbMLeaderStyle
170
     2
171
     1
172
     0
 90
        2
 40
0.0
 41
0.0
173
     1
 91
-1056964608
340
56
 92
       -2
290
     1
 42
0.09
291
     1
 43
0.36
  3
Standard
 44
0.18
300

342
50
174
     1
178
     6
175
     1
176
     0
 93
-1056964608
 45
0.18
292
     0
297
     0
 46
0.18
 94
-1056964608
 47
1.0
 49
1.0
140
1.0
293
     1
141
0.0
294
     1
177
     0
142
1.0
295
     0
296
     0
143
0.125
1001
ACAD_MLEADERVER
1070
     2
  0
MLINESTYLE
  5
5B
102
{ACAD_REACTORS
330
5A
102
}
330
5A
100
AcDbMlineStyle
  2
STANDARD
 70
     0
  3

 62
   256
 51
90.0
 52
90.0
 71
     2
 49
0.5
 62
   256
  6
BYLAYER
 49
-0.5
 62
   256
  6
BYLAYER
  0
ACDBPLACEHOLDER
  5
84
102
{ACAD_REACTORS
330
E
102
}
330
E
  0
ACDBPLACEHOLDER
  5
F
102
{ACAD_REACTORS
330
E
102
}
330
E
  0
ACDBPLACEHOLDER
  5
85
102
{ACAD_REACTORS
330
E
102
}
330
E
  0
SCALE
  5
86
102
{ACAD_REACTORS
330
3D
102
}
330
3D
100
AcDbScale
 70
     0
300
3:1
140
3.0
141
1.0
290
     0
  0
SCALE
  5
8E
102
{ACAD_REACTORS
330
3D
102
}
330
3D
100
AcDbScale
 70
     0
300
3/16" = 1'-0"
140
0.1875
141
12.0
290
     0
  0
SCALE
  5
8F
102
{ACAD_REACTORS
330
3D
102
}
330
3D
100
AcDbScale
 70
     0
300
1/4" = 1'-0"
140
0.25
141
12.0
290
     0
  0
SCALE
  5
90
102
{ACAD_REACTORS
330
3D
102
}
330
3D
100
AcDbScale
 70
     0
300
3/8" = 1'-0"
140
0.375
141
12.0
290
     0
  0
SCALE
  5
91
102
{ACAD_REACTORS
330
3D
102
}
330
3D
100
AcDbScale
 70
     0
300
1/2" = 1'-0"
140
0.5
141
12.0
290
     0
  0
SCALE
  5
92
102
{ACAD_REACTORS
330
3D
102
}
330
3D
100
AcDbScale
 70
     0
300
3/4" = 1'-0"
140
0.75
141
12.0
290
     0
  0
SCALE
  5
93
102
{ACAD_REACTORS
330
3D
102
}
330
3D
100
AcDbScale
 70
     0
300
1" = 1'-0"
140
1.0
141
12.0
290
     0
  0
SCALE
  5
94
102
{ACAD_REACTORS
330
3D
102
}
330
3D
100
AcDbScale
 70
     0
300
1-1/2" = 1'-0"
140
1.5
141
12.0
290
     0
  0
SCALE
  5
95
102
{ACAD_REACTORS
330
3D
102
}
330
3D
100
AcDbScale
 70
     0
300
3" = 1'-0"
140
3.0
141
12.0
290
     0
  0
SCALE
  5
96
102
{ACAD_REACTORS
330
3D
102
}
330
3D
100
AcDbScale
 70
     0
300
6" = 1'-0"
140
6.0
141
12.0
290
     0
  0
SCALE
  5
97
102
{ACAD_REACTORS
330
3D
102
}
330
3D
100
AcDbScale
 70
     0
300
1'-0" = 1'-0"
140
12.0
141
12.0
290
     0
  0
SCALE
  5
87
102
{ACAD_REACTORS
330
3D
102
}
330
3D
100
AcDbScale
 70
     0
300
5:1
140
5.0
141
1.0
290
     0
  0
SCALE
  5
88
102
{ACAD_REACTORS
330
3D
102
}
330
3D
100
AcDbScale
 70
     0
300
1/128" = 1'-0"
140
0.0078125
141
12.0
290
     0
  0
SCALE
  5
89
102
{ACAD_REACTORS
330
3D
102
}
330
3D
100
AcDbScale
 70
     0
300
1/64" = 1'-0"
140
0.015625
141
12.0
290
     0
  0
SCALE
  5
8A
102
{ACAD_REACTORS
330
3D
102
}
330
3D
100
AcDbScale
 70
     0
300
1/32" = 1'-0"
140
0.03125
141
12.0
290
     0
  0
SCALE
  5
8B
102
{ACAD_REACTORS
330
3D
102
}
330
3D
100
AcDbScale
 70
     0
300
1/16" = 1'-0"
140
0.0625
141
12.0
290
     0
  0
SCALE
  5
8C
102
{ACAD_REACTORS
330
3D
102
}
330
3D
100
AcDbScale
 70
     0
300
3/32" = 1'-0"
140
0.09375
141
12.0
290
     0
  0
SCALE
  5
8D
102
{ACAD_REACTORS
330
3D
102
}
330
3D
100
AcDbScale
 70
     0
300
1/8" = 1'-0"
140
0.125
141
12.0
290
     0
  0
SCALE
  5
3E
102
{ACAD_REACTORS
330
3D
102
}
330
3D
100
AcDbScale
 70
     0
300
1:1
140
1.0
141
1.0
290
     1
  0
SCALE
  5
3F
102
{ACAD_REACTORS
330
3D
102
}
330
3D
100
AcDbScale
 70
     0
300
1:2
140
1.0
141
2.0
290
     0
  0
SCALE
  5
40
102
{ACAD_REACTORS
330
3D
102
}
330
3D
100
AcDbScale
 70
     0
300
1:4
140
1.0
141
4.0
290
     0
  0
SCALE
  5
41
102
{ACAD_REACTORS
330
3D
102
}
330
3D
100
AcDbScale
 70
     0
300
1:5
140
1.0
141
5.0
290
     0
  0
SCALE
  5
42
102
{ACAD_REACTORS
330
3D
102
}
330
3D
100
AcDbScale
 70
     0
300
1:8
140
1.0
141
8.0
290
     0
  0
SCALE
  5
43
102
{ACAD_REACTORS
330
3D
102
}
330
3D
100
AcDbScale
 70
     0
300
1:10
140
1.0
141
10.0
290
     0
  0
SCALE
  5
44
102
{ACAD_REACTORS
330
3D
102
}
330
3D
100
AcDbScale
 70
     0
300
1:16
140
1.0
141
16.0
290
     0
  0
SCALE
  5
45
102
{ACAD_REACTORS
330
3D
102
}
330
3D
100
AcDbScale
 70
     0
300
1:20
140
1.0
141
20.0
290
     0
  0
SCALE
  5
46
102
{ACAD_REACTORS
330
3D
102
}
330
3D
100
AcDbScale
 70
     0
300
1:30
140
1.0
141
30.0
290
     0
  0
SCALE
  5
47
102
{ACAD_REACTORS
330
3D
102
}
330
3D
100
AcDbScale
 70
     0
300
1:40
140
1.0
141
40.0
290
     0
  0
SCALE
  5
48
102
{ACAD_REACTORS
330
3D
102
}
330
3D
100
AcDbScale
 70
     0
300
1:50
140
1.0
141
50.0
290
     0
  0
SCALE
  5
49
102
{ACAD_REACTORS
330
3D
102
}
330
3D
100
AcDbScale
 70
     0
300
1:100
140
1.0
141
100.0
290
     0
  0
SCALE
  5
4A
102
{ACAD_REACTORS
330
3D
102
}
330
3D
100
AcDbScale
 70
     0
300
2:1
140
2.0
141
1.0
290
     0
  0
SCALE
  5
4B
102
{ACAD_REACTORS
330
3D
102
}
330
3D
100
AcDbScale
 70
     0
300
4:1
140
4.0
141
1.0
290
     0
  0
SCALE
  5
4C
102
{ACAD_REACTORS
330
3D
102
}
330
3D
100
AcDbScale
 70
     0
300
8:1
140
8.0
141
1.0
290
     0
  0
SCALE
  5
4D
102
{ACAD_REACTORS
330
3D
102
}
330
3D
100
AcDbScale
 70
     0
300
10:1
140
10.0
141
1.0
290
     0
  0
SCALE
  5
4E
102
{ACAD_REACTORS
330
3D
102
}
330
3D
100
AcDbScale
 70
     0
300
100:1
140
100.0
141
1.0
290
     0
  0
TABLESTYLE
  5
60
102
{ACAD_XDICTIONARY
360
69C
102
}
102
{ACAD_REACTORS
330
5F
102
}
330
5F
100
AcDbTableStyle
  3
Standard
 70
     0
 71
     3
 40
1.5
 41
1.5
280
     0
281
     0
  7
Standard
140
4.5
170
     2
 62
     0
 63
     7
283
     0
274
    -2
284
     1
 64
     0
275
    -2
285
     1
 65
     0
276
    -2
286
     1
 66
     0
277
    -2
287
     1
 67
     0
278
    -2
288
     1
 68
     0
279
    -2
289
     1
 69
     0
  7
Standard
140
6.0
170
     5
 62
     0
 63
     7
283
     0
274
    -2
284
     1
 64
     0
275
    -2
285
     1
 65
     0
276
    -2
286
     1
 66
     0
277
    -2
287
     1
 67
     0
278
    -2
288
     1
 68
     0
279
    -2
289
     1
 69
     0
  7
Standard
140
4.5
170
     5
 62
     0
 63
     7
283
     0
274
    -2
284
     1
 64
     0
275
    -2
285
     1
 65
     0
276
    -2
286
     1
 66
     0
277
    -2
287
     1
 67
     0
278
    -2
288
     1
 68
     0
279
    -2
289
     1
 69
     0
  0
VISUALSTYLE
  5
2F
102
{ACAD_XDICTIONARY
360
77E
102
}
102
{ACAD_REACTORS
330
29
102
}
330
29
100
AcDbVisualStyle
  2

 70
     4
 71
     0
 72
     2
 73
     0
 90
        0
 40
-0.6
 41
-30.0
 62
     5
 63
     7
 74
     1
 91
        4
 64
     7
 65
   257
 75
     1
175
     1
 42
1.0
 92
        0
 66
   257
 43
1.0
 76
     1
 77
     6
 78
     2
 67
     7
 79
     5
170
     0
171
     0
290
     0
174
     0
 93
        1
 44
0.0
173
     0
291
     0
 45
0.0
1001
ACAD
1000
AcDbSavedByObjectVersion
1070
     0
  0
VISUALSTYLE
  5
31
102
{ACAD_XDICTIONARY
360
782
102
}
102
{ACAD_REACTORS
330
29
102
}
330
29
100
AcDbVisualStyle
  2

 70
     6
 71
     1
 72
     2
 73
     2
 90
        0
 40
-0.6
 41
-30.0
 62
     5
 63
     7
 74
     2
 91
        2
 64
     7
 65
   257
 75
     2
175
     1
 42
179.0
 92
        0
 66
   257
 43
1.0
 76
     1
 77
     6
 78
     2
 67
     7
 79
     3
170
     0
171
     0
290
     0
174
     0
 93
        1
 44
0.0
173
     0
291
     0
 45
0.0
1001
ACAD
1000
AcDbSavedByObjectVersion
1070
     0
  0
VISUALSTYLE
  5
30
102
{ACAD_XDICTIONARY
360
780
102
}
102
{ACAD_REACTORS
330
29
102
}
330
29
100
AcDbVisualStyle
  2

 70
     5
 71
     0
 72
     2
 73
     0
 90
        0
 40
-0.6
 41
-30.0
 62
     5
 63
     7
 74
     1
 91
        4
 64
     7
 65
   257
 75
     1
175
     1
 42
1.0
 92
        0
 66
   257
 43
1.0
 76
     1
 77
     6
 78
     2
 67
     7
 79
     5
170
     0
171
     0
290
     0
174
     0
 93
        1
 44
0.0
173
     0
291
     0
 45
0.0
1001
ACAD
1000
AcDbSavedByObjectVersion
1070
     0
  0
VISUALSTYLE
  5
2E
102
{ACAD_XDICTIONARY
360
77C
102
}
102
{ACAD_REACTORS
330
29
102
}
330
29
100
AcDbVisualStyle
  2

 70
     7
 71
     1
 72
     0
 73
     1
 90
        0
 40
-0.6
 41
-30.0
 62
     5
 63
     7
 74
     0
 91
        4
 64
     7
 65
   257
 75
     1
175
     1
 42
1.0
 92
        8
 66
     7
 43
1.0
 76
     1
 77
     6
 78
     2
 67
     7
 79
     5
170
     0
171
     0
290
     0
174
     0
 93
        1
 44
0.0
173
     0
291
     1
 45
0.0
1001
ACAD
1000
AcDbSavedByObjectVersion
1070
     0
  0
VISUALSTYLE
  5
35
102
{ACAD_XDICTIONARY
360
78A
102
}
102
{ACAD_REACTORS
330
29
102
}
330
29
100
AcDbVisualStyle
  2

 70
    12
 71
     2
 72
     2
 73
     0
 90
        0
 40
-0.6
 41
-30.0
 62
     5
 63
     7
 74
     1
 91
        4
 64
     7
 65
   257
 75
     1
175
     1
 42
1.0
 92
        8
 66
     7
 43
1.0
 76
     1
 77
     6
 78
     2
 67
     7
 79
     5
170
     0
171
     0
290
     0
174
     0
 93
        1
 44
50.0
173
     0
291
     1
 45
0.0
1001
ACAD
1000
AcDbSavedByObjectVersion
1070
     0
  0
VISUALSTYLE
  5
39
102
{ACAD_XDICTIONARY
360
792
102
}
102
{ACAD_REACTORS
330
29
102
}
330
29
100
AcDbVisualStyle
  2

 70
    16
 71
     2
 72
     2
 73
     3
 90
        0
 40
-0.6
 41
-30.0
 62
     5
 63
     8
 74
     1
 91
        4
 64
     7
 65
   257
 75
     1
175
     1
 42
1.0
 92
        8
 66
     8
 43
1.0
 76
     1
 77
     6
 78
     2
 67
     7
 79
     5
170
     0
171
     0
290
     0
174
     0
 93
        1
 44
0.0
173
     0
291
     1
 45
0.0
1001
ACAD
1000
AcDbSavedByObjectVersion
1070
     0
  0
VISUALSTYLE
  5
32
102
{ACAD_XDICTIONARY
360
784
102
}
102
{ACAD_REACTORS
330
29
102
}
330
29
100
AcDbVisualStyle
  2

 70
     9
 71
     3
 72
     2
 73
     0
 90
        0
 40
-0.6
 41
-30.0
 62
     5
 63
     7
 74
     2
 91
        2
 64
     7
 65
   257
 75
     1
175
     1
 42
179.0
 92
        8
 66
     7
 43
1.0
 76
     1
 77
     6
 78
     2
 67
     7
 79
     3
170
     0
171
     0
290
     0
174
     0
 93
        1
 44
0.0
173
     0
291
     0
 45
0.0
1001
ACAD
1000
AcDbSavedByObjectVersion
1070
     0
  0
VISUALSTYLE
  5
34
102
{ACAD_XDICTIONARY
360
788
102
}
102
{ACAD_REACTORS
330
29
102
}
330
29
100
AcDbVisualStyle
  2

 70
    11
 71
     2
 72
     2
 73
     0
 90
        0
 40
-0.6
 41
-30.0
 62
     5
 63
     7
 74
     1
 91
        4
 64
     7
 65
   257
 75
     1
175
     1
 42
1.0
 92
        8
 66
     7
 43
1.0
 76
     1
 77
     6
 78
     2
 67
     7
 79
     5
170
     0
171
     0
290
     0
174
     0
 93
        1
 44
-50.0
173
     0
291
     1
 45
0.0
1001
ACAD
1000
AcDbSavedByObjectVersion
1070
     0
  0
VISUALSTYLE
  5
3C
102
{ACAD_XDICTIONARY
360
798
102
}
102
{ACAD_REACTORS
330
29
102
}
330
29
100
AcDbVisualStyle
  2

 70
    22
 71
     2
 72
     2
 73
     0
 90
        0
 40
-0.6
 41
-30.0
 62
     5
 63
     7
 74
     1
 91
        4
 64
     7
 65
   257
 75
     1
175
     1
 42
1.0
 92
        8
 66
     7
 43
1.0
 76
     1
 77
     6
 78
     2
 67
     7
 79
     5
170
     0
171
     0
290
     0
174
     0
 93
        1
 44
0.0
173
     0
291
     1
 45
0.0
1001
ACAD
1000
AcDbSavedByObjectVersion
1070
     0
  0
VISUALSTYLE
  5
38
102
{ACAD_XDICTIONARY
360
790
102
}
102
{ACAD_REACTORS
330
29
102
}
330
29
100
AcDbVisualStyle
  2

 70
    15
 71
     2
 72
     2
 73
     0
 90
        0
 40
-0.6
 41
-30.0
 62
     5
 63
     7
 74
     1
 91
        4
 64
     7
 65
   257
 75
     1
175
     1
 42
1.0
 92
        8
 66
     7
 43
1.0
 76
     1
 77
     6
 78
     2
 67
     7
 79
     5
170
     0
171
     0
290
     0
174
     0
 93
        1
 44
0.0
173
     0
291
     1
 45
0.0
1001
ACAD
1000
AcDbSavedByObjectVersion
1070
     0
  0
VISUALSTYLE
  5
2A
102
{ACAD_XDICTIONARY
360
774
102
}
102
{ACAD_REACTORS
330
29
102
}
330
29
100
AcDbVisualStyle
  2

 70
     0
 71
     2
 72
     1
 73
     1
 90
        2
 40
-0.6
 41
30.0
 62
     5
 63
     7
 74
     0
 91
        4
 64
     7
 65
   257
 75
     1
175
     1
 42
1.0
 92
        8
 66
     7
 43
1.0
 76
     1
 77
     6
 78
     2
 67
     7
 79
     5
170
     0
171
     0
290
     0
174
     0
 93
       13
 44
0.0
173
     0
291
     1
 45
0.0
1001
ACAD
1000
AcDbSavedByObjectVersion
1070
     0
  0
VISUALSTYLE
  5
2B
102
{ACAD_XDICTIONARY
360
776
102
}
102
{ACAD_REACTORS
330
29
102
}
330
29
100
AcDbVisualStyle
  2

 70
     1
 71
     2
 72
     1
 73
     1
 90
        2
 40
-0.6
 41
30.0
 62
     5
 63
     7
 74
     1
 91
        4
 64
     7
 65
   257
 75
     1
175
     1
 42
1.0
 92
        0
 66
   257
 43
1.0
 76
     1
 77
     6
 78
     2
 67
     7
 79
     5
170
     0
171
     0
290
     0
174
     0
 93
       13
 44
0.0
173
     0
291
     1
 45
0.0
1001
ACAD
1000
AcDbSavedByObjectVersion
1070
     0
  0
VISUALSTYLE
  5
2C
102
{ACAD_XDICTIONARY
360
778
102
}
102
{ACAD_REACTORS
330
29
102
}
330
29
100
AcDbVisualStyle
  2

 70
     2
 71
     2
 72
     2
 73
     1
 90
        2
 40
-0.6
 41
30.0
 62
     5
 63
     7
 74
     0
 91
        4
 64
     7
 65
   257
 75
     1
175
     1
 42
1.0
 92
        0
 66
     7
 43
1.0
 76
     1
 77
     6
 78
     2
 67
     7
 79
     5
170
     0
171
     0
290
     0
174
     0
 93
       13
 44
0.0
173
     0
291
     1
 45
0.0
1001
ACAD
1000
AcDbSavedByObjectVersion
1070
     0
  0
VISUALSTYLE
  5
2D
102
{ACAD_XDICTIONARY
360
77A
102
}
102
{ACAD_REACTORS
330
29
102
}
330
29
100
AcDbVisualStyle
  2

 70
     3
 71
     2
 72
     2
 73
     1
 90
        2
 40
-0.6
 41
30.0
 62
     5
 63
     7
 74
     1
 91
        4
 64
     7
 65
   257
 75
     1
175
     1
 42
1.0
 92
        0
 66
   257
 43
1.0
 76
     1
 77
     6
 78
     2
 67
     7
 79
     5
170
     0
171
     0
290
     0
174
     0
 93
       13
 44
0.0
173
     0
291
     1
 45
0.0
1001
ACAD
1000
AcDbSavedByObjectVersion
1070
     0
  0
VISUALSTYLE
  5
6E0
102
{ACAD_XDICTIONARY
360
7A5
102
}
102
{ACAD_REACTORS
330
29
102
}
330
29
100
AcDbVisualStyle
  2
Hidden
 70
     6
 71
     1
 72
     2
 73
     2
 90
        0
 40
-0.6
 41
-30.0
 62
     5
 63
     7
 74
     2
 91
        2
 64
     7
 65
   257
 75
     2
175
     1
 42
40.0
 92
        0
 66
   257
 43
1.0
 76
     1
 77
     6
 78
     2
 67
     7
 79
     3
170
     0
171
     0
290
     0
174
     0
 93
        1
 44
0.0
173
     0
291
     0
 45
0.0
1001
ACAD
1000
AcDbSavedByObjectVersion
1070
     0
  0
VISUALSTYLE
  5
3A
102
{ACAD_XDICTIONARY
360
794
102
}
102
{ACAD_REACTORS
330
29
102
}
330
29
100
AcDbVisualStyle
  2

 70
    20
 71
     2
 72
     2
 73
     0
 90
        0
 40
-0.6
 41
-30.0
 62
     5
 63
     7
 74
     1
 91
        4
 64
     7
 65
   257
 75
     1
175
     1
 42
1.0
 92
       10
 66
     7
 43
1.0
 76
     1
 77
     6
 78
     2
 67
     7
 79
     5
170
     0
171
     0
290
     0
174
     0
 93
        1
 44
0.0
173
     0
291
     1
 45
0.0
1001
ACAD
1000
AcDbSavedByObjectVersion
1070
     0
  0
VISUALSTYLE
  5
37
102
{ACAD_XDICTIONARY
360
78E
102
}
102
{ACAD_REACTORS
330
29
102
}
330
29
100
AcDbVisualStyle
  2

 70
    14
 71
     2
 72
     2
 73
     0
 90
        0
 40
-0.6
 41
-30.0
 62
     5
 63
     7
 74
     1
 91
        4
 64
     7
 65
   257
 75
     7
175
     7
 42
1.0
 92
        8
 66
     7
 43
1.0
 76
     1
 77
     6
 78
     2
 67
     7
 79
     5
170
     0
171
     0
290
     0
174
     0
 93
        1
 44
0.0
173
     0
291
     1
 45
0.0
1001
ACAD
1000
AcDbSavedByObjectVersion
1070
     0
  0
VISUALSTYLE
  5
3B
102
{ACAD_XDICTIONARY
360
796
102
}
102
{ACAD_REACTORS
330
29
102
}
330
29
100
AcDbVisualStyle
  2

 70
    21
 71
     2
 72
     2
 73
     0
 90
        0
 40
-0.6
 41
-30.0
 62
     5
 63
     7
 74
     1
 91
        4
 64
     7
 65
   257
 75
     1
175
     1
 42
1.0
 92
        9
 66
     7
 43
1.0
 76
     1
 77
     6
 78
     2
 67
     7
 79
     5
170
     0
171
     0
290
     0
174
     0
 93
        1
 44
0.0
173
     0
291
     1
 45
0.0
1001
ACAD
1000
AcDbSavedByObjectVersion
1070
     0
  0
VISUALSTYLE
  5
33
102
{ACAD_XDICTIONARY
360
786
102
}
102
{ACAD_REACTORS
330
29
102
}
330
29
100
AcDbVisualStyle
  2

 70
     8
 71
     2
 72
     2
 73
     0
 90
        0
 40
-0.6
 41
-30.0
 62
     5
 63
     7
 74
     1
 91
        0
 64
     7
 65
   257
 75
     1
175
     1
 42
1.0
 92
        8
 66
     8
 43
1.0
 76
     1
 77
     6
 78
     2
 67
     7
 79
     5
170
     0
171
     0
290
     0
174
     0
 93
       13
 44
0.0
173
     0
291
     0
 45
0.0
1001
ACAD
1000
AcDbSavedByObjectVersion
1070
     0
  0
VISUALSTYLE
  5
6E5
102
{ACAD_XDICTIONARY
360
7AF
102
}
102
{ACAD_REACTORS
330
29
102
}
330
29
100
AcDbVisualStyle
  2
Shaded
 70
    27
 71
     2
 72
     2
 73
     1
 90
        2
 40
-0.6
 41
30.0
 62
     5
 63
     7
 74
     0
 91
        4
 64
     7
 65
   257
 75
     1
175
     1
 42
1.0
 92
        8
 66
   257
 43
1.0
 76
     1
 77
     6
 78
     2
 67
     8
 79
     3
170
     0
171
     0
290
     0
174
     0
 93
        5
 44
0.0
173
     0
291
     0
 45
0.0
1001
ACAD
1000
AcDbSavedByObjectVersion
1070
     0
  0
VISUALSTYLE
  5
6E4
102
{ACAD_XDICTIONARY
360
7AD
102
}
102
{ACAD_REACTORS
330
29
102
}
330
29
100
AcDbVisualStyle
  2
Shaded with edges
 70
    26
 71
     2
 72
     2
 73
     1
 90
        2
 40
-0.6
 41
30.0
 62
     5
 63
     7
 74
     1
 91
       10
 64
     7
 65
   257
 75
     2
175
     1
 42
1.0
 92
        8
 66
   257
 43
1.0
 76
     1
 77
     6
 78
     2
 67
     7
 79
     3
170
     0
171
     0
290
     0
174
     0
 93
        5
 44
0.0
173
     0
291
     0
 45
0.0
1001
ACAD
1000
AcDbSavedByObjectVersion
1070
     0
  0
VISUALSTYLE
  5
6E1
102
{ACAD_XDICTIONARY
360
7A7
102
}
102
{ACAD_REACTORS
330
29
102
}
330
29
100
AcDbVisualStyle
  2
Shades of Gray
 70
    23
 71
     2
 72
     2
 73
     3
 90
        0
 40
-0.6
 41
-30.0
 62
     5
 63
     7
 74
     2
 91
        2
 64
     7
 65
     7
 75
     1
175
     1
 42
40.0
 92
        8
 66
     7
 43
1.0
 76
     1
 77
     6
 78
     2
 67
     7
 79
     3
170
     0
171
     0
290
     0
174
     0
 93
        1
 44
0.0
173
     0
291
     0
 45
0.0
1001
ACAD
1000
AcDbSavedByObjectVersion
1070
     0
  0
VISUALSTYLE
  5
6E2
102
{ACAD_XDICTIONARY
360
7A9
102
}
102
{ACAD_REACTORS
330
29
102
}
330
29
100
AcDbVisualStyle
  2
Sketchy
 70
    24
 71
     1
 72
     2
 73
     2
 90
        0
 40
-0.6
 41
-30.0
 62
     5
 63
     7
 74
     2
 91
        2
 64
     7
 65
     7
 75
     1
175
     1
 42
40.0
 92
       11
 66
     7
 43
1.0
 76
     1
 77
     6
 78
     2
 67
     7
 79
     6
170
     0
171
     0
290
     0
174
     0
 93
        1
 44
0.0
173
     0
291
     0
 45
0.0
1001
ACAD
1000
AcDbSavedByObjectVersion
1070
     0
  0
VISUALSTYLE
  5
36
102
{ACAD_XDICTIONARY
360
78C
102
}
102
{ACAD_REACTORS
330
29
102
}
330
29
100
AcDbVisualStyle
  2

 70
    13
 71
     2
 72
     2
 73
     0
 90
        0
 40
-0.6
 41
-30.0
 62
     5
 63
     7
 74
     1
 91
        4
 64
     7
 65
   257
 75
     1
175
     1
 42
1.0
 92
       12
 66
     7
 43
1.0
 76
     1
 77
     6
 78
     2
 67
     7
 79
     5
170
     0
171
     0
290
     0
174
     0
 93
        1
 44
0.0
173
     0
291
     1
 45
0.0
1001
ACAD
1000
AcDbSavedByObjectVersion
1070
     0
  0
VISUALSTYLE
  5
6DF
102
{ACAD_XDICTIONARY
360
7A3
102
}
102
{ACAD_REACTORS
330
29
102
}
330
29
100
AcDbVisualStyle
  2
Wireframe
 70
     5
 71
     0
 72
     2
 73
     0
 90
        0
 40
-0.6
 41
-30.0
 62
     5
 63
     7
 74
     1
 91
        4
 64
     7
 65
   257
 75
     1
175
     1
 42
1.0
 92
        0
 66
   257
 43
1.0
 76
     1
 77
     6
 78
     2
 67
     7
 79
     3
170
     0
171
     0
290
     0
174
     0
 93
        1
 44
0.0
173
     0
291
     0
 45
0.0
1001
ACAD
1000
AcDbSavedByObjectVersion
1070
     0
  0
VISUALSTYLE
  5
6E3
102
{ACAD_XDICTIONARY
360
7AB
102
}
102
{ACAD_REACTORS
330
29
102
}
330
29
100
AcDbVisualStyle
  2
X-Ray
 70
    25
 71
     2
 72
     2
 73
     1
 90
        1
 40
0.5
 41
-30.0
 62
     5
 63
     7
 74
     1
 91
        0
 64
     7
 65
   257
 75
     1
175
     1
 42
1.0
 92
        8
 66
     7
 43
1.0
 76
     1
 77
     6
 78
     2
 67
     7
 79
     3
170
     0
171
     0
290
     0
174
     0
 93
       13
 44
0.0
173
     0
291
     0
 45
0.0
1001
ACAD
1000
AcDbSavedByObjectVersion
1070
     0
  0
DICTIONARYVAR
  5
68E
102
{ACAD_REACTORS
330
68B
102
}
330
68B
100
DictionaryVariables
280
     0
  1
0
  0
DICTIONARYVAR
  5
68F
102
{ACAD_REACTORS
330
68B
102
}
330
68B
100
DictionaryVariables
280
     0
  1
1:1
  0
DICTIONARYVAR
  5
68D
102
{ACAD_REACTORS
330
68B
102
}
330
68B
100
DictionaryVariables
280
     0
  1
STANDARD
  0
DICTIONARYVAR
  5
68C
102
{ACAD_REACTORS
330
68B
102
}
330
68B
100
DictionaryVariables
280
     0
  1
STANDARD
  0
DICTIONARYVAR
  5
766
102
{ACAD_REACTORS
330
68B
102
}
330
68B
100
DictionaryVariables
280
     0
  1
2
  0
DICTIONARYVAR
  5
764
102
{ACAD_REACTORS
330
68B
102
}
330
68B
100
DictionaryVariables
280
     0
  1
1
  0
DICTIONARYVAR
  5
763
102
{ACAD_REACTORS
330
68B
102
}
330
68B
100
DictionaryVariables
280
     0
  1
0
  0
DICTIONARYVAR
  5
690
102
{ACAD_REACTORS
330
68B
102
}
330
68B
100
DictionaryVariables
280
     0
  1
1
  0
DICTIONARYVAR
  5
691
102
{ACAD_REACTORS
330
68B
102
}
330
68B
100
DictionaryVariables
280
     0
  1
15
  0
DICTIONARYVAR
  5
69B
102
{ACAD_REACTORS
330
68B
102
}
330
68B
100
DictionaryVariables
280
     0
  1
2
  0
DICTIONARYVAR
  5
69A
102
{ACAD_REACTORS
330
68B
102
}
330
68B
100
DictionaryVariables
280
     0
  1
1
  0
DICTIONARYVAR
  5
762
102
{ACAD_REACTORS
330
68B
102
}
330
68B
100
DictionaryVariables
280
     0
  1
127
  0
DICTIONARYVAR
  5
765
102
{ACAD_REACTORS
330
68B
102
}
330
68B
100
DictionaryVariables
280
     0
  1
0
  0
XRECORD
  5
761
102
{ACAD_REACTORS
330
75F
102
}
330
75F
100
AcDbXrecord
280
     1
  0
XRECORD
  5
6A7
102
{ACAD_XDICTIONARY
360
6A8
102
}
102
{ACAD_REACTORS
330
6A3
102
}
330
6A3
100
AcDbXrecord
280
     1
 91
   132095
301

290
     0
302
frame
330
69E
 90
        8
 62
     4
370
    18
331
58
390
85
330
29C
 90
        8
 62
     4
370
    18
331
58
390
85
330
9E
 90
        8
 62
     7
370
    -3
331
58
390
85
330
99
 90
        0
 62
     5
370
    18
331
58
390
85
330
4F
 90
        8
 62
     7
370
    35
331
58
390
85
330
769
 90
        8
 62
     4
370
    18
331
58
390
85
440
        0
  0
XRECORD
  5
76F
102
{ACAD_XDICTIONARY
360
770
102
}
102
{ACAD_REACTORS
330
6A3
102
}
330
6A3
100
AcDbXrecord
280
     1
 91
   133119
301

290
     0
302
frame
330
769
 90
        8
 62
     4
370
    18
331
58
390
85
440
        0
330
29C
 90
        8
 62
     4
370
    18
331
58
390
85
440
        0
330
9E
 90
        8
 62
     7
370
    -3
331
58
390
85
440
        0
330
99
 90
        0
 62
     5
370
    18
331
58
390
85
440
        0
330
4F
 90
        8
 62
     7
370
    35
331
58
390
85
440
        0
  0
XRECORD
  5
7A2
102
{ACAD_REACTORS
330
7A1
102
}
330
7A1
100
AcDbXrecord
280
     1
1070
     0
1070
     1
1070
     1
  0
DICTIONARY
  5
2B8
102
{ACAD_REACTORS
330
2B7
102
}
330
2B7
100
AcDbDictionary
281
     1
  0
DICTIONARY
  5
2BD
102
{ACAD_REACTORS
330
2BC
102
}
330
2BC
100
AcDbDictionary
281
     1
  0
DICTIONARY
  5
2C2
102
{ACAD_REACTORS
330
2C1
102
}
330
2C1
100
AcDbDictionary
281
     1
  0
DICTIONARY
  5
2C7
102
{ACAD_REACTORS
330
2C6
102
}
330
2C6
100
AcDbDictionary
281
     1
  0
DICTIONARY
  5
2CC
102
{ACAD_REACTORS
330
2CB
102
}
330
2CB
100
AcDbDictionary
281
     1
  0
DICTIONARY
  5
2D1
102
{ACAD_REACTORS
330
2D0
102
}
330
2D0
100
AcDbDictionary
281
     1
  0
DICTIONARY
  5
2D6
102
{ACAD_REACTORS
330
2D5
102
}
330
2D5
100
AcDbDictionary
281
     1
  0
DICTIONARY
  5
2DB
102
{ACAD_REACTORS
330
2DA
102
}
330
2DA
100
AcDbDictionary
281
     1
  0
DICTIONARY
  5
2E0
102
{ACAD_REACTORS
330
2DF
102
}
330
2DF
100
AcDbDictionary
281
     1
  0
DICTIONARY
  5
2E5
102
{ACAD_REACTORS
330
2E4
102
}
330
2E4
100
AcDbDictionary
281
     1
  0
DICTIONARY
  5
2EA
102
{ACAD_REACTORS
330
2E9
102
}
330
2E9
100
AcDbDictionary
281
     1
  0
DICTIONARY
  5
2EF
102
{ACAD_REACTORS
330
2EE
102
}
330
2EE
100
AcDbDictionary
281
     1
  0
DICTIONARY
  5
2F4
102
{ACAD_REACTORS
330
2F3
102
}
330
2F3
100
AcDbDictionary
281
     1
  0
DICTIONARY
  5
2F9
102
{ACAD_REACTORS
330
2F8
102
}
330
2F8
100
AcDbDictionary
281
     1
  0
DICTIONARY
  5
2FE
102
{ACAD_REACTORS
330
2FD
102
}
330
2FD
100
AcDbDictionary
281
     1
  0
DICTIONARY
  5
303
102
{ACAD_REACTORS
330
302
102
}
330
302
100
AcDbDictionary
281
     1
  0
DICTIONARY
  5
308
102
{ACAD_REACTORS
330
307
102
}
330
307
100
AcDbDictionary
281
     1
  0
DICTIONARY
  5
30D
102
{ACAD_REACTORS
330
30C
102
}
330
30C
100
AcDbDictionary
281
     1
  0
DICTIONARY
  5
312
102
{ACAD_REACTORS
330
311
102
}
330
311
100
AcDbDictionary
281
     1
  0
DICTIONARY
  5
317
102
{ACAD_REACTORS
330
316
102
}
330
316
100
AcDbDictionary
281
     1
  0
DICTIONARY
  5
31C
102
{ACAD_REACTORS
330
31B
102
}
330
31B
100
AcDbDictionary
281
     1
  0
DICTIONARY
  5
321
102
{ACAD_REACTORS
330
320
102
}
330
320
100
AcDbDictionary
281
     1
  0
DICTIONARY
  5
326
102
{ACAD_REACTORS
330
325
102
}
330
325
100
AcDbDictionary
281
     1
  0
DICTIONARY
  5
32B
102
{ACAD_REACTORS
330
32A
102
}
330
32A
100
AcDbDictionary
281
     1
  0
DICTIONARY
  5
330
102
{ACAD_REACTORS
330
32F
102
}
330
32F
100
AcDbDictionary
281
     1
  0
DICTIONARY
  5
335
102
{ACAD_REACTORS
330
334
102
}
330
334
100
AcDbDictionary
281
     1
  0
DICTIONARY
  5
33A
102
{ACAD_REACTORS
330
339
102
}
330
339
100
AcDbDictionary
281
     1
  0
DICTIONARY
  5
33F
102
{ACAD_REACTORS
330
33E
102
}
330
33E
100
AcDbDictionary
281
     1
  0
DICTIONARY
  5
344
102
{ACAD_REACTORS
330
343
102
}
330
343
100
AcDbDictionary
281
     1
  0
DICTIONARY
  5
349
102
{ACAD_REACTORS
330
348
102
}
330
348
100
AcDbDictionary
281
     1
  0
DICTIONARY
  5
34E
102
{ACAD_REACTORS
330
34D
102
}
330
34D
100
AcDbDictionary
281
     1
  0
DICTIONARY
  5
353
102
{ACAD_REACTORS
330
352
102
}
330
352
100
AcDbDictionary
281
     1
  0
DICTIONARY
  5
358
102
{ACAD_REACTORS
330
357
102
}
330
357
100
AcDbDictionary
281
     1
  0
DICTIONARY
  5
3D4
102
{ACAD_REACTORS
330
3D3
102
}
330
3D3
100
AcDbDictionary
281
     1
  3
*A1
350
3D5
  0
DICTIONARY
  5
3D9
102
{ACAD_REACTORS
330
3D8
102
}
330
3D8
100
AcDbDictionary
281
     1
  3
*A1
350
3DA
  0
DICTIONARY
  5
3DE
102
{ACAD_REACTORS
330
3DD
102
}
330
3DD
100
AcDbDictionary
281
     1
  3
*A1
350
3DF
  0
DICTIONARY
  5
3E3
102
{ACAD_REACTORS
330
3E2
102
}
330
3E2
100
AcDbDictionary
281
     1
  3
*A1
350
3E4
  0
DICTIONARY
  5
3E8
102
{ACAD_REACTORS
330
3E7
102
}
330
3E7
100
AcDbDictionary
281
     1
  3
*A1
350
3E9
  0
DICTIONARY
  5
3ED
102
{ACAD_REACTORS
330
3EC
102
}
330
3EC
100
AcDbDictionary
281
     1
  3
*A1
350
3EE
  0
DICTIONARY
  5
3F2
102
{ACAD_REACTORS
330
3F1
102
}
330
3F1
100
AcDbDictionary
281
     1
  3
*A1
350
3F3
  0
DICTIONARY
  5
3F7
102
{ACAD_REACTORS
330
3F6
102
}
330
3F6
100
AcDbDictionary
281
     1
  3
*A1
350
3F8
  0
DICTIONARY
  5
3FC
102
{ACAD_REACTORS
330
3FB
102
}
330
3FB
100
AcDbDictionary
281
     1
  3
*A1
350
3FD
  0
DICTIONARY
  5
401
102
{ACAD_REACTORS
330
400
102
}
330
400
100
AcDbDictionary
281
     1
  3
*A1
350
402
  0
DICTIONARY
  5
406
102
{ACAD_REACTORS
330
405
102
}
330
405
100
AcDbDictionary
281
     1
  3
*A1
350
407
  0
DICTIONARY
  5
40B
102
{ACAD_REACTORS
330
40A
102
}
330
40A
100
AcDbDictionary
281
     1
  3
*A1
350
40C
  0
DICTIONARY
  5
410
102
{ACAD_REACTORS
330
40F
102
}
330
40F
100
AcDbDictionary
281
     1
  3
*A1
350
411
  0
DICTIONARY
  5
415
102
{ACAD_REACTORS
330
414
102
}
330
414
100
AcDbDictionary
281
     1
  3
*A1
350
416
  0
DICTIONARY
  5
41A
102
{ACAD_REACTORS
330
419
102
}
330
419
100
AcDbDictionary
281
     1
  3
*A1
350
41B
  0
DICTIONARY
  5
41F
102
{ACAD_REACTORS
330
41E
102
}
330
41E
100
AcDbDictionary
281
     1
  3
*A1
350
420
  0
DICTIONARY
  5
424
102
{ACAD_REACTORS
330
423
102
}
330
423
100
AcDbDictionary
281
     1
  3
*A1
350
425
  0
DICTIONARY
  5
429
102
{ACAD_REACTORS
330
428
102
}
330
428
100
AcDbDictionary
281
     1
  3
*A1
350
42A
  0
DICTIONARY
  5
42E
102
{ACAD_REACTORS
330
42D
102
}
330
42D
100
AcDbDictionary
281
     1
  3
*A1
350
42F
  0
DICTIONARY
  5
433
102
{ACAD_REACTORS
330
432
102
}
330
432
100
AcDbDictionary
281
     1
  3
*A1
350
434
  0
DICTIONARY
  5
438
102
{ACAD_REACTORS
330
437
102
}
330
437
100
AcDbDictionary
281
     1
  3
*A1
350
439
  0
DICTIONARY
  5
43D
102
{ACAD_REACTORS
330
43C
102
}
330
43C
100
AcDbDictionary
281
     1
  3
*A1
350
43E
  0
DICTIONARY
  5
442
102
{ACAD_REACTORS
330
441
102
}
330
441
100
AcDbDictionary
281
     1
  3
*A1
350
443
  0
DICTIONARY
  5
447
102
{ACAD_REACTORS
330
446
102
}
330
446
100
AcDbDictionary
281
     1
  3
*A1
350
448
  0
DICTIONARY
  5
44C
102
{ACAD_REACTORS
330
44B
102
}
330
44B
100
AcDbDictionary
281
     1
  3
*A1
350
44D
  0
DICTIONARY
  5
451
102
{ACAD_REACTORS
330
450
102
}
330
450
100
AcDbDictionary
281
     1
  3
*A1
350
452
  0
DICTIONARY
  5
4F0
102
{ACAD_REACTORS
330
4EF
102
}
330
4EF
100
AcDbDictionary
281
     1
  0
DICTIONARY
  5
4F5
102
{ACAD_REACTORS
330
4F4
102
}
330
4F4
100
AcDbDictionary
281
     1
  0
DICTIONARY
  5
4FA
102
{ACAD_REACTORS
330
4F9
102
}
330
4F9
100
AcDbDictionary
281
     1
  0
DICTIONARY
  5
4FF
102
{ACAD_REACTORS
330
4FE
102
}
330
4FE
100
AcDbDictionary
281
     1
  0
DICTIONARY
  5
504
102
{ACAD_REACTORS
330
503
102
}
330
503
100
AcDbDictionary
281
     1
  0
DICTIONARY
  5
509
102
{ACAD_REACTORS
330
508
102
}
330
508
100
AcDbDictionary
281
     1
  0
DICTIONARY
  5
50E
102
{ACAD_REACTORS
330
50D
102
}
330
50D
100
AcDbDictionary
281
     1
  0
DICTIONARY
  5
513
102
{ACAD_REACTORS
330
512
102
}
330
512
100
AcDbDictionary
281
     1
  0
DICTIONARY
  5
518
102
{ACAD_REACTORS
330
517
102
}
330
517
100
AcDbDictionary
281
     1
  0
DICTIONARY
  5
51D
102
{ACAD_REACTORS
330
51C
102
}
330
51C
100
AcDbDictionary
281
     1
  0
DICTIONARY
  5
522
102
{ACAD_REACTORS
330
521
102
}
330
521
100
AcDbDictionary
281
     1
  0
DICTIONARY
  5
527
102
{ACAD_REACTORS
330
526
102
}
330
526
100
AcDbDictionary
281
     1
  0
DICTIONARY
  5
52C
102
{ACAD_REACTORS
330
52B
102
}
330
52B
100
AcDbDictionary
281
     1
  0
DICTIONARY
  5
531
102
{ACAD_REACTORS
330
530
102
}
330
530
100
AcDbDictionary
281
     1
  0
DICTIONARY
  5
536
102
{ACAD_REACTORS
330
535
102
}
330
535
100
AcDbDictionary
281
     1
  0
DICTIONARY
  5
53B
102
{ACAD_REACTORS
330
53A
102
}
330
53A
100
AcDbDictionary
281
     1
  0
DICTIONARY
  5
540
102
{ACAD_REACTORS
330
53F
102
}
330
53F
100
AcDbDictionary
281
     1
  0
DICTIONARY
  5
545
102
{ACAD_REACTORS
330
544
102
}
330
544
100
AcDbDictionary
281
     1
  0
DICTIONARY
  5
54A
102
{ACAD_REACTORS
330
549
102
}
330
549
100
AcDbDictionary
281
     1
  0
DICTIONARY
  5
54F
102
{ACAD_REACTORS
330
54E
102
}
330
54E
100
AcDbDictionary
281
     1
  0
DICTIONARY
  5
554
102
{ACAD_REACTORS
330
553
102
}
330
553
100
AcDbDictionary
281
     1
  0
DICTIONARY
  5
559
102
{ACAD_REACTORS
330
558
102
}
330
558
100
AcDbDictionary
281
     1
  0
DICTIONARY
  5
55E
102
{ACAD_REACTORS
330
55D
102
}
330
55D
100
AcDbDictionary
281
     1
  0
DICTIONARY
  5
563
102
{ACAD_REACTORS
330
562
102
}
330
562
100
AcDbDictionary
281
     1
  0
DICTIONARY
  5
568
102
{ACAD_REACTORS
330
567
102
}
330
567
100
AcDbDictionary
281
     1
  0
DICTIONARY
  5
56D
102
{ACAD_REACTORS
330
56C
102
}
330
56C
100
AcDbDictionary
281
     1
  0
DICTIONARY
  5
572
102
{ACAD_REACTORS
330
571
102
}
330
571
100
AcDbDictionary
281
     1
  0
DICTIONARY
  5
577
102
{ACAD_REACTORS
330
576
102
}
330
576
100
AcDbDictionary
281
     1
  0
DICTIONARY
  5
57C
102
{ACAD_REACTORS
330
57B
102
}
330
57B
100
AcDbDictionary
281
     1
  0
DICTIONARY
  5
581
102
{ACAD_REACTORS
330
580
102
}
330
580
100
AcDbDictionary
281
     1
  0
DICTIONARY
  5
586
102
{ACAD_REACTORS
330
585
102
}
330
585
100
AcDbDictionary
281
     1
  0
DICTIONARY
  5
58B
102
{ACAD_REACTORS
330
58A
102
}
330
58A
100
AcDbDictionary
281
     1
  0
DICTIONARY
  5
590
102
{ACAD_REACTORS
330
58F
102
}
330
58F
100
AcDbDictionary
281
     1
  0
DICTIONARY
  5
60C
102
{ACAD_REACTORS
330
60B
102
}
330
60B
100
AcDbDictionary
281
     1
  0
DICTIONARY
  5
611
102
{ACAD_REACTORS
330
610
102
}
330
610
100
AcDbDictionary
281
     1
  0
DICTIONARY
  5
616
102
{ACAD_REACTORS
330
615
102
}
330
615
100
AcDbDictionary
281
     1
  0
DICTIONARY
  5
61B
102
{ACAD_REACTORS
330
61A
102
}
330
61A
100
AcDbDictionary
281
     1
  0
DICTIONARY
  5
620
102
{ACAD_REACTORS
330
61F
102
}
330
61F
100
AcDbDictionary
281
     1
  0
DICTIONARY
  5
625
102
{ACAD_REACTORS
330
624
102
}
330
624
100
AcDbDictionary
281
     1
  0
DICTIONARY
  5
62A
102
{ACAD_REACTORS
330
629
102
}
330
629
100
AcDbDictionary
281
     1
  0
DICTIONARY
  5
62F
102
{ACAD_REACTORS
330
62E
102
}
330
62E
100
AcDbDictionary
281
     1
  0
DICTIONARY
  5
634
102
{ACAD_REACTORS
330
633
102
}
330
633
100
AcDbDictionary
281
     1
  0
DICTIONARY
  5
639
102
{ACAD_REACTORS
330
638
102
}
330
638
100
AcDbDictionary
281
     1
  0
DICTIONARY
  5
63E
102
{ACAD_REACTORS
330
63D
102
}
330
63D
100
AcDbDictionary
281
     1
  0
DICTIONARY
  5
643
102
{ACAD_REACTORS
330
642
102
}
330
642
100
AcDbDictionary
281
     1
  0
DICTIONARY
  5
648
102
{ACAD_REACTORS
330
647
102
}
330
647
100
AcDbDictionary
281
     1
  0
DICTIONARY
  5
64D
102
{ACAD_REACTORS
330
64C
102
}
330
64C
100
AcDbDictionary
281
     1
  0
DICTIONARY
  5
652
102
{ACAD_REACTORS
330
651
102
}
330
651
100
AcDbDictionary
281
     1
  0
DICTIONARY
  5
657
102
{ACAD_REACTORS
330
656
102
}
330
656
100
AcDbDictionary
281
     1
  0
DICTIONARY
  5
65C
102
{ACAD_REACTORS
330
65B
102
}
330
65B
100
AcDbDictionary
281
     1
  0
DICTIONARY
  5
661
102
{ACAD_REACTORS
330
660
102
}
330
660
100
AcDbDictionary
281
     1
  0
DICTIONARY
  5
666
102
{ACAD_REACTORS
330
665
102
}
330
665
100
AcDbDictionary
281
     1
  0
DICTIONARY
  5
66B
102
{ACAD_REACTORS
330
66A
102
}
330
66A
100
AcDbDictionary
281
     1
  0
DICTIONARY
  5
670
102
{ACAD_REACTORS
330
66F
102
}
330
66F
100
AcDbDictionary
281
     1
  0
DICTIONARY
  5
675
102
{ACAD_REACTORS
330
674
102
}
330
674
100
AcDbDictionary
281
     1
  0
DICTIONARY
  5
67A
102
{ACAD_REACTORS
330
679
102
}
330
679
100
AcDbDictionary
281
     1
  0
DICTIONARY
  5
67F
102
{ACAD_REACTORS
330
67E
102
}
330
67E
100
AcDbDictionary
281
     1
  0
DICTIONARY
  5
684
102
{ACAD_REACTORS
330
683
102
}
330
683
100
AcDbDictionary
281
     1
  0
DICTIONARY
  5
689
102
{ACAD_REACTORS
330
688
102
}
330
688
100
AcDbDictionary
281
     1
  0
DICTIONARY
  5
79D
330
6A
100
AcDbDictionary
280
     1
281
     1
  3
ACAD_XREC_ROUNDTRIP
360
79E
  0
DICTIONARY
  5
79B
330
66
100
AcDbDictionary
280
     1
281
     1
  3
ACAD_XREC_ROUNDTRIP
360
79C
  0
DICTIONARY
  5
79F
330
6E
100
AcDbDictionary
280
     1
281
     1
  3
ACAD_XREC_ROUNDTRIP
360
7A0
  0
DICTIONARY
  5
1A
330
19
100
AcDbDictionary
280
     1
281
     1
  3
ACAD_XREC_ROUNDTRIP
360
6AC
  3
BUMPTILE
360
1C
  3
DIFFUSETILE
360
1B
  3
OPACITYTILE
360
1F
  3
REFLECTIONTILE
360
1E
  3
REFRACTIONTILE
360
20
  3
SPECULARTILE
360
1D
  0
DICTIONARY
  5
12
330
11
100
AcDbDictionary
280
     1
281
     1
  3
ACAD_XREC_ROUNDTRIP
360
6AB
  3
BUMPTILE
360
14
  3
DIFFUSETILE
360
13
  3
OPACITYTILE
360
17
  3
REFLECTIONTILE
360
16
  3
REFRACTIONTILE
360
18
  3
SPECULARTILE
360
15
  0
DICTIONARY
  5
22
330
21
100
AcDbDictionary
280
     1
281
     1
  3
ACAD_XREC_ROUNDTRIP
360
6AD
  3
BUMPTILE
360
24
  3
DIFFUSETILE
360
23
  3
OPACITYTILE
360
27
  3
REFLECTIONTILE
360
26
  3
REFRACTIONTILE
360
28
  3
SPECULARTILE
360
25
  0
DICTIONARY
  5
69C
330
60
100
AcDbDictionary
280
     1
281
     1
  3
ACAD_ROUNDTRIP_2008_TABLESTYLE_CELLSTYLEMAP
360
768
  3
ACAD_XREC_ROUNDTRIP
360
79A
  0
DICTIONARY
  5
77E
330
2F
100
AcDbDictionary
280
     1
281
     1
  3
ACAD_XREC_ROUNDTRIP
360
77F
  0
DICTIONARY
  5
782
330
31
100
AcDbDictionary
280
     1
281
     1
  3
ACAD_XREC_ROUNDTRIP
360
783
  0
DICTIONARY
  5
780
330
30
100
AcDbDictionary
280
     1
281
     1
  3
ACAD_XREC_ROUNDTRIP
360
781
  0
DICTIONARY
  5
77C
330
2E
100
AcDbDictionary
280
     1
281
     1
  3
ACAD_XREC_ROUNDTRIP
360
77D
  0
DICTIONARY
  5
78A
330
35
100
AcDbDictionary
280
     1
281
     1
  3
ACAD_XREC_ROUNDTRIP
360
78B
  0
DICTIONARY
  5
792
330
39
100
AcDbDictionary
280
     1
281
     1
  3
ACAD_XREC_ROUNDTRIP
360
793
  0
DICTIONARY
  5
784
330
32
100
AcDbDictionary
280
     1
281
     1
  3
ACAD_XREC_ROUNDTRIP
360
785
  0
DICTIONARY
  5
788
330
34
100
AcDbDictionary
280
     1
281
     1
  3
ACAD_XREC_ROUNDTRIP
360
789
  0
DICTIONARY
  5
798
330
3C
100
AcDbDictionary
280
     1
281
     1
  3
ACAD_XREC_ROUNDTRIP
360
799
  0
DICTIONARY
  5
790
330
38
100
AcDbDictionary
280
     1
281
     1
  3
ACAD_XREC_ROUNDTRIP
360
791
  0
DICTIONARY
  5
774
330
2A
100
AcDbDictionary
280
     1
281
     1
  3
ACAD_XREC_ROUNDTRIP
360
775
  0
DICTIONARY
  5
776
330
2B
100
AcDbDictionary
280
     1
281
     1
  3
ACAD_XREC_ROUNDTRIP
360
777
  0
DICTIONARY
  5
778
330
2C
100
AcDbDictionary
280
     1
281
     1
  3
ACAD_XREC_ROUNDTRIP
360
779
  0
DICTIONARY
  5
77A
330
2D
100
AcDbDictionary
280
     1
281
     1
  3
ACAD_XREC_ROUNDTRIP
360
77B
  0
DICTIONARY
  5
7A5
330
6E0
100
AcDbDictionary
280
     1
281
     1
  3
ACAD_XREC_ROUNDTRIP
360
7A6
  0
DICTIONARY
  5
794
330
3A
100
AcDbDictionary
280
     1
281
     1
  3
ACAD_XREC_ROUNDTRIP
360
795
  0
DICTIONARY
  5
78E
330
37
100
AcDbDictionary
280
     1
281
     1
  3
ACAD_XREC_ROUNDTRIP
360
78F
  0
DICTIONARY
  5
796
330
3B
100
AcDbDictionary
280
     1
281
     1
  3
ACAD_XREC_ROUNDTRIP
360
797
  0
DICTIONARY
  5
786
330
33
100
AcDbDictionary
280
     1
281
     1
  3
ACAD_XREC_ROUNDTRIP
360
787
  0
DICTIONARY
  5
7AF
330
6E5
100
AcDbDictionary
280
     1
281
     1
  3
ACAD_XREC_ROUNDTRIP
360
7B0
  0
DICTIONARY
  5
7AD
330
6E4
100
AcDbDictionary
280
     1
281
     1
  3
ACAD_XREC_ROUNDTRIP
360
7AE
  0
DICTIONARY
  5
7A7
330
6E1
100
AcDbDictionary
280
     1
281
     1
  3
ACAD_XREC_ROUNDTRIP
360
7A8
  0
DICTIONARY
  5
7A9
330
6E2
100
AcDbDictionary
280
     1
281
     1
  3
ACAD_XREC_ROUNDTRIP
360
7AA
  0
DICTIONARY
  5
78C
330
36
100
AcDbDictionary
280
     1
281
     1
  3
ACAD_XREC_ROUNDTRIP
360
78D
  0
DICTIONARY
  5
7A3
330
6DF
100
AcDbDictionary
280
     1
281
     1
  3
ACAD_XREC_ROUNDTRIP
360
7A4
  0
DICTIONARY
  5
7AB
330
6E3
100
AcDbDictionary
280
     1
281
     1
  3
ACAD_XREC_ROUNDTRIP
360
7AC
  0
DICTIONARY
  5
6A8
330
6A7
100
AcDbDictionary
280
     1
281
     1
  3
AcadLayerStateAnnoScale
360
6A9
  0
DICTIONARY
  5
770
330
76F
100
AcDbDictionary
280
     1
281
     1
  3
AcadLayerStateAnnoScale
360
771
  0
ACDB_MTEXTATTRIBUTEOBJECTCONTEXTDATA_CLASS
  5
3D5
102
{ACAD_REACTORS
330
3D4
102
}
330
3D4
100
AcDbObjectContextData
 70
     3
290
     1
100
AcDbAnnotScaleObjectContextData
340
3E
 70
     1
 50
0.0
 10
226.5
 20
275.0000000000036
 11
226.5
 21
276.5000000000036
290
     0
  0
ACDB_MTEXTATTRIBUTEOBJECTCONTEXTDATA_CLASS
  5
3DA
102
{ACAD_REACTORS
330
3D9
102
}
330
3D9
100
AcDbObjectContextData
 70
     3
290
     1
100
AcDbAnnotScaleObjectContextData
340
3E
 70
     1
 50
0.0
 10
278.5
 20
275.0000000000036
 11
278.5
 21
276.5000000000036
290
     0
  0
ACDB_MTEXTATTRIBUTEOBJECTCONTEXTDATA_CLASS
  5
3DF
102
{ACAD_REACTORS
330
3DE
102
}
330
3DE
100
AcDbObjectContextData
 70
     3
290
     1
100
AcDbAnnotScaleObjectContextData
340
3E
 70
     1
 50
0.0
 10
334.5
 20
275.0000000000036
 11
334.5
 21
276.5000000000036
290
     0
  0
ACDB_MTEXTATTRIBUTEOBJECTCONTEXTDATA_CLASS
  5
3E4
102
{ACAD_REACTORS
330
3E3
102
}
330
3E3
100
AcDbObjectContextData
 70
     3
290
     1
100
AcDbAnnotScaleObjectContextData
340
3E
 70
     1
 50
0.0
 10
354.5
 20
275.0000000000036
 11
354.5
 21
276.5000000000036
290
     0
  0
ACDB_MTEXTATTRIBUTEOBJECTCONTEXTDATA_CLASS
  5
3E9
102
{ACAD_REACTORS
330
3E8
102
}
330
3E8
100
AcDbObjectContextData
 70
     3
290
     1
100
AcDbAnnotScaleObjectContextData
340
3E
 70
     1
 50
0.0
 10
374.5
 20
275.0000000000036
 11
374.5
 21
276.5000000000036
290
     0
  0
ACDB_MTEXTATTRIBUTEOBJECTCONTEXTDATA_CLASS
  5
3EE
102
{ACAD_REACTORS
330
3ED
102
}
330
3ED
100
AcDbObjectContextData
 70
     3
290
     1
100
AcDbAnnotScaleObjectContextData
340
3E
 70
     1
 50
0.0
 10
394.5
 20
275.0000000000036
 11
394.5
 21
276.5000000000036
290
     0
  0
ACDB_MTEXTATTRIBUTEOBJECTCONTEXTDATA_CLASS
  5
3F3
102
{ACAD_REACTORS
330
3F2
102
}
330
3F2
100
AcDbObjectContextData
 70
     3
290
     1
100
AcDbAnnotScaleObjectContextData
340
3E
 70
     1
 50
0.0
 10
286.75
 20
32.75000000000364
 11
286.75
 21
34.50000000000364
290
     0
  0
ACDB_MTEXTATTRIBUTEOBJECTCONTEXTDATA_CLASS
  5
3F8
102
{ACAD_REACTORS
330
3F7
102
}
330
3F7
100
AcDbObjectContextData
 70
     3
290
     1
100
AcDbAnnotScaleObjectContextData
340
3E
 70
     1
 50
0.0
 10
245.0
 20
32.78589838486551
 11
245.0
 21
34.5358983848655
290
     0
  0
ACDB_MTEXTATTRIBUTEOBJECTCONTEXTDATA_CLASS
  5
3FD
102
{ACAD_REACTORS
330
3FC
102
}
330
3FC
100
AcDbObjectContextData
 70
     3
290
     1
100
AcDbAnnotScaleObjectContextData
340
3E
 70
     1
 50
0.0
 10
322.25
 20
32.75000000000364
 11
322.25
 21
34.50000000000364
290
     0
  0
ACDB_MTEXTATTRIBUTEOBJECTCONTEXTDATA_CLASS
  5
402
102
{ACAD_REACTORS
330
401
102
}
330
401
100
AcDbObjectContextData
 70
     3
290
     1
100
AcDbAnnotScaleObjectContextData
340
3E
 70
     1
 50
0.0
 10
322.25
 20
25.75000000000364
 11
322.25
 21
27.50000000000364
290
     0
  0
ACDB_MTEXTATTRIBUTEOBJECTCONTEXTDATA_CLASS
  5
407
102
{ACAD_REACTORS
330
406
102
}
330
406
100
AcDbObjectContextData
 70
     3
290
     1
100
AcDbAnnotScaleObjectContextData
340
3E
 70
     1
 50
0.0
 10
322.25
 20
18.75000000000364
 11
322.25
 21
20.50000000000364
290
     0
  0
ACDB_MTEXTATTRIBUTEOBJECTCONTEXTDATA_CLASS
  5
40C
102
{ACAD_REACTORS
330
40B
102
}
330
40B
100
AcDbObjectContextData
 70
     3
290
     1
100
AcDbAnnotScaleObjectContextData
340
3E
 70
     1
 50
0.0
 10
322.25
 20
11.75000000000363
 11
322.25
 21
13.50000000000364
290
     0
  0
ACDB_MTEXTATTRIBUTEOBJECTCONTEXTDATA_CLASS
  5
411
102
{ACAD_REACTORS
330
410
102
}
330
410
100
AcDbObjectContextData
 70
     3
290
     1
100
AcDbAnnotScaleObjectContextData
340
3E
 70
     1
 50
0.0
 10
340.0
 20
32.75000000000364
 11
340.0
 21
34.50000000000364
290
     0
  0
ACDB_MTEXTATTRIBUTEOBJECTCONTEXTDATA_CLASS
  5
416
102
{ACAD_REACTORS
330
415
102
}
330
415
100
AcDbObjectContextData
 70
     3
290
     1
100
AcDbAnnotScaleObjectContextData
340
3E
 70
     1
 50
0.0
 10
340.0
 20
25.75000000000364
 11
340.0
 21
27.50000000000364
290
     0
  0
ACDB_MTEXTATTRIBUTEOBJECTCONTEXTDATA_CLASS
  5
41B
102
{ACAD_REACTORS
330
41A
102
}
330
41A
100
AcDbObjectContextData
 70
     3
290
     1
100
AcDbAnnotScaleObjectContextData
340
3E
 70
     1
 50
0.0
 10
340.0
 20
18.75000000000364
 11
340.0
 21
20.50000000000364
290
     0
  0
ACDB_MTEXTATTRIBUTEOBJECTCONTEXTDATA_CLASS
  5
420
102
{ACAD_REACTORS
330
41F
102
}
330
41F
100
AcDbObjectContextData
 70
     3
290
     1
100
AcDbAnnotScaleObjectContextData
340
3E
 70
     1
 50
0.0
 10
340.0
 20
11.75000000000363
 11
340.0
 21
13.50000000000364
290
     0
  0
ACDB_MTEXTATTRIBUTEOBJECTCONTEXTDATA_CLASS
  5
425
102
{ACAD_REACTORS
330
424
102
}
330
424
100
AcDbObjectContextData
 70
     3
290
     1
100
AcDbAnnotScaleObjectContextData
340
3E
 70
     1
 50
0.0
 10
380.5
 20
32.75000000000364
 11
380.5
 21
34.50000000000364
290
     0
  0
ACDB_MTEXTATTRIBUTEOBJECTCONTEXTDATA_CLASS
  5
42A
102
{ACAD_REACTORS
330
429
102
}
330
429
100
AcDbObjectContextData
 70
     3
290
     1
100
AcDbAnnotScaleObjectContextData
340
3E
 70
     1
 50
0.0
 10
380.5
 20
25.75000000000364
 11
380.5
 21
27.50000000000364
290
     0
  0
ACDB_MTEXTATTRIBUTEOBJECTCONTEXTDATA_CLASS
  5
42F
102
{ACAD_REACTORS
330
42E
102
}
330
42E
100
AcDbObjectContextData
 70
     3
290
     1
100
AcDbAnnotScaleObjectContextData
340
3E
 70
     1
 50
0.0
 10
380.5
 20
18.75000000000364
 11
380.5
 21
20.50000000000364
290
     0
  0
ACDB_MTEXTATTRIBUTEOBJECTCONTEXTDATA_CLASS
  5
434
102
{ACAD_REACTORS
330
433
102
}
330
433
100
AcDbObjectContextData
 70
     3
290
     1
100
AcDbAnnotScaleObjectContextData
340
3E
 70
     1
 50
0.0
 10
375.25
 20
11.75000000000182
 11
375.25
 21
13.50000000000182
290
     0
  0
ACDB_MTEXTATTRIBUTEOBJECTCONTEXTDATA_CLASS
  5
439
102
{ACAD_REACTORS
330
438
102
}
330
438
100
AcDbObjectContextData
 70
     3
290
     1
100
AcDbAnnotScaleObjectContextData
340
3E
 70
     1
 50
0.0
 10
226.5
 20
47.00000000000364
 11
226.5
 21
48.50000000000363
290
     0
  0
ACDB_MTEXTATTRIBUTEOBJECTCONTEXTDATA_CLASS
  5
43E
102
{ACAD_REACTORS
330
43D
102
}
330
43D
100
AcDbObjectContextData
 70
     3
290
     1
100
AcDbAnnotScaleObjectContextData
340
3E
 70
     1
 50
0.0
 10
255.0
 20
47.00000000000364
 11
255.0
 21
48.50000000000363
290
     0
  0
ACDB_MTEXTATTRIBUTEOBJECTCONTEXTDATA_CLASS
  5
443
102
{ACAD_REACTORS
330
442
102
}
330
442
100
AcDbObjectContextData
 70
     3
290
     1
100
AcDbAnnotScaleObjectContextData
340
3E
 70
     1
 50
0.0
 10
294.0
 20
47.00000000000364
 11
294.0
 21
48.50000000000363
290
     0
  0
ACDB_MTEXTATTRIBUTEOBJECTCONTEXTDATA_CLASS
  5
448
102
{ACAD_REACTORS
330
447
102
}
330
447
100
AcDbObjectContextData
 70
     3
290
     1
100
AcDbAnnotScaleObjectContextData
340
3E
 70
     1
 50
0.0
 10
311.5
 20
47.00000000000364
 11
311.5
 21
48.50000000000363
290
     0
  0
ACDB_MTEXTATTRIBUTEOBJECTCONTEXTDATA_CLASS
  5
44D
102
{ACAD_REACTORS
330
44C
102
}
330
44C
100
AcDbObjectContextData
 70
     3
290
     1
100
AcDbAnnotScaleObjectContextData
340
3E
 70
     1
 50
0.0
 10
340.0
 20
47.00000000000364
 11
340.0
 21
48.50000000000363
290
     0
  0
ACDB_MTEXTATTRIBUTEOBJECTCONTEXTDATA_CLASS
  5
452
102
{ACAD_REACTORS
330
451
102
}
330
451
100
AcDbObjectContextData
 70
     3
290
     1
100
AcDbAnnotScaleObjectContextData
340
3E
 70
     1
 50
0.0
 10
386.0
 20
47.00000000000364
 11
386.0
 21
48.50000000000363
290
     0
  0
XRECORD
  5
79E
102
{ACAD_REACTORS
330
79D
102
}
330
79D
100
AcDbXrecord
280
     1
102
SHADEPLOT
 70
     0
102
SHADEPLOTRESLEVEL
 70
     2
102
SHADEPLOTCUSTOMDPI
 70
   300
  0
XRECORD
  5
79C
102
{ACAD_REACTORS
330
79B
102
}
330
79B
100
AcDbXrecord
280
     1
102
SHADEPLOT
 70
     0
102
SHADEPLOTRESLEVEL
 70
     2
102
SHADEPLOTCUSTOMDPI
 70
   300
  0
XRECORD
  5
7A0
102
{ACAD_REACTORS
330
79F
102
}
330
79F
100
AcDbXrecord
280
     1
102
SHADEPLOT
 70
     0
102
SHADEPLOTRESLEVEL
 70
     2
102
SHADEPLOTCUSTOMDPI
 70
   300
  0
XRECORD
  5
6AC
102
{ACAD_REACTORS
330
1A
102
}
330
1A
100
AcDbXrecord
280
     1
102
MATERIAL
148
0.0
149
0.0
149
0.0
 93
        0
 94
      127
282
     0
 72
     0
 77
     0
171
     0
175
     0
179
     0
273
     0
  0
XRECORD
  5
1C
102
{ACAD_REACTORS
330
1A
102
}
330
1A
100
AcDbXrecord
280
     1
270
     1
271
     1
  0
XRECORD
  5
1B
102
{ACAD_REACTORS
330
1A
102
}
330
1A
100
AcDbXrecord
280
     1
270
     1
271
     1
  0
XRECORD
  5
1F
102
{ACAD_REACTORS
330
1A
102
}
330
1A
100
AcDbXrecord
280
     1
270
     1
271
     1
  0
XRECORD
  5
1E
102
{ACAD_REACTORS
330
1A
102
}
330
1A
100
AcDbXrecord
280
     1
270
     1
271
     1
  0
XRECORD
  5
20
102
{ACAD_REACTORS
330
1A
102
}
330
1A
100
AcDbXrecord
280
     1
270
     1
271
     1
  0
XRECORD
  5
1D
102
{ACAD_REACTORS
330
1A
102
}
330
1A
100
AcDbXrecord
280
     1
270
     1
271
     1
  0
XRECORD
  5
6AB
102
{ACAD_REACTORS
330
12
102
}
330
12
100
AcDbXrecord
280
     1
102
MATERIAL
148
0.0
149
0.0
149
0.0
 93
        0
 94
      127
282
     0
 72
     0
 77
     0
171
     0
175
     0
179
     0
273
     0
  0
XRECORD
  5
14
102
{ACAD_REACTORS
330
12
102
}
330
12
100
AcDbXrecord
280
     1
270
     1
271
     1
  0
XRECORD
  5
13
102
{ACAD_REACTORS
330
12
102
}
330
12
100
AcDbXrecord
280
     1
270
     1
271
     1
  0
XRECORD
  5
17
102
{ACAD_REACTORS
330
12
102
}
330
12
100
AcDbXrecord
280
     1
270
     1
271
     1
  0
XRECORD
  5
16
102
{ACAD_REACTORS
330
12
102
}
330
12
100
AcDbXrecord
280
     1
270
     1
271
     1
  0
XRECORD
  5
18
102
{ACAD_REACTORS
330
12
102
}
330
12
100
AcDbXrecord
280
     1
270
     1
271
     1
  0
XRECORD
  5
15
102
{ACAD_REACTORS
330
12
102
}
330
12
100
AcDbXrecord
280
     1
270
     1
271
     1
  0
XRECORD
  5
6AD
102
{ACAD_REACTORS
330
22
102
}
330
22
100
AcDbXrecord
280
     1
102
MATERIAL
148
0.0
149
0.0
149
0.0
 93
        0
 94
      127
282
     0
 72
     0
 77
     0
171
     0
175
     0
179
     0
273
     0
  0
XRECORD
  5
24
102
{ACAD_REACTORS
330
22
102
}
330
22
100
AcDbXrecord
280
     1
270
     1
271
     1
  0
XRECORD
  5
23
102
{ACAD_REACTORS
330
22
102
}
330
22
100
AcDbXrecord
280
     1
270
     1
271
     1
  0
XRECORD
  5
27
102
{ACAD_REACTORS
330
22
102
}
330
22
100
AcDbXrecord
280
     1
270
     1
271
     1
  0
XRECORD
  5
26
102
{ACAD_REACTORS
330
22
102
}
330
22
100
AcDbXrecord
280
     1
270
     1
271
     1
  0
XRECORD
  5
28
102
{ACAD_REACTORS
330
22
102
}
330
22
100
AcDbXrecord
280
     1
270
     1
271
     1
  0
XRECORD
  5
25
102
{ACAD_REACTORS
330
22
102
}
330
22
100
AcDbXrecord
280
     1
270
     1
271
     1
  0
CELLSTYLEMAP
  5
768
102
{ACAD_REACTORS
330
69C
102
}
330
69C
100
AcDbCellStyleMap
 90
        3
300
CELLSTYLE
  1
TABLEFORMAT_BEGIN
 90
        5
170
     1
 91
        0
 92
    32768
 62
   257
 93
        1
300
CONTENTFORMAT
  1
CONTENTFORMAT_BEGIN
 90
        0
 91
        0
 92
      512
 93
        0
300

 40
0.0
140
1.0
 94
        5
 62
     0
340
50
144
6.0
309
CONTENTFORMAT_END
171
     1
301
MARGIN
  1
CELLMARGIN_BEGIN
 40
1.5
 40
1.5
 40
1.5
 40
1.5
 40
0.18
 40
0.18
309
CELLMARGIN_END
 94
        6
 95
        1
302
GRIDFORMAT
  1
GRIDFORMAT_BEGIN
 90
        0
 91
        1
 62
     0
 92
       -2
340
0
 93
        0
 40
1.125
309
GRIDFORMAT_END
 95
        2
302
GRIDFORMAT
  1
GRIDFORMAT_BEGIN
 90
        0
 91
        1
 62
     0
 92
       -2
340
0
 93
        0
 40
1.125
309
GRIDFORMAT_END
 95
        4
302
GRIDFORMAT
  1
GRIDFORMAT_BEGIN
 90
        0
 91
        1
 62
     0
 92
       -2
340
0
 93
        0
 40
1.125
309
GRIDFORMAT_END
 95
        8
302
GRIDFORMAT
  1
GRIDFORMAT_BEGIN
 90
        0
 91
        1
 62
     0
 92
       -2
340
0
 93
        0
 40
1.125
309
GRIDFORMAT_END
 95
       16
302
GRIDFORMAT
  1
GRIDFORMAT_BEGIN
 90
        0
 91
        1
 62
     0
 92
       -2
340
0
 93
        0
 40
1.125
309
GRIDFORMAT_END
 95
       32
302
GRIDFORMAT
  1
GRIDFORMAT_BEGIN
 90
        0
 91
        1
 62
     0
 92
       -2
340
0
 93
        0
 40
1.125
309
GRIDFORMAT_END
309
TABLEFORMAT_END
  1
CELLSTYLE_BEGIN
 90
        1
 91
        1
300
_TITLE
309
CELLSTYLE_END
300
CELLSTYLE
  1
TABLEFORMAT_BEGIN
 90
        5
170
     1
 91
        0
 92
        0
 62
   257
 93
        1
300
CONTENTFORMAT
  1
CONTENTFORMAT_BEGIN
 90
        0
 91
        0
 92
      512
 93
        0
300

 40
0.0
140
1.0
 94
        5
 62
     0
340
50
144
4.5
309
CONTENTFORMAT_END
171
     1
301
MARGIN
  1
CELLMARGIN_BEGIN
 40
1.5
 40
1.5
 40
1.5
 40
1.5
 40
0.18
 40
0.18
309
CELLMARGIN_END
 94
        6
 95
        1
302
GRIDFORMAT
  1
GRIDFORMAT_BEGIN
 90
        0
 91
        1
 62
     0
 92
       -2
340
0
 93
        0
 40
1.125
309
GRIDFORMAT_END
 95
        2
302
GRIDFORMAT
  1
GRIDFORMAT_BEGIN
 90
        0
 91
        1
 62
     0
 92
       -2
340
0
 93
        0
 40
1.125
309
GRIDFORMAT_END
 95
        4
302
GRIDFORMAT
  1
GRIDFORMAT_BEGIN
 90
        0
 91
        1
 62
     0
 92
       -2
340
0
 93
        0
 40
1.125
309
GRIDFORMAT_END
 95
        8
302
GRIDFORMAT
  1
GRIDFORMAT_BEGIN
 90
        0
 91
        1
 62
     0
 92
       -2
340
0
 93
        0
 40
1.125
309
GRIDFORMAT_END
 95
       16
302
GRIDFORMAT
  1
GRIDFORMAT_BEGIN
 90
        0
 91
        1
 62
     0
 92
       -2
340
0
 93
        0
 40
1.125
309
GRIDFORMAT_END
 95
       32
302
GRIDFORMAT
  1
GRIDFORMAT_BEGIN
 90
        0
 91
        1
 62
     0
 92
       -2
340
0
 93
        0
 40
1.125
309
GRIDFORMAT_END
309
TABLEFORMAT_END
  1
CELLSTYLE_BEGIN
 90
        2
 91
        1
300
_HEADER
309
CELLSTYLE_END
300
CELLSTYLE
  1
TABLEFORMAT_BEGIN
 90
        5
170
     1
 91
        0
 92
        0
 62
   257
 93
        1
300
CONTENTFORMAT
  1
CONTENTFORMAT_BEGIN
 90
        0
 91
        0
 92
      512
 93
        0
300

 40
0.0
140
1.0
 94
        2
 62
     0
340
50
144
4.5
309
CONTENTFORMAT_END
171
     1
301
MARGIN
  1
CELLMARGIN_BEGIN
 40
1.5
 40
1.5
 40
1.5
 40
1.5
 40
0.18
 40
0.18
309
CELLMARGIN_END
 94
        6
 95
        1
302
GRIDFORMAT
  1
GRIDFORMAT_BEGIN
 90
        0
 91
        1
 62
     0
 92
       -2
340
0
 93
        0
 40
1.125
309
GRIDFORMAT_END
 95
        2
302
GRIDFORMAT
  1
GRIDFORMAT_BEGIN
 90
        0
 91
        1
 62
     0
 92
       -2
340
0
 93
        0
 40
1.125
309
GRIDFORMAT_END
 95
        4
302
GRIDFORMAT
  1
GRIDFORMAT_BEGIN
 90
        0
 91
        1
 62
     0
 92
       -2
340
0
 93
        0
 40
1.125
309
GRIDFORMAT_END
 95
        8
302
GRIDFORMAT
  1
GRIDFORMAT_BEGIN
 90
        0
 91
        1
 62
     0
 92
       -2
340
0
 93
        0
 40
1.125
309
GRIDFORMAT_END
 95
       16
302
GRIDFORMAT
  1
GRIDFORMAT_BEGIN
 90
        0
 91
        1
 62
     0
 92
       -2
340
0
 93
        0
 40
1.125
309
GRIDFORMAT_END
 95
       32
302
GRIDFORMAT
  1
GRIDFORMAT_BEGIN
 90
        0
 91
        1
 62
     0
 92
       -2
340
0
 93
        0
 40
1.125
309
GRIDFORMAT_END
309
TABLEFORMAT_END
  1
CELLSTYLE_BEGIN
 90
        3
 91
        2
300
_DATA
309
CELLSTYLE_END
  0
XRECORD
  5
79A
102
{ACAD_REACTORS
330
69C
102
}
330
69C
100
AcDbXrecord
280
     1
102
ACAD_ROUNDTRIP_PRE2007_TABLESTYLE
 90
      512
 91
        0
  1

 92
      512
 93
        0
  2

 94
      512
 95
        0
  3

  0
XRECORD
  5
77F
102
{ACAD_REACTORS
330
77E
102
}
330
77E
100
AcDbXrecord
280
     1
102
RTVSPropertyOp0
 70
     1
102
RTVSPropertyOp1
 70
     1
102
RTVSPropertyOp2
 70
     1
102
RTVSPropertyOp3
 70
     1
102
RTVSPropertyOp4
 70
     1
102
RTVSPropertyOp5
 70
     1
102
RTVSPropertyOp6
 70
     1
102
RTVSPropertyOp7
 70
     1
102
RTVSPropertyOp8
 70
     1
102
RTVSPropertyOp9
 70
     1
102
RTVSPropertyOp10
 70
     1
102
RTVSPropertyOp11
 70
     1
102
RTVSPropertyOp12
 70
     1
102
RTVSPropertyOp13
 70
     1
102
RTVSPropertyOp14
 70
     1
102
RTVSPropertyOp15
 70
     1
102
RTVSPropertyOp16
 70
     1
102
RTVSPropertyOp17
 70
     1
102
RTVSPropertyOp18
 70
     1
102
RTVSPropertyOp19
 70
     1
102
RTVSPropertyOp20
 70
     1
102
RTVSPropertyOp21
 70
     1
102
RTVSPropertyOp22
 70
     1
102
RTVSPropertyOp23
 70
     1
102
RTVSPropertyOp24
 70
     1
102
RTVSPropertyOp25
 70
     1
102
RTVSPropertyOp26
 70
     1
102
RTVSPropertyOp27
 70
     1
102
RTVSPropertyOp28
 70
     1
102
RTVSPropertyOp29
 70
     1
102
RTVSPropertyOp30
 70
     1
102
RTVSPropertyOp31
 70
     1
102
RTVSPropertyOp32
 70
     1
  0
XRECORD
  5
783
102
{ACAD_REACTORS
330
782
102
}
330
782
100
AcDbXrecord
280
     1
102
RTVSPropertyOp0
 70
     1
102
RTVSPropertyOp1
 70
     1
102
RTVSPropertyOp2
 70
     1
102
RTVSPropertyOp3
 70
     1
102
RTVSPropertyOp4
 70
     1
102
RTVSPropertyOp5
 70
     1
102
RTVSPropertyOp6
 70
     1
102
RTVSPropertyOp7
 70
     1
102
RTVSPropertyOp8
 70
     1
102
RTVSPropertyOp9
 70
     1
102
RTVSPropertyOp10
 70
     1
102
RTVSPropertyOp11
 70
     1
102
RTVSPropertyOp12
 70
     1
102
RTVSPropertyOp13
 70
     1
102
RTVSPropertyOp14
 70
     1
102
RTVSPropertyOp15
 70
     1
102
RTVSPropertyOp16
 70
     1
102
RTVSPropertyOp17
 70
     1
102
RTVSPropertyOp18
 70
     1
102
RTVSPropertyOp19
 70
     1
102
RTVSPropertyOp20
 70
     1
102
RTVSPropertyOp21
 70
     1
102
RTVSPropertyOp22
 70
     1
102
RTVSPropertyOp23
 70
     1
102
RTVSPropertyOp24
 70
     1
102
RTVSPropertyOp25
 70
     1
102
RTVSPropertyOp26
 70
     1
102
RTVSPropertyOp27
 70
     1
102
RTVSPropertyOp28
 70
     1
102
RTVSPropertyOp29
 70
     1
102
RTVSPropertyOp30
 70
     1
102
RTVSPropertyOp31
 70
     1
102
RTVSPropertyOp32
 70
     1
  0
XRECORD
  5
781
102
{ACAD_REACTORS
330
780
102
}
330
780
100
AcDbXrecord
280
     1
102
RTVSPropertyOp0
 70
     1
102
RTVSPropertyOp1
 70
     1
102
RTVSPropertyOp2
 70
     1
102
RTVSPropertyOp3
 70
     1
102
RTVSPropertyOp4
 70
     1
102
RTVSPropertyOp5
 70
     1
102
RTVSPropertyOp6
 70
     1
102
RTVSPropertyOp7
 70
     1
102
RTVSPropertyOp8
 70
     1
102
RTVSPropertyOp9
 70
     1
102
RTVSPropertyOp10
 70
     1
102
RTVSPropertyOp11
 70
     1
102
RTVSPropertyOp12
 70
     1
102
RTVSPropertyOp13
 70
     1
102
RTVSPropertyOp14
 70
     1
102
RTVSPropertyOp15
 70
     1
102
RTVSPropertyOp16
 70
     1
102
RTVSPropertyOp17
 70
     1
102
RTVSPropertyOp18
 70
     1
102
RTVSPropertyOp19
 70
     1
102
RTVSPropertyOp20
 70
     1
102
RTVSPropertyOp21
 70
     1
102
RTVSPropertyOp22
 70
     1
102
RTVSPropertyOp23
 70
     1
102
RTVSPropertyOp24
 70
     1
102
RTVSPropertyOp25
 70
     1
102
RTVSPropertyOp26
 70
     1
102
RTVSPropertyOp27
 70
     1
102
RTVSPropertyOp28
 70
     1
102
RTVSPropertyOp29
 70
     1
102
RTVSPropertyOp30
 70
     1
102
RTVSPropertyOp31
 70
     1
102
RTVSPropertyOp32
 70
     1
  0
XRECORD
  5
77D
102
{ACAD_REACTORS
330
77C
102
}
330
77C
100
AcDbXrecord
280
     1
102
RTVSPropertyOp0
 70
     1
102
RTVSPropertyOp1
 70
     1
102
RTVSPropertyOp2
 70
     1
102
RTVSPropertyOp3
 70
     1
102
RTVSPropertyOp4
 70
     1
102
RTVSPropertyOp5
 70
     1
102
RTVSPropertyOp6
 70
     1
102
RTVSPropertyOp7
 70
     1
102
RTVSPropertyOp8
 70
     1
102
RTVSPropertyOp9
 70
     1
102
RTVSPropertyOp10
 70
     1
102
RTVSPropertyOp11
 70
     1
102
RTVSPropertyOp12
 70
     1
102
RTVSPropertyOp13
 70
     1
102
RTVSPropertyOp14
 70
     1
102
RTVSPropertyOp15
 70
     1
102
RTVSPropertyOp16
 70
     1
102
RTVSPropertyOp17
 70
     1
102
RTVSPropertyOp18
 70
     1
102
RTVSPropertyOp19
 70
     1
102
RTVSPropertyOp20
 70
     1
102
RTVSPropertyOp21
 70
     1
102
RTVSPropertyOp22
 70
     1
102
RTVSPropertyOp23
 70
     1
102
RTVSPropertyOp24
 70
     1
102
RTVSPropertyOp25
 70
     1
102
RTVSPropertyOp26
 70
     1
102
RTVSPropertyOp27
 70
     1
102
RTVSPropertyOp28
 70
     1
102
RTVSPropertyOp29
 70
     1
102
RTVSPropertyOp30
 70
     1
102
RTVSPropertyOp31
 70
     1
102
RTVSPropertyOp32
 70
     1
  0
XRECORD
  5
78B
102
{ACAD_REACTORS
330
78A
102
}
330
78A
100
AcDbXrecord
280
     1
102
RTVSPropertyOp0
 70
     1
102
RTVSPropertyOp1
 70
     1
102
RTVSPropertyOp2
 70
     1
102
RTVSPropertyOp3
 70
     1
102
RTVSPropertyOp4
 70
     1
102
RTVSPropertyOp5
 70
     1
102
RTVSPropertyOp6
 70
     1
102
RTVSPropertyOp7
 70
     1
102
RTVSPropertyOp8
 70
     1
102
RTVSPropertyOp9
 70
     1
102
RTVSPropertyOp10
 70
     1
102
RTVSPropertyOp11
 70
     1
102
RTVSPropertyOp12
 70
     1
102
RTVSPropertyOp13
 70
     1
102
RTVSPropertyOp14
 70
     1
102
RTVSPropertyOp15
 70
     1
102
RTVSPropertyOp16
 70
     1
102
RTVSPropertyOp17
 70
     1
102
RTVSPropertyOp18
 70
     1
102
RTVSPropertyOp19
 70
     1
102
RTVSPropertyOp20
 70
     1
102
RTVSPropertyOp21
 70
     1
102
RTVSPropertyOp22
 70
     1
102
RTVSPropertyOp23
 70
     1
102
RTVSPropertyOp24
 70
     1
102
RTVSPropertyOp25
 70
     1
102
RTVSPropertyOp26
 70
     1
102
RTVSPropertyOp27
 70
     1
102
RTVSPropertyOp28
 70
     1
102
RTVSPropertyOp29
 70
     1
102
RTVSPropertyOp30
 70
     1
102
RTVSPropertyOp31
 70
     1
102
RTVSPropertyOp32
 70
     1
  0
XRECORD
  5
793
102
{ACAD_REACTORS
330
792
102
}
330
792
100
AcDbXrecord
280
     1
102
RTVSPropertyOp0
 70
     1
102
RTVSPropertyOp1
 70
     1
102
RTVSPropertyOp2
 70
     1
102
RTVSPropertyOp3
 70
     1
102
RTVSPropertyOp4
 70
     1
102
RTVSPropertyOp5
 70
     1
102
RTVSPropertyOp6
 70
     1
102
RTVSPropertyOp7
 70
     1
102
RTVSPropertyOp8
 70
     1
102
RTVSPropertyOp9
 70
     1
102
RTVSPropertyOp10
 70
     1
102
RTVSPropertyOp11
 70
     1
102
RTVSPropertyOp12
 70
     1
102
RTVSPropertyOp13
 70
     1
102
RTVSPropertyOp14
 70
     1
102
RTVSPropertyOp15
 70
     1
102
RTVSPropertyOp16
 70
     1
102
RTVSPropertyOp17
 70
     1
102
RTVSPropertyOp18
 70
     1
102
RTVSPropertyOp19
 70
     1
102
RTVSPropertyOp20
 70
     1
102
RTVSPropertyOp21
 70
     1
102
RTVSPropertyOp22
 70
     1
102
RTVSPropertyOp23
 70
     1
102
RTVSPropertyOp24
 70
     1
102
RTVSPropertyOp25
 70
     1
102
RTVSPropertyOp26
 70
     1
102
RTVSPropertyOp27
 70
     1
102
RTVSPropertyOp28
 70
     1
102
RTVSPropertyOp29
 70
     1
102
RTVSPropertyOp30
 70
     1
102
RTVSPropertyOp31
 70
     1
102
RTVSPropertyOp32
 70
     1
  0
XRECORD
  5
785
102
{ACAD_REACTORS
330
784
102
}
330
784
100
AcDbXrecord
280
     1
102
RTVSPropertyOp0
 70
     1
102
RTVSPropertyOp1
 70
     1
102
RTVSPropertyOp2
 70
     1
102
RTVSPropertyOp3
 70
     1
102
RTVSPropertyOp4
 70
     1
102
RTVSPropertyOp5
 70
     1
102
RTVSPropertyOp6
 70
     1
102
RTVSPropertyOp7
 70
     1
102
RTVSPropertyOp8
 70
     1
102
RTVSPropertyOp9
 70
     1
102
RTVSPropertyOp10
 70
     1
102
RTVSPropertyOp11
 70
     1
102
RTVSPropertyOp12
 70
     1
102
RTVSPropertyOp13
 70
     1
102
RTVSPropertyOp14
 70
     1
102
RTVSPropertyOp15
 70
     1
102
RTVSPropertyOp16
 70
     1
102
RTVSPropertyOp17
 70
     1
102
RTVSPropertyOp18
 70
     1
102
RTVSPropertyOp19
 70
     1
102
RTVSPropertyOp20
 70
     1
102
RTVSPropertyOp21
 70
     1
102
RTVSPropertyOp22
 70
     1
102
RTVSPropertyOp23
 70
     1
102
RTVSPropertyOp24
 70
     1
102
RTVSPropertyOp25
 70
     1
102
RTVSPropertyOp26
 70
     1
102
RTVSPropertyOp27
 70
     1
102
RTVSPropertyOp28
 70
     1
102
RTVSPropertyOp29
 70
     1
102
RTVSPropertyOp30
 70
     1
102
RTVSPropertyOp31
 70
     1
102
RTVSPropertyOp32
 70
     1
  0
XRECORD
  5
789
102
{ACAD_REACTORS
330
788
102
}
330
788
100
AcDbXrecord
280
     1
102
RTVSPropertyOp0
 70
     1
102
RTVSPropertyOp1
 70
     1
102
RTVSPropertyOp2
 70
     1
102
RTVSPropertyOp3
 70
     1
102
RTVSPropertyOp4
 70
     1
102
RTVSPropertyOp5
 70
     1
102
RTVSPropertyOp6
 70
     1
102
RTVSPropertyOp7
 70
     1
102
RTVSPropertyOp8
 70
     1
102
RTVSPropertyOp9
 70
     1
102
RTVSPropertyOp10
 70
     1
102
RTVSPropertyOp11
 70
     1
102
RTVSPropertyOp12
 70
     1
102
RTVSPropertyOp13
 70
     1
102
RTVSPropertyOp14
 70
     1
102
RTVSPropertyOp15
 70
     1
102
RTVSPropertyOp16
 70
     1
102
RTVSPropertyOp17
 70
     1
102
RTVSPropertyOp18
 70
     1
102
RTVSPropertyOp19
 70
     1
102
RTVSPropertyOp20
 70
     1
102
RTVSPropertyOp21
 70
     1
102
RTVSPropertyOp22
 70
     1
102
RTVSPropertyOp23
 70
     1
102
RTVSPropertyOp24
 70
     1
102
RTVSPropertyOp25
 70
     1
102
RTVSPropertyOp26
 70
     1
102
RTVSPropertyOp27
 70
     1
102
RTVSPropertyOp28
 70
     1
102
RTVSPropertyOp29
 70
     1
102
RTVSPropertyOp30
 70
     1
102
RTVSPropertyOp31
 70
     1
102
RTVSPropertyOp32
 70
     1
  0
XRECORD
  5
799
102
{ACAD_REACTORS
330
798
102
}
330
798
100
AcDbXrecord
280
     1
102
RTVSPropertyOp0
 70
     0
102
RTVSPropertyOp1
 70
     0
102
RTVSPropertyOp2
 70
     0
102
RTVSPropertyOp3
 70
     0
102
RTVSPropertyOp4
 70
     0
102
RTVSPropertyOp5
 70
     0
102
RTVSPropertyOp6
 70
     0
102
RTVSPropertyOp7
 70
     0
102
RTVSPropertyOp8
 70
     0
102
RTVSPropertyOp9
 70
     0
102
RTVSPropertyOp10
 70
     0
102
RTVSPropertyOp11
 70
     0
102
RTVSPropertyOp12
 70
     0
102
RTVSPropertyOp13
 70
     0
102
RTVSPropertyOp14
 70
     2
102
RTVSPropertyOp15
 70
     0
102
RTVSPropertyOp16
 70
     0
102
RTVSPropertyOp17
 70
     0
102
RTVSPropertyOp18
 70
     0
102
RTVSPropertyOp19
 70
     0
102
RTVSPropertyOp20
 70
     0
102
RTVSPropertyOp21
 70
     0
102
RTVSPropertyOp22
 70
     0
102
RTVSPropertyOp23
 70
     0
102
RTVSPropertyOp24
 70
     0
102
RTVSPropertyOp25
 70
     0
102
RTVSPropertyOp26
 70
     0
102
RTVSPropertyOp27
 70
     0
102
RTVSPropertyOp28
 70
     1
102
RTVSPropertyOp29
 70
     1
102
RTVSPropertyOp30
 70
     1
102
RTVSPropertyOp31
 70
     1
102
RTVSPropertyOp32
 70
     1
  0
XRECORD
  5
791
102
{ACAD_REACTORS
330
790
102
}
330
790
100
AcDbXrecord
280
     1
102
RTVSPropertyOp0
 70
     1
102
RTVSPropertyOp1
 70
     1
102
RTVSPropertyOp2
 70
     1
102
RTVSPropertyOp3
 70
     1
102
RTVSPropertyOp4
 70
     1
102
RTVSPropertyOp5
 70
     1
102
RTVSPropertyOp6
 70
     1
102
RTVSPropertyOp7
 70
     1
102
RTVSPropertyOp8
 70
     1
102
RTVSPropertyOp9
 70
     1
102
RTVSPropertyOp10
 70
     1
102
RTVSPropertyOp11
 70
     1
102
RTVSPropertyOp12
 70
     1
102
RTVSPropertyOp13
 70
     1
102
RTVSPropertyOp14
 70
     1
102
RTVSPropertyOp15
 70
     1
102
RTVSPropertyOp16
 70
     1
102
RTVSPropertyOp17
 70
     1
102
RTVSPropertyOp18
 70
     1
102
RTVSPropertyOp19
 70
     1
102
RTVSPropertyOp20
 70
     1
102
RTVSPropertyOp21
 70
     1
102
RTVSPropertyOp22
 70
     1
102
RTVSPropertyOp23
 70
     1
102
RTVSPropertyOp24
 70
     1
102
RTVSPropertyOp25
 70
     1
102
RTVSPropertyOp26
 70
     1
102
RTVSPropertyOp27
 70
     1
102
RTVSPropertyOp28
 70
     1
102
RTVSPropertyOp29
 70
     1
102
RTVSPropertyOp30
 70
     1
102
RTVSPropertyOp31
 70
     1
102
RTVSPropertyOp32
 70
     1
  0
XRECORD
  5
775
102
{ACAD_REACTORS
330
774
102
}
330
774
100
AcDbXrecord
280
     1
102
RTVSPropertyOp0
 70
     1
102
RTVSPropertyOp1
 70
     1
102
RTVSPropertyOp2
 70
     1
102
RTVSPropertyOp3
 70
     1
102
RTVSPropertyOp4
 70
     1
102
RTVSPropertyOp5
 70
     1
102
RTVSPropertyOp6
 70
     1
102
RTVSPropertyOp7
 70
     1
102
RTVSPropertyOp8
 70
     1
102
RTVSPropertyOp9
 70
     1
102
RTVSPropertyOp10
 70
     1
102
RTVSPropertyOp11
 70
     1
102
RTVSPropertyOp12
 70
     1
102
RTVSPropertyOp13
 70
     1
102
RTVSPropertyOp14
 70
     1
102
RTVSPropertyOp15
 70
     1
102
RTVSPropertyOp16
 70
     1
102
RTVSPropertyOp17
 70
     1
102
RTVSPropertyOp18
 70
     1
102
RTVSPropertyOp19
 70
     1
102
RTVSPropertyOp20
 70
     1
102
RTVSPropertyOp21
 70
     1
102
RTVSPropertyOp22
 70
     1
102
RTVSPropertyOp23
 70
     1
102
RTVSPropertyOp24
 70
     1
102
RTVSPropertyOp25
 70
     1
102
RTVSPropertyOp26
 70
     1
102
RTVSPropertyOp27
 70
     1
102
RTVSPropertyOp28
 70
     1
102
RTVSPropertyOp29
 70
     1
102
RTVSPropertyOp30
 70
     1
102
RTVSPropertyOp31
 70
     1
102
RTVSPropertyOp32
 70
     1
  0
XRECORD
  5
777
102
{ACAD_REACTORS
330
776
102
}
330
776
100
AcDbXrecord
280
     1
102
RTVSPropertyOp0
 70
     1
102
RTVSPropertyOp1
 70
     1
102
RTVSPropertyOp2
 70
     1
102
RTVSPropertyOp3
 70
     1
102
RTVSPropertyOp4
 70
     1
102
RTVSPropertyOp5
 70
     1
102
RTVSPropertyOp6
 70
     1
102
RTVSPropertyOp7
 70
     1
102
RTVSPropertyOp8
 70
     1
102
RTVSPropertyOp9
 70
     1
102
RTVSPropertyOp10
 70
     1
102
RTVSPropertyOp11
 70
     1
102
RTVSPropertyOp12
 70
     1
102
RTVSPropertyOp13
 70
     1
102
RTVSPropertyOp14
 70
     1
102
RTVSPropertyOp15
 70
     1
102
RTVSPropertyOp16
 70
     1
102
RTVSPropertyOp17
 70
     1
102
RTVSPropertyOp18
 70
     1
102
RTVSPropertyOp19
 70
     1
102
RTVSPropertyOp20
 70
     1
102
RTVSPropertyOp21
 70
     1
102
RTVSPropertyOp22
 70
     1
102
RTVSPropertyOp23
 70
     1
102
RTVSPropertyOp24
 70
     1
102
RTVSPropertyOp25
 70
     1
102
RTVSPropertyOp26
 70
     1
102
RTVSPropertyOp27
 70
     1
102
RTVSPropertyOp28
 70
     1
102
RTVSPropertyOp29
 70
     1
102
RTVSPropertyOp30
 70
     1
102
RTVSPropertyOp31
 70
     1
102
RTVSPropertyOp32
 70
     1
  0
XRECORD
  5
779
102
{ACAD_REACTORS
330
778
102
}
330
778
100
AcDbXrecord
280
     1
102
RTVSPropertyOp0
 70
     1
102
RTVSPropertyOp1
 70
     1
102
RTVSPropertyOp2
 70
     1
102
RTVSPropertyOp3
 70
     1
102
RTVSPropertyOp4
 70
     1
102
RTVSPropertyOp5
 70
     1
102
RTVSPropertyOp6
 70
     1
102
RTVSPropertyOp7
 70
     1
102
RTVSPropertyOp8
 70
     1
102
RTVSPropertyOp9
 70
     1
102
RTVSPropertyOp10
 70
     1
102
RTVSPropertyOp11
 70
     1
102
RTVSPropertyOp12
 70
     1
102
RTVSPropertyOp13
 70
     1
102
RTVSPropertyOp14
 70
     1
102
RTVSPropertyOp15
 70
     1
102
RTVSPropertyOp16
 70
     1
102
RTVSPropertyOp17
 70
     1
102
RTVSPropertyOp18
 70
     1
102
RTVSPropertyOp19
 70
     1
102
RTVSPropertyOp20
 70
     1
102
RTVSPropertyOp21
 70
     1
102
RTVSPropertyOp22
 70
     1
102
RTVSPropertyOp23
 70
     1
102
RTVSPropertyOp24
 70
     1
102
RTVSPropertyOp25
 70
     1
102
RTVSPropertyOp26
 70
     1
102
RTVSPropertyOp27
 70
     1
102
RTVSPropertyOp28
 70
     1
102
RTVSPropertyOp29
 70
     1
102
RTVSPropertyOp30
 70
     1
102
RTVSPropertyOp31
 70
     1
102
RTVSPropertyOp32
 70
     1
  0
XRECORD
  5
77B
102
{ACAD_REACTORS
330
77A
102
}
330
77A
100
AcDbXrecord
280
     1
102
RTVSPropertyOp0
 70
     1
102
RTVSPropertyOp1
 70
     1
102
RTVSPropertyOp2
 70
     1
102
RTVSPropertyOp3
 70
     1
102
RTVSPropertyOp4
 70
     1
102
RTVSPropertyOp5
 70
     1
102
RTVSPropertyOp6
 70
     1
102
RTVSPropertyOp7
 70
     1
102
RTVSPropertyOp8
 70
     1
102
RTVSPropertyOp9
 70
     1
102
RTVSPropertyOp10
 70
     1
102
RTVSPropertyOp11
 70
     1
102
RTVSPropertyOp12
 70
     1
102
RTVSPropertyOp13
 70
     1
102
RTVSPropertyOp14
 70
     1
102
RTVSPropertyOp15
 70
     1
102
RTVSPropertyOp16
 70
     1
102
RTVSPropertyOp17
 70
     1
102
RTVSPropertyOp18
 70
     1
102
RTVSPropertyOp19
 70
     1
102
RTVSPropertyOp20
 70
     1
102
RTVSPropertyOp21
 70
     1
102
RTVSPropertyOp22
 70
     1
102
RTVSPropertyOp23
 70
     1
102
RTVSPropertyOp24
 70
     1
102
RTVSPropertyOp25
 70
     1
102
RTVSPropertyOp26
 70
     1
102
RTVSPropertyOp27
 70
     1
102
RTVSPropertyOp28
 70
     1
102
RTVSPropertyOp29
 70
     1
102
RTVSPropertyOp30
 70
     1
102
RTVSPropertyOp31
 70
     1
102
RTVSPropertyOp32
 70
     1
  0
XRECORD
  5
7A6
102
{ACAD_REACTORS
330
7A5
102
}
330
7A5
100
AcDbXrecord
280
     1
102
RTVSPropertyOp0
 70
     1
102
RTVSPropertyOp1
 70
     1
102
RTVSPropertyOp2
 70
     1
102
RTVSPropertyOp3
 70
     1
102
RTVSPropertyOp4
 70
     1
102
RTVSPropertyOp5
 70
     1
102
RTVSPropertyOp6
 70
     1
102
RTVSPropertyOp7
 70
     1
102
RTVSPropertyOp8
 70
     1
102
RTVSPropertyOp9
 70
     1
102
RTVSPropertyOp10
 70
     1
102
RTVSPropertyOp11
 70
     1
102
RTVSPropertyOp12
 70
     1
102
RTVSPropertyOp13
 70
     1
102
RTVSPropertyOp14
 70
     1
102
RTVSPropertyOp15
 70
     1
102
RTVSPropertyOp16
 70
     1
102
RTVSPropertyOp17
 70
     1
102
RTVSPropertyOp18
 70
     1
102
RTVSPropertyOp19
 70
     1
102
RTVSPropertyOp20
 70
     1
102
RTVSPropertyOp21
 70
     1
102
RTVSPropertyOp22
 70
     1
102
RTVSPropertyOp23
 70
     1
102
RTVSPropertyOp24
 70
     1
102
RTVSPropertyOp25
 70
     1
102
RTVSPropertyOp26
 70
     1
102
RTVSPropertyOp27
 70
     1
102
RTVSPropertyOp28
 70
     1
102
RTVSPropertyOp29
 70
     1
102
RTVSPropertyOp30
 70
     1
102
RTVSPropertyOp31
 70
     1
102
RTVSPropertyOp32
 70
     1
  0
XRECORD
  5
795
102
{ACAD_REACTORS
330
794
102
}
330
794
100
AcDbXrecord
280
     1
102
RTVSPropertyOp0
 70
     0
102
RTVSPropertyOp1
 70
     0
102
RTVSPropertyOp2
 70
     0
102
RTVSPropertyOp3
 70
     0
102
RTVSPropertyOp4
 70
     0
102
RTVSPropertyOp5
 70
     0
102
RTVSPropertyOp6
 70
     0
102
RTVSPropertyOp7
 70
     0
102
RTVSPropertyOp8
 70
     0
102
RTVSPropertyOp9
 70
     0
102
RTVSPropertyOp10
 70
     0
102
RTVSPropertyOp11
 70
     0
102
RTVSPropertyOp12
 70
     0
102
RTVSPropertyOp13
 70
     0
102
RTVSPropertyOp14
 70
     2
102
RTVSPropertyOp15
 70
     0
102
RTVSPropertyOp16
 70
     0
102
RTVSPropertyOp17
 70
     0
102
RTVSPropertyOp18
 70
     0
102
RTVSPropertyOp19
 70
     0
102
RTVSPropertyOp20
 70
     0
102
RTVSPropertyOp21
 70
     0
102
RTVSPropertyOp22
 70
     0
102
RTVSPropertyOp23
 70
     0
102
RTVSPropertyOp24
 70
     0
102
RTVSPropertyOp25
 70
     0
102
RTVSPropertyOp26
 70
     0
102
RTVSPropertyOp27
 70
     0
102
RTVSPropertyOp28
 70
     1
102
RTVSPropertyOp29
 70
     1
102
RTVSPropertyOp30
 70
     1
102
RTVSPropertyOp31
 70
     1
102
RTVSPropertyOp32
 70
     1
  0
XRECORD
  5
78F
102
{ACAD_REACTORS
330
78E
102
}
330
78E
100
AcDbXrecord
280
     1
102
RTVSPropertyOp0
 70
     1
102
RTVSPropertyOp1
 70
     1
102
RTVSPropertyOp2
 70
     1
102
RTVSPropertyOp3
 70
     1
102
RTVSPropertyOp4
 70
     1
102
RTVSPropertyOp5
 70
     1
102
RTVSPropertyOp6
 70
     1
102
RTVSPropertyOp7
 70
     1
102
RTVSPropertyOp8
 70
     1
102
RTVSPropertyOp9
 70
     1
102
RTVSPropertyOp10
 70
     1
102
RTVSPropertyOp11
 70
     1
102
RTVSPropertyOp12
 70
     1
102
RTVSPropertyOp13
 70
     1
102
RTVSPropertyOp14
 70
     1
102
RTVSPropertyOp15
 70
     1
102
RTVSPropertyOp16
 70
     1
102
RTVSPropertyOp17
 70
     1
102
RTVSPropertyOp18
 70
     1
102
RTVSPropertyOp19
 70
     1
102
RTVSPropertyOp20
 70
     1
102
RTVSPropertyOp21
 70
     1
102
RTVSPropertyOp22
 70
     1
102
RTVSPropertyOp23
 70
     1
102
RTVSPropertyOp24
 70
     1
102
RTVSPropertyOp25
 70
     1
102
RTVSPropertyOp26
 70
     1
102
RTVSPropertyOp27
 70
     1
102
RTVSPropertyOp28
 70
     1
102
RTVSPropertyOp29
 70
     1
102
RTVSPropertyOp30
 70
     1
102
RTVSPropertyOp31
 70
     1
102
RTVSPropertyOp32
 70
     1
  0
XRECORD
  5
797
102
{ACAD_REACTORS
330
796
102
}
330
796
100
AcDbXrecord
280
     1
102
RTVSPropertyOp0
 70
     0
102
RTVSPropertyOp1
 70
     0
102
RTVSPropertyOp2
 70
     0
102
RTVSPropertyOp3
 70
     0
102
RTVSPropertyOp4
 70
     0
102
RTVSPropertyOp5
 70
     0
102
RTVSPropertyOp6
 70
     0
102
RTVSPropertyOp7
 70
     0
102
RTVSPropertyOp8
 70
     0
102
RTVSPropertyOp9
 70
     0
102
RTVSPropertyOp10
 70
     0
102
RTVSPropertyOp11
 70
     0
102
RTVSPropertyOp12
 70
     0
102
RTVSPropertyOp13
 70
     0
102
RTVSPropertyOp14
 70
     2
102
RTVSPropertyOp15
 70
     0
102
RTVSPropertyOp16
 70
     0
102
RTVSPropertyOp17
 70
     0
102
RTVSPropertyOp18
 70
     0
102
RTVSPropertyOp19
 70
     0
102
RTVSPropertyOp20
 70
     0
102
RTVSPropertyOp21
 70
     0
102
RTVSPropertyOp22
 70
     0
102
RTVSPropertyOp23
 70
     0
102
RTVSPropertyOp24
 70
     0
102
RTVSPropertyOp25
 70
     0
102
RTVSPropertyOp26
 70
     0
102
RTVSPropertyOp27
 70
     0
102
RTVSPropertyOp28
 70
     1
102
RTVSPropertyOp29
 70
     1
102
RTVSPropertyOp30
 70
     1
102
RTVSPropertyOp31
 70
     1
102
RTVSPropertyOp32
 70
     1
  0
XRECORD
  5
787
102
{ACAD_REACTORS
330
786
102
}
330
786
100
AcDbXrecord
280
     1
102
RTVSPropertyOp0
 70
     1
102
RTVSPropertyOp1
 70
     1
102
RTVSPropertyOp2
 70
     1
102
RTVSPropertyOp3
 70
     1
102
RTVSPropertyOp4
 70
     1
102
RTVSPropertyOp5
 70
     1
102
RTVSPropertyOp6
 70
     1
102
RTVSPropertyOp7
 70
     1
102
RTVSPropertyOp8
 70
     1
102
RTVSPropertyOp9
 70
     1
102
RTVSPropertyOp10
 70
     1
102
RTVSPropertyOp11
 70
     1
102
RTVSPropertyOp12
 70
     1
102
RTVSPropertyOp13
 70
     1
102
RTVSPropertyOp14
 70
     1
102
RTVSPropertyOp15
 70
     1
102
RTVSPropertyOp16
 70
     1
102
RTVSPropertyOp17
 70
     1
102
RTVSPropertyOp18
 70
     1
102
RTVSPropertyOp19
 70
     1
102
RTVSPropertyOp20
 70
     1
102
RTVSPropertyOp21
 70
     1
102
RTVSPropertyOp22
 70
     1
102
RTVSPropertyOp23
 70
     1
102
RTVSPropertyOp24
 70
     1
102
RTVSPropertyOp25
 70
     1
102
RTVSPropertyOp26
 70
     1
102
RTVSPropertyOp27
 70
     1
102
RTVSPropertyOp28
 70
     1
102
RTVSPropertyOp29
 70
     1
102
RTVSPropertyOp30
 70
     1
102
RTVSPropertyOp31
 70
     1
102
RTVSPropertyOp32
 70
     1
  0
XRECORD
  5
7B0
102
{ACAD_REACTORS
330
7AF
102
}
330
7AF
100
AcDbXrecord
280
     1
102
RTVSPropertyOp0
 70
     1
102
RTVSPropertyOp1
 70
     1
102
RTVSPropertyOp2
 70
     1
102
RTVSPropertyOp3
 70
     1
102
RTVSPropertyOp4
 70
     1
102
RTVSPropertyOp5
 70
     1
102
RTVSPropertyOp6
 70
     1
102
RTVSPropertyOp7
 70
     1
102
RTVSPropertyOp8
 70
     1
102
RTVSPropertyOp9
 70
     1
102
RTVSPropertyOp10
 70
     1
102
RTVSPropertyOp11
 70
     1
102
RTVSPropertyOp12
 70
     1
102
RTVSPropertyOp13
 70
     1
102
RTVSPropertyOp14
 70
     1
102
RTVSPropertyOp15
 70
     1
102
RTVSPropertyOp16
 70
     1
102
RTVSPropertyOp17
 70
     1
102
RTVSPropertyOp18
 70
     1
102
RTVSPropertyOp19
 70
     1
102
RTVSPropertyOp20
 70
     1
102
RTVSPropertyOp21
 70
     1
102
RTVSPropertyOp22
 70
     1
102
RTVSPropertyOp23
 70
     1
102
RTVSPropertyOp24
 70
     1
102
RTVSPropertyOp25
 70
     1
102
RTVSPropertyOp26
 70
     1
102
RTVSPropertyOp27
 70
     1
102
RTVSPropertyOp28
 70
     1
102
RTVSPropertyOp29
 70
     1
102
RTVSPropertyOp30
 70
     1
102
RTVSPropertyOp31
 70
     1
102
RTVSPropertyOp32
 70
     1
  0
XRECORD
  5
7AE
102
{ACAD_REACTORS
330
7AD
102
}
330
7AD
100
AcDbXrecord
280
     1
102
RTVSPropertyOp0
 70
     1
102
RTVSPropertyOp1
 70
     1
102
RTVSPropertyOp2
 70
     1
102
RTVSPropertyOp3
 70
     1
102
RTVSPropertyOp4
 70
     1
102
RTVSPropertyOp5
 70
     1
102
RTVSPropertyOp6
 70
     1
102
RTVSPropertyOp7
 70
     1
102
RTVSPropertyOp8
 70
     1
102
RTVSPropertyOp9
 70
     1
102
RTVSPropertyOp10
 70
     1
102
RTVSPropertyOp11
 70
     1
102
RTVSPropertyOp12
 70
     1
102
RTVSPropertyOp13
 70
     1
102
RTVSPropertyOp14
 70
     1
102
RTVSPropertyOp15
 70
     1
102
RTVSPropertyOp16
 70
     1
102
RTVSPropertyOp17
 70
     1
102
RTVSPropertyOp18
 70
     1
102
RTVSPropertyOp19
 70
     1
102
RTVSPropertyOp20
 70
     1
102
RTVSPropertyOp21
 70
     1
102
RTVSPropertyOp22
 70
     1
102
RTVSPropertyOp23
 70
     1
102
RTVSPropertyOp24
 70
     1
102
RTVSPropertyOp25
 70
     1
102
RTVSPropertyOp26
 70
     1
102
RTVSPropertyOp27
 70
     1
102
RTVSPropertyOp28
 70
     1
102
RTVSPropertyOp29
 70
     1
102
RTVSPropertyOp30
 70
     1
102
RTVSPropertyOp31
 70
     1
102
RTVSPropertyOp32
 70
     1
  0
XRECORD
  5
7A8
102
{ACAD_REACTORS
330
7A7
102
}
330
7A7
100
AcDbXrecord
280
     1
102
RTVSPropertyOp0
 70
     1
102
RTVSPropertyOp1
 70
     1
102
RTVSPropertyOp2
 70
     1
102
RTVSPropertyOp3
 70
     1
102
RTVSPropertyOp4
 70
     1
102
RTVSPropertyOp5
 70
     1
102
RTVSPropertyOp6
 70
     1
102
RTVSPropertyOp7
 70
     1
102
RTVSPropertyOp8
 70
     1
102
RTVSPropertyOp9
 70
     1
102
RTVSPropertyOp10
 70
     1
102
RTVSPropertyOp11
 70
     1
102
RTVSPropertyOp12
 70
     1
102
RTVSPropertyOp13
 70
     1
102
RTVSPropertyOp14
 70
     1
102
RTVSPropertyOp15
 70
     1
102
RTVSPropertyOp16
 70
     1
102
RTVSPropertyOp17
 70
     1
102
RTVSPropertyOp18
 70
     1
102
RTVSPropertyOp19
 70
     1
102
RTVSPropertyOp20
 70
     1
102
RTVSPropertyOp21
 70
     1
102
RTVSPropertyOp22
 70
     1
102
RTVSPropertyOp23
 70
     1
102
RTVSPropertyOp24
 70
     1
102
RTVSPropertyOp25
 70
     1
102
RTVSPropertyOp26
 70
     1
102
RTVSPropertyOp27
 70
     1
102
RTVSPropertyOp28
 70
     1
102
RTVSPropertyOp29
 70
     1
102
RTVSPropertyOp30
 70
     1
102
RTVSPropertyOp31
 70
     1
102
RTVSPropertyOp32
 70
     1
  0
XRECORD
  5
7AA
102
{ACAD_REACTORS
330
7A9
102
}
330
7A9
100
AcDbXrecord
280
     1
102
RTVSPropertyOp0
 70
     1
102
RTVSPropertyOp1
 70
     1
102
RTVSPropertyOp2
 70
     1
102
RTVSPropertyOp3
 70
     1
102
RTVSPropertyOp4
 70
     1
102
RTVSPropertyOp5
 70
     1
102
RTVSPropertyOp6
 70
     1
102
RTVSPropertyOp7
 70
     1
102
RTVSPropertyOp8
 70
     1
102
RTVSPropertyOp9
 70
     1
102
RTVSPropertyOp10
 70
     1
102
RTVSPropertyOp11
 70
     1
102
RTVSPropertyOp12
 70
     1
102
RTVSPropertyOp13
 70
     1
102
RTVSPropertyOp14
 70
     1
102
RTVSPropertyOp15
 70
     1
102
RTVSPropertyOp16
 70
     1
102
RTVSPropertyOp17
 70
     1
102
RTVSPropertyOp18
 70
     1
102
RTVSPropertyOp19
 70
     1
102
RTVSPropertyOp20
 70
     1
102
RTVSPropertyOp21
 70
     1
102
RTVSPropertyOp22
 70
     1
102
RTVSPropertyOp23
 70
     1
102
RTVSPropertyOp24
 70
     1
102
RTVSPropertyOp25
 70
     1
102
RTVSPropertyOp26
 70
     1
102
RTVSPropertyOp27
 70
     1
102
RTVSPropertyOp28
 70
     1
102
RTVSPropertyOp29
 70
     1
102
RTVSPropertyOp30
 70
     1
102
RTVSPropertyOp31
 70
     1
102
RTVSPropertyOp32
 70
     1
  0
XRECORD
  5
78D
102
{ACAD_REACTORS
330
78C
102
}
330
78C
100
AcDbXrecord
280
     1
102
RTVSPropertyOp0
 70
     1
102
RTVSPropertyOp1
 70
     1
102
RTVSPropertyOp2
 70
     1
102
RTVSPropertyOp3
 70
     1
102
RTVSPropertyOp4
 70
     1
102
RTVSPropertyOp5
 70
     1
102
RTVSPropertyOp6
 70
     1
102
RTVSPropertyOp7
 70
     1
102
RTVSPropertyOp8
 70
     1
102
RTVSPropertyOp9
 70
     1
102
RTVSPropertyOp10
 70
     1
102
RTVSPropertyOp11
 70
     1
102
RTVSPropertyOp12
 70
     1
102
RTVSPropertyOp13
 70
     1
102
RTVSPropertyOp14
 70
     1
102
RTVSPropertyOp15
 70
     1
102
RTVSPropertyOp16
 70
     1
102
RTVSPropertyOp17
 70
     1
102
RTVSPropertyOp18
 70
     1
102
RTVSPropertyOp19
 70
     1
102
RTVSPropertyOp20
 70
     1
102
RTVSPropertyOp21
 70
     1
102
RTVSPropertyOp22
 70
     1
102
RTVSPropertyOp23
 70
     1
102
RTVSPropertyOp24
 70
     1
102
RTVSPropertyOp25
 70
     1
102
RTVSPropertyOp26
 70
     1
102
RTVSPropertyOp27
 70
     1
102
RTVSPropertyOp28
 70
     1
102
RTVSPropertyOp29
 70
     1
102
RTVSPropertyOp30
 70
     1
102
RTVSPropertyOp31
 70
     1
102
RTVSPropertyOp32
 70
     1
  0
XRECORD
  5
7A4
102
{ACAD_REACTORS
330
7A3
102
}
330
7A3
100
AcDbXrecord
280
     1
102
RTVSPropertyOp0
 70
     1
102
RTVSPropertyOp1
 70
     1
102
RTVSPropertyOp2
 70
     1
102
RTVSPropertyOp3
 70
     1
102
RTVSPropertyOp4
 70
     1
102
RTVSPropertyOp5
 70
     1
102
RTVSPropertyOp6
 70
     1
102
RTVSPropertyOp7
 70
     1
102
RTVSPropertyOp8
 70
     1
102
RTVSPropertyOp9
 70
     1
102
RTVSPropertyOp10
 70
     1
102
RTVSPropertyOp11
 70
     1
102
RTVSPropertyOp12
 70
     1
102
RTVSPropertyOp13
 70
     1
102
RTVSPropertyOp14
 70
     1
102
RTVSPropertyOp15
 70
     1
102
RTVSPropertyOp16
 70
     1
102
RTVSPropertyOp17
 70
     1
102
RTVSPropertyOp18
 70
     1
102
RTVSPropertyOp19
 70
     1
102
RTVSPropertyOp20
 70
     1
102
RTVSPropertyOp21
 70
     1
102
RTVSPropertyOp22
 70
     1
102
RTVSPropertyOp23
 70
     1
102
RTVSPropertyOp24
 70
     1
102
RTVSPropertyOp25
 70
     1
102
RTVSPropertyOp26
 70
     1
102
RTVSPropertyOp27
 70
     1
102
RTVSPropertyOp28
 70
     1
102
RTVSPropertyOp29
 70
     1
102
RTVSPropertyOp30
 70
     1
102
RTVSPropertyOp31
 70
     1
102
RTVSPropertyOp32
 70
     1
  0
XRECORD
  5
7AC
102
{ACAD_REACTORS
330
7AB
102
}
330
7AB
100
AcDbXrecord
280
     1
102
RTVSPropertyOp0
 70
     1
102
RTVSPropertyOp1
 70
     1
102
RTVSPropertyOp2
 70
     1
102
RTVSPropertyOp3
 70
     1
102
RTVSPropertyOp4
 70
     1
102
RTVSPropertyOp5
 70
     1
102
RTVSPropertyOp6
 70
     1
102
RTVSPropertyOp7
 70
     1
102
RTVSPropertyOp8
 70
     1
102
RTVSPropertyOp9
 70
     1
102
RTVSPropertyOp10
 70
     1
102
RTVSPropertyOp11
 70
     1
102
RTVSPropertyOp12
 70
     1
102
RTVSPropertyOp13
 70
     1
102
RTVSPropertyOp14
 70
     1
102
RTVSPropertyOp15
 70
     1
102
RTVSPropertyOp16
 70
     1
102
RTVSPropertyOp17
 70
     1
102
RTVSPropertyOp18
 70
     1
102
RTVSPropertyOp19
 70
     1
102
RTVSPropertyOp20
 70
     1
102
RTVSPropertyOp21
 70
     1
102
RTVSPropertyOp22
 70
     1
102
RTVSPropertyOp23
 70
     1
102
RTVSPropertyOp24
 70
     1
102
RTVSPropertyOp25
 70
     1
102
RTVSPropertyOp26
 70
     1
102
RTVSPropertyOp27
 70
     1
102
RTVSPropertyOp28
 70
     1
102
RTVSPropertyOp29
 70
     1
102
RTVSPropertyOp30
 70
     1
102
RTVSPropertyOp31
 70
     1
102
RTVSPropertyOp32
 70
     1
  0
XRECORD
  5
6A9
102
{ACAD_REACTORS
330
6A8
102
}
330
6A8
100
AcDbXrecord
280
     1
330
3E
  0
XRECORD
  5
771
102
{ACAD_REACTORS
330
770
102
}
330
770
100
AcDbXrecord
280
     1
330
3E
  0
ENDSEC
  0
EOF
