  0
SECTION
  2
HEADER
  9
$ACADVER
  1
AC1015
  9
$ACADMAINTVER
 70
    20
  9
$DWGCODEPAGE
  3
ANSI_932
  9
$INSBASE
 10
0.0
 20
0.0
 30
0.0
  9
$EXTMIN
 10
190.9787536978239
 20
144.2917879925853
 30
-0.0000000349181948
  9
$EXTMAX
 10
292.0025513503207
 20
254.3184411814249
 30
0.0000000814935747
  9
$LIMMIN
 10
133.1390768221017
 20
52.67618491598534
  9
$LIMMAX
 10
343.1124044588205
 20
349.7080147499697
  9
$ORTHOMODE
 70
     1
  9
$REGENMODE
 70
     1
  9
$FILLMODE
 70
     1
  9
$QTEXTMODE
 70
     0
  9
$MIRRTEXT
 70
     0
  9
$LTSCALE
 40
1.0
  9
$ATTMODE
 70
     1
  9
$TEXTSIZE
 40
4.0
  9
$TRACEWID
 40
1.0
  9
$TEXTSTYLE
  7
ATOM
  9
$CLAYER
  8
text
  9
$CELTYPE
  6
ByLayer
  9
$CECOLOR
 62
   256
  9
$CELTSCALE
 40
1.0
  9
$DISPSILH
 70
     0
  9
$DIMSCALE
 40
0.0
  9
$DIMASZ
 40
2.0
  9
$DIMEXO
 40
2.0
  9
$DIMDLI
 40
7.0
  9
$DIMRND
 40
0.0
  9
$DIMDLE
 40
0.0
  9
$DIMEXE
 40
1.0
  9
$DIMTP
 40
0.1
  9
$DIMTM
 40
0.1
  9
$DIMTXT
 40
3.0
  9
$DIMCEN
 40
-2.5
  9
$DIMTSZ
 40
0.0
  9
$DIMTOL
 70
     0
  9
$DIMLIM
 70
     0
  9
$DIMTIH
 70
     0
  9
$DIMTOH
 70
     0
  9
$DIMSE1
 70
     0
  9
$DIMSE2
 70
     0
  9
$DIMTAD
 70
     1
  9
$DIMZIN
 70
     8
  9
$DIMBLK
  1
Open30
  9
$DIMASO
 70
     1
  9
$DIMSHO
 70
     1
  9
$DIMPOST
  1

  9
$DIMAPOST
  1

  9
$DIMALT
 70
     0
  9
$DIMALTD
 70
     3
  9
$DIMALTF
 40
0.03937007874016
  9
$DIMLFAC
 40
1.0
  9
$DIMTOFL
 70
     1
  9
$DIMTVP
 40
0.0
  9
$DIMTIX
 70
     0
  9
$DIMSOXD
 70
     0
  9
$DIMSAH
 70
     0
  9
$DIMBLK1
  1

  9
$DIMBLK2
  1

  9
$DIMSTYLE
  2
ATOM
  9
$DIMCLRD
 70
     0
  9
$DIMCLRE
 70
     0
  9
$DIMCLRT
 70
     3
  9
$DIMTFAC
 40
0.4999999999999999
  9
$DIMGAP
 40
0.625
  9
$DIMJUST
 70
     0
  9
$DIMSD1
 70
     0
  9
$DIMSD2
 70
     0
  9
$DIMTOLJ
 70
     0
  9
$DIMTZIN
 70
     8
  9
$DIMALTZ
 70
     0
  9
$DIMALTTZ
 70
     0
  9
$DIMUPT
 70
     0
  9
$DIMDEC
 70
     2
  9
$DIMTDEC
 70
     2
  9
$DIMALTU
 70
     2
  9
$DIMALTTD
 70
     3
  9
$DIMTXSTY
  7
ATOM
  9
$DIMAUNIT
 70
     0
  9
$DIMADEC
 70
     0
  9
$DIMALTRND
 40
0.0
  9
$DIMAZIN
 70
     0
  9
$DIMDSEP
 70
    46
  9
$DIMATFIT
 70
     0
  9
$DIMFRAC
 70
     2
  9
$DIMLDRBLK
  1
Open30
  9
$DIMLUNIT
 70
     2
  9
$DIMLWD
 70
    -2
  9
$DIMLWE
 70
    -2
  9
$DIMTMOVE
 70
     1
  9
$LUNITS
 70
     2
  9
$LUPREC
 70
     4
  9
$SKETCHINC
 40
1.0
  9
$FILLETRAD
 40
0.0
  9
$AUNITS
 70
     0
  9
$AUPREC
 70
     0
  9
$MENU
  1
.
  9
$ELEVATION
 40
0.0
  9
$PELEVATION
 40
0.0
  9
$THICKNESS
 40
0.0
  9
$LIMCHECK
 70
     0
  9
$CHAMFERA
 40
0.0
  9
$CHAMFERB
 40
0.0
  9
$CHAMFERC
 40
0.0
  9
$CHAMFERD
 40
0.0
  9
$SKPOLY
 70
     0
  9
$TDCREATE
 40
2456282.498877072
  9
$TDUCREATE
 40
2456282.123877072
  9
$TDUPDATE
 40
2457574.404798889
  9
$TDUUPDATE
 40
2457574.029798889
  9
$TDINDWG
 40
0.0023751968
  9
$TDUSRTIMER
 40
0.0023750116
  9
$USRTIMER
 70
     1
  9
$ANGBASE
 50
0.0
  9
$ANGDIR
 70
     0
  9
$PDMODE
 70
     0
  9
$PDSIZE
 40
0.0
  9
$PLINEWID
 40
0.0
  9
$SPLFRAME
 70
     0
  9
$SPLINETYPE
 70
     6
  9
$SPLINESEGS
 70
     8
  9
$HANDSEED
  5
FCF
  9
$SURFTAB1
 70
     6
  9
$SURFTAB2
 70
     6
  9
$SURFTYPE
 70
     6
  9
$SURFU
 70
     6
  9
$SURFV
 70
     6
  9
$UCSBASE
  2

  9
$UCSNAME
  2

  9
$UCSORG
 10
0.0
 20
0.0
 30
0.0
  9
$UCSXDIR
 10
1.0
 20
0.0
 30
0.0
  9
$UCSYDIR
 10
0.0
 20
1.0
 30
0.0
  9
$UCSORTHOREF
  2

  9
$UCSORTHOVIEW
 70
     0
  9
$UCSORGTOP
 10
0.0
 20
0.0
 30
0.0
  9
$UCSORGBOTTOM
 10
0.0
 20
0.0
 30
0.0
  9
$UCSORGLEFT
 10
0.0
 20
0.0
 30
0.0
  9
$UCSORGRIGHT
 10
0.0
 20
0.0
 30
0.0
  9
$UCSORGFRONT
 10
0.0
 20
0.0
 30
0.0
  9
$UCSORGBACK
 10
0.0
 20
0.0
 30
0.0
  9
$PUCSBASE
  2

  9
$PUCSNAME
  2

  9
$PUCSORG
 10
0.0
 20
0.0
 30
0.0
  9
$PUCSXDIR
 10
1.0
 20
0.0
 30
0.0
  9
$PUCSYDIR
 10
0.0
 20
1.0
 30
0.0
  9
$PUCSORTHOREF
  2

  9
$PUCSORTHOVIEW
 70
     0
  9
$PUCSORGTOP
 10
0.0
 20
0.0
 30
0.0
  9
$PUCSORGBOTTOM
 10
0.0
 20
0.0
 30
0.0
  9
$PUCSORGLEFT
 10
0.0
 20
0.0
 30
0.0
  9
$PUCSORGRIGHT
 10
0.0
 20
0.0
 30
0.0
  9
$PUCSORGFRONT
 10
0.0
 20
0.0
 30
0.0
  9
$PUCSORGBACK
 10
0.0
 20
0.0
 30
0.0
  9
$USERI1
 70
     0
  9
$USERI2
 70
     0
  9
$USERI3
 70
     0
  9
$USERI4
 70
     0
  9
$USERI5
 70
     0
  9
$USERR1
 40
0.0
  9
$USERR2
 40
0.0
  9
$USERR3
 40
0.0
  9
$USERR4
 40
0.0
  9
$USERR5
 40
0.0
  9
$WORLDVIEW
 70
     1
  9
$SHADEDGE
 70
     3
  9
$SHADEDIF
 70
    70
  9
$TILEMODE
 70
     1
  9
$MAXACTVP
 70
    64
  9
$PINSBASE
 10
0.0
 20
0.0
 30
0.0
  9
$PLIMCHECK
 70
     0
  9
$PEXTMIN
 10
1.000000000000000E+20
 20
1.000000000000000E+20
 30
1.000000000000000E+20
  9
$PEXTMAX
 10
-1.000000000000000E+20
 20
-1.000000000000000E+20
 30
-1.000000000000000E+20
  9
$PLIMMIN
 10
0.0
 20
0.0
  9
$PLIMMAX
 10
12.0
 20
9.0
  9
$UNITMODE
 70
     0
  9
$VISRETAIN
 70
     1
  9
$PLINEGEN
 70
     0
  9
$PSLTSCALE
 70
     1
  9
$TREEDEPTH
 70
  3020
  9
$CMLSTYLE
  2
Standard
  9
$CMLJUST
 70
     0
  9
$CMLSCALE
 40
10.0
  9
$PROXYGRAPHICS
 70
     1
  9
$MEASUREMENT
 70
     1
  9
$CELWEIGHT
370
    -1
  9
$ENDCAPS
280
     0
  9
$JOINSTYLE
280
     0
  9
$LWDISPLAY
290
     0
  9
$INSUNITS
 70
     4
  9
$HYPERLINKBASE
  1

  9
$STYLESHEET
  1

  9
$XEDIT
290
     1
  9
$CEPSNTYPE
380
     0
  9
$PSTYLEMODE
290
     0
  9
$FINGERPRINTGUID
  2
{EB95D95B-FEA4-4BD1-92D9-ECD547D3ECF4}
  9
$VERSIONGUID
  2
{3A0DFF5D-3025-4A65-AAB2-AC891451DA3B}
  9
$EXTNAMES
290
     1
  9
$PSVPSCALE
 40
0.0
  9
$OLESTARTUP
290
     0
  0
ENDSEC
  0
SECTION
  2
CLASSES
  0
CLASS
  1
ACDBDICTIONARYWDFLT
  2
AcDbDictionaryWithDefault
  3
ObjectDBX Classes
 90
        0
280
     0
281
     0
  0
CLASS
  1
MATERIAL
  2
AcDbMaterial
  3
ObjectDBX Classes
 90
     1153
280
     0
281
     0
  0
CLASS
  1
VISUALSTYLE
  2
AcDbVisualStyle
  3
ObjectDBX Classes
 90
     4095
280
     0
281
     0
  0
CLASS
  1
SCALE
  2
AcDbScale
  3
ObjectDBX Classes
 90
     1153
280
     0
281
     0
  0
CLASS
  1
TABLESTYLE
  2
AcDbTableStyle
  3
ObjectDBX Classes
 90
     4095
280
     0
281
     0
  0
CLASS
  1
MLEADERSTYLE
  2
AcDbMLeaderStyle
  3
ACDB_MLEADERSTYLE_CLASS
 90
     4095
280
     0
281
     0
  0
CLASS
  1
ACDB_ALDIMOBJECTCONTEXTDATA_CLASS
  2
AcDbAlignedDimensionObjectContextData
  3
ObjectDBX Classes
 90
    33921
280
     0
281
     0
  0
CLASS
  1
ACDB_RADIMOBJECTCONTEXTDATA_CLASS
  2
AcDbRadialDimensionObjectContextData
  3
ObjectDBX Classes
 90
    33921
280
     0
281
     0
  0
CLASS
  1
DIMASSOC
  2
AcDbDimAssoc
  3
"AcDbDimAssoc|Product Desc:     AcDim ARX App For Dimension|Company:          Autodesk, Inc.|WEB Address:      www.autodesk.com"
 90
        0
280
     0
281
     0
  0
CLASS
  1
SORTENTSTABLE
  2
AcDbSortentsTable
  3
ObjectDBX Classes
 90
        0
280
     0
281
     0
  0
CLASS
  1
ACDB_ANGDIMOBJECTCONTEXTDATA_CLASS
  2
AcDbAngularDimensionObjectContextData
  3
ObjectDBX Classes
 90
    33921
280
     0
281
     0
  0
CLASS
  1
ACDB_MTEXTATTRIBUTEOBJECTCONTEXTDATA_CLASS
  2
AcDbMTextAttributeObjectContextData
  3
ObjectDBX Classes
 90
     1153
280
     0
281
     0
  0
CLASS
  1
DICTIONARYVAR
  2
AcDbDictionaryVar
  3
ObjectDBX Classes
 90
        0
280
     0
281
     0
  0
CLASS
  1
CELLSTYLEMAP
  2
AcDbCellStyleMap
  3
ObjectDBX Classes
 90
     1152
280
     0
281
     0
  0
CLASS
  1
ACDBPLACEHOLDER
  2
AcDbPlaceHolder
  3
ObjectDBX Classes
 90
        0
280
     0
281
     0
  0
CLASS
  1
LAYOUT
  2
AcDbLayout
  3
ObjectDBX Classes
 90
        0
280
     0
281
     0
  0
ENDSEC
  0
SECTION
  2
TABLES
  0
TABLE
  2
VPORT
  5
8
330
0
100
AcDbSymbolTable
 70
     1
  0
VPORT
  5
57
330
8
100
AcDbSymbolTableRecord
100
AcDbViewportTableRecord
  2
*Active
 70
     0
 10
0.0
 20
0.0
 11
1.0
 21
1.0
 12
241.4906525240724
 22
199.3051145870051
 13
0.0
 23
0.0
 14
10.0
 24
10.0
 15
10.0
 25
10.0
 16
0.0
 26
0.0
 36
1.0
 17
0.0
 27
0.0
 37
0.0
 40
110.8060627745928
 41
2.01418439716312
 42
50.0
 43
0.0
 44
0.0
 50
0.0
 51
0.0
 71
     0
 72
  1000
 73
     1
 74
     1
 75
     0
 76
     0
 77
     0
 78
     0
281
     0
 65
     1
110
0.0
120
0.0
130
0.0
111
1.0
121
0.0
131
0.0
112
0.0
122
1.0
132
0.0
 79
     0
146
0.0
1001
ACAD_NAV_VCDISPLAY
1070
     3
  0
ENDTAB
  0
TABLE
  2
LTYPE
  5
5
330
0
100
AcDbSymbolTable
 70
    10
  0
LTYPE
  5
5B
330
5
100
AcDbSymbolTableRecord
100
AcDbLinetypeTableRecord
  2
ByBlock
 70
     0
  3

 72
    65
 73
     0
 40
0.0
  0
LTYPE
  5
5C
330
5
100
AcDbSymbolTableRecord
100
AcDbLinetypeTableRecord
  2
ByLayer
 70
     0
  3

 72
    65
 73
     0
 40
0.0
  0
LTYPE
  5
5D
330
5
100
AcDbSymbolTableRecord
100
AcDbLinetypeTableRecord
  2
Continuous
 70
     0
  3
Solid line
 72
    65
 73
     0
 40
0.0
  0
LTYPE
  5
78
330
5
100
AcDbSymbolTableRecord
100
AcDbLinetypeTableRecord
  2
JIS_08_15
 70
     0
  3
1SASEN15 ____ _ ____ _ ____ _ ____ _ ____
 72
    65
 73
     4
 40
17.25
 49
15.0
 74
     0
 49
-0.75
 74
     0
 49
0.75
 74
     0
 49
-0.75
 74
     0
  0
LTYPE
  5
79
330
5
100
AcDbSymbolTableRecord
100
AcDbLinetypeTableRecord
  2
JIS_02_1.0
 70
     0
  3
HIDDEN01 _ _ _ _ _ _ _ _ _ _ _ _ _ _ _ _ _
 72
    65
 73
     2
 40
2.0
 49
1.0
 74
     0
 49
-1.0
 74
     0
  0
LTYPE
  5
7A
330
5
100
AcDbSymbolTableRecord
100
AcDbLinetypeTableRecord
  2
JIS_09_15
 70
     0
  3
2SASEN15 ___ _ _ ___ _ _ ___ _ _ ___ _ _ ___
 72
    65
 73
     6
 40
18.9
 49
15.0
 74
     0
 49
-0.9
 74
     0
 49
0.6
 74
     0
 49
-0.9
 74
     0
 49
0.6
 74
     0
 49
-0.9
 74
     0
  0
LTYPE
  5
7B
330
5
100
AcDbSymbolTableRecord
100
AcDbLinetypeTableRecord
  2
CENTER2
 70
     0
  3
Center (.5x) ___ _ ___ _ ___ _ ___ _ ___ _ ___
 72
    65
 73
     4
 40
28.575
 49
19.05
 74
     0
 49
-3.174999999999998
 74
     0
 49
3.174999999999998
 74
     0
 49
-3.174999999999998
 74
     0
  0
LTYPE
  5
7C
330
5
100
AcDbSymbolTableRecord
100
AcDbLinetypeTableRecord
  2
DASHED2
 70
     0
  3
Dashed (.5x) _ _ _ _ _ _ _ _ _ _ _ _ _ _ _ _ _
 72
    65
 73
     2
 40
9.524999999999996
 49
6.349999999999998
 74
     0
 49
-3.174999999999998
 74
     0
  0
LTYPE
  5
7D
330
5
100
AcDbSymbolTableRecord
100
AcDbLinetypeTableRecord
  2
CENTER
 70
     0
  3
Center ____ _ ____ _ ____ _ ____ _ ____ _ ____
 72
    65
 73
     4
 40
50.8
 49
31.75
 74
     0
 49
-6.349999999999997
 74
     0
 49
6.349999999999997
 74
     0
 49
-6.349999999999997
 74
     0
  0
LTYPE
  5
7E
330
5
100
AcDbSymbolTableRecord
100
AcDbLinetypeTableRecord
  2
PHANTOM
 70
     0
  3
Phantom ______  __  __  ______  __  __  ______
 72
    65
 73
     6
 40
63.5
 49
31.75
 74
     0
 49
-6.349999999999997
 74
     0
 49
6.349999999999997
 74
     0
 49
-6.349999999999997
 74
     0
 49
6.349999999999997
 74
     0
 49
-6.349999999999997
 74
     0
  0
LTYPE
  5
7F
330
5
100
AcDbSymbolTableRecord
100
AcDbLinetypeTableRecord
  2
DASHED
 70
     0
  3
Dashed __ __ __ __ __ __ __ __ __ __ __ __ __ _
 72
    65
 73
     2
 40
19.05
 49
12.7
 74
     0
 49
-6.349999999999998
 74
     0
  0
LTYPE
  5
80
330
5
100
AcDbSymbolTableRecord
100
AcDbLinetypeTableRecord
  2
HIDDEN
 70
     0
  3
Hidden __ __ __ __ __ __ __ __ __ __ __ __ __ _
 72
    65
 73
     2
 40
0.375
 49
0.25
 74
     0
 49
-0.125
 74
     0
  0
ENDTAB
  0
TABLE
  2
LAYER
  5
2
330
0
100
AcDbSymbolTable
 70
    10
  0
LAYER
  5
54
102
{ACAD_XDICTIONARY
360
F2B
102
}
330
2
100
AcDbSymbolTableRecord
100
AcDbLayerTableRecord
  2
0
 70
     0
 62
     7
  6
Continuous
370
    35
390
98
1001
AcAecLayerStandard
1000

1000

  0
LAYER
  5
75
330
2
100
AcDbSymbolTableRecord
100
AcDbLayerTableRecord
  2
Defpoints
 70
     0
 62
     7
  6
Continuous
290
     0
370
    -3
390
98
1001
AcAecLayerStandard
1000

1000

  0
LAYER
  5
AC
102
{ACAD_XDICTIONARY
360
AD
102
}
330
2
100
AcDbSymbolTableRecord
100
AcDbLayerTableRecord
  2
viewports
 70
     0
 62
     5
  6
Continuous
290
     0
370
    18
390
98
1001
AcAecLayerStandard
1000

1000

  0
LAYER
  5
B4
102
{ACAD_XDICTIONARY
360
B5
102
}
330
2
100
AcDbSymbolTableRecord
100
AcDbLayerTableRecord
  2
dim
 70
     0
 62
     2
  6
Continuous
370
    18
390
98
1001
AcAecLayerStandard
1000

1000

  0
LAYER
  5
1D8
102
{ACAD_XDICTIONARY
360
1D9
102
}
330
2
100
AcDbSymbolTableRecord
100
AcDbLayerTableRecord
  2
text
 70
     0
 62
     3
  6
Continuous
370
    18
390
98
1001
AcAecLayerStandard
1000

1000

  0
LAYER
  5
345
102
{ACAD_XDICTIONARY
360
346
102
}
330
2
100
AcDbSymbolTableRecord
100
AcDbLayerTableRecord
  2
center
 70
     0
 62
     2
  6
JIS_08_15
370
    18
390
98
1001
AcAecLayerStandard
1000

1000

  0
LAYER
  5
352
102
{ACAD_XDICTIONARY
360
353
102
}
330
2
100
AcDbSymbolTableRecord
100
AcDbLayerTableRecord
  2
guide
 70
     0
 62
     1
  6
Continuous
290
     0
370
    18
390
98
1001
AcAecLayerStandard
1000

1000

  0
LAYER
  5
B50
102
{ACAD_XDICTIONARY
360
B51
102
}
330
2
100
AcDbSymbolTableRecord
100
AcDbLayerTableRecord
  2
検討レール
 70
     0
 62
     1
  6
Continuous
370
    30
390
98
1001
AcAecLayerStandard
1000

1000

  0
LAYER
  5
BED
102
{ACAD_XDICTIONARY
360
BEE
102
}
330
2
100
AcDbSymbolTableRecord
100
AcDbLayerTableRecord
  2
frame
 70
     0
 62
     4
  6
Continuous
370
    18
390
98
1001
AcAecLayerStandard
1000

1000

  0
LAYER
  5
BF5
102
{ACAD_XDICTIONARY
360
BF6
102
}
330
2
100
AcDbSymbolTableRecord
100
AcDbLayerTableRecord
  2
flame
 70
     0
 62
     4
  6
Continuous
370
    18
390
98
1001
AcAecLayerStandard
1000

1000

  0
ENDTAB
  0
TABLE
  2
STYLE
  5
3
330
0
100
AcDbSymbolTable
 70
     4
  0
STYLE
  5
55
330
3
100
AcDbSymbolTableRecord
100
AcDbTextStyleTableRecord
  2
Standard
 70
     0
 40
0.0
 41
1.0
 50
0.0
 71
     0
 42
2.5
  3
txt
  4

  0
STYLE
  5
5A
330
3
100
AcDbSymbolTableRecord
100
AcDbTextStyleTableRecord
  2
Annotative
 70
     0
 40
0.0
 41
1.0
 50
0.0
 71
     0
 42
0.2
  3
txt
  4

1001
AcadAnnotative
1000
AnnotativeData
1002
{
1070
     1
1070
     1
1002
}
  0
STYLE
  5
76
330
3
100
AcDbSymbolTableRecord
100
AcDbTextStyleTableRecord
  2
ATOM
 70
     0
 40
0.0
 41
0.9
 50
0.0
 71
     0
 42
4.0
  3
txt.shx
  4
extfont.shx
1001
AcadAnnotative
1000
AnnotativeData
1002
{
1070
     1
1070
     1
1002
}
  0
STYLE
  5
77
330
3
100
AcDbSymbolTableRecord
100
AcDbTextStyleTableRecord
  2
MX_NOTE_STANDARD
 70
     0
 40
0.0
 41
1.0
 50
0.0
 71
     0
 42
1.6
  3
txt.shx
  4
extfont.shx
  0
ENDTAB
  0
TABLE
  2
VIEW
  5
6
330
0
100
AcDbSymbolTable
 70
     0
  0
ENDTAB
  0
TABLE
  2
UCS
  5
7
330
0
100
AcDbSymbolTable
 70
     0
  0
ENDTAB
  0
TABLE
  2
APPID
  5
9
330
0
100
AcDbSymbolTable
 70
    14
  0
APPID
  5
56
330
9
100
AcDbSymbolTableRecord
100
AcDbRegAppTableRecord
  2
ACAD
 70
     0
  0
APPID
  5
5E
330
9
100
AcDbSymbolTableRecord
100
AcDbRegAppTableRecord
  2
AcadAnnotative
 70
     0
  0
APPID
  5
74
330
9
100
AcDbSymbolTableRecord
100
AcDbRegAppTableRecord
  2
ACAD_PSEXT
 70
     0
  0
APPID
  5
8A
330
9
100
AcDbSymbolTableRecord
100
AcDbRegAppTableRecord
  2
ACAD_DSTYLE_DIMBREAK
 70
     0
  0
APPID
  5
8B
330
9
100
AcDbSymbolTableRecord
100
AcDbRegAppTableRecord
  2
ACAD_DSTYLE_DIMJAG
 70
     0
  0
APPID
  5
8C
330
9
100
AcDbSymbolTableRecord
100
AcDbRegAppTableRecord
  2
ACAD_DSTYLE_DIMTALN
 70
     0
  0
APPID
  5
94
330
9
100
AcDbSymbolTableRecord
100
AcDbRegAppTableRecord
  2
ACAD_DSTYLE_DIMJOGGED_JOGANGLE_SYMBOL
 70
     0
  0
APPID
  5
AF
330
9
100
AcDbSymbolTableRecord
100
AcDbRegAppTableRecord
  2
AcAecLayerStandard
 70
     0
  0
APPID
  5
184
330
9
100
AcDbSymbolTableRecord
100
AcDbRegAppTableRecord
  2
ACAD_DSTYLE_DIMRADIAL_EXTENSION
 70
     0
  0
APPID
  5
BF7
330
9
100
AcDbSymbolTableRecord
100
AcDbRegAppTableRecord
  2
AcDbBlockRepETag
 70
     0
  0
APPID
  5
CD6
330
9
100
AcDbSymbolTableRecord
100
AcDbRegAppTableRecord
  2
AcDbDynamicBlockGUID
 70
     0
  0
APPID
  5
F31
330
9
100
AcDbSymbolTableRecord
100
AcDbRegAppTableRecord
  2
ACAD_NAV_VCDISPLAY
 70
     0
  0
APPID
  5
F6D
330
9
100
AcDbSymbolTableRecord
100
AcDbRegAppTableRecord
  2
ACAD_MLEADERVER
 70
     0
  0
APPID
  5
F6E
330
9
100
AcDbSymbolTableRecord
100
AcDbRegAppTableRecord
  2
AcDbAttr
 70
     0
  0
ENDTAB
  0
TABLE
  2
DIMSTYLE
  5
A
330
0
100
AcDbSymbolTable
 70
     6
100
AcDbDimStyleTable
 71
     1
340
82
  0
DIMSTYLE
105
58
330
A
100
AcDbSymbolTableRecord
100
AcDbDimStyleTableRecord
  2
Standard
 70
     0
340
55
  0
DIMSTYLE
105
59
330
A
100
AcDbSymbolTableRecord
100
AcDbDimStyleTableRecord
  2
Annotative
 70
     0
340
55
1001
AcadAnnotative
1000
AnnotativeData
1002
{
1070
     1
1070
     1
1002
}
  0
DIMSTYLE
105
82
330
A
100
AcDbSymbolTableRecord
100
AcDbDimStyleTableRecord
  2
ATOM
 70
     0
 40
0.0
 41
2.0
 42
2.0
 43
7.0
 44
1.0
 47
0.1
 48
0.1
 73
     0
 74
     0
 77
     1
 78
     8
140
3.0
141
-2.5
143
0.03937007874016
146
0.4999999999999999
147
0.625
171
     3
172
     1
178
     3
271
     2
272
     2
274
     3
276
     2
279
     1
283
     0
284
     8
289
     0
340
76
341
84
342
84
1001
ACAD_DSTYLE_DIMBREAK
1070
   391
1040
3.75
1001
AcadAnnotative
1000
AnnotativeData
1002
{
1070
     1
1070
     1
1002
}
1001
ACAD_DSTYLE_DIMJAG
1070
   388
1040
1.5
1001
ACAD_DSTYLE_DIMTALN
1070
   392
1070
     0
  0
DIMSTYLE
105
8D
330
A
100
AcDbSymbolTableRecord
100
AcDbDimStyleTableRecord
  2
MK_12
 70
     0
 40
0.7
 41
2.5
 42
1.0
 43
7.0
 44
1.0
 73
     0
 74
     0
 77
     1
 78
     8
140
2.5
141
0.0
143
0.0394
147
0.5
172
     1
173
     1
174
     1
175
     1
176
     5
177
     5
340
55
341
8E
343
8E
344
8E
1001
ACAD_DSTYLE_DIMJOGGED_JOGANGLE_SYMBOL
1070
   384
1040
1.570796326794896
  0
DIMSTYLE
105
95
330
A
100
AcDbSymbolTableRecord
100
AcDbDimStyleTableRecord
  2
ATOM_MODEL
 70
     0
 40
0.0
 41
2.399999999999999
 42
0.625
 43
7.5
 44
1.25
 47
0.1
 48
0.1
 73
     0
 74
     0
 77
     1
 78
     8
140
3.0
141
-2.5
143
0.03937007874016
146
0.4999999999999998
147
0.625
171
     3
172
     1
176
     2
177
     2
178
     3
179
     2
271
     2
272
     2
274
     3
276
     2
283
     0
284
     8
340
55
341
84
342
84
  0
DIMSTYLE
105
96
330
A
100
AcDbSymbolTableRecord
100
AcDbDimStyleTableRecord
  2
SANKYO$0
 70
     0
  4
"
 41
1.6
 42
0.0
 43
7.0
 44
1.0
 47
0.1
 48
0.1
 73
     0
 74
     0
 77
     1
 78
     8
 79
     2
140
2.5
141
0.0
143
0.0393701
146
0.71
147
0.625
172
     1
176
   256
177
   256
178
   256
179
     3
271
     3
272
     3
283
     0
284
     8
289
     2
340
55
341
8E
342
8E
371
    -1
372
    -1
  0
ENDTAB
  0
TABLE
  2
BLOCK_RECORD
  5
1
330
0
100
AcDbSymbolTable
 70
    56
  0
BLOCK_RECORD
  5
6C
102
{ACAD_XDICTIONARY
360
B4D
102
}
330
1
100
AcDbSymbolTableRecord
100
AcDbBlockTableRecord
  2
*Model_Space
340
6F
  0
BLOCK_RECORD
  5
68
330
1
100
AcDbSymbolTableRecord
100
AcDbBlockTableRecord
  2
*Paper_Space
340
6B
  0
BLOCK_RECORD
  5
70
330
1
100
AcDbSymbolTableRecord
100
AcDbBlockTableRecord
  2
*Paper_Space0
340
73
  0
BLOCK_RECORD
  5
84
330
1
100
AcDbSymbolTableRecord
100
AcDbBlockTableRecord
  2
_Open30
340
0
310
2800000020000000200000000100080000000000000400000000000000000000000000000000000000000000000080000080000000808000800000008000800080800000C0C0C000C0DCC000F0CAA6000020400000206000002080000020A0000020C0000020E00000400000004020000040400000406000004080000040A0
310
000040C0000040E00000600000006020000060400000606000006080000060A0000060C0000060E00000800000008020000080400000806000008080000080A0000080C0000080E00000A0000000A0200000A0400000A0600000A0800000A0A00000A0C00000A0E00000C0000000C0200000C0400000C0600000C0800000C0
310
A00000C0C00000C0E00000E0000000E0200000E0400000E0600000E0800000E0A00000E0C00000E0E00040000000400020004000400040006000400080004000A0004000C0004000E00040200000402020004020400040206000402080004020A0004020C0004020E000404000004040200040404000404060004040800040
310
40A0004040C0004040E00040600000406020004060400040606000406080004060A0004060C0004060E00040800000408020004080400040806000408080004080A0004080C0004080E00040A0000040A0200040A0400040A0600040A0800040A0A00040A0C00040A0E00040C0000040C0200040C0400040C0600040C08000
310
40C0A00040C0C00040C0E00040E0000040E0200040E0400040E0600040E0800040E0A00040E0C00040E0E00080000000800020008000400080006000800080008000A0008000C0008000E00080200000802020008020400080206000802080008020A0008020C0008020E00080400000804020008040400080406000804080
310
008040A0008040C0008040E00080600000806020008060400080606000806080008060A0008060C0008060E00080800000808020008080400080806000808080008080A0008080C0008080E00080A0000080A0200080A0400080A0600080A0800080A0A00080A0C00080A0E00080C0000080C0200080C0400080C0600080C0
310
800080C0A00080C0C00080C0E00080E0000080E0200080E0400080E0600080E0800080E0A00080E0C00080E0E000C0000000C0002000C0004000C0006000C0008000C000A000C000C000C000E000C0200000C0202000C0204000C0206000C0208000C020A000C020C000C020E000C0400000C0402000C0404000C0406000C0
310
408000C040A000C040C000C040E000C0600000C0602000C0604000C0606000C0608000C060A000C060C000C060E000C0800000C0802000C0804000C0806000C0808000C080A000C080C000C080E000C0A00000C0A02000C0A04000C0A06000C0A08000C0A0A000C0A0C000C0A0E000C0C00000C0C02000C0C04000C0C06000
310
C0C08000C0C0A000F0FBFF00A4A0A000808080000000FF0000FF000000FFFF00FF000000FF00FF00FFFF0000FFFFFF0000000000000000000000000000000000000000000000000000000000000000000000000000000000000000000000000000000000000000000000000000000000000000000000000000000000000000
310
00000000000000000000000000000000000000000000000000000000000000000000000000000000000000000000000000000000000000000000000000000000000000000000000000000000000000000000000000000000000000000000000000000000000000000000000000000000000000000000000000000000000000
310
000000000000000000000000000000000000000000000000000000000000000000000000000000000000000000000000000000FFFF0000000000000000000000000000000000000000000000000000000000000000FFFFFFFF0000000000000000000000000000000000000000000000000000000000000000FFFFFFFF0000
310
000000000000000000000000000000000000000000000000000000000000FFFFFF0000000000000000000000000000000000000000000000000000000000000000FFFFFFFF0000000000000000000000000000000000000000000000000000000000000000FFFFFF0000000000000000000000000000000000000000000000
310
000000000000000000FFFFFFFF0000000000000000000000000000000000000000000000000000000000000000FFFFFFFF00000000FFFFFFFFFFFFFFFFFFFFFFFFFFFFFFFFFFFFFFFFFFFFFFFFFFFFFFFFFFFF00000000000000000000000000000000000000000000000000FFFFFFFF000000000000000000000000000000
310
000000000000000000FFFFFFFF000000000000000000000000000000000000000000000000FFFFFFFF000000000000000000000000000000000000000000000000FFFFFFFF000000000000000000000000000000000000000000000000FFFFFFFF000000000000000000000000000000000000000000000000FFFFFFFF0000
310
0000000000000000000000000000000000000000000000FFFFFF0000000000000000000000000000000000000000000000000000000000000000000000000000000000000000000000000000000000000000000000000000000000000000000000000000000000000000000000000000000000000000000000000000000000
310
00000000000000000000000000000000000000000000000000000000000000000000000000000000000000000000000000000000000000000000000000000000000000000000000000000000000000000000000000000000000000000000000000000000000000000000000000000000000000000000000000000000000000
310
0000000000000000000000000000000000000000000000000000000000000000000000000000000000000000000000000000000000000000
102
{BLKREFS
331
F78
331
F7D
331
F82
331
F87
331
D68
331
D69
331
D71
331
D72
331
D7A
331
D7B
331
D85
331
D86
331
E0C
331
E12
331
E1B
331
E1C
331
E29
331
E2A
331
E33
331
E34
331
D90
331
D91
331
D99
331
D9A
331
DA4
331
DA5
331
DAD
331
DAE
331
DB8
331
DB9
331
DC1
331
DC2
331
DC9
331
DCA
331
DD1
331
DD8
331
DD9
331
DE1
331
DE2
331
DEA
331
DEB
331
DF3
331
DF4
331
DFB
331
E04
331
E05
331
E3C
331
E3D
331
E45
331
E46
331
E4E
331
E4F
331
E57
331
E58
331
E60
331
E61
331
E68
331
E74
331
E75
331
E7C
331
E7D
331
E84
331
E89
331
E92
331
E99
331
E9A
331
EA7
331
EA8
331
EAF
331
EB0
331
EB8
331
EB9
331
EC6
331
EC7
331
ECD
331
ED2
331
ED7
331
EDD
331
EDE
331
EEB
331
EEC
331
F0C
331
F0D
331
F14
331
F15
102
}
  0
BLOCK_RECORD
  5
8E
330
1
100
AcDbSymbolTableRecord
100
AcDbBlockTableRecord
  2
_Open
340
0
  0
BLOCK_RECORD
  5
445
330
1
100
AcDbSymbolTableRecord
100
AcDbBlockTableRecord
  2
*D3
340
0
  0
BLOCK_RECORD
  5
451
330
1
100
AcDbSymbolTableRecord
100
AcDbBlockTableRecord
  2
*D4
340
0
  0
BLOCK_RECORD
  5
45D
330
1
100
AcDbSymbolTableRecord
100
AcDbBlockTableRecord
  2
*D5
340
0
  0
BLOCK_RECORD
  5
469
330
1
100
AcDbSymbolTableRecord
100
AcDbBlockTableRecord
  2
*D6
340
0
  0
BLOCK_RECORD
  5
477
330
1
100
AcDbSymbolTableRecord
100
AcDbBlockTableRecord
  2
*D7
340
0
  0
BLOCK_RECORD
  5
485
330
1
100
AcDbSymbolTableRecord
100
AcDbBlockTableRecord
  2
*D8
340
0
  0
BLOCK_RECORD
  5
491
330
1
100
AcDbSymbolTableRecord
100
AcDbBlockTableRecord
  2
*D9
340
0
  0
BLOCK_RECORD
  5
49F
330
1
100
AcDbSymbolTableRecord
100
AcDbBlockTableRecord
  2
*D10
340
0
  0
BLOCK_RECORD
  5
4AB
330
1
100
AcDbSymbolTableRecord
100
AcDbBlockTableRecord
  2
*D11
340
0
  0
BLOCK_RECORD
  5
4B9
330
1
100
AcDbSymbolTableRecord
100
AcDbBlockTableRecord
  2
*D12
340
0
  0
BLOCK_RECORD
  5
4C5
330
1
100
AcDbSymbolTableRecord
100
AcDbBlockTableRecord
  2
*D13
340
0
  0
BLOCK_RECORD
  5
4D0
330
1
100
AcDbSymbolTableRecord
100
AcDbBlockTableRecord
  2
*D14
340
0
  0
BLOCK_RECORD
  5
4D9
330
1
100
AcDbSymbolTableRecord
100
AcDbBlockTableRecord
  2
*D15
340
0
  0
BLOCK_RECORD
  5
4E5
330
1
100
AcDbSymbolTableRecord
100
AcDbBlockTableRecord
  2
*D16
340
0
  0
BLOCK_RECORD
  5
4F3
330
1
100
AcDbSymbolTableRecord
100
AcDbBlockTableRecord
  2
*D17
340
0
  0
BLOCK_RECORD
  5
4FF
330
1
100
AcDbSymbolTableRecord
100
AcDbBlockTableRecord
  2
*D18
340
0
  0
BLOCK_RECORD
  5
50B
330
1
100
AcDbSymbolTableRecord
100
AcDbBlockTableRecord
  2
*D19
340
0
  0
BLOCK_RECORD
  5
514
330
1
100
AcDbSymbolTableRecord
100
AcDbBlockTableRecord
  2
*D20
340
0
  0
BLOCK_RECORD
  5
522
330
1
100
AcDbSymbolTableRecord
100
AcDbBlockTableRecord
  2
*D21
340
0
  0
BLOCK_RECORD
  5
52B
330
1
100
AcDbSymbolTableRecord
100
AcDbBlockTableRecord
  2
*D22
340
0
  0
BLOCK_RECORD
  5
534
330
1
100
AcDbSymbolTableRecord
100
AcDbBlockTableRecord
  2
*D23
340
0
  0
BLOCK_RECORD
  5
542
330
1
100
AcDbSymbolTableRecord
100
AcDbBlockTableRecord
  2
*D24
340
0
  0
BLOCK_RECORD
  5
550
330
1
100
AcDbSymbolTableRecord
100
AcDbBlockTableRecord
  2
*D25
340
0
  0
BLOCK_RECORD
  5
55E
330
1
100
AcDbSymbolTableRecord
100
AcDbBlockTableRecord
  2
*D26
340
0
  0
BLOCK_RECORD
  5
56C
330
1
100
AcDbSymbolTableRecord
100
AcDbBlockTableRecord
  2
*D27
340
0
  0
BLOCK_RECORD
  5
578
330
1
100
AcDbSymbolTableRecord
100
AcDbBlockTableRecord
  2
*D28
340
0
  0
BLOCK_RECORD
  5
584
330
1
100
AcDbSymbolTableRecord
100
AcDbBlockTableRecord
  2
*D29
340
0
  0
BLOCK_RECORD
  5
590
330
1
100
AcDbSymbolTableRecord
100
AcDbBlockTableRecord
  2
*D30
340
0
  0
BLOCK_RECORD
  5
59C
330
1
100
AcDbSymbolTableRecord
100
AcDbBlockTableRecord
  2
*D31
340
0
  0
BLOCK_RECORD
  5
5A5
330
1
100
AcDbSymbolTableRecord
100
AcDbBlockTableRecord
  2
*D32
340
0
  0
BLOCK_RECORD
  5
5B3
330
1
100
AcDbSymbolTableRecord
100
AcDbBlockTableRecord
  2
*D33
340
0
  0
BLOCK_RECORD
  5
5BF
330
1
100
AcDbSymbolTableRecord
100
AcDbBlockTableRecord
  2
*D34
340
0
  0
BLOCK_RECORD
  5
5C7
330
1
100
AcDbSymbolTableRecord
100
AcDbBlockTableRecord
  2
*D35
340
0
  0
BLOCK_RECORD
  5
5CF
330
1
100
AcDbSymbolTableRecord
100
AcDbBlockTableRecord
  2
*D36
340
0
  0
BLOCK_RECORD
  5
5DC
330
1
100
AcDbSymbolTableRecord
100
AcDbBlockTableRecord
  2
*D37
340
0
  0
BLOCK_RECORD
  5
5E8
330
1
100
AcDbSymbolTableRecord
100
AcDbBlockTableRecord
  2
*D38
340
0
  0
BLOCK_RECORD
  5
5F6
330
1
100
AcDbSymbolTableRecord
100
AcDbBlockTableRecord
  2
*D39
340
0
  0
BLOCK_RECORD
  5
602
330
1
100
AcDbSymbolTableRecord
100
AcDbBlockTableRecord
  2
*D40
340
0
  0
BLOCK_RECORD
  5
60E
330
1
100
AcDbSymbolTableRecord
100
AcDbBlockTableRecord
  2
*D41
340
0
  0
BLOCK_RECORD
  5
61C
330
1
100
AcDbSymbolTableRecord
100
AcDbBlockTableRecord
  2
*D42
340
0
  0
BLOCK_RECORD
  5
624
330
1
100
AcDbSymbolTableRecord
100
AcDbBlockTableRecord
  2
*D43
340
0
  0
BLOCK_RECORD
  5
62C
330
1
100
AcDbSymbolTableRecord
100
AcDbBlockTableRecord
  2
*D44
340
0
  0
BLOCK_RECORD
  5
634
330
1
100
AcDbSymbolTableRecord
100
AcDbBlockTableRecord
  2
*D45
340
0
  0
BLOCK_RECORD
  5
640
330
1
100
AcDbSymbolTableRecord
100
AcDbBlockTableRecord
  2
*D46
340
0
  0
BLOCK_RECORD
  5
64E
330
1
100
AcDbSymbolTableRecord
100
AcDbBlockTableRecord
  2
*D47
340
0
  0
BLOCK_RECORD
  5
656
330
1
100
AcDbSymbolTableRecord
100
AcDbBlockTableRecord
  2
*D48
340
0
  0
BLOCK_RECORD
  5
65E
330
1
100
AcDbSymbolTableRecord
100
AcDbBlockTableRecord
  2
*D49
340
0
  0
BLOCK_RECORD
  5
666
330
1
100
AcDbSymbolTableRecord
100
AcDbBlockTableRecord
  2
*D50
340
0
  0
BLOCK_RECORD
  5
B81
330
1
100
AcDbSymbolTableRecord
100
AcDbBlockTableRecord
  2
*D51
340
0
  0
BLOCK_RECORD
  5
B8F
330
1
100
AcDbSymbolTableRecord
100
AcDbBlockTableRecord
  2
*D52
340
0
  0
BLOCK_RECORD
  5
BF0
102
{ACAD_XDICTIONARY
360
BF1
102
}
330
1
100
AcDbSymbolTableRecord
100
AcDbBlockTableRecord
  2
ATOM_A4T_zuwaku
340
0
310
2800000020000000200000000100080000000000000400000000000000000000000000000000000000000000000080000080000000808000800000008000800080800000C0C0C000C0DCC000F0CAA6000020400000206000002080000020A0000020C0000020E00000400000004020000040400000406000004080000040A0
310
000040C0000040E00000600000006020000060400000606000006080000060A0000060C0000060E00000800000008020000080400000806000008080000080A0000080C0000080E00000A0000000A0200000A0400000A0600000A0800000A0A00000A0C00000A0E00000C0000000C0200000C0400000C0600000C0800000C0
310
A00000C0C00000C0E00000E0000000E0200000E0400000E0600000E0800000E0A00000E0C00000E0E00040000000400020004000400040006000400080004000A0004000C0004000E00040200000402020004020400040206000402080004020A0004020C0004020E000404000004040200040404000404060004040800040
310
40A0004040C0004040E00040600000406020004060400040606000406080004060A0004060C0004060E00040800000408020004080400040806000408080004080A0004080C0004080E00040A0000040A0200040A0400040A0600040A0800040A0A00040A0C00040A0E00040C0000040C0200040C0400040C0600040C08000
310
40C0A00040C0C00040C0E00040E0000040E0200040E0400040E0600040E0800040E0A00040E0C00040E0E00080000000800020008000400080006000800080008000A0008000C0008000E00080200000802020008020400080206000802080008020A0008020C0008020E00080400000804020008040400080406000804080
310
008040A0008040C0008040E00080600000806020008060400080606000806080008060A0008060C0008060E00080800000808020008080400080806000808080008080A0008080C0008080E00080A0000080A0200080A0400080A0600080A0800080A0A00080A0C00080A0E00080C0000080C0200080C0400080C0600080C0
310
800080C0A00080C0C00080C0E00080E0000080E0200080E0400080E0600080E0800080E0A00080E0C00080E0E000C0000000C0002000C0004000C0006000C0008000C000A000C000C000C000E000C0200000C0202000C0204000C0206000C0208000C020A000C020C000C020E000C0400000C0402000C0404000C0406000C0
310
408000C040A000C040C000C040E000C0600000C0602000C0604000C0606000C0608000C060A000C060C000C060E000C0800000C0802000C0804000C0806000C0808000C080A000C080C000C080E000C0A00000C0A02000C0A04000C0A06000C0A08000C0A0A000C0A0C000C0A0E000C0C00000C0C02000C0C04000C0C06000
310
C0C08000C0C0A000F0FBFF00A4A0A000808080000000FF0000FF000000FFFF00FF000000FF00FF00FFFF0000FFFFFF000000000000000000000000000000000000000000000000000000000000000000000000000000FEFEFEFEFEFEFEFEFEFEFEFEFEFEFEFEFEFEFEFE000000000000000000000000FEFEFEFEFEFEFEFEFE
310
FEFEFEFEFEFEFEFEFEFEFE000000000000000000000000FEFEFEFEFEFEFEFEFEFEFEFEFEFEFEFEFEFEFEFE000000000000000000000000FEFEFEFEFEFEFEFEFEFEFEFEFEFEFEFEFEFEFEFE000000000000000000000000FEFEFEFEFEFEFEFEFEFEFEFEFEFEFEFEFEFEFEFE000000000000000000000000FEFEFEFEFEFEFEFE
310
FEFEFEFEFEFEFEFEFEFEFEFE000000000000000000000000FEFE00000000000000000000000000000000FEFE000000000000000000000000FEFE00000000000000000000000000000000FEFE000000000000000000000000FEFE00000000000000000000000000000000FEFE000000000000000000000000FEFE0000000000
310
0000000000000000000000FEFE000000000000000000000000FEFE00000000000000000000000000000000FEFE000000000000000000000000FEFE00000000000000000000000000000000FEFE000000000000000000000000FEFE00000000000000000000000000000000FEFE000000000000000000000000FEFE00000000
310
000000000000000000000000FEFE000000000000000000000000FEFE00000000000000000000000000000000FEFE000000000000000000000000FEFE00000000000000000000000000000000FEFE000000000000000000000000FEFE00000000000000000000000000000000FEFE000000000000000000000000FEFE000000
310
00000000000000000000000000FEFE000000000000000000000000FEFE00000000000000000000000000000000FEFE000000000000000000000000FEFE00000000000000000000000000000000FEFE000000000000000000000000FEFE00000000000000000000000000000000FEFE000000000000000000000000FEFE0000
310
0000000000000000000000000000FEFE000000000000000000000000FEFE00000000000000000000000000000000FEFE000000000000000000000000FEFE00000000000000000000000000000000FEFE000000000000000000000000FEFE00000000000000000000000000000000FEFE000000000000000000000000FEFE00
310
000000000000000000000000000000FEFE000000000000000000000000FEFEFEFEFEFEFEFEFEFEFEFEFEFEFEFEFEFEFEFE000000000000000000000000FEFEFEFEFEFEFEFEFEFEFEFEFEFEFEFEFEFEFEFE000000000000000000000000FEFEFEFEFEFEFEFEFEFEFEFEFEFEFEFEFEFEFEFE000000000000000000000000FEFE
310
FEFEFEFEFEFEFEFEFEFEFEFEFEFEFEFEFEFE0000000000000000000000000000000000000000000000000000000000000000000000000000
1001
AcDbBlockRepETag
1070
     1
1071
      214
1001
AcDbDynamicBlockGUID
1000
{4E879FAF-64EB-4E9E-8869-715D8297E4E6}
1001
ACAD
1000
DesignCenter Data
1002
{
1070
     1
1070
     4
1002
}
  0
BLOCK_RECORD
  5
CF3
102
{ACAD_XDICTIONARY
360
CF4
102
}
330
1
100
AcDbSymbolTableRecord
100
AcDbBlockTableRecord
  2
部品表
340
0
310
2800000020000000200000000100080000000000000400000000000000000000000000000000000000000000000080000080000000808000800000008000800080800000C0C0C000C0DCC000F0CAA6000020400000206000002080000020A0000020C0000020E00000400000004020000040400000406000004080000040A0
310
000040C0000040E00000600000006020000060400000606000006080000060A0000060C0000060E00000800000008020000080400000806000008080000080A0000080C0000080E00000A0000000A0200000A0400000A0600000A0800000A0A00000A0C00000A0E00000C0000000C0200000C0400000C0600000C0800000C0
310
A00000C0C00000C0E00000E0000000E0200000E0400000E0600000E0800000E0A00000E0C00000E0E00040000000400020004000400040006000400080004000A0004000C0004000E00040200000402020004020400040206000402080004020A0004020C0004020E000404000004040200040404000404060004040800040
310
40A0004040C0004040E00040600000406020004060400040606000406080004060A0004060C0004060E00040800000408020004080400040806000408080004080A0004080C0004080E00040A0000040A0200040A0400040A0600040A0800040A0A00040A0C00040A0E00040C0000040C0200040C0400040C0600040C08000
310
40C0A00040C0C00040C0E00040E0000040E0200040E0400040E0600040E0800040E0A00040E0C00040E0E00080000000800020008000400080006000800080008000A0008000C0008000E00080200000802020008020400080206000802080008020A0008020C0008020E00080400000804020008040400080406000804080
310
008040A0008040C0008040E00080600000806020008060400080606000806080008060A0008060C0008060E00080800000808020008080400080806000808080008080A0008080C0008080E00080A0000080A0200080A0400080A0600080A0800080A0A00080A0C00080A0E00080C0000080C0200080C0400080C0600080C0
310
800080C0A00080C0C00080C0E00080E0000080E0200080E0400080E0600080E0800080E0A00080E0C00080E0E000C0000000C0002000C0004000C0006000C0008000C000A000C000C000C000E000C0200000C0202000C0204000C0206000C0208000C020A000C020C000C020E000C0400000C0402000C0404000C0406000C0
310
408000C040A000C040C000C040E000C0600000C0602000C0604000C0606000C0608000C060A000C060C000C060E000C0800000C0802000C0804000C0806000C0808000C080A000C080C000C080E000C0A00000C0A02000C0A04000C0A06000C0A08000C0A0A000C0A0C000C0A0E000C0C00000C0C02000C0C04000C0C06000
310
C0C08000C0C0A000F0FBFF00A4A0A000808080000000FF0000FF000000FFFF00FF000000FF00FF00FFFF0000FFFFFF00FFFFFFFFFFFFFFFFFFFFFFFFFFFFFFFFFFFFFFFFFFFFFFFFFFFFFFFFFFFFFFFFFFFFFFFFFFFFFFFFFFFFFFFFFFFFFFFFFFFFFFFFFFFFFFFFFFFFFFFFFFFFFFFFFFFFFFFFFFFFFFFFFFFFFFFFFFFFFF
310
FFFFFFFFFFFFFFFFFFFFFFFFFFFFFFFFFFFFFFFFFFFFFFFFFFFFFFFFFFFFFFFFFFFFFFFFFFFFFFFFFFFFFFFFFFFFFFFFFFFFFFFFFFFFFFFFFFFFFFFFFFFFFFFFFFFFFFFFFFFFFFFFFFFFFFFFFFFFFFFFFFFFFFFFFFFFFFFFFFFFFFFFFFFFFFFFFFFFFFFFFFFFFFFFFFFFFFFFFFFFFFFFFFFFFFFFFFFFFFFFFFFFFFFFFFFFFF
310
FFFFFFFFFFFFFFFFFFFFFFFFFFFFFFFFFFFFFFFFFFFFFFFFFFFFFFFFFFFFFFFFFFFFFFFFFFFFFFFFFFFFFFFFFFFFFFFFFFFFFFFFFFFFFFFFFFFFFFFFFFFFFFFFFFFFFFFFFFFFFFFFFFFFFFFFFFFFFFFFFFFFFFFFFFFFFFFFFFFFFFFFFFFFFFFFFFFFFFFFFFFFFFFFFFFFFFFFFFFFFFFFFFFFFFFFFFFFFFFFFFFFFFFFFFFFFF
310
FFFFFFFFFFFFFFFFFFFFFFFFFFFFFFFFFFFFFFFFFFFFFFFFFFFFFFFFFFFFFFFFFFFFFFFFFFFFFFFFFFFFFFFFFFFFFFFFFFFFFFFFFFFFFFFFFFFFFFFFFFFFFFFFFFFFFFFFFFFFFFFFFFFFFFFFFFFFFFFFFFFFFFFFFFFFFFFFFFFFFFFFFFFFFFFFFFFFFFFFFFFFFFFFFFFFFFFFFFFFFFFFFFFFFFFFFFFFFFFFFFFFFFFFFFFFFF
310
FFFFFFFFFFFFFFFFFFFFFFFFFFFFFFFFFFFFFFFFFFFEFEFFFEFFFEFEFFFEFEFEFEFEFEFEFEFEFEFEFEFEFEFEFFFEFEFEFEFFFFFFFFFEFEFEFEFEFEFEFEFEFEFEFEFEFEFEFEFEFEFEFEFEFEFEFEFEFEFEFEFEFEFFFFFFFFFFFFFFFFFFFFFFFFFFFFFFFFFFFFFFFFFFFFFFFFFFFFFFFFFFFFFFFFFFFFFFFFFFFFFFFFFFFFFFFF
310
FFFFFFFFFFFFFFFFFFFFFFFFFFFFFFFFFFFFFFFFFFFFFFFFFFFFFFFFFFFFFFFFFFFFFFFFFFFFFFFFFFFFFFFFFFFFFFFFFFFFFFFFFFFFFFFFFFFFFFFFFFFFFFFFFFFFFFFFFFFFFFFFFFFFFFFFFFFFFFFFFFFFFFFFFFFFFFFFFFFFFFFFFFFFFFFFFFFFFFFFFFFFFFFFFFFFFFFFFFFFFFFFFFFFFFFFFFFFFFFFFFFFFFFFFFFFFF
310
FFFFFFFFFFFFFFFFFFFFFFFFFFFFFFFFFFFFFFFFFFFFFFFFFFFFFFFFFFFFFFFFFFFFFFFFFFFFFFFFFFFFFFFFFFFFFFFFFFFFFFFFFFFFFFFFFFFFFFFFFFFFFFFFFFFFFFFFFFFFFFFFFFFFFFFFFFFFFFFFFFFFFFFFFFFFFFFFFFFFFFFFFFFFFFFFFFFFFFFFFFFFFFFFFFFFFFFFFFFFFFFFFFFFFFFFFFFFFFFFFFFFFFFFFFFFFF
310
FFFFFFFFFFFFFFFFFFFFFFFFFFFFFFFFFFFFFFFFFFFFFFFFFFFFFFFFFFFFFFFFFFFFFFFFFFFFFFFFFFFFFFFFFFFFFFFFFFFFFFFFFFFFFFFFFFFFFFFFFFFFFFFFFFFFFFFFFFFFFFFFFFFFFFFFFFFFFFFFFFFFFFFFFFFFFFFFFFFFFFFFFFFFFFFFFFFFFFFFFFFFFFFFFFFFFFFFFFFFFFFFFFFFFFFFFFFFFFFFFFFFFFFFFFFFFF
310
FFFFFFFFFFFFFFFFFFFFFFFFFFFFFFFFFFFFFFFFFFFFFFFFFFFFFFFFFFFFFFFFFFFFFFFFFFFFFFFFFFFFFFFFFFFFFFFFFFFFFFFFFFFFFFFF
1001
AcDbDynamicBlockGUID
1000
{C98E84B9-7DC5-4FE5-8658-A136B1396970}
1001
AcDbBlockRepETag
1070
     1
1071
       18
1001
ACAD
1000
DesignCenter Data
1002
{
1070
     1
1070
     4
1002
}
  0
BLOCK_RECORD
  5
D3D
330
1
100
AcDbSymbolTableRecord
100
AcDbBlockTableRecord
  2
*E10555
340
0
  0
ENDTAB
  0
ENDSEC
  0
SECTION
  2
BLOCKS
  0
BLOCK
  5
6D
330
6C
100
AcDbEntity
  8
0
100
AcDbBlockBegin
  2
*Model_Space
 70
     0
 10
0.0
 20
0.0
 30
0.0
  3
*Model_Space
  1

  0
ENDBLK
  5
6E
330
6C
100
AcDbEntity
  8
0
100
AcDbBlockEnd
  0
BLOCK
  5
69
330
68
100
AcDbEntity
 67
     1
  8
0
100
AcDbBlockBegin
  2
*Paper_Space
 70
     0
 10
0.0
 20
0.0
 30
0.0
  3
*Paper_Space
  1

  0
ENDBLK
  5
6A
330
68
100
AcDbEntity
 67
     1
  8
0
100
AcDbBlockEnd
  0
BLOCK
  5
71
330
70
100
AcDbEntity
 67
     1
  8
0
100
AcDbBlockBegin
  2
*Paper_Space0
 70
     0
 10
0.0
 20
0.0
 30
0.0
  3
*Paper_Space0
  1

  0
ENDBLK
  5
72
330
70
100
AcDbEntity
 67
     1
  8
0
100
AcDbBlockEnd
  0
BLOCK
  5
85
330
84
100
AcDbEntity
  8
0
100
AcDbBlockBegin
  2
_Open30
 70
     0
 10
0.0
 20
0.0
 30
0.0
  3
_Open30
  1

  0
LINE
  5
86
330
84
100
AcDbEntity
  8
0
  6
ByBlock
 62
     0
370
    -2
100
AcDbLine
 10
-1.0
 20
0.26794919
 30
0.0
 11
0.0
 21
0.0
 31
0.0
  0
LINE
  5
87
330
84
100
AcDbEntity
  8
0
  6
ByBlock
 62
     0
370
    -2
100
AcDbLine
 10
0.0
 20
0.0
 30
0.0
 11
-1.0
 21
-0.26794919
 31
0.0
  0
LINE
  5
88
330
84
100
AcDbEntity
  8
0
  6
ByBlock
 62
     0
370
    -2
100
AcDbLine
 10
0.0
 20
0.0
 30
0.0
 11
-1.0
 21
0.0
 31
0.0
  0
ENDBLK
  5
89
330
84
100
AcDbEntity
  8
0
100
AcDbBlockEnd
  0
BLOCK
  5
8F
330
8E
100
AcDbEntity
  8
0
100
AcDbBlockBegin
  2
_Open
 70
     0
 10
0.0
 20
0.0
 30
0.0
  3
_Open
  1

  0
LINE
  5
90
330
8E
100
AcDbEntity
  8
0
  6
ByBlock
 62
     0
370
    -2
100
AcDbLine
 10
-1.0
 20
0.1666666666666666
 30
0.0
 11
0.0
 21
0.0
 31
0.0
  0
LINE
  5
91
330
8E
100
AcDbEntity
  8
0
  6
ByBlock
 62
     0
370
    -2
100
AcDbLine
 10
-1.0
 20
-0.1666666666666666
 30
0.0
 11
0.0
 21
0.0
 31
0.0
  0
LINE
  5
92
330
8E
100
AcDbEntity
  8
0
  6
ByBlock
 62
     0
370
    -2
100
AcDbLine
 10
0.0
 20
0.0
 30
0.0
 11
-1.0
 21
0.0
 31
0.0
  0
ENDBLK
  5
93
330
8E
100
AcDbEntity
  8
0
100
AcDbBlockEnd
  0
BLOCK
  5
446
330
445
100
AcDbEntity
  8
0
100
AcDbBlockBegin
  2
*D3
 70
     1
 10
0.0
 20
0.0
 30
0.0
  3
*D3
  1

  0
LINE
  5
D65
330
445
100
AcDbEntity
  8
dim
 62
     0
370
    -2
100
AcDbLine
 10
255.9899932961795
 20
167.3083427816014
 30
0.0
 11
255.9899932961795
 21
142.0994872499044
 31
0.0
  0
LINE
  5
D66
330
445
100
AcDbEntity
  8
dim
 62
     0
370
    -2
100
AcDbLine
 10
235.9899934889317
 20
167.3083427816014
 30
0.0
 11
235.9899934889317
 21
142.0994872499044
 31
0.0
  0
LINE
  5
D67
330
445
100
AcDbEntity
  8
dim
 62
     0
370
    -2
100
AcDbLine
 10
253.9899933154548
 20
143.0994872402667
 30
0.0
 11
237.9899934696563
 21
143.0994872402667
 31
0.0
  0
INSERT
  5
D68
330
445
100
AcDbEntity
  8
dim
 62
     0
370
    -2
100
AcDbBlockReference
  2
_Open30
 10
255.9899932961795
 20
143.0994872402667
 30
0.0
 41
1.999999980724686
 42
1.999999980724686
 43
1.999999980724686
  0
INSERT
  5
D69
330
445
100
AcDbEntity
  8
dim
 62
     0
370
    -2
100
AcDbBlockReference
  2
_Open30
 10
235.9899934889317
 20
143.0994872402667
 30
0.0
 41
1.999999980724686
 42
1.999999980724686
 43
1.999999980724686
 50
180.0
  0
MTEXT
  5
D6A
330
445
100
AcDbEntity
  8
dim
 62
     3
100
AcDbMText
 10
245.9908249934523
 20
145.4744872342432
 30
0.0
 40
2.999999971087028
 41
0.0
 71
     5
 72
     1
  1
10{\H1.500000;\S+0.8^  0;}
  7
ATOM
 73
     1
 44
1.0
1001
ACAD
1000
MTEXTBEGIN
1070
    73
1070
     1
1070
    44
1040
1.0
1070
    74
1070
     0
1000
MTEXTEND
  0
POINT
  5
D6B
330
445
100
AcDbEntity
  8
Defpoints
 62
     0
100
AcDbPoint
 10
255.9899932961795
 20
169.308342762326
 30
0.0
  0
POINT
  5
D6C
330
445
100
AcDbEntity
  8
Defpoints
 62
     0
100
AcDbPoint
 10
235.9899934889317
 20
169.308342762326
 30
0.0
  0
POINT
  5
D6D
330
445
100
AcDbEntity
  8
Defpoints
 62
     0
100
AcDbPoint
 10
235.9899934889317
 20
143.0994872402667
 30
0.0
  0
ENDBLK
  5
447
330
445
100
AcDbEntity
  8
0
100
AcDbBlockEnd
  0
BLOCK
  5
452
330
451
100
AcDbEntity
  8
0
100
AcDbBlockBegin
  2
*D4
 70
     1
 10
0.0
 20
0.0
 30
0.0
  3
*D4
  1

  0
LINE
  5
D6E
330
451
100
AcDbEntity
  8
dim
 62
     0
370
    -2
100
AcDbLine
 10
291.989992949219
 20
228.3083421937043
 30
0.0
 11
309.3309832041515
 21
228.3083421937043
 31
0.0
  0
LINE
  5
D6F
330
451
100
AcDbEntity
  8
dim
 62
     0
370
    -2
100
AcDbLine
 10
291.989992949219
 20
168.3083427719637
 30
0.0
 11
309.3309832041515
 21
168.3083427719637
 31
0.0
  0
LINE
  5
D70
330
451
100
AcDbEntity
  8
dim
 62
     0
370
    -2
100
AcDbLine
 10
308.3309832137891
 20
226.3083422129796
 30
0.0
 11
308.3309832137891
 21
170.3083427526884
 31
0.0
  0
INSERT
  5
D71
330
451
100
AcDbEntity
  8
dim
 62
     0
370
    -2
100
AcDbBlockReference
  2
_Open30
 10
308.3309832137891
 20
228.3083421937043
 30
0.0
 41
1.999999980724686
 42
1.999999980724686
 43
1.999999980724686
 50
90.0
  0
INSERT
  5
D72
330
451
100
AcDbEntity
  8
dim
 62
     0
370
    -2
100
AcDbBlockReference
  2
_Open30
 10
308.3309832137891
 20
168.3083427719637
 30
0.0
 41
1.999999980724686
 42
1.999999980724686
 43
1.999999980724686
 50
270.0
  0
MTEXT
  5
D73
330
451
100
AcDbEntity
  8
dim
 62
     3
100
AcDbMText
 10
306.2059832342691
 20
198.308342482834
 30
0.0
 40
2.999999971087028
 41
0.0
 71
     5
 72
     1
  1
30
  7
ATOM
 11
0.0000000000000001
 21
1.0
 31
0.0
 73
     1
 44
1.0
1001
ACAD
1000
MTEXTBEGIN
1070
    73
1070
     1
1070
    44
1040
1.0
1070
    74
1070
     0
1000
MTEXTEND
  0
POINT
  5
D74
330
451
100
AcDbEntity
  8
Defpoints
 62
     0
100
AcDbPoint
 10
289.9899929684943
 20
228.3083421937043
 30
0.0
  0
POINT
  5
D75
330
451
100
AcDbEntity
  8
Defpoints
 62
     0
100
AcDbPoint
 10
289.9899929684943
 20
168.3083427719637
 30
0.0
  0
POINT
  5
D76
330
451
100
AcDbEntity
  8
Defpoints
 62
     0
100
AcDbPoint
 10
308.3309832137891
 20
168.3083427719637
 30
0.0
  0
ENDBLK
  5
453
330
451
100
AcDbEntity
  8
0
100
AcDbBlockEnd
  0
BLOCK
  5
45E
330
45D
100
AcDbEntity
  8
0
100
AcDbBlockBegin
  2
*D5
 70
     1
 10
0.0
 20
0.0
 30
0.0
  3
*D5
  1

  0
LINE
  5
D77
330
45D
100
AcDbEntity
  8
dim
 62
     0
370
    -2
100
AcDbLine
 10
193.3899938994921
 20
142.9083430167602
 30
0.0
 11
193.3899938994921
 21
130.0994873655562
 31
0.0
  0
LINE
  5
D78
330
45D
100
AcDbEntity
  8
dim
 62
     0
370
    -2
100
AcDbLine
 10
225.9899935853083
 20
171.3083427430507
 30
0.0
 11
225.9899935853083
 21
130.0994873655562
 31
0.0
  0
LINE
  5
D79
330
45D
100
AcDbEntity
  8
dim
 62
     0
370
    -2
100
AcDbLine
 10
195.3899938802166
 20
131.0994873559186
 30
0.0
 11
223.9899936045836
 21
131.0994873559186
 31
0.0
  0
INSERT
  5
D7A
330
45D
100
AcDbEntity
  8
dim
 62
     0
370
    -2
100
AcDbBlockReference
  2
_Open30
 10
193.3899938994921
 20
131.0994873559186
 30
0.0
 41
1.999999980724686
 42
1.999999980724686
 43
1.999999980724686
 50
180.0
  0
INSERT
  5
D7B
330
45D
100
AcDbEntity
  8
dim
 62
     0
370
    -2
100
AcDbBlockReference
  2
_Open30
 10
225.9899935853083
 20
131.0994873559186
 30
0.0
 41
1.999999980724686
 42
1.999999980724686
 43
1.999999980724686
  0
MTEXT
  5
D7C
330
45D
100
AcDbEntity
  8
dim
 62
     3
100
AcDbMText
 10
209.6899937424002
 20
133.2244873354385
 30
0.0
 40
2.999999971087028
 41
0.0
 71
     5
 72
     1
  1
16.3
  7
ATOM
 73
     1
 44
1.0
1001
ACAD
1000
MTEXTBEGIN
1070
    73
1070
     1
1070
    44
1040
1.0
1070
    74
1070
     0
1000
MTEXTEND
  0
POINT
  5
D7D
330
45D
100
AcDbEntity
  8
Defpoints
 62
     0
100
AcDbPoint
 10
193.3899938994921
 20
144.9083429974849
 30
0.0
  0
POINT
  5
D7E
330
45D
100
AcDbEntity
  8
Defpoints
 62
     0
100
AcDbPoint
 10
225.9899935853083
 20
173.3083427237754
 30
0.0
  0
POINT
  5
D7F
330
45D
100
AcDbEntity
  8
Defpoints
 62
     0
100
AcDbPoint
 10
225.9899935853083
 20
131.0994873559186
 30
0.0
  0
ENDBLK
  5
45F
330
45D
100
AcDbEntity
  8
0
100
AcDbBlockEnd
  0
BLOCK
  5
46A
330
469
100
AcDbEntity
  8
0
100
AcDbBlockBegin
  2
*D6
 70
     1
 10
0.0
 20
0.0
 30
0.0
  3
*D6
  1

  0
LINE
  5
D80
330
469
100
AcDbEntity
  8
dim
 62
     0
370
    -2
100
AcDbLine
 10
190.989993922623
 20
142.9083430167602
 30
0.0
 11
190.989993922623
 21
130.0994873655562
 31
0.0
  0
LINE
  5
D81
330
469
100
AcDbEntity
  8
dim
 62
     0
370
    -2
100
AcDbLine
 10
193.3899938994921
 20
142.9083430167602
 30
0.0
 11
193.3899938994921
 21
130.0994873655562
 31
0.0
  0
LINE
  5
D82
330
469
100
AcDbEntity
  8
dim
 62
     0
370
    -2
100
AcDbLine
 10
195.3899938802166
 20
131.0994873559186
 30
0.0
 11
197.3899938609413
 21
131.0994873559186
 31
0.0
  0
LINE
  5
D83
330
469
100
AcDbEntity
  8
dim
 62
     0
370
    -2
100
AcDbLine
 10
188.9899939418983
 20
131.0994873559186
 30
0.0
 11
173.9149942240406
 21
131.0994873559186
 31
0.0
  0
LINE
  5
D84
330
469
100
AcDbEntity
  8
dim
 62
     0
370
    -2
100
AcDbLine
 10
193.3899938994921
 20
131.0994873559186
 30
0.0
 11
190.989993922623
 21
131.0994873559186
 31
0.0
  0
INSERT
  5
D85
330
469
100
AcDbEntity
  8
dim
 62
     0
370
    -2
100
AcDbBlockReference
  2
_Open30
 10
193.3899938994921
 20
131.0994873559186
 30
0.0
 41
1.999999980724686
 42
1.999999980724686
 43
1.999999980724686
 50
180.0
  0
INSERT
  5
D86
330
469
100
AcDbEntity
  8
dim
 62
     0
370
    -2
100
AcDbBlockReference
  2
_Open30
 10
190.989993922623
 20
131.0994873559186
 30
0.0
 41
1.999999980724686
 42
1.999999980724686
 43
1.999999980724686
  0
MTEXT
  5
D87
330
469
100
AcDbEntity
  8
dim
 62
     3
100
AcDbMText
 10
176.7899941963325
 20
133.2244873354385
 30
0.0
 40
2.999999971087028
 41
0.0
 71
     5
 72
     1
  1
1.2
  7
ATOM
 73
     1
 44
1.0
1001
ACAD
1000
MTEXTBEGIN
1070
    73
1070
     1
1070
    44
1040
1.0
1070
    74
1070
     0
1000
MTEXTEND
  0
POINT
  5
D88
330
469
100
AcDbEntity
  8
Defpoints
 62
     0
100
AcDbPoint
 10
190.989993922623
 20
144.9083429974849
 30
0.0
  0
POINT
  5
D89
330
469
100
AcDbEntity
  8
Defpoints
 62
     0
100
AcDbPoint
 10
193.3899938994921
 20
144.9083429974849
 30
0.0
  0
POINT
  5
D8A
330
469
100
AcDbEntity
  8
Defpoints
 62
     0
100
AcDbPoint
 10
193.3899938994921
 20
131.0994873559186
 30
0.0
  0
ENDBLK
  5
46B
330
469
100
AcDbEntity
  8
0
100
AcDbBlockEnd
  0
BLOCK
  5
478
330
477
100
AcDbEntity
  8
0
100
AcDbBlockBegin
  2
*D7
 70
     1
 10
0.0
 20
0.0
 30
0.0
  3
*D7
  1

  0
LINE
  5
D8B
330
477
100
AcDbEntity
  8
dim
 62
     0
370
    -2
100
AcDbLine
 10
225.9899935853083
 20
171.3083427430506
 30
0.0
 11
225.9899935853083
 21
136.0994873077303
 31
0.0
  0
LINE
  5
D8C
330
477
100
AcDbEntity
  8
dim
 62
     0
370
    -2
100
AcDbLine
 10
228.9916567581893
 20
171.4118483697018
 30
0.0
 11
228.9916567581893
 21
136.0994873077303
 31
0.0
  0
LINE
  5
D8D
330
477
100
AcDbEntity
  8
dim
 62
     0
370
    -2
100
AcDbLine
 10
230.9916567389139
 20
137.0994872980927
 30
0.0
 11
232.9916567196386
 21
137.0994872980927
 31
0.0
  0
LINE
  5
D8E
330
477
100
AcDbEntity
  8
dim
 62
     0
370
    -2
100
AcDbLine
 10
223.9899936045836
 20
137.0994872980927
 30
0.0
 11
206.2149939387694
 21
137.0994872980927
 31
0.0
  0
LINE
  5
D8F
330
477
100
AcDbEntity
  8
dim
 62
     0
370
    -2
100
AcDbLine
 10
228.9916567581893
 20
137.0994872980927
 30
0.0
 11
225.9899935853083
 21
137.0994872980927
 31
0.0
  0
INSERT
  5
D90
330
477
100
AcDbEntity
  8
dim
 62
     0
370
    -2
100
AcDbBlockReference
  2
_Open30
 10
228.9916567581893
 20
137.0994872980927
 30
0.0
 41
1.999999980724686
 42
1.999999980724686
 43
1.999999980724686
 50
180.0
  0
INSERT
  5
D91
330
477
100
AcDbEntity
  8
dim
 62
     0
370
    -2
100
AcDbBlockReference
  2
_Open30
 10
225.9899935853083
 20
137.0994872980927
 30
0.0
 41
1.999999980724686
 42
1.999999980724686
 43
1.999999980724686
  0
MTEXT
  5
D92
330
477
100
AcDbEntity
  8
dim
 62
     3
100
AcDbMText
 10
209.0899939110611
 20
139.2244872776126
 30
0.0
 40
2.999999971087028
 41
0.0
 71
     5
 72
     1
  1
1.5
  7
ATOM
 73
     1
 44
1.0
1001
ACAD
1000
MTEXTBEGIN
1070
    73
1070
     1
1070
    44
1040
1.0
1070
    74
1070
     0
1000
MTEXTEND
  0
POINT
  5
D93
330
477
100
AcDbEntity
  8
Defpoints
 62
     0
100
AcDbPoint
 10
225.9899935853083
 20
173.3083427237753
 30
0.0
  0
POINT
  5
D94
330
477
100
AcDbEntity
  8
Defpoints
 62
     0
100
AcDbPoint
 10
228.9916567581893
 20
173.4118483504265
 30
0.0
  0
POINT
  5
D95
330
477
100
AcDbEntity
  8
Defpoints
 62
     0
100
AcDbPoint
 10
228.9916567581893
 20
137.0994872980927
 30
0.0
  0
ENDBLK
  5
479
330
477
100
AcDbEntity
  8
0
100
AcDbBlockEnd
  0
BLOCK
  5
486
330
485
100
AcDbEntity
  8
0
100
AcDbBlockBegin
  2
*D8
 70
     1
 10
0.0
 20
0.0
 30
0.0
  3
*D8
  1

  0
LINE
  5
D96
330
485
100
AcDbEntity
  8
dim
 62
     0
370
    -2
100
AcDbLine
 10
228.9916567581893
 20
171.4118483697018
 30
0.0
 11
228.9916567581893
 21
136.0994873077303
 31
0.0
  0
LINE
  5
D97
330
485
100
AcDbEntity
  8
dim
 62
     0
370
    -2
100
AcDbLine
 10
262.989993228715
 20
171.5083427411232
 30
0.0
 11
262.989993228715
 21
136.0994873077303
 31
0.0
  0
LINE
  5
D98
330
485
100
AcDbEntity
  8
dim
 62
     0
370
    -2
100
AcDbLine
 10
230.9916567389139
 20
137.0994872980927
 30
0.0
 11
260.9899932479903
 21
137.0994872980927
 31
0.0
  0
INSERT
  5
D99
330
485
100
AcDbEntity
  8
dim
 62
     0
370
    -2
100
AcDbBlockReference
  2
_Open30
 10
228.9916567581893
 20
137.0994872980927
 30
0.0
 41
1.999999980724686
 42
1.999999980724686
 43
1.999999980724686
 50
180.0
  0
INSERT
  5
D9A
330
485
100
AcDbEntity
  8
dim
 62
     0
370
    -2
100
AcDbBlockReference
  2
_Open30
 10
262.989993228715
 20
137.0994872980927
 30
0.0
 41
1.999999980724686
 42
1.999999980724686
 43
1.999999980724686
  0
MTEXT
  5
D9B
330
485
100
AcDbEntity
  8
dim
 62
     3
100
AcDbMText
 10
245.9916565943487
 20
139.2244872776126
 30
0.0
 40
2.999999971087028
 41
0.0
 71
     5
 72
     1
  1
17
  7
ATOM
 73
     1
 44
1.0
1001
ACAD
1000
MTEXTBEGIN
1070
    73
1070
     1
1070
    44
1040
1.0
1070
    74
1070
     0
1000
MTEXTEND
  0
POINT
  5
D9C
330
485
100
AcDbEntity
  8
Defpoints
 62
     0
100
AcDbPoint
 10
228.9916567581893
 20
173.4118483504265
 30
0.0
  0
POINT
  5
D9D
330
485
100
AcDbEntity
  8
Defpoints
 62
     0
100
AcDbPoint
 10
262.989993228715
 20
173.5083427218479
 30
0.0
  0
POINT
  5
D9E
330
485
100
AcDbEntity
  8
Defpoints
 62
     0
100
AcDbPoint
 10
262.989993228715
 20
137.0994872980927
 30
0.0
  0
ENDBLK
  5
487
330
485
100
AcDbEntity
  8
0
100
AcDbBlockEnd
  0
BLOCK
  5
492
330
491
100
AcDbEntity
  8
0
100
AcDbBlockBegin
  2
*D9
 70
     1
 10
0.0
 20
0.0
 30
0.0
  3
*D9
  1

  0
LINE
  5
D9F
330
491
100
AcDbEntity
  8
dim
 62
     0
370
    -2
100
AcDbLine
 10
265.9899931998019
 20
169.9083427565434
 30
0.0
 11
265.9899931998019
 21
136.0994873077303
 31
0.0
  0
LINE
  5
DA0
330
491
100
AcDbEntity
  8
dim
 62
     0
370
    -2
100
AcDbLine
 10
262.989993228715
 20
171.5083427411232
 30
0.0
 11
262.989993228715
 21
136.0994873077303
 31
0.0
  0
LINE
  5
DA1
330
491
100
AcDbEntity
  8
dim
 62
     0
370
    -2
100
AcDbLine
 10
260.9899932479903
 20
137.0994872980927
 30
0.0
 11
258.9899932672655
 21
137.0994872980927
 31
0.0
  0
LINE
  5
DA2
330
491
100
AcDbEntity
  8
dim
 62
     0
370
    -2
100
AcDbLine
 10
267.9899931805266
 20
137.0994872980927
 30
0.0
 11
285.7649928463408
 21
137.0994872980927
 31
0.0
  0
LINE
  5
DA3
330
491
100
AcDbEntity
  8
dim
 62
     0
370
    -2
100
AcDbLine
 10
262.989993228715
 20
137.0994872980927
 30
0.0
 11
265.9899931998019
 21
137.0994872980927
 31
0.0
  0
INSERT
  5
DA4
330
491
100
AcDbEntity
  8
dim
 62
     0
370
    -2
100
AcDbBlockReference
  2
_Open30
 10
262.989993228715
 20
137.0994872980927
 30
0.0
 41
1.999999980724686
 42
1.999999980724686
 43
1.999999980724686
  0
INSERT
  5
DA5
330
491
100
AcDbEntity
  8
dim
 62
     0
370
    -2
100
AcDbBlockReference
  2
_Open30
 10
265.9899931998019
 20
137.0994872980927
 30
0.0
 41
1.999999980724686
 42
1.999999980724686
 43
1.999999980724686
 50
180.0
  0
MTEXT
  5
DA6
330
491
100
AcDbEntity
  8
dim
 62
     3
100
AcDbMText
 10
282.8899928740491
 20
139.2244872776126
 30
0.0
 40
2.999999971087028
 41
0.0
 71
     5
 72
     1
  1
1.5
  7
ATOM
 73
     1
 44
1.0
1001
ACAD
1000
MTEXTBEGIN
1070
    73
1070
     1
1070
    44
1040
1.0
1070
    74
1070
     0
1000
MTEXTEND
  0
POINT
  5
DA7
330
491
100
AcDbEntity
  8
Defpoints
 62
     0
100
AcDbPoint
 10
265.9899931998019
 20
171.9083427372681
 30
0.0
  0
POINT
  5
DA8
330
491
100
AcDbEntity
  8
Defpoints
 62
     0
100
AcDbPoint
 10
262.989993228715
 20
173.5083427218479
 30
0.0
  0
POINT
  5
DA9
330
491
100
AcDbEntity
  8
Defpoints
 62
     0
100
AcDbPoint
 10
262.989993228715
 20
137.0994872980927
 30
0.0
  0
ENDBLK
  5
493
330
491
100
AcDbEntity
  8
0
100
AcDbBlockEnd
  0
BLOCK
  5
4A0
330
49F
100
AcDbEntity
  8
0
100
AcDbBlockBegin
  2
*D10
 70
     1
 10
0.0
 20
0.0
 30
0.0
  3
*D10
  1

  0
LINE
  5
DAA
330
49F
100
AcDbEntity
  8
dim
 62
     0
370
    -2
100
AcDbLine
 10
265.9899931998019
 20
169.9083427565435
 30
0.0
 11
265.9899931998019
 21
130.0994873655562
 31
0.0
  0
LINE
  5
DAB
330
49F
100
AcDbEntity
  8
dim
 62
     0
370
    -2
100
AcDbLine
 10
288.9899929781312
 20
170.3083427526884
 30
0.0
 11
288.9899929781312
 21
130.0994873655562
 31
0.0
  0
LINE
  5
DAC
330
49F
100
AcDbEntity
  8
dim
 62
     0
370
    -2
100
AcDbLine
 10
267.9899931805266
 20
131.0994873559186
 30
0.0
 11
286.9899929974064
 21
131.0994873559186
 31
0.0
  0
INSERT
  5
DAD
330
49F
100
AcDbEntity
  8
dim
 62
     0
370
    -2
100
AcDbBlockReference
  2
_Open30
 10
265.9899931998019
 20
131.0994873559186
 30
0.0
 41
1.999999980724686
 42
1.999999980724686
 43
1.999999980724686
 50
180.0
  0
INSERT
  5
DAE
330
49F
100
AcDbEntity
  8
dim
 62
     0
370
    -2
100
AcDbBlockReference
  2
_Open30
 10
288.9899929781312
 20
131.0994873559186
 30
0.0
 41
1.999999980724686
 42
1.999999980724686
 43
1.999999980724686
  0
MTEXT
  5
DAF
330
49F
100
AcDbEntity
  8
dim
 62
     3
100
AcDbMText
 10
277.4899930889664
 20
133.2244873354385
 30
0.0
 40
2.999999971087028
 41
0.0
 71
     5
 72
     1
  1
11.5
  7
ATOM
 73
     1
 44
1.0
1001
ACAD
1000
MTEXTBEGIN
1070
    73
1070
     1
1070
    44
1040
1.0
1070
    74
1070
     0
1000
MTEXTEND
  0
POINT
  5
DB0
330
49F
100
AcDbEntity
  8
Defpoints
 62
     0
100
AcDbPoint
 10
265.9899931998019
 20
171.9083427372682
 30
0.0
  0
POINT
  5
DB1
330
49F
100
AcDbEntity
  8
Defpoints
 62
     0
100
AcDbPoint
 10
288.9899929781312
 20
172.3083427334131
 30
0.0
  0
POINT
  5
DB2
330
49F
100
AcDbEntity
  8
Defpoints
 62
     0
100
AcDbPoint
 10
288.9899929781312
 20
131.0994873559186
 30
0.0
  0
ENDBLK
  5
4A1
330
49F
100
AcDbEntity
  8
0
100
AcDbBlockEnd
  0
BLOCK
  5
4AC
330
4AB
100
AcDbEntity
  8
0
100
AcDbBlockBegin
  2
*D11
 70
     1
 10
0.0
 20
0.0
 30
0.0
  3
*D11
  1

  0
LINE
  5
DB3
330
4AB
100
AcDbEntity
  8
dim
 62
     0
370
    -2
100
AcDbLine
 10
288.989992978132
 20
170.3083427526884
 30
0.0
 11
288.989992978132
 21
130.0994873655562
 31
0.0
  0
LINE
  5
DB4
330
4AB
100
AcDbEntity
  8
dim
 62
     0
370
    -2
100
AcDbLine
 10
291.9899929492191
 20
169.308342762326
 30
0.0
 11
291.9899929492191
 21
130.0994873655562
 31
0.0
  0
LINE
  5
DB5
330
4AB
100
AcDbEntity
  8
dim
 62
     0
370
    -2
100
AcDbLine
 10
286.9899929974073
 20
131.0994873559186
 30
0.0
 11
284.9899930166827
 21
131.0994873559186
 31
0.0
  0
LINE
  5
DB6
330
4AB
100
AcDbEntity
  8
dim
 62
     0
370
    -2
100
AcDbLine
 10
293.9899929299437
 20
131.0994873559186
 30
0.0
 11
311.764992595758
 21
131.0994873559186
 31
0.0
  0
LINE
  5
DB7
330
4AB
100
AcDbEntity
  8
dim
 62
     0
370
    -2
100
AcDbLine
 10
288.989992978132
 20
131.0994873559186
 30
0.0
 11
291.9899929492191
 21
131.0994873559186
 31
0.0
  0
INSERT
  5
DB8
330
4AB
100
AcDbEntity
  8
dim
 62
     0
370
    -2
100
AcDbBlockReference
  2
_Open30
 10
288.989992978132
 20
131.0994873559186
 30
0.0
 41
1.999999980724686
 42
1.999999980724686
 43
1.999999980724686
  0
INSERT
  5
DB9
330
4AB
100
AcDbEntity
  8
dim
 62
     0
370
    -2
100
AcDbBlockReference
  2
_Open30
 10
291.9899929492191
 20
131.0994873559186
 30
0.0
 41
1.999999980724686
 42
1.999999980724686
 43
1.999999980724686
 50
180.0
  0
MTEXT
  5
DBA
330
4AB
100
AcDbEntity
  8
dim
 62
     3
100
AcDbMText
 10
308.8899926234662
 20
133.2244873354385
 30
0.0
 40
2.999999971087028
 41
0.0
 71
     5
 72
     1
  1
1.5
  7
ATOM
 73
     1
 44
1.0
1001
ACAD
1000
MTEXTBEGIN
1070
    73
1070
     1
1070
    44
1040
1.0
1070
    74
1070
     0
1000
MTEXTEND
  0
POINT
  5
DBB
330
4AB
100
AcDbEntity
  8
Defpoints
 62
     0
100
AcDbPoint
 10
288.989992978132
 20
172.3083427334131
 30
0.0
  0
POINT
  5
DBC
330
4AB
100
AcDbEntity
  8
Defpoints
 62
     0
100
AcDbPoint
 10
291.9899929492191
 20
171.3083427430507
 30
0.0
  0
POINT
  5
DBD
330
4AB
100
AcDbEntity
  8
Defpoints
 62
     0
100
AcDbPoint
 10
291.9899929492191
 20
131.0994873559186
 30
0.0
  0
ENDBLK
  5
4AD
330
4AB
100
AcDbEntity
  8
0
100
AcDbBlockEnd
  0
BLOCK
  5
4BA
330
4B9
100
AcDbEntity
  8
0
100
AcDbBlockBegin
  2
*D12
 70
     1
 10
0.0
 20
0.0
 30
0.0
  3
*D12
  1

  0
LINE
  5
DBE
330
4B9
100
AcDbEntity
  8
dim
 62
     0
370
    -2
100
AcDbLine
 10
225.9899935853083
 20
171.3083427430507
 30
0.0
 11
225.9899935853083
 21
130.0994873655562
 31
0.0
  0
LINE
  5
DBF
330
4B9
100
AcDbEntity
  8
dim
 62
     0
370
    -2
100
AcDbLine
 10
265.9899931998019
 20
169.9083427565435
 30
0.0
 11
265.9899931998019
 21
130.0994873655562
 31
0.0
  0
LINE
  5
DC0
330
4B9
100
AcDbEntity
  8
dim
 62
     0
370
    -2
100
AcDbLine
 10
227.989993566033
 20
131.0994873559186
 30
0.0
 11
263.9899932190772
 21
131.0994873559186
 31
0.0
  0
INSERT
  5
DC1
330
4B9
100
AcDbEntity
  8
dim
 62
     0
370
    -2
100
AcDbBlockReference
  2
_Open30
 10
225.9899935853083
 20
131.0994873559186
 30
0.0
 41
1.999999980724686
 42
1.999999980724686
 43
1.999999980724686
 50
180.0
  0
INSERT
  5
DC2
330
4B9
100
AcDbEntity
  8
dim
 62
     0
370
    -2
100
AcDbBlockReference
  2
_Open30
 10
265.9899931998019
 20
131.0994873559186
 30
0.0
 41
1.999999980724686
 42
1.999999980724686
 43
1.999999980724686
  0
MTEXT
  5
DC3
330
4B9
100
AcDbEntity
  8
dim
 62
     3
100
AcDbMText
 10
245.9899933925551
 20
133.2244873354385
 30
0.0
 40
2.999999971087028
 41
0.0
 71
     5
 72
     1
  1
20
  7
ATOM
 73
     1
 44
1.0
1001
ACAD
1000
MTEXTBEGIN
1070
    73
1070
     1
1070
    44
1040
1.0
1070
    74
1070
     0
1000
MTEXTEND
  0
POINT
  5
DC4
330
4B9
100
AcDbEntity
  8
Defpoints
 62
     0
100
AcDbPoint
 10
225.9899935853083
 20
173.3083427237754
 30
0.0
  0
POINT
  5
DC5
330
4B9
100
AcDbEntity
  8
Defpoints
 62
     0
100
AcDbPoint
 10
265.9899931998019
 20
171.9083427372682
 30
0.0
  0
POINT
  5
DC6
330
4B9
100
AcDbEntity
  8
Defpoints
 62
     0
100
AcDbPoint
 10
265.9899931998019
 20
131.0994873559186
 30
0.0
  0
ENDBLK
  5
4BB
330
4B9
100
AcDbEntity
  8
0
100
AcDbBlockEnd
  0
BLOCK
  5
4C6
330
4C5
100
AcDbEntity
  8
0
100
AcDbBlockBegin
  2
*D13
 70
     1
 10
0.0
 20
0.0
 30
0.0
  3
*D13
  1

  0
LINE
  5
DC7
330
4C5
100
AcDbEntity
  8
dim
 62
     0
370
    -2
100
AcDbLine
 10
256.0434272020305
 20
204.3083424250081
 30
0.0
 11
257.0434271923928
 21
204.3083424250081
 31
0.0
  0
LINE
  5
DC8
330
4C5
100
AcDbEntity
  8
dim
 62
     0
370
    -2
100
AcDbLine
 10
258.0434271827552
 20
202.3083424442833
 30
0.0
 11
258.0434271827552
 21
172.7083427295581
 31
0.0
  0
INSERT
  5
DC9
330
4C5
100
AcDbEntity
  8
dim
 62
     0
370
    -2
100
AcDbBlockReference
  2
_Open30
 10
258.0434271827552
 20
204.3083424250081
 30
0.0
 41
1.999999980724686
 42
1.999999980724686
 43
1.999999980724686
 50
90.0
  0
INSERT
  5
DCA
330
4C5
100
AcDbEntity
  8
dim
 62
     0
370
    -2
100
AcDbBlockReference
  2
_Open30
 10
258.0434271827552
 20
170.7083427488334
 30
0.0
 41
1.999999980724686
 42
1.999999980724686
 43
1.999999980724686
 50
270.0
  0
MTEXT
  5
DCB
330
4C5
100
AcDbEntity
  8
dim
 62
     3
100
AcDbMText
 10
255.9184272032351
 20
187.5083425869208
 30
0.0
 40
2.999999971087028
 41
0.0
 71
     5
 72
     1
  1
16.8
  7
ATOM
 11
0.0000000000000001
 21
1.0
 31
0.0
 73
     1
 44
1.0
1001
ACAD
1000
MTEXTBEGIN
1070
    73
1070
     1
1070
    44
1040
1.0
1070
    74
1070
     0
1000
MTEXTEND
  0
POINT
  5
DCC
330
4C5
100
AcDbEntity
  8
Defpoints
 62
     0
100
AcDbPoint
 10
258.0434271827552
 20
204.3083424250081
 30
0.0
  0
POINT
  5
DCD
330
4C5
100
AcDbEntity
  8
Defpoints
 62
     0
100
AcDbPoint
 10
258.0434271827552
 20
170.7083427488334
 30
0.0
  0
POINT
  5
DCE
330
4C5
100
AcDbEntity
  8
Defpoints
 62
     0
100
AcDbPoint
 10
258.0434271827552
 20
170.7083427488334
 30
0.0
  0
ENDBLK
  5
4C7
330
4C5
100
AcDbEntity
  8
0
100
AcDbBlockEnd
  0
BLOCK
  5
4D1
330
4D0
100
AcDbEntity
  8
0
100
AcDbBlockBegin
  2
*D14
 70
     1
 10
0.0
 20
0.0
 30
0.0
  3
*D14
  1

  0
LINE
  5
DCF
330
4D0
100
AcDbEntity
  8
dim
 62
     0
370
    -2
100
AcDbLine
 10
241.6393243317773
 20
182.8537759783209
 30
0.0
 11
231.5266403033825
 21
202.1945161222509
 31
0.0
  0
MTEXT
  5
DD0
330
4D0
100
AcDbEntity
  8
dim
 62
     3
100
AcDbMText
 10
241.5647760051701
 20
187.5824853282264
 30
0.0
 40
2.999999971087028
 41
0.0
 71
     5
 72
     1
  1
R1.5
  7
ATOM
 11
0.4633532285628374
 21
-0.886173676871749
 31
0.0
 73
     1
 44
1.0
1001
ACAD
1000
MTEXTBEGIN
1070
    73
1070
     1
1070
    44
1040
1.0
1070
    74
1070
     0
1000
MTEXTEND
  0
INSERT
  5
DD1
330
4D0
100
AcDbEntity
  8
dim
 62
     0
370
    -2
100
AcDbBlockReference
  2
_Open30
 10
230.5999338551881
 20
203.9668634589131
 30
0.0
 41
1.999999980724686
 42
1.999999980724686
 43
1.999999980724686
 50
117.6036977938933
  0
ARC
  5
DD2
330
4D0
100
AcDbEntity
  8
dim
 62
     0
370
    -2
100
AcDbCircle
 10
231.9899935274792
 20
201.3083424539208
 30
0.0
 40
2.999999971085826
100
AcDbArc
 50
90.0
 51
136.702290964928
  0
POINT
  5
DD3
330
4D0
100
AcDbEntity
  8
Defpoints
 62
     0
100
AcDbPoint
 10
230.5999338551881
 20
203.9668634589131
 30
0.0
  0
POINT
  5
DD4
330
4D0
100
AcDbEntity
  8
Defpoints
 62
     0
100
AcDbPoint
 10
231.9899935274792
 20
201.3083424539208
 30
0.0
  0
ENDBLK
  5
4D2
330
4D0
100
AcDbEntity
  8
0
100
AcDbBlockEnd
  0
BLOCK
  5
4DA
330
4D9
100
AcDbEntity
  8
0
100
AcDbBlockBegin
  2
*D15
 70
     1
 10
0.0
 20
0.0
 30
0.0
  3
*D15
  1

  0
LINE
  5
DD5
330
4D9
100
AcDbEntity
  8
dim
 62
     0
370
    -2
100
AcDbLine
 10
192.9899939033473
 20
168.3083427719636
 30
0.0
 11
165.5945632755945
 21
168.3083427719636
 31
0.0
  0
LINE
  5
DD6
330
4D9
100
AcDbEntity
  8
dim
 62
     0
370
    -2
100
AcDbLine
 10
189.5899939361156
 20
144.3083430032674
 30
0.0
 11
165.5945632755945
 21
144.3083430032674
 31
0.0
  0
LINE
  5
DD7
330
4D9
100
AcDbEntity
  8
dim
 62
     0
370
    -2
100
AcDbLine
 10
166.5945632659568
 20
166.308342791239
 30
0.0
 11
166.5945632659568
 21
146.3083429839921
 31
0.0
  0
INSERT
  5
DD8
330
4D9
100
AcDbEntity
  8
dim
 62
     0
370
    -2
100
AcDbBlockReference
  2
_Open30
 10
166.5945632659568
 20
168.3083427719636
 30
0.0
 41
1.999999980724686
 42
1.999999980724686
 43
1.999999980724686
 50
90.0
  0
INSERT
  5
DD9
330
4D9
100
AcDbEntity
  8
dim
 62
     0
370
    -2
100
AcDbBlockReference
  2
_Open30
 10
166.5945632659568
 20
144.3083430032674
 30
0.0
 41
1.999999980724686
 42
1.999999980724686
 43
1.999999980724686
 50
270.0
  0
MTEXT
  5
DDA
330
4D9
100
AcDbEntity
  8
dim
 62
     3
100
AcDbMText
 10
164.4695632864368
 20
156.3083428876155
 30
0.0
 40
2.999999971087028
 41
0.0
 71
     5
 72
     1
  1
12
  7
ATOM
 11
0.0000000000000001
 21
1.0
 31
0.0
 73
     1
 44
1.0
1001
ACAD
1000
MTEXTBEGIN
1070
    73
1070
     1
1070
    44
1040
1.0
1070
    74
1070
     0
1000
MTEXTEND
  0
POINT
  5
DDB
330
4D9
100
AcDbEntity
  8
Defpoints
 62
     0
100
AcDbPoint
 10
194.9899938840719
 20
168.3083427719636
 30
0.0
  0
POINT
  5
DDC
330
4D9
100
AcDbEntity
  8
Defpoints
 62
     0
100
AcDbPoint
 10
191.5899939168403
 20
144.3083430032674
 30
0.0
  0
POINT
  5
DDD
330
4D9
100
AcDbEntity
  8
Defpoints
 62
     0
100
AcDbPoint
 10
166.5945632659568
 20
144.3083430032674
 30
0.0
  0
ENDBLK
  5
4DB
330
4D9
100
AcDbEntity
  8
0
100
AcDbBlockEnd
  0
BLOCK
  5
4E6
330
4E5
100
AcDbEntity
  8
0
100
AcDbBlockBegin
  2
*D16
 70
     1
 10
0.0
 20
0.0
 30
0.0
  3
*D16
  1

  0
LINE
  5
DDE
330
4E5
100
AcDbEntity
  8
dim
 62
     0
370
    -2
100
AcDbLine
 10
253.7899933173779
 20
210.3083423671822
 30
0.0
 11
253.7899933173779
 21
235.3083421262409
 31
0.0
  0
LINE
  5
DDF
330
4E5
100
AcDbEntity
  8
dim
 62
     0
370
    -2
100
AcDbLine
 10
238.1899934677254
 20
210.3083423671807
 30
0.0
 11
238.1899934677254
 21
235.3083421262409
 31
0.0
  0
LINE
  5
DE0
330
4E5
100
AcDbEntity
  8
dim
 62
     0
370
    -2
100
AcDbLine
 10
251.7899933366532
 20
234.3083421358786
 30
0.0
 11
240.1899934484502
 21
234.3083421358786
 31
0.0
  0
INSERT
  5
DE1
330
4E5
100
AcDbEntity
  8
dim
 62
     0
370
    -2
100
AcDbBlockReference
  2
_Open30
 10
253.7899933173779
 20
234.3083421358786
 30
0.0
 41
1.999999980724686
 42
1.999999980724686
 43
1.999999980724686
  0
INSERT
  5
DE2
330
4E5
100
AcDbEntity
  8
dim
 62
     0
370
    -2
100
AcDbBlockReference
  2
_Open30
 10
238.1899934677254
 20
234.3083421358786
 30
0.0
 41
1.999999980724686
 42
1.999999980724686
 43
1.999999980724686
 50
180.0
  0
MTEXT
  5
DE3
330
4E5
100
AcDbEntity
  8
dim
 62
     3
100
AcDbMText
 10
245.9899933925517
 20
236.683342129855
 30
0.0
 40
2.999999971087028
 41
0.0
 71
     5
 72
     1
  1
7.8{\H1.500000;\S+0.6^  0;}
  7
ATOM
 73
     1
 44
1.0
1001
ACAD
1000
MTEXTBEGIN
1070
    73
1070
     1
1070
    44
1040
1.0
1070
    74
1070
     0
1000
MTEXTEND
  0
POINT
  5
DE4
330
4E5
100
AcDbEntity
  8
Defpoints
 62
     0
100
AcDbPoint
 10
253.7899933173779
 20
208.3083423864576
 30
0.0
  0
POINT
  5
DE5
330
4E5
100
AcDbEntity
  8
Defpoints
 62
     0
100
AcDbPoint
 10
238.1899934677254
 20
208.308342386456
 30
0.0
  0
POINT
  5
DE6
330
4E5
100
AcDbEntity
  8
Defpoints
 62
     0
100
AcDbPoint
 10
238.1899934677254
 20
234.3083421358786
 30
0.0
  0
ENDBLK
  5
4E7
330
4E5
100
AcDbEntity
  8
0
100
AcDbBlockEnd
  0
BLOCK
  5
4F4
330
4F3
100
AcDbEntity
  8
0
100
AcDbBlockBegin
  2
*D17
 70
     1
 10
0.0
 20
0.0
 30
0.0
  3
*D17
  1

  0
LINE
  5
DE7
330
4F3
100
AcDbEntity
  8
dim
 62
     0
370
    -2
100
AcDbLine
 10
291.9899929492191
 20
169.308342762326
 30
0.0
 11
291.9899929492191
 21
124.0994874233822
 31
0.0
  0
LINE
  5
DE8
330
4F3
100
AcDbEntity
  8
dim
 62
     0
370
    -2
100
AcDbLine
 10
190.989993922623
 20
142.9083430167602
 30
0.0
 11
190.989993922623
 21
124.0994874233822
 31
0.0
  0
LINE
  5
DE9
330
4F3
100
AcDbEntity
  8
dim
 62
     0
370
    -2
100
AcDbLine
 10
289.9899929684944
 20
125.0994874137445
 30
0.0
 11
192.9899939033477
 21
125.0994874137445
 31
0.0
  0
INSERT
  5
DEA
330
4F3
100
AcDbEntity
  8
dim
 62
     0
370
    -2
100
AcDbBlockReference
  2
_Open30
 10
291.9899929492191
 20
125.0994874137445
 30
0.0
 41
1.999999980724686
 42
1.999999980724686
 43
1.999999980724686
  0
INSERT
  5
DEB
330
4F3
100
AcDbEntity
  8
dim
 62
     0
370
    -2
100
AcDbBlockReference
  2
_Open30
 10
190.989993922623
 20
125.0994874137445
 30
0.0
 41
1.999999980724686
 42
1.999999980724686
 43
1.999999980724686
 50
180.0
  0
MTEXT
  5
DEC
330
4F3
100
AcDbEntity
  8
dim
 62
     3
100
AcDbMText
 10
241.4899934359211
 20
127.2244873932645
 30
0.0
 40
2.999999971087028
 41
0.0
 71
     5
 72
     1
  1
50.5
  7
ATOM
 73
     1
 44
1.0
1001
ACAD
1000
MTEXTBEGIN
1070
    73
1070
     1
1070
    44
1040
1.0
1070
    74
1070
     0
1000
MTEXTEND
  0
POINT
  5
DED
330
4F3
100
AcDbEntity
  8
Defpoints
 62
     0
100
AcDbPoint
 10
291.9899929492191
 20
171.3083427430507
 30
0.0
  0
POINT
  5
DEE
330
4F3
100
AcDbEntity
  8
Defpoints
 62
     0
100
AcDbPoint
 10
190.989993922623
 20
144.9083429974849
 30
0.0
  0
POINT
  5
DEF
330
4F3
100
AcDbEntity
  8
Defpoints
 62
     0
100
AcDbPoint
 10
190.989993922623
 20
125.0994874137445
 30
0.0
  0
ENDBLK
  5
4F5
330
4F3
100
AcDbEntity
  8
0
100
AcDbBlockEnd
  0
BLOCK
  5
500
330
4FF
100
AcDbEntity
  8
0
100
AcDbBlockBegin
  2
*D18
 70
     1
 10
0.0
 20
0.0
 30
0.0
  3
*D18
  1

  0
LINE
  5
DF0
330
4FF
100
AcDbEntity
  8
dim
 62
     0
370
    -2
100
AcDbLine
 10
191.9899939129852
 20
224.3083422322551
 30
0.0
 11
165.5945632755946
 21
224.3083422322551
 31
0.0
  0
LINE
  5
DF1
330
4FF
100
AcDbEntity
  8
dim
 62
     0
370
    -2
100
AcDbLine
 10
192.9899939033473
 20
168.3083427719637
 30
0.0
 11
165.5945632755946
 21
168.3083427719637
 31
0.0
  0
LINE
  5
DF2
330
4FF
100
AcDbEntity
  8
dim
 62
     0
370
    -2
100
AcDbLine
 10
166.5945632659569
 20
222.3083422515304
 30
0.0
 11
166.5945632659569
 21
170.3083427526884
 31
0.0
  0
INSERT
  5
DF3
330
4FF
100
AcDbEntity
  8
dim
 62
     0
370
    -2
100
AcDbBlockReference
  2
_Open30
 10
166.5945632659569
 20
224.3083422322551
 30
0.0
 41
1.999999980724686
 42
1.999999980724686
 43
1.999999980724686
 50
90.0
  0
INSERT
  5
DF4
330
4FF
100
AcDbEntity
  8
dim
 62
     0
370
    -2
100
AcDbBlockReference
  2
_Open30
 10
166.5945632659569
 20
168.3083427719637
 30
0.0
 41
1.999999980724686
 42
1.999999980724686
 43
1.999999980724686
 50
270.0
  0
MTEXT
  5
DF5
330
4FF
100
AcDbEntity
  8
dim
 62
     3
100
AcDbMText
 10
164.4695632864369
 20
196.3083425021094
 30
0.0
 40
2.999999971087028
 41
0.0
 71
     5
 72
     1
  1
28
  7
ATOM
 11
0.0000000000000001
 21
1.0
 31
0.0
 73
     1
 44
1.0
1001
ACAD
1000
MTEXTBEGIN
1070
    73
1070
     1
1070
    44
1040
1.0
1070
    74
1070
     0
1000
MTEXTEND
  0
POINT
  5
DF6
330
4FF
100
AcDbEntity
  8
Defpoints
 62
     0
100
AcDbPoint
 10
193.9899938937099
 20
224.3083422322551
 30
0.0
  0
POINT
  5
DF7
330
4FF
100
AcDbEntity
  8
Defpoints
 62
     0
100
AcDbPoint
 10
194.9899938840719
 20
168.3083427719637
 30
0.0
  0
POINT
  5
DF8
330
4FF
100
AcDbEntity
  8
Defpoints
 62
     0
100
AcDbPoint
 10
166.5945632659569
 20
168.3083427719637
 30
0.0
  0
ENDBLK
  5
501
330
4FF
100
AcDbEntity
  8
0
100
AcDbBlockEnd
  0
BLOCK
  5
50C
330
50B
100
AcDbEntity
  8
0
100
AcDbBlockBegin
  2
*D19
 70
     1
 10
0.0
 20
0.0
 30
0.0
  3
*D19
  1

  0
LINE
  5
DF9
330
50B
100
AcDbEntity
  8
dim
 62
     0
370
    -2
100
AcDbLine
 10
246.3345262044196
 20
185.5854664977906
 30
0.0
 11
260.6457179720109
 21
202.0633425066824
 31
0.0
  0
MTEXT
  5
DFA
330
50B
100
AcDbEntity
  8
dim
 62
     3
100
AcDbMText
 10
247.5005880105798
 20
190.1687567387744
 30
0.0
 40
2.999999971087028
 41
0.0
 71
     5
 72
     1
  1
R1.5
  7
ATOM
 11
0.655724720704817
 21
0.7550000600374745
 31
0.0
 73
     1
 44
1.0
1001
ACAD
1000
MTEXTBEGIN
1070
    73
1070
     1
1070
    44
1040
1.0
1070
    74
1070
     0
1000
MTEXTEND
  0
INSERT
  5
DFB
330
50B
100
AcDbEntity
  8
dim
 62
     0
370
    -2
100
AcDbBlockReference
  2
_Open30
 10
261.9571674007812
 20
203.5733426122045
 30
0.0
 41
1.999999980724686
 42
1.999999980724686
 43
1.999999980724686
 50
49.02537501649645
  0
ARC
  5
DFC
330
50B
100
AcDbEntity
  8
dim
 62
     0
370
    -2
100
AcDbCircle
 10
259.9899932576254
 20
201.308342453921
 30
0.0
 40
2.99999997108739
100
AcDbArc
 50
29.92678184547132
 51
51.80281365794972
  0
POINT
  5
DFD
330
50B
100
AcDbEntity
  8
Defpoints
 62
     0
100
AcDbPoint
 10
261.9571674007812
 20
203.5733426122045
 30
0.0
  0
POINT
  5
DFE
330
50B
100
AcDbEntity
  8
Defpoints
 62
     0
100
AcDbPoint
 10
259.9899932576254
 20
201.308342453921
 30
0.0
  0
ENDBLK
  5
50D
330
50B
100
AcDbEntity
  8
0
100
AcDbBlockEnd
  0
BLOCK
  5
515
330
514
100
AcDbEntity
  8
0
100
AcDbBlockBegin
  2
*D20
 70
     1
 10
0.0
 20
0.0
 30
0.0
  3
*D20
  1

  0
LINE
  5
DFF
330
514
100
AcDbEntity
  8
dim
 62
     0
370
    -2
100
AcDbLine
 10
253.7899933173779
 20
210.3083423671822
 30
0.0
 11
253.7899933173779
 21
235.3083421262409
 31
0.0
  0
LINE
  5
E00
330
514
100
AcDbEntity
  8
dim
 62
     0
370
    -2
100
AcDbLine
 10
257.7899932788273
 20
212.7083423440518
 30
0.0
 11
257.7899932788273
 21
235.3083421262409
 31
0.0
  0
LINE
  5
E01
330
514
100
AcDbEntity
  8
dim
 62
     0
370
    -2
100
AcDbLine
 10
251.7899933366532
 20
234.3083421358786
 30
0.0
 11
249.7899933559286
 21
234.3083421358786
 31
0.0
  0
LINE
  5
E02
330
514
100
AcDbEntity
  8
dim
 62
     0
370
    -2
100
AcDbLine
 10
259.789993259552
 20
234.3083421358786
 30
0.0
 11
274.8649929817465
 21
234.3083421358786
 31
0.0
  0
LINE
  5
E03
330
514
100
AcDbEntity
  8
dim
 62
     0
370
    -2
100
AcDbLine
 10
253.7899933173779
 20
234.3083421358786
 30
0.0
 11
257.7899932788273
 21
234.3083421358786
 31
0.0
  0
INSERT
  5
E04
330
514
100
AcDbEntity
  8
dim
 62
     0
370
    -2
100
AcDbBlockReference
  2
_Open30
 10
253.7899933173779
 20
234.3083421358786
 30
0.0
 41
1.999999980724686
 42
1.999999980724686
 43
1.999999980724686
  0
INSERT
  5
E05
330
514
100
AcDbEntity
  8
dim
 62
     0
370
    -2
100
AcDbBlockReference
  2
_Open30
 10
257.7899932788273
 20
234.3083421358786
 30
0.0
 41
1.999999980724686
 42
1.999999980724686
 43
1.999999980724686
 50
180.0
  0
MTEXT
  5
E06
330
514
100
AcDbEntity
  8
dim
 62
     3
100
AcDbMText
 10
271.5399930137917
 20
236.4333421153986
 30
0.0
 40
2.999999971087028
 41
0.0
 71
     5
 72
     1
  1
(2)
  7
ATOM
 73
     1
 44
1.0
1001
ACAD
1000
MTEXTBEGIN
1070
    73
1070
     1
1070
    44
1040
1.0
1070
    74
1070
     0
1000
MTEXTEND
  0
POINT
  5
E07
330
514
100
AcDbEntity
  8
Defpoints
 62
     0
100
AcDbPoint
 10
253.7899933173779
 20
208.3083423864576
 30
0.0
  0
POINT
  5
E08
330
514
100
AcDbEntity
  8
Defpoints
 62
     0
100
AcDbPoint
 10
257.7899932788273
 20
210.7083423633271
 30
0.0
  0
POINT
  5
E09
330
514
100
AcDbEntity
  8
Defpoints
 62
     0
100
AcDbPoint
 10
257.7899932788273
 20
234.3083421358786
 30
0.0
  0
ENDBLK
  5
516
330
514
100
AcDbEntity
  8
0
100
AcDbBlockEnd
  0
BLOCK
  5
523
330
522
100
AcDbEntity
  8
0
100
AcDbBlockBegin
  2
*D21
 70
     1
 10
0.0
 20
0.0
 30
0.0
  3
*D21
  1

  0
LINE
  5
E0A
330
522
100
AcDbEntity
  8
dim
 62
     0
370
    -2
100
AcDbLine
 10
245.7791660505664
 20
184.8279571950399
 30
0.0
 11
260.8191153220853
 21
173.0141712806996
 31
0.0
  0
MTEXT
  5
E0B
330
522
100
AcDbEntity
  8
dim
 62
     3
100
AcDbMText
 10
250.414359854232
 20
183.8892197603205
 30
0.0
 40
2.999999971087028
 41
0.0
 71
     5
 72
     1
  1
R1.4
  7
ATOM
 11
0.7864025905649792
 21
-0.6177143073886908
 31
0.0
 73
     1
 44
1.0
1001
ACAD
1000
MTEXTBEGIN
1070
    73
1070
     1
1070
    44
1040
1.0
1070
    74
1070
     0
1000
MTEXTEND
  0
INSERT
  5
E0C
330
522
100
AcDbEntity
  8
dim
 62
     0
370
    -2
100
AcDbBlockReference
  2
_Open30
 10
262.3919204880571
 20
171.7787426778288
 30
0.0
 41
1.999999980724686
 42
1.999999980724686
 43
1.999999980724686
 50
321.8505874622536
  0
ARC
  5
E0D
330
522
100
AcDbEntity
  8
dim
 62
     0
370
    -2
100
AcDbCircle
 10
260.1899932556963
 20
173.508342721848
 30
0.0
 40
2.799999973014819
100
AcDbArc
 50
310.9255567950457
 51
342.3133658597811
  0
POINT
  5
E0E
330
522
100
AcDbEntity
  8
Defpoints
 62
     0
100
AcDbPoint
 10
262.3919204880571
 20
171.7787426778288
 30
0.0
  0
POINT
  5
E0F
330
522
100
AcDbEntity
  8
Defpoints
 62
     0
100
AcDbPoint
 10
260.1899932556963
 20
173.508342721848
 30
0.0
  0
ENDBLK
  5
524
330
522
100
AcDbEntity
  8
0
100
AcDbBlockEnd
  0
BLOCK
  5
52C
330
52B
100
AcDbEntity
  8
0
100
AcDbBlockBegin
  2
*D22
 70
     1
 10
0.0
 20
0.0
 30
0.0
  3
*D22
  1

  0
LINE
  5
E10
330
52B
100
AcDbEntity
  8
dim
 62
     0
370
    -2
100
AcDbLine
 10
244.3450643918632
 20
186.8565938506098
 30
0.0
 11
231.2418867474554
 21
172.9256086974044
 31
0.0
  0
MTEXT
  5
E11
330
52B
100
AcDbEntity
  8
dim
 62
     3
100
AcDbMText
 10
239.9024881972606
 20
185.2349384235742
 30
0.0
 40
2.999999971087028
 41
0.0
 71
     5
 72
     1
  1
R1.4
  7
ATOM
 11
0.6851334840409792
 21
0.7284175375743432
 31
0.0
 73
     1
 44
1.0
1001
ACAD
1000
MTEXTBEGIN
1070
    73
1070
     1
1070
    44
1040
1.0
1070
    74
1070
     0
1000
MTEXTEND
  0
INSERT
  5
E12
330
52B
100
AcDbEntity
  8
dim
 62
     0
370
    -2
100
AcDbBlockReference
  2
_Open30
 10
229.8716197925795
 20
171.4687736362962
 30
0.0
 41
1.999999980724686
 42
1.999999980724686
 43
1.999999980724686
 50
226.7538941839478
  0
ARC
  5
E13
330
52B
100
AcDbEntity
  8
dim
 62
     0
370
    -2
100
AcDbCircle
 10
231.789993529406
 20
173.508342721848
 30
0.0
 40
2.799999973015019
100
AcDbArc
 50
206.2911157864216
 51
229.0744432049573
  0
POINT
  5
E14
330
52B
100
AcDbEntity
  8
Defpoints
 62
     0
100
AcDbPoint
 10
229.8716197925795
 20
171.4687736362962
 30
0.0
  0
POINT
  5
E15
330
52B
100
AcDbEntity
  8
Defpoints
 62
     0
100
AcDbPoint
 10
231.789993529406
 20
173.508342721848
 30
0.0
  0
ENDBLK
  5
52D
330
52B
100
AcDbEntity
  8
0
100
AcDbBlockEnd
  0
BLOCK
  5
535
330
534
100
AcDbEntity
  8
0
100
AcDbBlockBegin
  2
*D23
 70
     1
 10
0.0
 20
0.0
 30
0.0
  3
*D23
  1

  0
LINE
  5
E16
330
534
100
AcDbEntity
  8
dim
 62
     0
370
    -2
100
AcDbLine
 10
265.5899932036533
 20
174.7083427102828
 30
0.0
 11
279.5078302135565
 21
174.7083427102828
 31
0.0
  0
LINE
  5
E17
330
534
100
AcDbEntity
  8
dim
 62
     0
370
    -2
100
AcDbLine
 10
261.543427149023
 20
168.3083427719637
 30
0.0
 11
279.5078302135565
 21
168.3083427719637
 31
0.0
  0
LINE
  5
E18
330
534
100
AcDbEntity
  8
dim
 62
     0
370
    -2
100
AcDbLine
 10
278.5078302231942
 20
176.7083426910074
 30
0.0
 11
278.5078302231942
 21
178.7083426717321
 31
0.0
  0
LINE
  5
E19
330
534
100
AcDbEntity
  8
dim
 62
     0
370
    -2
100
AcDbLine
 10
278.5078302231942
 20
166.308342791239
 30
0.0
 11
278.5078302231942
 21
151.2333430690446
 31
0.0
  0
LINE
  5
E1A
330
534
100
AcDbEntity
  8
dim
 62
     0
370
    -2
100
AcDbLine
 10
278.5078302231942
 20
174.7083427102828
 30
0.0
 11
278.5078302231942
 21
168.3083427719637
 31
0.0
  0
INSERT
  5
E1B
330
534
100
AcDbEntity
  8
dim
 62
     0
370
    -2
100
AcDbBlockReference
  2
_Open30
 10
278.5078302231942
 20
174.7083427102828
 30
0.0
 41
1.999999980724686
 42
1.999999980724686
 43
1.999999980724686
 50
270.0
  0
INSERT
  5
E1C
330
534
100
AcDbEntity
  8
dim
 62
     0
370
    -2
100
AcDbBlockReference
  2
_Open30
 10
278.5078302231942
 20
168.3083427719637
 30
0.0
 41
1.999999980724686
 42
1.999999980724686
 43
1.999999980724686
 50
90.0
  0
MTEXT
  5
E1D
330
534
100
AcDbEntity
  8
dim
 62
     3
100
AcDbMText
 10
276.3828302436741
 20
154.5583430369994
 30
0.0
 40
2.999999971087028
 41
0.0
 71
     5
 72
     1
  1
3.2
  7
ATOM
 11
0.0000000000000001
 21
1.0
 31
0.0
 73
     1
 44
1.0
1001
ACAD
1000
MTEXTBEGIN
1070
    73
1070
     1
1070
    44
1040
1.0
1070
    74
1070
     0
1000
MTEXTEND
  0
POINT
  5
E1E
330
534
100
AcDbEntity
  8
Defpoints
 62
     0
100
AcDbPoint
 10
263.5899932229285
 20
174.7083427102828
 30
0.0
  0
POINT
  5
E1F
330
534
100
AcDbEntity
  8
Defpoints
 62
     0
100
AcDbPoint
 10
259.5434271682983
 20
168.3083427719637
 30
0.0
  0
POINT
  5
E20
330
534
100
AcDbEntity
  8
Defpoints
 62
     0
100
AcDbPoint
 10
278.5078302231942
 20
168.3083427719637
 30
0.0
  0
ENDBLK
  5
536
330
534
100
AcDbEntity
  8
0
100
AcDbBlockEnd
  0
BLOCK
  5
543
330
542
100
AcDbEntity
  8
0
100
AcDbBlockBegin
  2
*D24
 70
     1
 10
0.0
 20
0.0
 30
0.0
  3
*D24
  1

  0
LINE
  5
E21
330
542
100
AcDbEntity
  8
dim
 62
     0
370
    -2
100
AcDbLine
 10
268.8519146152639
 20
204.3083424250081
 30
0.0
 11
268.9414503876589
 21
204.3083424250081
 31
0.0
  0
LINE
  5
E22
330
542
100
AcDbEntity
  8
dim
 62
     0
370
    -2
100
AcDbLine
 10
268.8519146152639
 20
207.3083423960951
 30
0.0
 11
268.9414503876589
 21
207.3083423960951
 31
0.0
  0
LINE
  5
E23
330
542
100
AcDbEntity
  8
dim
 62
     0
370
    -2
100
AcDbLine
 10
269.9414503780213
 20
202.3083424442833
 30
0.0
 11
269.9414503780213
 21
200.3083424635587
 31
0.0
  0
LINE
  5
E24
330
542
100
AcDbEntity
  8
dim
 62
     0
370
    -2
100
AcDbLine
 10
269.9414503780213
 20
209.3083423768198
 30
0.0
 11
269.9414503780213
 21
211.3083423575444
 31
0.0
  0
LINE
  5
E25
330
542
100
AcDbEntity
  8
dim
 62
     0
370
    -2
100
AcDbLine
 10
269.9414503780213
 20
217.3331542952141
 30
0.0
 11
269.9414503780213
 21
207.3083423960951
 31
0.0
  0
MTEXT
  5
E26
330
542
100
AcDbEntity
  8
dim
 62
     3
100
AcDbMText
 10
267.8164503985012
 20
214.4581543229223
 30
0.0
 40
2.999999971087028
 41
0.0
 71
     5
 72
     1
  1
1.5
  7
ATOM
 11
0.0000000000000001
 21
1.0
 31
0.0
 73
     1
 44
1.0
1001
ACAD
1000
MTEXTBEGIN
1070
    73
1070
     1
1070
    44
1040
1.0
1070
    74
1070
     0
1000
MTEXTEND
  0
LINE
  5
E27
330
542
100
AcDbEntity
  8
dim
 62
     0
370
    -2
100
AcDbLine
 10
269.9414503780213
 20
204.3083424250081
 30
0.0
 11
269.9414503780213
 21
207.3083423960951
 31
0.0
  0
LINE
  5
E28
330
542
100
AcDbEntity
  8
dim
 62
     0
370
    -2
100
AcDbLine
 10
269.9414503780213
 20
204.3083424250081
 30
0.0
 11
269.9414503780213
 21
207.3083423960951
 31
0.0
  0
INSERT
  5
E29
330
542
100
AcDbEntity
  8
dim
 62
     0
370
    -2
100
AcDbBlockReference
  2
_Open30
 10
269.9414503780213
 20
204.3083424250081
 30
0.0
 41
1.999999980724686
 42
1.999999980724686
 43
1.999999980724686
 50
90.0
  0
INSERT
  5
E2A
330
542
100
AcDbEntity
  8
dim
 62
     0
370
    -2
100
AcDbBlockReference
  2
_Open30
 10
269.9414503780213
 20
207.3083423960951
 30
0.0
 41
1.999999980724686
 42
1.999999980724686
 43
1.999999980724686
 50
270.0
  0
POINT
  5
E2B
330
542
100
AcDbEntity
  8
Defpoints
 62
     0
100
AcDbPoint
 10
270.8519145959885
 20
204.3083424250081
 30
0.0
  0
POINT
  5
E2C
330
542
100
AcDbEntity
  8
Defpoints
 62
     0
100
AcDbPoint
 10
270.8519145959885
 20
207.3083423960951
 30
0.0
  0
POINT
  5
E2D
330
542
100
AcDbEntity
  8
Defpoints
 62
     0
100
AcDbPoint
 10
269.9414503780213
 20
207.3083423960951
 30
0.0
  0
ENDBLK
  5
544
330
542
100
AcDbEntity
  8
0
100
AcDbBlockEnd
  0
BLOCK
  5
551
330
550
100
AcDbEntity
  8
0
100
AcDbBlockBegin
  2
*D25
 70
     1
 10
0.0
 20
0.0
 30
0.0
  3
*D25
  1

  0
LINE
  5
E2E
330
550
100
AcDbEntity
  8
dim
 62
     0
370
    -2
100
AcDbLine
 10
274.267042812728
 20
171.3083427430507
 30
0.0
 11
273.3690741704249
 21
171.3083427430507
 31
0.0
  0
LINE
  5
E2F
330
550
100
AcDbEntity
  8
dim
 62
     0
370
    -2
100
AcDbLine
 10
273.3958899275747
 20
168.3083427719637
 30
0.0
 11
271.3690741897002
 21
168.3083427719637
 31
0.0
  0
LINE
  5
E30
330
550
100
AcDbEntity
  8
dim
 62
     0
370
    -2
100
AcDbLine
 10
272.3690741800626
 20
173.3083427237754
 30
0.0
 11
272.3690741800626
 21
175.3083427045001
 31
0.0
  0
LINE
  5
E31
330
550
100
AcDbEntity
  8
dim
 62
     0
370
    -2
100
AcDbLine
 10
272.3690741800626
 20
166.308342791239
 30
0.0
 11
272.3690741800626
 21
148.5333431254249
 31
0.0
  0
LINE
  5
E32
330
550
100
AcDbEntity
  8
dim
 62
     0
370
    -2
100
AcDbLine
 10
272.3690741800626
 20
171.3083427430507
 30
0.0
 11
272.3690741800626
 21
168.3083427719637
 31
0.0
  0
INSERT
  5
E33
330
550
100
AcDbEntity
  8
dim
 62
     0
370
    -2
100
AcDbBlockReference
  2
_Open30
 10
272.3690741800626
 20
171.3083427430507
 30
0.0
 41
1.999999980724686
 42
1.999999980724686
 43
1.999999980724686
 50
270.0
  0
INSERT
  5
E34
330
550
100
AcDbEntity
  8
dim
 62
     0
370
    -2
100
AcDbBlockReference
  2
_Open30
 10
272.3690741800626
 20
168.3083427719637
 30
0.0
 41
1.999999980724686
 42
1.999999980724686
 43
1.999999980724686
 50
90.0
  0
MTEXT
  5
E35
330
550
100
AcDbEntity
  8
dim
 62
     3
100
AcDbMText
 10
270.2440742005425
 20
151.4083430977167
 30
0.0
 40
2.999999971087028
 41
0.0
 71
     5
 72
     1
  1
1.5
  7
ATOM
 11
0.0000000000000001
 21
1.0
 31
0.0
 73
     1
 44
1.0
1001
ACAD
1000
MTEXTBEGIN
1070
    73
1070
     1
1070
    44
1040
1.0
1070
    74
1070
     0
1000
MTEXTEND
  0
POINT
  5
E36
330
550
100
AcDbEntity
  8
Defpoints
 62
     0
100
AcDbPoint
 10
272.2670428320033
 20
171.3083427430507
 30
0.0
  0
POINT
  5
E37
330
550
100
AcDbEntity
  8
Defpoints
 62
     0
100
AcDbPoint
 10
275.3958899082994
 20
168.3083427719637
 30
0.0
  0
POINT
  5
E38
330
550
100
AcDbEntity
  8
Defpoints
 62
     0
100
AcDbPoint
 10
272.3690741800626
 20
168.3083427719637
 30
0.0
  0
ENDBLK
  5
552
330
550
100
AcDbEntity
  8
0
100
AcDbBlockEnd
  0
BLOCK
  5
55F
330
55E
100
AcDbEntity
  8
0
100
AcDbBlockBegin
  2
*D26
 70
     1
 10
0.0
 20
0.0
 30
0.0
  3
*D26
  1

  0
LINE
  5
E39
330
55E
100
AcDbEntity
  8
dim
 62
     0
370
    -2
100
AcDbLine
 10
266.4899931949795
 20
200.3083424635587
 30
0.0
 11
279.4228655748618
 21
200.3083424635587
 31
0.0
  0
LINE
  5
E3A
330
55E
100
AcDbEntity
  8
dim
 62
     0
370
    -2
100
AcDbLine
 10
286.3899930031909
 20
207.3083423960951
 30
0.0
 11
277.4228655941371
 21
207.3083423960951
 31
0.0
  0
LINE
  5
E3B
330
55E
100
AcDbEntity
  8
dim
 62
     0
370
    -2
100
AcDbLine
 10
278.4228655844994
 20
202.3083424442834
 30
0.0
 11
278.4228655844994
 21
205.3083424153705
 31
0.0
  0
INSERT
  5
E3C
330
55E
100
AcDbEntity
  8
dim
 62
     0
370
    -2
100
AcDbBlockReference
  2
_Open30
 10
278.4228655844994
 20
200.3083424635587
 30
0.0
 41
1.999999980724686
 42
1.999999980724686
 43
1.999999980724686
 50
270.0
  0
INSERT
  5
E3D
330
55E
100
AcDbEntity
  8
dim
 62
     0
370
    -2
100
AcDbBlockReference
  2
_Open30
 10
278.4228655844994
 20
207.3083423960951
 30
0.0
 41
1.999999980724686
 42
1.999999980724686
 43
1.999999980724686
 50
90.0
  0
MTEXT
  5
E3E
330
55E
100
AcDbEntity
  8
dim
 62
     3
100
AcDbMText
 10
276.2978656049794
 20
203.8083424298271
 30
0.0
 40
2.999999971087028
 41
0.0
 71
     5
 72
     1
  1
3.5
  7
ATOM
 11
0.0000000000000001
 21
1.0
 31
0.0
 73
     1
 44
1.0
1001
ACAD
1000
MTEXTBEGIN
1070
    73
1070
     1
1070
    44
1040
1.0
1070
    74
1070
     0
1000
MTEXTEND
  0
POINT
  5
E3F
330
55E
100
AcDbEntity
  8
Defpoints
 62
     0
100
AcDbPoint
 10
264.4899932142548
 20
200.3083424635587
 30
0.0
  0
POINT
  5
E40
330
55E
100
AcDbEntity
  8
Defpoints
 62
     0
100
AcDbPoint
 10
288.3899929839156
 20
207.3083423960951
 30
0.0
  0
POINT
  5
E41
330
55E
100
AcDbEntity
  8
Defpoints
 62
     0
100
AcDbPoint
 10
278.4228655844994
 20
207.3083423960951
 30
0.0
  0
ENDBLK
  5
560
330
55E
100
AcDbEntity
  8
0
100
AcDbBlockEnd
  0
BLOCK
  5
56D
330
56C
100
AcDbEntity
  8
0
100
AcDbBlockBegin
  2
*D27
 70
     1
 10
0.0
 20
0.0
 30
0.0
  3
*D27
  1

  0
LINE
  5
E42
330
56C
100
AcDbEntity
  8
dim
 62
     0
370
    -2
100
AcDbLine
 10
287.9899929877694
 20
228.3083421937043
 30
0.0
 11
277.4228655941371
 21
228.3083421937043
 31
0.0
  0
LINE
  5
E43
330
56C
100
AcDbEntity
  8
dim
 62
     0
370
    -2
100
AcDbLine
 10
286.3899930031909
 20
207.3083423960951
 30
0.0
 11
277.4228655941371
 21
207.3083423960951
 31
0.0
  0
LINE
  5
E44
330
56C
100
AcDbEntity
  8
dim
 62
     0
370
    -2
100
AcDbLine
 10
278.4228655844994
 20
226.3083422129796
 30
0.0
 11
278.4228655844994
 21
209.3083423768198
 31
0.0
  0
INSERT
  5
E45
330
56C
100
AcDbEntity
  8
dim
 62
     0
370
    -2
100
AcDbBlockReference
  2
_Open30
 10
278.4228655844994
 20
228.3083421937043
 30
0.0
 41
1.999999980724686
 42
1.999999980724686
 43
1.999999980724686
 50
90.0
  0
INSERT
  5
E46
330
56C
100
AcDbEntity
  8
dim
 62
     0
370
    -2
100
AcDbBlockReference
  2
_Open30
 10
278.4228655844994
 20
207.3083423960951
 30
0.0
 41
1.999999980724686
 42
1.999999980724686
 43
1.999999980724686
 50
270.0
  0
MTEXT
  5
E47
330
56C
100
AcDbEntity
  8
dim
 62
     3
100
AcDbMText
 10
276.2978656049794
 20
217.8083422948997
 30
0.0
 40
2.999999971087028
 41
0.0
 71
     5
 72
     1
  1
10.5
  7
ATOM
 11
0.0000000000000001
 21
1.0
 31
0.0
 73
     1
 44
1.0
1001
ACAD
1000
MTEXTBEGIN
1070
    73
1070
     1
1070
    44
1040
1.0
1070
    74
1070
     0
1000
MTEXTEND
  0
POINT
  5
E48
330
56C
100
AcDbEntity
  8
Defpoints
 62
     0
100
AcDbPoint
 10
289.9899929684941
 20
228.3083421937043
 30
0.0
  0
POINT
  5
E49
330
56C
100
AcDbEntity
  8
Defpoints
 62
     0
100
AcDbPoint
 10
288.3899929839156
 20
207.3083423960951
 30
0.0
  0
POINT
  5
E4A
330
56C
100
AcDbEntity
  8
Defpoints
 62
     0
100
AcDbPoint
 10
278.4228655844994
 20
207.3083423960951
 30
0.0
  0
ENDBLK
  5
56E
330
56C
100
AcDbEntity
  8
0
100
AcDbBlockEnd
  0
BLOCK
  5
579
330
578
100
AcDbEntity
  8
0
100
AcDbBlockBegin
  2
*D28
 70
     1
 10
0.0
 20
0.0
 30
0.0
  3
*D28
  1

  0
LINE
  5
E4B
330
578
100
AcDbEntity
  8
dim
 62
     0
370
    -2
100
AcDbLine
 10
189.5899939361157
 20
254.3083419431252
 30
0.0
 11
159.5945633334205
 21
254.3083419431252
 31
0.0
  0
LINE
  5
E4C
330
578
100
AcDbEntity
  8
dim
 62
     0
370
    -2
100
AcDbLine
 10
189.5899939361157
 20
144.3083430032674
 30
0.0
 11
159.5945633334205
 21
144.3083430032674
 31
0.0
  0
LINE
  5
E4D
330
578
100
AcDbEntity
  8
dim
 62
     0
370
    -2
100
AcDbLine
 10
160.5945633237829
 20
252.3083419624005
 30
0.0
 11
160.5945633237828
 21
146.3083429839921
 31
0.0
  0
INSERT
  5
E4E
330
578
100
AcDbEntity
  8
dim
 62
     0
370
    -2
100
AcDbBlockReference
  2
_Open30
 10
160.5945633237829
 20
254.3083419431252
 30
0.0
 41
1.999999980724686
 42
1.999999980724686
 43
1.999999980724686
 50
90.0
  0
INSERT
  5
E4F
330
578
100
AcDbEntity
  8
dim
 62
     0
370
    -2
100
AcDbBlockReference
  2
_Open30
 10
160.5945633237828
 20
144.3083430032674
 30
0.0
 41
1.999999980724686
 42
1.999999980724686
 43
1.999999980724686
 50
270.0
  0
MTEXT
  5
E50
330
578
100
AcDbEntity
  8
dim
 62
     3
100
AcDbMText
 10
156.9695633587193
 20
208.6072583511768
 30
0.0
 40
2.999999971087028
 41
0.0
 71
     2
 72
     1
  1
55
  7
ATOM
 11
0.0000000000000001
 21
1.0
 31
0.0
 73
     1
 44
1.0
1001
ACAD
1000
MTEXTBEGIN
1070
    73
1070
     1
1070
    44
1040
1.0
1070
    74
1070
     0
1000
MTEXTEND
  0
POINT
  5
E51
330
578
100
AcDbEntity
  8
Defpoints
 62
     0
100
AcDbPoint
 10
191.5899939168404
 20
254.3083419431252
 30
0.0
  0
POINT
  5
E52
330
578
100
AcDbEntity
  8
Defpoints
 62
     0
100
AcDbPoint
 10
191.5899939168404
 20
144.3083430032674
 30
0.0
  0
POINT
  5
E53
330
578
100
AcDbEntity
  8
Defpoints
 62
     0
100
AcDbPoint
 10
160.5945633237828
 20
144.3083430032674
 30
0.0
  0
ENDBLK
  5
57A
330
578
100
AcDbEntity
  8
0
100
AcDbBlockEnd
  0
BLOCK
  5
585
330
584
100
AcDbEntity
  8
0
100
AcDbBlockBegin
  2
*D29
 70
     1
 10
0.0
 20
0.0
 30
0.0
  3
*D29
  1

  0
LINE
  5
E54
330
584
100
AcDbEntity
  8
dim
 62
     0
370
    -2
100
AcDbLine
 10
291.9899929492191
 20
228.3083421937043
 30
0.0
 11
291.9899929492191
 21
273.8266072460165
 31
0.0
  0
LINE
  5
E55
330
584
100
AcDbEntity
  8
dim
 62
     0
370
    -2
100
AcDbLine
 10
190.9899939226226
 20
255.7083419296325
 30
0.0
 11
190.9899939226226
 21
273.8266072460165
 31
0.0
  0
LINE
  5
E56
330
584
100
AcDbEntity
  8
dim
 62
     0
370
    -2
100
AcDbLine
 10
289.9899929684944
 20
272.8266072556542
 30
0.0
 11
192.9899939033473
 21
272.8266072556542
 31
0.0
  0
INSERT
  5
E57
330
584
100
AcDbEntity
  8
dim
 62
     0
370
    -2
100
AcDbBlockReference
  2
_Open30
 10
291.9899929492191
 20
272.8266072556542
 30
0.0
 41
1.999999980724686
 42
1.999999980724686
 43
1.999999980724686
  0
INSERT
  5
E58
330
584
100
AcDbEntity
  8
dim
 62
     0
370
    -2
100
AcDbBlockReference
  2
_Open30
 10
190.9899939226226
 20
272.8266072556542
 30
0.0
 41
1.999999980724686
 42
1.999999980724686
 43
1.999999980724686
 50
180.0
  0
MTEXT
  5
E59
330
584
100
AcDbEntity
  8
dim
 62
     3
100
AcDbMText
 10
241.4899934359208
 20
274.9516072351742
 30
0.0
 40
2.999999971087028
 41
0.0
 71
     5
 72
     1
  1
50.5
  7
ATOM
 73
     1
 44
1.0
1001
ACAD
1000
MTEXTBEGIN
1070
    73
1070
     1
1070
    44
1040
1.0
1070
    74
1070
     0
1000
MTEXTEND
  0
POINT
  5
E5A
330
584
100
AcDbEntity
  8
Defpoints
 62
     0
100
AcDbPoint
 10
291.9899929492191
 20
226.3083422129796
 30
0.0
  0
POINT
  5
E5B
330
584
100
AcDbEntity
  8
Defpoints
 62
     0
100
AcDbPoint
 10
190.9899939226226
 20
253.7083419489079
 30
0.0
  0
POINT
  5
E5C
330
584
100
AcDbEntity
  8
Defpoints
 62
     0
100
AcDbPoint
 10
190.9899939226226
 20
272.8266072556542
 30
0.0
  0
ENDBLK
  5
586
330
584
100
AcDbEntity
  8
0
100
AcDbBlockEnd
  0
BLOCK
  5
591
330
590
100
AcDbEntity
  8
0
100
AcDbBlockBegin
  2
*D30
 70
     1
 10
0.0
 20
0.0
 30
0.0
  3
*D30
  1

  0
LINE
  5
E5D
330
590
100
AcDbEntity
  8
dim
 62
     0
370
    -2
100
AcDbLine
 10
190.9899939226226
 20
255.7083419296325
 30
0.0
 11
190.9899939226226
 21
267.8266073038424
 31
0.0
  0
LINE
  5
E5E
330
590
100
AcDbEntity
  8
dim
 62
     0
370
    -2
100
AcDbLine
 10
245.9899933925515
 20
221.0369513218615
 30
0.0
 11
245.9899933925515
 21
267.8266073038424
 31
0.0
  0
LINE
  5
E5F
330
590
100
AcDbEntity
  8
dim
 62
     0
370
    -2
100
AcDbLine
 10
192.9899939033473
 20
266.82660731348
 30
0.0
 11
243.9899934118268
 21
266.82660731348
 31
0.0
  0
INSERT
  5
E60
330
590
100
AcDbEntity
  8
dim
 62
     0
370
    -2
100
AcDbBlockReference
  2
_Open30
 10
190.9899939226226
 20
266.82660731348
 30
0.0
 41
1.999999980724686
 42
1.999999980724686
 43
1.999999980724686
 50
180.0
  0
INSERT
  5
E61
330
590
100
AcDbEntity
  8
dim
 62
     0
370
    -2
100
AcDbBlockReference
  2
_Open30
 10
245.9899933925515
 20
266.82660731348
 30
0.0
 41
1.999999980724686
 42
1.999999980724686
 43
1.999999980724686
  0
MTEXT
  5
E62
330
590
100
AcDbEntity
  8
dim
 62
     3
100
AcDbMText
 10
218.489993657587
 20
268.951607293
 30
0.0
 40
2.999999971087028
 41
0.0
 71
     5
 72
     1
  1
27.5
  7
ATOM
 73
     1
 44
1.0
1001
ACAD
1000
MTEXTBEGIN
1070
    73
1070
     1
1070
    44
1040
1.0
1070
    74
1070
     0
1000
MTEXTEND
  0
POINT
  5
E63
330
590
100
AcDbEntity
  8
Defpoints
 62
     0
100
AcDbPoint
 10
190.9899939226226
 20
253.7083419489078
 30
0.0
  0
POINT
  5
E64
330
590
100
AcDbEntity
  8
Defpoints
 62
     0
100
AcDbPoint
 10
245.9899933925515
 20
219.0369513411368
 30
0.0
  0
POINT
  5
E65
330
590
100
AcDbEntity
  8
Defpoints
 62
     0
100
AcDbPoint
 10
245.9899933925515
 20
266.82660731348
 30
0.0
  0
ENDBLK
  5
592
330
590
100
AcDbEntity
  8
0
100
AcDbBlockEnd
  0
BLOCK
  5
59D
330
59C
100
AcDbEntity
  8
0
100
AcDbBlockBegin
  2
*D31
 70
     1
 10
0.0
 20
0.0
 30
0.0
  3
*D31
  1

  0
LINE
  5
E66
330
59C
100
AcDbEntity
  8
dim
 62
     0
370
    -2
100
AcDbLine
 10
274.6093303321962
 20
181.5540742886766
 30
0.0
 11
267.3205501187699
 21
202.3645563902102
 31
0.0
  0
MTEXT
  5
E67
330
59C
100
AcDbEntity
  8
dim
 62
     3
100
AcDbMText
 10
275.1438973443047
 20
186.4563556597145
 30
0.0
 40
2.999999971087028
 41
0.0
 71
     5
 72
     1
  1
R0.5
  7
ATOM
 11
0.330556931796585
 21
-0.943786053531852
 31
0.0
 73
     1
 44
1.0
1001
ACAD
1000
MTEXTBEGIN
1070
    73
1070
     1
1070
    44
1040
1.0
1070
    74
1070
     0
1000
MTEXTEND
  0
INSERT
  5
E68
330
59C
100
AcDbEntity
  8
dim
 62
     0
370
    -2
100
AcDbBlockReference
  2
_Open30
 10
266.6594362615483
 20
204.2521284790822
 30
0.0
 41
1.999999980724686
 42
1.999999980724686
 43
1.999999980724686
 50
109.3025824610298
  0
ARC
  5
E69
330
59C
100
AcDbEntity
  8
dim
 62
     0
370
    -2
100
AcDbCircle
 10
266.9899931901592
 20
203.308342434646
 30
0.0
 40
0.9999999903625392
100
AcDbArc
 50
90.00000000000005
 51
166.5983619741014
  0
POINT
  5
E6A
330
59C
100
AcDbEntity
  8
Defpoints
 62
     0
100
AcDbPoint
 10
266.6594362615483
 20
204.2521284790822
 30
0.0
  0
POINT
  5
E6B
330
59C
100
AcDbEntity
  8
Defpoints
 62
     0
100
AcDbPoint
 10
266.9899931901592
 20
203.308342434646
 30
0.0
  0
ENDBLK
  5
59E
330
59C
100
AcDbEntity
  8
0
100
AcDbBlockEnd
  0
BLOCK
  5
5A6
330
5A5
100
AcDbEntity
  8
0
100
AcDbBlockBegin
  2
*D32
 70
     1
 10
0.0
 20
0.0
 30
0.0
  3
*D32
  1

  0
LINE
  5
E6C
330
5A5
100
AcDbEntity
  8
dim
 62
     0
370
    -2
100
AcDbLine
 10
291.9899929492191
 20
228.3083421937032
 30
0.0
 11
291.9899929492191
 21
240.3083420780514
 31
0.0
  0
LINE
  5
E6D
330
5A5
100
AcDbEntity
  8
dim
 62
     0
370
    -2
100
AcDbLine
 10
288.989992978132
 20
229.3083421840655
 30
0.0
 11
288.989992978132
 21
240.3083420780514
 31
0.0
  0
LINE
  5
E6E
330
5A5
100
AcDbEntity
  8
dim
 62
     0
370
    -2
100
AcDbLine
 10
293.9899929299437
 20
239.3083420876891
 30
0.0
 11
295.9899929106684
 21
239.3083420876891
 31
0.0
  0
LINE
  5
E6F
330
5A5
100
AcDbEntity
  8
dim
 62
     0
370
    -2
100
AcDbLine
 10
286.9899929974073
 20
239.3083420876891
 30
0.0
 11
284.9899930166827
 21
239.3083420876891
 31
0.0
  0
LINE
  5
E70
330
5A5
100
AcDbEntity
  8
dim
 62
     0
370
    -2
100
AcDbLine
 10
276.114993102217
 20
239.3083420876891
 30
0.0
 11
288.989992978132
 21
239.3083420876891
 31
0.0
  0
MTEXT
  5
E71
330
5A5
100
AcDbEntity
  8
dim
 62
     3
100
AcDbMText
 10
278.9899930745089
 20
241.4333420672091
 30
0.0
 40
2.999999971087028
 41
0.0
 71
     5
 72
     1
  1
1.5
  7
ATOM
 73
     1
 44
1.0
1001
ACAD
1000
MTEXTBEGIN
1070
    73
1070
     1
1070
    44
1040
1.0
1070
    74
1070
     0
1000
MTEXTEND
  0
LINE
  5
E72
330
5A5
100
AcDbEntity
  8
dim
 62
     0
370
    -2
100
AcDbLine
 10
291.9899929492191
 20
239.3083420876891
 30
0.0
 11
288.989992978132
 21
239.3083420876891
 31
0.0
  0
LINE
  5
E73
330
5A5
100
AcDbEntity
  8
dim
 62
     0
370
    -2
100
AcDbLine
 10
291.9899929492191
 20
239.3083420876891
 30
0.0
 11
288.989992978132
 21
239.3083420876891
 31
0.0
  0
INSERT
  5
E74
330
5A5
100
AcDbEntity
  8
dim
 62
     0
370
    -2
100
AcDbBlockReference
  2
_Open30
 10
291.9899929492191
 20
239.3083420876891
 30
0.0
 41
1.999999980724686
 42
1.999999980724686
 43
1.999999980724686
 50
180.0
  0
INSERT
  5
E75
330
5A5
100
AcDbEntity
  8
dim
 62
     0
370
    -2
100
AcDbBlockReference
  2
_Open30
 10
288.989992978132
 20
239.3083420876891
 30
0.0
 41
1.999999980724686
 42
1.999999980724686
 43
1.999999980724686
  0
POINT
  5
E76
330
5A5
100
AcDbEntity
  8
Defpoints
 62
     0
100
AcDbPoint
 10
291.9899929492191
 20
226.3083422129785
 30
0.0
  0
POINT
  5
E77
330
5A5
100
AcDbEntity
  8
Defpoints
 62
     0
100
AcDbPoint
 10
288.989992978132
 20
227.3083422033409
 30
0.0
  0
POINT
  5
E78
330
5A5
100
AcDbEntity
  8
Defpoints
 62
     0
100
AcDbPoint
 10
288.989992978132
 20
239.3083420876891
 30
0.0
  0
ENDBLK
  5
5A7
330
5A5
100
AcDbEntity
  8
0
100
AcDbBlockEnd
  0
BLOCK
  5
5B4
330
5B3
100
AcDbEntity
  8
0
100
AcDbBlockBegin
  2
*D33
 70
     1
 10
0.0
 20
0.0
 30
0.0
  3
*D33
  1

  0
LINE
  5
E79
330
5B3
100
AcDbEntity
  8
dim
 62
     0
370
    -2
100
AcDbLine
 10
194.7899938859993
 20
144.3083430032674
 30
0.0
 11
210.8291709669462
 21
144.3083430032674
 31
0.0
  0
LINE
  5
E7A
330
5B3
100
AcDbEntity
  8
dim
 62
     0
370
    -2
100
AcDbLine
 10
204.815420261704
 20
156.3083428876156
 30
0.0
 11
210.8291709669462
 21
156.3083428876156
 31
0.0
  0
LINE
  5
E7B
330
5B3
100
AcDbEntity
  8
dim
 62
     0
370
    -2
100
AcDbLine
 10
209.8291709765839
 20
146.3083429839921
 30
0.0
 11
209.8291709765839
 21
154.3083429068909
 31
0.0
  0
INSERT
  5
E7C
330
5B3
100
AcDbEntity
  8
dim
 62
     0
370
    -2
100
AcDbBlockReference
  2
_Open30
 10
209.8291709765839
 20
144.3083430032674
 30
0.0
 41
1.999999980724686
 42
1.999999980724686
 43
1.999999980724686
 50
270.0
  0
INSERT
  5
E7D
330
5B3
100
AcDbEntity
  8
dim
 62
     0
370
    -2
100
AcDbBlockReference
  2
_Open30
 10
209.8291709765839
 20
156.3083428876156
 30
0.0
 41
1.999999980724686
 42
1.999999980724686
 43
1.999999980724686
 50
90.0
  0
MTEXT
  5
E7E
330
5B3
100
AcDbEntity
  8
dim
 62
     3
100
AcDbMText
 10
207.7041709970639
 20
150.3083429454416
 30
0.0
 40
2.999999971087028
 41
0.0
 71
     5
 72
     1
  1
6
  7
ATOM
 11
0.0000000000000001
 21
1.0
 31
0.0
 73
     1
 44
1.0
1001
ACAD
1000
MTEXTBEGIN
1070
    73
1070
     1
1070
    44
1040
1.0
1070
    74
1070
     0
1000
MTEXTEND
  0
POINT
  5
E7F
330
5B3
100
AcDbEntity
  8
Defpoints
 62
     0
100
AcDbPoint
 10
192.7899939052745
 20
144.3083430032674
 30
0.0
  0
POINT
  5
E80
330
5B3
100
AcDbEntity
  8
Defpoints
 62
     0
100
AcDbPoint
 10
202.8154202809793
 20
156.3083428876156
 30
0.0
  0
POINT
  5
E81
330
5B3
100
AcDbEntity
  8
Defpoints
 62
     0
100
AcDbPoint
 10
209.8291709765839
 20
156.3083428876156
 30
0.0
  0
ENDBLK
  5
5B5
330
5B3
100
AcDbEntity
  8
0
100
AcDbBlockEnd
  0
BLOCK
  5
5C0
330
5BF
100
AcDbEntity
  8
0
100
AcDbBlockBegin
  2
*D34
 70
     1
 10
0.0
 20
0.0
 30
0.0
  3
*D34
  1

  0
LINE
  5
E82
330
5BF
100
AcDbEntity
  8
dim
 62
     0
370
    -2
100
AcDbLine
 10
297.0239799466701
 20
162.0472577802582
 30
0.0
 11
292.5831678913242
 21
167.2627814725299
 31
0.0
  0
MTEXT
  5
E83
330
5BF
100
AcDbEntity
  8
dim
 62
     3
100
AcDbMText
 10
297.0698220797889
 20
165.2712534841077
 30
0.0
 40
2.999999971087028
 41
0.0
 71
     5
 72
     1
  1
R1
  7
ATOM
 11
0.6482937369554677
 21
-0.7613903273776961
 31
0.0
 73
     1
 44
1.0
1001
ACAD
1000
MTEXTBEGIN
1070
    73
1070
     1
1070
    44
1040
1.0
1070
    74
1070
     0
1000
MTEXTEND
  0
INSERT
  5
E84
330
5BF
100
AcDbEntity
  8
dim
 62
     0
370
    -2
100
AcDbBlockReference
  2
_Open30
 10
291.2865804299094
 20
168.7855621126093
 30
0.0
 41
1.999999980724686
 42
1.999999980724686
 43
1.999999980724686
 50
130.4130801439899
  0
POINT
  5
E85
330
5BF
100
AcDbEntity
  8
Defpoints
 62
     0
100
AcDbPoint
 10
291.2865804299094
 20
168.7855621126093
 30
0.0
  0
POINT
  5
E86
330
5BF
100
AcDbEntity
  8
Defpoints
 62
     0
100
AcDbPoint
 10
289.9899929684948
 20
170.3083427526883
 30
0.0
  0
ENDBLK
  5
5C1
330
5BF
100
AcDbEntity
  8
0
100
AcDbBlockEnd
  0
BLOCK
  5
5C8
330
5C7
100
AcDbEntity
  8
0
100
AcDbBlockBegin
  2
*D35
 70
     1
 10
0.0
 20
0.0
 30
0.0
  3
*D35
  1

  0
LINE
  5
E87
330
5C7
100
AcDbEntity
  8
dim
 62
     0
370
    -2
100
AcDbLine
 10
298.8002980035013
 20
232.6408790601671
 30
0.0
 11
293.2380316910778
 21
228.6429180091772
 31
0.0
  0
MTEXT
  5
E88
330
5C7
100
AcDbEntity
  8
dim
 62
     3
100
AcDbMText
 10
295.5909311362048
 20
232.951063055094
 30
0.0
 40
2.999999971087028
 41
0.0
 71
     5
 72
     1
  1
R1
  7
ATOM
 11
0.8120096884716414
 21
0.5836439546745841
 31
0.0
 73
     1
 44
1.0
1001
ACAD
1000
MTEXTBEGIN
1070
    73
1070
     1
1070
    44
1040
1.0
1070
    74
1070
     0
1000
MTEXTEND
  0
INSERT
  5
E89
330
5C7
100
AcDbEntity
  8
dim
 62
     0
370
    -2
100
AcDbBlockReference
  2
_Open30
 10
291.6140123297862
 20
227.4756301110779
 30
0.0
 41
1.999999980724686
 42
1.999999980724686
 43
1.999999980724686
 50
215.7072492865037
  0
POINT
  5
E8A
330
5C7
100
AcDbEntity
  8
Defpoints
 62
     0
100
AcDbPoint
 10
291.6140123297862
 20
227.4756301110779
 30
0.0
  0
POINT
  5
E8B
330
5C7
100
AcDbEntity
  8
Defpoints
 62
     0
100
AcDbPoint
 10
289.9899929684943
 20
226.3083422129784
 30
0.0
  0
ENDBLK
  5
5C9
330
5C7
100
AcDbEntity
  8
0
100
AcDbBlockEnd
  0
BLOCK
  5
5D0
330
5CF
100
AcDbEntity
  8
0
100
AcDbBlockBegin
  2
*D36
 70
     1
 10
0.0
 20
0.0
 30
0.0
  3
*D36
  1

  0
LINE
  5
E8C
330
5CF
100
AcDbEntity
  8
dim
 62
     0
370
    -2
100
AcDbLine
 10
258.0434271827552
 20
164.3083428105144
 30
0.0
 11
258.0434271827552
 21
166.308342791239
 31
0.0
  0
LINE
  5
E8D
330
5CF
100
AcDbEntity
  8
dim
 62
     0
370
    -2
100
AcDbLine
 10
258.0434271827552
 20
168.3083427719637
 30
0.0
 11
258.0434271827552
 21
164.3083428105144
 31
0.0
  0
LINE
  5
E8E
330
5CF
100
AcDbEntity
  8
dim
 62
     0
370
    -2
100
AcDbLine
 10
258.0434271827552
 20
169.5083427603986
 30
0.0
 11
251.6059272447976
 21
171.4395927417859
 31
0.0
  0
LINE
  5
E8F
330
5CF
100
AcDbEntity
  8
dim
 62
     0
370
    -2
100
AcDbLine
 10
251.6059272447976
 20
171.4395927417859
 30
0.0
 11
251.6059272447976
 21
177.1895926863693
 31
0.0
  0
MTEXT
  5
E90
330
5CF
100
AcDbEntity
  8
dim
 62
     3
100
AcDbMText
 10
249.4809272652776
 20
174.3145927140776
 30
0.0
 40
2.999999971087028
 41
0.0
 71
     5
 72
     1
  1
1.2
  7
ATOM
 11
0.0000000000000001
 21
1.0
 31
0.0
 73
     1
 44
1.0
1001
ACAD
1000
MTEXTBEGIN
1070
    73
1070
     1
1070
    44
1040
1.0
1070
    74
1070
     0
1000
MTEXTEND
  0
LINE
  5
E91
330
5CF
100
AcDbEntity
  8
dim
 62
     0
370
    -2
100
AcDbLine
 10
258.0434271827552
 20
170.7083427488334
 30
0.0
 11
258.0434271827552
 21
168.3083427719637
 31
0.0
  0
INSERT
  5
E92
330
5CF
100
AcDbEntity
  8
dim
 62
     0
370
    -2
100
AcDbBlockReference
  2
_Open30
 10
258.0434271827552
 20
168.3083427719637
 30
0.0
 41
1.999999980724686
 42
1.999999980724686
 43
1.999999980724686
 50
90.0
  0
POINT
  5
E93
330
5CF
100
AcDbEntity
  8
Defpoints
 62
     0
100
AcDbPoint
 10
258.0434271827552
 20
170.7083427488334
 30
0.0
  0
POINT
  5
E94
330
5CF
100
AcDbEntity
  8
Defpoints
 62
     0
100
AcDbPoint
 10
258.0434271827552
 20
168.3083427719637
 30
0.0
  0
POINT
  5
E95
330
5CF
100
AcDbEntity
  8
Defpoints
 62
     0
100
AcDbPoint
 10
258.0434271827552
 20
168.3083427719637
 30
0.0
  0
ENDBLK
  5
5D1
330
5CF
100
AcDbEntity
  8
0
100
AcDbBlockEnd
  0
BLOCK
  5
5DD
330
5DC
100
AcDbEntity
  8
0
100
AcDbBlockBegin
  2
*D37
 70
     1
 10
0.0
 20
0.0
 30
0.0
  3
*D37
  1

  0
LINE
  5
E96
330
5DC
100
AcDbEntity
  8
dim
 62
     0
370
    -2
100
AcDbLine
 10
204.8154202617039
 20
156.3083428876156
 30
0.0
 11
210.8291709669461
 21
156.3083428876156
 31
0.0
  0
LINE
  5
E97
330
5DC
100
AcDbEntity
  8
dim
 62
     0
370
    -2
100
AcDbLine
 10
203.9904312048427
 20
168.3083427719637
 30
0.0
 11
210.8291709669461
 21
168.3083427719637
 31
0.0
  0
LINE
  5
E98
330
5DC
100
AcDbEntity
  8
dim
 62
     0
370
    -2
100
AcDbLine
 10
209.8291709765838
 20
158.3083428683402
 30
0.0
 11
209.8291709765838
 21
166.308342791239
 31
0.0
  0
INSERT
  5
E99
330
5DC
100
AcDbEntity
  8
dim
 62
     0
370
    -2
100
AcDbBlockReference
  2
_Open30
 10
209.8291709765838
 20
156.3083428876156
 30
0.0
 41
1.999999980724686
 42
1.999999980724686
 43
1.999999980724686
 50
270.0
  0
INSERT
  5
E9A
330
5DC
100
AcDbEntity
  8
dim
 62
     0
370
    -2
100
AcDbBlockReference
  2
_Open30
 10
209.8291709765838
 20
168.3083427719637
 30
0.0
 41
1.999999980724686
 42
1.999999980724686
 43
1.999999980724686
 50
90.0
  0
MTEXT
  5
E9B
330
5DC
100
AcDbEntity
  8
dim
 62
     3
100
AcDbMText
 10
207.7041709970639
 20
162.3083428297897
 30
0.0
 40
2.999999971087028
 41
0.0
 71
     5
 72
     1
  1
6
  7
ATOM
 11
0.0000000000000001
 21
1.0
 31
0.0
 73
     1
 44
1.0
1001
ACAD
1000
MTEXTBEGIN
1070
    73
1070
     1
1070
    44
1040
1.0
1070
    74
1070
     0
1000
MTEXTEND
  0
POINT
  5
E9C
330
5DC
100
AcDbEntity
  8
Defpoints
 62
     0
100
AcDbPoint
 10
202.8154202809792
 20
156.3083428876156
 30
0.0
  0
POINT
  5
E9D
330
5DC
100
AcDbEntity
  8
Defpoints
 62
     0
100
AcDbPoint
 10
201.990431224118
 20
168.3083427719637
 30
0.0
  0
POINT
  5
E9E
330
5DC
100
AcDbEntity
  8
Defpoints
 62
     0
100
AcDbPoint
 10
209.8291709765838
 20
168.3083427719637
 30
0.0
  0
ENDBLK
  5
5DE
330
5DC
100
AcDbEntity
  8
0
100
AcDbBlockEnd
  0
BLOCK
  5
5E9
330
5E8
100
AcDbEntity
  8
0
100
AcDbBlockBegin
  2
*D38
 70
     1
 10
0.0
 20
0.0
 30
0.0
  3
*D38
  1

  0
LINE
  5
E9F
330
5E8
100
AcDbEntity
  8
dim
 62
     0
370
    -2
100
AcDbLine
 10
252.4446603784479
 20
208.3083423864574
 30
0.0
 11
252.6710240126302
 21
208.3083423864574
 31
0.0
  0
LINE
  5
EA0
330
5E8
100
AcDbEntity
  8
dim
 62
     0
370
    -2
100
AcDbLine
 10
249.6710240415431
 20
211.3083423575444
 30
0.0
 11
250.6710240319055
 21
211.3083423575444
 31
0.0
  0
LINE
  5
EA1
330
5E8
100
AcDbEntity
  8
dim
 62
     0
370
    -2
100
AcDbLine
 10
251.6710240222678
 20
206.3083424057328
 30
0.0
 11
251.6710240222678
 21
204.3083424250081
 31
0.0
  0
LINE
  5
EA2
330
5E8
100
AcDbEntity
  8
dim
 62
     0
370
    -2
100
AcDbLine
 10
251.6710240222678
 20
213.3083423382692
 30
0.0
 11
251.6710240222678
 21
215.3083423189938
 31
0.0
  0
LINE
  5
EA3
330
5E8
100
AcDbEntity
  8
dim
 62
     0
370
    -2
100
AcDbLine
 10
251.6710240222678
 20
221.1477815859796
 30
0.0
 11
251.6710240222678
 21
211.3083423575444
 31
0.0
  0
MTEXT
  5
EA4
330
5E8
100
AcDbEntity
  8
dim
 62
     3
100
AcDbMText
 10
249.5460240427478
 20
218.2727816136879
 30
0.0
 40
2.999999971087028
 41
0.0
 71
     5
 72
     1
  1
1.5
  7
ATOM
 11
0.0000000000000001
 21
1.0
 31
0.0
 73
     1
 44
1.0
1001
ACAD
1000
MTEXTBEGIN
1070
    73
1070
     1
1070
    44
1040
1.0
1070
    74
1070
     0
1000
MTEXTEND
  0
LINE
  5
EA5
330
5E8
100
AcDbEntity
  8
dim
 62
     0
370
    -2
100
AcDbLine
 10
251.6710240222678
 20
208.3083423864574
 30
0.0
 11
251.6710240222678
 21
211.3083423575444
 31
0.0
  0
LINE
  5
EA6
330
5E8
100
AcDbEntity
  8
dim
 62
     0
370
    -2
100
AcDbLine
 10
251.6710240222678
 20
208.3083423864574
 30
0.0
 11
251.6710240222678
 21
211.3083423575444
 31
0.0
  0
INSERT
  5
EA7
330
5E8
100
AcDbEntity
  8
dim
 62
     0
370
    -2
100
AcDbBlockReference
  2
_Open30
 10
251.6710240222678
 20
208.3083423864574
 30
0.0
 41
1.999999980724686
 42
1.999999980724686
 43
1.999999980724686
 50
90.0
  0
INSERT
  5
EA8
330
5E8
100
AcDbEntity
  8
dim
 62
     0
370
    -2
100
AcDbBlockReference
  2
_Open30
 10
251.6710240222678
 20
211.3083423575444
 30
0.0
 41
1.999999980724686
 42
1.999999980724686
 43
1.999999980724686
 50
270.0
  0
POINT
  5
EA9
330
5E8
100
AcDbEntity
  8
Defpoints
 62
     0
100
AcDbPoint
 10
250.4446603977232
 20
208.3083423864574
 30
0.0
  0
POINT
  5
EAA
330
5E8
100
AcDbEntity
  8
Defpoints
 62
     0
100
AcDbPoint
 10
251.6710240222678
 20
211.3083423575444
 30
0.0
  0
POINT
  5
EAB
330
5E8
100
AcDbEntity
  8
Defpoints
 62
     0
100
AcDbPoint
 10
251.6710240222678
 20
211.3083423575444
 30
0.0
  0
ENDBLK
  5
5EA
330
5E8
100
AcDbEntity
  8
0
100
AcDbBlockEnd
  0
BLOCK
  5
5F7
330
5F6
100
AcDbEntity
  8
0
100
AcDbBlockBegin
  2
*D39
 70
     1
 10
0.0
 20
0.0
 30
0.0
  3
*D39
  1

  0
LINE
  5
EAC
330
5F6
100
AcDbEntity
  8
dim
 62
     0
370
    -2
100
AcDbLine
 10
189.5899939361157
 20
254.3083419431252
 30
0.0
 11
171.5945632177685
 21
254.3083419431252
 31
0.0
  0
LINE
  5
EAD
330
5F6
100
AcDbEntity
  8
dim
 62
     0
370
    -2
100
AcDbLine
 10
183.9515136378499
 20
242.3083420587771
 30
0.0
 11
171.5945632177685
 21
242.3083420587771
 31
0.0
  0
LINE
  5
EAE
330
5F6
100
AcDbEntity
  8
dim
 62
     0
370
    -2
100
AcDbLine
 10
172.5945632081309
 20
252.3083419624005
 30
0.0
 11
172.5945632081309
 21
244.3083420395018
 31
0.0
  0
INSERT
  5
EAF
330
5F6
100
AcDbEntity
  8
dim
 62
     0
370
    -2
100
AcDbBlockReference
  2
_Open30
 10
172.5945632081309
 20
254.3083419431252
 30
0.0
 41
1.999999980724686
 42
1.999999980724686
 43
1.999999980724686
 50
90.0
  0
INSERT
  5
EB0
330
5F6
100
AcDbEntity
  8
dim
 62
     0
370
    -2
100
AcDbBlockReference
  2
_Open30
 10
172.5945632081309
 20
242.3083420587771
 30
0.0
 41
1.999999980724686
 42
1.999999980724686
 43
1.999999980724686
 50
270.0
  0
MTEXT
  5
EB1
330
5F6
100
AcDbEntity
  8
dim
 62
     3
100
AcDbMText
 10
170.4695632286109
 20
248.3083420009512
 30
0.0
 40
2.999999971087028
 41
0.0
 71
     5
 72
     1
  1
6
  7
ATOM
 11
0.0000000000000001
 21
1.0
 31
0.0
 73
     1
 44
1.0
1001
ACAD
1000
MTEXTBEGIN
1070
    73
1070
     1
1070
    44
1040
1.0
1070
    74
1070
     0
1000
MTEXTEND
  0
POINT
  5
EB2
330
5F6
100
AcDbEntity
  8
Defpoints
 62
     0
100
AcDbPoint
 10
191.5899939168404
 20
254.3083419431252
 30
0.0
  0
POINT
  5
EB3
330
5F6
100
AcDbEntity
  8
Defpoints
 62
     0
100
AcDbPoint
 10
185.9515136185746
 20
242.3083420587771
 30
0.0
  0
POINT
  5
EB4
330
5F6
100
AcDbEntity
  8
Defpoints
 62
     0
100
AcDbPoint
 10
172.5945632081309
 20
242.3083420587771
 30
0.0
  0
ENDBLK
  5
5F8
330
5F6
100
AcDbEntity
  8
0
100
AcDbBlockEnd
  0
BLOCK
  5
603
330
602
100
AcDbEntity
  8
0
100
AcDbBlockBegin
  2
*D40
 70
     1
 10
0.0
 20
0.0
 30
0.0
  3
*D40
  1

  0
LINE
  5
EB5
330
602
100
AcDbEntity
  8
dim
 62
     0
370
    -2
100
AcDbLine
 10
230.9899935371162
 20
213.3083423382692
 30
0.0
 11
230.9899935371162
 21
261.8266073616684
 31
0.0
  0
LINE
  5
EB6
330
602
100
AcDbEntity
  8
dim
 62
     0
370
    -2
100
AcDbLine
 10
190.9899939226226
 20
255.7083419296325
 30
0.0
 11
190.9899939226226
 21
261.8266073616684
 31
0.0
  0
LINE
  5
EB7
330
602
100
AcDbEntity
  8
dim
 62
     0
370
    -2
100
AcDbLine
 10
228.9899935563915
 20
260.826607371306
 30
0.0
 11
192.9899939033473
 21
260.826607371306
 31
0.0
  0
INSERT
  5
EB8
330
602
100
AcDbEntity
  8
dim
 62
     0
370
    -2
100
AcDbBlockReference
  2
_Open30
 10
230.9899935371162
 20
260.826607371306
 30
0.0
 41
1.999999980724686
 42
1.999999980724686
 43
1.999999980724686
  0
INSERT
  5
EB9
330
602
100
AcDbEntity
  8
dim
 62
     0
370
    -2
100
AcDbBlockReference
  2
_Open30
 10
190.9899939226226
 20
260.826607371306
 30
0.0
 41
1.999999980724686
 42
1.999999980724686
 43
1.999999980724686
 50
180.0
  0
MTEXT
  5
EBA
330
602
100
AcDbEntity
  8
dim
 62
     3
100
AcDbMText
 10
212.489993715413
 20
262.951607350826
 30
0.0
 40
2.999999971087028
 41
0.0
 71
     5
 72
     1
  1
20
  7
ATOM
 73
     1
 44
1.0
1001
ACAD
1000
MTEXTBEGIN
1070
    73
1070
     1
1070
    44
1040
1.0
1070
    74
1070
     0
1000
MTEXTEND
  0
POINT
  5
EBB
330
602
100
AcDbEntity
  8
Defpoints
 62
     0
100
AcDbPoint
 10
230.9899935371162
 20
211.3083423575444
 30
0.0
  0
POINT
  5
EBC
330
602
100
AcDbEntity
  8
Defpoints
 62
     0
100
AcDbPoint
 10
190.9899939226226
 20
253.7083419489079
 30
0.0
  0
POINT
  5
EBD
330
602
100
AcDbEntity
  8
Defpoints
 62
     0
100
AcDbPoint
 10
190.9899939226226
 20
260.826607371306
 30
0.0
  0
ENDBLK
  5
604
330
602
100
AcDbEntity
  8
0
100
AcDbBlockEnd
  0
BLOCK
  5
60F
330
60E
100
AcDbEntity
  8
0
100
AcDbBlockBegin
  2
*D41
 70
     1
 10
0.0
 20
0.0
 30
0.0
  3
*D41
  1

  0
LINE
  5
EBE
330
60E
100
AcDbEntity
  8
dim
 62
     0
370
    -2
100
AcDbLine
 10
205.0435926837816
 20
217.2448608148545
 30
0.0
 11
205.9870528143399
 21
216.9133748230368
 31
0.0
  0
LINE
  5
EBF
330
60E
100
AcDbEntity
  8
dim
 62
     0
370
    -2
100
AcDbLine
 10
206.038050659235
 20
220.0752412065297
 30
0.0
 11
206.9815107897933
 21
219.7437552147119
 31
0.0
  0
LINE
  5
EC0
330
60E
100
AcDbEntity
  8
dim
 62
     0
370
    -2
100
AcDbLine
 10
206.2675409612626
 20
214.6949685701021
 30
0.0
 11
205.604568977627
 21
212.8080483089854
 31
0.0
  0
LINE
  5
EC1
330
60E
100
AcDbEntity
  8
dim
 62
     0
370
    -2
100
AcDbLine
 10
208.5879429039873
 20
221.2991894840109
 30
0.0
 11
209.2509148876229
 21
223.1861097451276
 31
0.0
  0
LINE
  5
EC2
330
60E
100
AcDbEntity
  8
dim
 62
     0
370
    -2
100
AcDbLine
 10
211.3641380854616
 20
229.2006680774376
 30
0.0
 11
207.9249709203517
 21
219.4122692228941
 31
0.0
  0
MTEXT
  5
EC3
330
60E
100
AcDbEntity
  8
dim
 62
     3
100
AcDbMText
 10
208.4062630815488
 20
227.1926279346951
 30
0.0
 40
2.999999971087028
 41
0.0
 71
     5
 72
     1
  1
1.5
  7
ATOM
 11
0.3314859950125577
 21
0.9434601396511325
 31
0.0
 73
     1
 44
1.0
1001
ACAD
1000
MTEXTBEGIN
1070
    73
1070
     1
1070
    44
1040
1.0
1070
    74
1070
     0
1000
MTEXTEND
  0
LINE
  5
EC4
330
60E
100
AcDbEntity
  8
dim
 62
     0
370
    -2
100
AcDbLine
 10
206.9305129448983
 20
216.581888831219
 30
0.0
 11
207.9249709203517
 21
219.4122692228941
 31
0.0
  0
LINE
  5
EC5
330
60E
100
AcDbEntity
  8
dim
 62
     0
370
    -2
100
AcDbLine
 10
206.9305129448983
 20
216.581888831219
 30
0.0
 11
207.9249709203517
 21
219.4122692228941
 31
0.0
  0
INSERT
  5
EC6
330
60E
100
AcDbEntity
  8
dim
 62
     0
370
    -2
100
AcDbBlockReference
  2
_Open30
 10
206.9305129448983
 20
216.581888831219
 30
0.0
 41
1.999999980724686
 42
1.999999980724686
 43
1.999999980724686
 50
70.64100582430537
  0
INSERT
  5
EC7
330
60E
100
AcDbEntity
  8
dim
 62
     0
370
    -2
100
AcDbBlockReference
  2
_Open30
 10
207.9249709203517
 20
219.4122692228941
 30
0.0
 41
1.999999980724686
 42
1.999999980724686
 43
1.999999980724686
 50
250.6410058243054
  0
POINT
  5
EC8
330
60E
100
AcDbEntity
  8
Defpoints
 62
     0
100
AcDbPoint
 10
206.9305129448984
 20
216.5818888312189
 30
0.0
  0
POINT
  5
EC9
330
60E
100
AcDbEntity
  8
Defpoints
 62
     0
100
AcDbPoint
 10
207.9249709203518
 20
219.412269222894
 30
0.0
  0
POINT
  5
ECA
330
60E
100
AcDbEntity
  8
Defpoints
 62
     0
100
AcDbPoint
 10
207.9249709203517
 20
219.4122692228941
 30
0.0
  0
ENDBLK
  5
610
330
60E
100
AcDbEntity
  8
0
100
AcDbBlockEnd
  0
BLOCK
  5
61D
330
61C
100
AcDbEntity
  8
0
100
AcDbBlockBegin
  2
*D42
 70
     1
 10
0.0
 20
0.0
 30
0.0
  3
*D42
  1

  0
LINE
  5
ECB
330
61C
100
AcDbEntity
  8
dim
 62
     0
370
    -2
100
AcDbLine
 10
281.1524141394246
 20
185.9964361593771
 30
0.0
 11
286.9899929974076
 21
202.3083424442836
 31
0.0
  0
MTEXT
  5
ECC
330
61C
100
AcDbEntity
  8
dim
 62
     3
100
AcDbMText
 10
279.9687678296061
 20
188.9956412562091
 30
0.0
 40
2.999999971087028
 41
0.0
 71
     5
 72
     1
  1
R1
  7
ATOM
 11
0.3369453950432425
 21
0.9415241902145442
 31
0.0
 73
     1
 44
1.0
1001
ACAD
1000
MTEXTBEGIN
1070
    73
1070
     1
1070
    44
1040
1.0
1070
    74
1070
     0
1000
MTEXTEND
  0
INSERT
  5
ECD
330
61C
100
AcDbEntity
  8
dim
 62
     0
370
    -2
100
AcDbBlockReference
  2
_Open30
 10
287.6638837809993
 20
204.1913908065644
 30
0.0
 41
1.999999980724686
 42
1.999999980724686
 43
1.999999980724686
 50
70.30912008832581
  0
POINT
  5
ECE
330
61C
100
AcDbEntity
  8
Defpoints
 62
     0
100
AcDbPoint
 10
287.6638837809993
 20
204.1913908065644
 30
0.0
  0
POINT
  5
ECF
330
61C
100
AcDbEntity
  8
Defpoints
 62
     0
100
AcDbPoint
 10
286.9899929974075
 20
202.3083424442833
 30
0.0
  0
ENDBLK
  5
61E
330
61C
100
AcDbEntity
  8
0
100
AcDbBlockEnd
  0
BLOCK
  5
625
330
624
100
AcDbEntity
  8
0
100
AcDbBlockBegin
  2
*D43
 70
     1
 10
0.0
 20
0.0
 30
0.0
  3
*D43
  1

  0
LINE
  5
ED0
330
624
100
AcDbEntity
  8
dim
 62
     0
370
    -2
100
AcDbLine
 10
273.1200622290891
 20
189.9204874149344
 30
0.0
 11
287.3448766805877
 21
173.0724271076371
 31
0.0
  0
MTEXT
  5
ED1
330
624
100
AcDbEntity
  8
dim
 62
     3
100
AcDbMText
 10
277.6145090912735
 20
187.8911841024006
 30
0.0
 40
2.999999971087028
 41
0.0
 71
     5
 72
     1
  1
R0.5
  7
ATOM
 11
0.6451163133992607
 21
-0.7640843815876273
 31
0.0
 73
     1
 44
1.0
1001
ACAD
1000
MTEXTBEGIN
1070
    73
1070
     1
1070
    44
1040
1.0
1070
    74
1070
     0
1000
MTEXTEND
  0
INSERT
  5
ED2
330
624
100
AcDbEntity
  8
dim
 62
     0
370
    -2
100
AcDbBlockReference
  2
_Open30
 10
288.6351092949514
 20
171.5442583591899
 30
0.0
 41
1.999999980724686
 42
1.999999980724686
 43
1.999999980724686
 50
310.1743968080453
  0
POINT
  5
ED3
330
624
100
AcDbEntity
  8
Defpoints
 62
     0
100
AcDbPoint
 10
288.6351092949514
 20
171.5442583591899
 30
0.0
  0
POINT
  5
ED4
330
624
100
AcDbEntity
  8
Defpoints
 62
     0
100
AcDbPoint
 10
287.9899929877694
 20
172.3083427334135
 30
0.0
  0
ENDBLK
  5
626
330
624
100
AcDbEntity
  8
0
100
AcDbBlockEnd
  0
BLOCK
  5
62D
330
62C
100
AcDbEntity
  8
0
100
AcDbBlockBegin
  2
*D44
 70
     1
 10
0.0
 20
0.0
 30
0.0
  3
*D44
  1

  0
LINE
  5
ED5
330
62C
100
AcDbEntity
  8
dim
 62
     0
370
    -2
100
AcDbLine
 10
245.7035454993177
 20
161.1950146768747
 30
0.0
 11
254.5540693036844
 21
167.557264758272
 31
0.0
  0
MTEXT
  5
ED6
330
62C
100
AcDbEntity
  8
dim
 62
     3
100
AcDbMText
 10
248.0764858210116
 20
165.5178932040763
 30
0.0
 40
2.999999971087028
 41
0.0
 71
     5
 72
     1
  1
R0.5
  7
ATOM
 11
0.8119746687766017
 21
0.5836926736435261
 31
0.0
 73
     1
 44
1.0
1001
ACAD
1000
MTEXTBEGIN
1070
    73
1070
     1
1070
    44
1040
1.0
1070
    74
1070
     0
1000
MTEXTEND
  0
INSERT
  5
ED7
330
62C
100
AcDbEntity
  8
dim
 62
     0
370
    -2
100
AcDbBlockReference
  2
_Open30
 10
256.1780186255865
 20
168.724650094308
 30
0.0
 41
1.999999980724686
 42
1.999999980724686
 43
1.999999980724686
 50
35.71068699363348
  0
POINT
  5
ED8
330
62C
100
AcDbEntity
  8
Defpoints
 62
     0
100
AcDbPoint
 10
256.1780186255865
 20
168.724650094308
 30
0.0
  0
POINT
  5
ED9
330
62C
100
AcDbEntity
  8
Defpoints
 62
     0
100
AcDbPoint
 10
256.9899932865372
 20
169.308342762326
 30
0.0
  0
ENDBLK
  5
62E
330
62C
100
AcDbEntity
  8
0
100
AcDbBlockEnd
  0
BLOCK
  5
635
330
634
100
AcDbEntity
  8
0
100
AcDbBlockBegin
  2
*D45
 70
     1
 10
0.0
 20
0.0
 30
0.0
  3
*D45
  1

  0
LINE
  5
EDA
330
634
100
AcDbEntity
  8
dim
 62
     0
370
    -2
100
AcDbLine
 10
191.9899939129852
 20
224.3083422322551
 30
0.0
 11
165.594563275595
 21
224.3083422322551
 31
0.0
  0
LINE
  5
EDB
330
634
100
AcDbEntity
  8
dim
 62
     0
370
    -2
100
AcDbLine
 10
189.5899939361157
 20
254.3083419431252
 30
0.0
 11
165.594563275595
 21
254.3083419431252
 31
0.0
  0
LINE
  5
EDC
330
634
100
AcDbEntity
  8
dim
 62
     0
370
    -2
100
AcDbLine
 10
166.5945632659574
 20
226.3083422129798
 30
0.0
 11
166.5945632659574
 21
252.3083419624005
 31
0.0
  0
INSERT
  5
EDD
330
634
100
AcDbEntity
  8
dim
 62
     0
370
    -2
100
AcDbBlockReference
  2
_Open30
 10
166.5945632659574
 20
224.3083422322551
 30
0.0
 41
1.999999980724686
 42
1.999999980724686
 43
1.999999980724686
 50
270.0
  0
INSERT
  5
EDE
330
634
100
AcDbEntity
  8
dim
 62
     0
370
    -2
100
AcDbBlockReference
  2
_Open30
 10
166.5945632659574
 20
254.3083419431252
 30
0.0
 41
1.999999980724686
 42
1.999999980724686
 43
1.999999980724686
 50
90.0
  0
MTEXT
  5
EDF
330
634
100
AcDbEntity
  8
dim
 62
     3
100
AcDbMText
 10
164.4695632864374
 20
239.3083420876902
 30
0.0
 40
2.999999971087028
 41
0.0
 71
     5
 72
     1
  1
15
  7
ATOM
 11
0.0000000000000001
 21
1.0
 31
0.0
 73
     1
 44
1.0
1001
ACAD
1000
MTEXTBEGIN
1070
    73
1070
     1
1070
    44
1040
1.0
1070
    74
1070
     0
1000
MTEXTEND
  0
POINT
  5
EE0
330
634
100
AcDbEntity
  8
Defpoints
 62
     0
100
AcDbPoint
 10
193.9899938937099
 20
224.3083422322551
 30
0.0
  0
POINT
  5
EE1
330
634
100
AcDbEntity
  8
Defpoints
 62
     0
100
AcDbPoint
 10
191.5899939168404
 20
254.3083419431252
 30
0.0
  0
POINT
  5
EE2
330
634
100
AcDbEntity
  8
Defpoints
 62
     0
100
AcDbPoint
 10
166.5945632659574
 20
254.3083419431252
 30
0.0
  0
ENDBLK
  5
636
330
634
100
AcDbEntity
  8
0
100
AcDbBlockEnd
  0
BLOCK
  5
641
330
640
100
AcDbEntity
  8
0
100
AcDbBlockBegin
  2
*D46
 70
     1
 10
0.0
 20
0.0
 30
0.0
  3
*D46
  1

  0
LINE
  5
EE3
330
640
100
AcDbEntity
  8
dim
 62
     0
370
    -2
100
AcDbLine
 10
207.8291709958591
 20
168.3083427719637
 30
0.0
 11
208.8291709862214
 21
168.3083427719637
 31
0.0
  0
LINE
  5
EE4
330
640
100
AcDbEntity
  8
dim
 62
     0
370
    -2
100
AcDbLine
 10
211.6899945259395
 20
171.3083430032675
 30
0.0
 11
210.8291709669461
 21
171.3083430032675
 31
0.0
  0
LINE
  5
EE5
330
640
100
AcDbEntity
  8
dim
 62
     0
370
    -2
100
AcDbLine
 10
209.8291709765838
 20
166.308342791239
 30
0.0
 11
209.8291709765838
 21
164.3083428105144
 31
0.0
  0
LINE
  5
EE6
330
640
100
AcDbEntity
  8
dim
 62
     0
370
    -2
100
AcDbLine
 10
209.8291709765838
 20
173.3083429839922
 30
0.0
 11
209.8291709765838
 21
175.3083429647167
 31
0.0
  0
LINE
  5
EE7
330
640
100
AcDbEntity
  8
dim
 62
     0
370
    -2
100
AcDbLine
 10
209.8291709765838
 20
181.6685422772788
 30
0.0
 11
209.8291709765838
 21
171.3083430032675
 31
0.0
  0
MTEXT
  5
EE8
330
640
100
AcDbEntity
  8
dim
 62
     3
100
AcDbMText
 10
207.7041709970639
 20
178.7935423049871
 30
0.0
 40
2.999999971087028
 41
0.0
 71
     5
 72
     1
  1
1.5
  7
ATOM
 11
0.0000000000000001
 21
1.0
 31
0.0
 73
     1
 44
1.0
1001
ACAD
1000
MTEXTBEGIN
1070
    73
1070
     1
1070
    44
1040
1.0
1070
    74
1070
     0
1000
MTEXTEND
  0
LINE
  5
EE9
330
640
100
AcDbEntity
  8
dim
 62
     0
370
    -2
100
AcDbLine
 10
209.8291709765838
 20
168.3083427719637
 30
0.0
 11
209.8291709765838
 21
171.3083430032675
 31
0.0
  0
LINE
  5
EEA
330
640
100
AcDbEntity
  8
dim
 62
     0
370
    -2
100
AcDbLine
 10
209.8291709765838
 20
168.3083427719637
 30
0.0
 11
209.8291709765838
 21
171.3083430032675
 31
0.0
  0
INSERT
  5
EEB
330
640
100
AcDbEntity
  8
dim
 62
     0
370
    -2
100
AcDbBlockReference
  2
_Open30
 10
209.8291709765838
 20
168.3083427719637
 30
0.0
 41
1.999999980724686
 42
1.999999980724686
 43
1.999999980724686
 50
90.0
  0
INSERT
  5
EEC
330
640
100
AcDbEntity
  8
dim
 62
     0
370
    -2
100
AcDbBlockReference
  2
_Open30
 10
209.8291709765838
 20
171.3083430032675
 30
0.0
 41
1.999999980724686
 42
1.999999980724686
 43
1.999999980724686
 50
270.0
  0
POINT
  5
EED
330
640
100
AcDbEntity
  8
Defpoints
 62
     0
100
AcDbPoint
 10
209.8291709765838
 20
168.3083427719637
 30
0.0
  0
POINT
  5
EEE
330
640
100
AcDbEntity
  8
Defpoints
 62
     0
100
AcDbPoint
 10
209.6899945452149
 20
171.3083430032675
 30
0.0
  0
POINT
  5
EEF
330
640
100
AcDbEntity
  8
Defpoints
 62
     0
100
AcDbPoint
 10
209.8291709765838
 20
171.3083430032675
 30
0.0
  0
ENDBLK
  5
642
330
640
100
AcDbEntity
  8
0
100
AcDbBlockEnd
  0
BLOCK
  5
64F
330
64E
100
AcDbEntity
  8
0
100
AcDbBlockBegin
  2
*D47
 70
     1
 10
0.0
 20
0.0
 30
0.0
  3
*D47
  1

  0
LINE
  5
F76
330
64E
100
AcDbEntity
  8
dim
 62
     0
370
    -2
100
AcDbLine
 10
205.5863559524577
 20
198.4211097082607
 30
0.0
 11
195.9483928248183
 21
218.0027407517526
 31
0.0
  0
MTEXT
  5
F77
330
64E
100
AcDbEntity
  8
dim
 62
     3
100
AcDbMText
 10
205.6271610732298
 20
203.1502306108178
 30
0.0
 40
2.999999971087028
 41
0.0
 71
     5
 72
     1
  1
R1.5
  7
ATOM
 11
0.4416019841440778
 21
-0.8972110607878246
 31
0.0
 73
     1
 44
1.0
1001
ACAD
1000
MTEXTBEGIN
1070
    73
1070
     1
1070
    44
1040
1.0
1070
    74
1070
     0
1000
MTEXTEND
  0
INSERT
  5
F78
330
64E
100
AcDbEntity
  8
dim
 62
     0
370
    -2
100
AcDbBlockReference
  2
_Open30
 10
195.0651888650422
 20
219.7971628560342
 30
0.0
 41
1.999999980724685
 42
1.999999980724685
 43
1.999999980724685
 50
116.206138773577
  0
POINT
  5
F79
330
64E
100
AcDbEntity
  8
Defpoints
 62
     0
100
AcDbPoint
 10
195.0651888650422
 20
219.7971628560342
 30
0.0
  0
POINT
  5
F7A
330
64E
100
AcDbEntity
  8
Defpoints
 62
     0
100
AcDbPoint
 10
196.3899947919386
 20
217.1055297255524
 30
0.0
  0
ENDBLK
  5
650
330
64E
100
AcDbEntity
  8
0
100
AcDbBlockEnd
  0
BLOCK
  5
657
330
656
100
AcDbEntity
  8
0
100
AcDbBlockBegin
  2
*D48
 70
     1
 10
0.0
 20
0.0
 30
0.0
  3
*D48
  1

  0
LINE
  5
F7B
330
656
100
AcDbEntity
  8
dim
 62
     0
370
    -2
100
AcDbLine
 10
208.192326148487
 20
184.9812143700296
 30
0.0
 11
195.3899948304897
 21
173.3083429839925
 31
0.0
  0
MTEXT
  5
F7C
330
656
100
AcDbEntity
  8
dim
 62
     3
100
AcDbMText
 10
204.9686317377202
 20
184.9176207728721
 30
0.0
 40
2.999999971087028
 41
0.0
 71
     5
 72
     1
  1
R1
  7
ATOM
 11
0.7389513166949238
 21
0.6737588229884924
 31
0.0
 73
     1
 44
1.0
1001
ACAD
1000
MTEXTBEGIN
1070
    73
1070
     1
1070
    44
1040
1.0
1070
    74
1070
     0
1000
MTEXTEND
  0
INSERT
  5
F7D
330
656
100
AcDbEntity
  8
dim
 62
     0
370
    -2
100
AcDbBlockReference
  2
_Open30
 10
193.9120922113433
 20
171.9608253510024
 30
0.0
 41
1.999999980724685
 42
1.999999980724685
 43
1.999999980724685
 50
222.3578396974998
  0
POINT
  5
F7E
330
656
100
AcDbEntity
  8
Defpoints
 62
     0
100
AcDbPoint
 10
193.9120922113433
 20
171.9608253510024
 30
0.0
  0
POINT
  5
F7F
330
656
100
AcDbEntity
  8
Defpoints
 62
     0
100
AcDbPoint
 10
195.3899948304894
 20
173.3083429839922
 30
0.0
  0
ENDBLK
  5
658
330
656
100
AcDbEntity
  8
0
100
AcDbBlockEnd
  0
BLOCK
  5
65F
330
65E
100
AcDbEntity
  8
0
100
AcDbBlockBegin
  2
*D49
 70
     1
 10
0.0
 20
0.0
 30
0.0
  3
*D49
  1

  0
LINE
  5
F80
330
65E
100
AcDbEntity
  8
dim
 62
     0
370
    -2
100
AcDbLine
 10
212.4684745242045
 20
186.2470522209633
 30
0.0
 11
223.9899942471218
 21
173.3083429791121
 31
0.0
  0
MTEXT
  5
F81
330
65E
100
AcDbEntity
  8
dim
 62
     3
100
AcDbMText
 10
215.6681537731603
 20
185.8491797496736
 30
0.0
 40
2.999999971087028
 41
0.0
 71
     5
 72
     1
  1
R1
  7
ATOM
 11
0.6650227960908696
 21
-0.7468230584813793
 31
0.0
 73
     1
 44
1.0
1001
ACAD
1000
MTEXTBEGIN
1070
    73
1070
     1
1070
    44
1040
1.0
1070
    74
1070
     0
1000
MTEXTEND
  0
INSERT
  5
F82
330
65E
100
AcDbEntity
  8
dim
 62
     0
370
    -2
100
AcDbBlockReference
  2
_Open30
 10
225.320039826485
 20
171.8146968765446
 30
0.0
 41
1.999999980724685
 42
1.999999980724685
 43
1.999999980724685
 50
311.6840742708433
  0
POINT
  5
F83
330
65E
100
AcDbEntity
  8
Defpoints
 62
     0
100
AcDbPoint
 10
225.320039826485
 20
171.8146968765446
 30
0.0
  0
POINT
  5
F84
330
65E
100
AcDbEntity
  8
Defpoints
 62
     0
100
AcDbPoint
 10
223.9899942599404
 20
173.3083429647167
 30
0.0
  0
ENDBLK
  5
660
330
65E
100
AcDbEntity
  8
0
100
AcDbBlockEnd
  0
BLOCK
  5
667
330
666
100
AcDbEntity
  8
0
100
AcDbBlockBegin
  2
*D50
 70
     1
 10
0.0
 20
0.0
 30
0.0
  3
*D50
  1

  0
LINE
  5
F85
330
666
100
AcDbEntity
  8
dim
 62
     0
370
    -2
100
AcDbLine
 10
215.1276850374871
 20
194.7180426436856
 30
0.0
 11
226.8707772478638
 21
207.4559937705086
 31
0.0
  0
MTEXT
  5
F86
330
666
100
AcDbEntity
  8
dim
 62
     3
100
AcDbMText
 10
215.2090040838888
 20
197.9413386295208
 30
0.0
 40
2.999999971087028
 41
0.0
 71
     5
 72
     1
  1
R1
  7
ATOM
 11
0.6778119730996922
 21
0.7352352882735582
 31
0.0
 73
     1
 44
1.0
1001
ACAD
1000
MTEXTBEGIN
1070
    73
1070
     1
1070
    44
1040
1.0
1070
    74
1070
     0
1000
MTEXTEND
  0
INSERT
  5
F87
330
666
100
AcDbEntity
  8
dim
 62
     0
370
    -2
100
AcDbBlockReference
  2
_Open30
 10
228.2264011809981
 20
208.9264643328838
 30
0.0
 41
1.999999980724685
 42
1.999999980724685
 43
1.999999980724685
 50
47.32710139589386
  0
POINT
  5
F88
330
666
100
AcDbEntity
  8
Defpoints
 62
     0
100
AcDbPoint
 10
228.2264011809981
 20
208.9264643328838
 30
0.0
  0
POINT
  5
F89
330
666
100
AcDbEntity
  8
Defpoints
 62
     0
100
AcDbPoint
 10
226.8707772478635
 20
207.4559937705083
 30
0.0
  0
ENDBLK
  5
668
330
666
100
AcDbEntity
  8
0
100
AcDbBlockEnd
  0
BLOCK
  5
B82
330
B81
100
AcDbEntity
  8
0
100
AcDbBlockBegin
  2
*D51
 70
     1
 10
0.0
 20
0.0
 30
0.0
  3
*D51
  1

  0
LINE
  5
F04
330
B81
100
AcDbEntity
  8
dim
 62
     0
370
    -2
100
AcDbLine
 10
176.0332006907761
 20
306.1113104150113
 30
0.0
 11
182.8368191161631
 21
306.1113104150113
 31
0.0
  0
LINE
  5
F05
330
B81
100
AcDbEntity
  8
dim
 62
     0
370
    -2
100
AcDbLine
 10
177.5332002302299
 20
304.6113108755581
 30
0.0
 11
182.8368191161631
 21
304.6113108755581
 31
0.0
  0
LINE
  5
F06
330
B81
100
AcDbEntity
  8
dim
 62
     0
370
    -2
100
AcDbLine
 10
181.8368194231945
 20
308.1113098009486
 30
0.0
 11
181.8368194231945
 21
310.1113091868858
 31
0.0
  0
LINE
  5
F07
330
B81
100
AcDbEntity
  8
dim
 62
     0
370
    -2
100
AcDbLine
 10
181.8368194231945
 20
302.6113114896209
 30
0.0
 11
181.8368194231945
 21
300.6113121036835
 31
0.0
  0
LINE
  5
F08
330
B81
100
AcDbEntity
  8
dim
 62
     0
370
    -2
100
AcDbLine
 10
181.8368194231945
 20
319.8831377862847
 30
0.0
 11
181.8368194231945
 21
306.1113104150113
 31
0.0
  0
MTEXT
  5
F09
330
B81
100
AcDbEntity
  8
dim
 62
     3
100
AcDbMText
 10
179.7118200756362
 20
316.783138738082
 30
0.0
 40
2.999999078905866
 41
0.0
 71
     5
 72
     1
  1
0.3
  7
ATOM
 11
0.0000000000000001
 21
1.0
 31
0.0
 73
     1
 44
1.0
1001
ACAD
1000
MTEXTBEGIN
1070
    73
1070
     1
1070
    44
1040
1.0
1070
    74
1070
     0
1000
MTEXTEND
  0
LINE
  5
F0A
330
B81
100
AcDbEntity
  8
dim
 62
     0
370
    -2
100
AcDbLine
 10
181.8368194231945
 20
306.1113104150113
 30
0.0
 11
181.8368194231945
 21
304.6113108755581
 31
0.0
  0
LINE
  5
F0B
330
B81
100
AcDbEntity
  8
dim
 62
     0
370
    -2
100
AcDbLine
 10
181.8368194231945
 20
306.1113104150113
 30
0.0
 11
181.8368194231945
 21
304.6113108755581
 31
0.0
  0
INSERT
  5
F0C
330
B81
100
AcDbEntity
  8
dim
 62
     0
370
    -2
100
AcDbBlockReference
  2
_Open30
 10
181.8368194231945
 20
306.1113104150113
 30
0.0
 41
1.999999385937243
 42
1.999999385937243
 43
1.999999385937243
 50
270.0
  0
INSERT
  5
F0D
330
B81
100
AcDbEntity
  8
dim
 62
     0
370
    -2
100
AcDbBlockReference
  2
_Open30
 10
181.8368194231945
 20
304.6113108755581
 30
0.0
 41
1.999999385937243
 42
1.999999385937243
 43
1.999999385937243
 50
90.0
  0
POINT
  5
F0E
330
B81
100
AcDbEntity
  8
Defpoints
 62
     0
100
AcDbPoint
 10
174.0332013048389
 20
306.1113104150113
 30
0.0
  0
POINT
  5
F0F
330
B81
100
AcDbEntity
  8
Defpoints
 62
     0
100
AcDbPoint
 10
175.5332008442926
 20
304.6113108755581
 30
0.0
  0
POINT
  5
F10
330
B81
100
AcDbEntity
  8
Defpoints
 62
     0
100
AcDbPoint
 10
181.8368194231945
 20
304.6113108755581
 30
0.0
  0
ENDBLK
  5
B83
330
B81
100
AcDbEntity
  8
0
100
AcDbBlockEnd
  0
BLOCK
  5
B90
330
B8F
100
AcDbEntity
  8
0
100
AcDbBlockBegin
  2
*D52
 70
     1
 10
0.0
 20
0.0
 30
0.0
  3
*D52
  1

  0
LINE
  5
F11
330
B8F
100
AcDbEntity
  8
dim
 62
     0
370
    -2
100
AcDbLine
 10
171.1189886372212
 20
303.1970977473926
 30
0.0
 11
163.136270358554
 21
295.2143794687231
 31
0.0
  0
LINE
  5
F12
330
B8F
100
AcDbEntity
  8
dim
 62
     0
370
    -2
100
AcDbLine
 10
176.947413972458
 20
303.1970977473931
 30
0.0
 11
184.9301322511271
 21
295.2143794687263
 31
0.0
  0
ARC
  5
F13
330
B8F
100
AcDbEntity
  8
dim
 62
     0
370
    -2
100
AcDbCircle
 10
174.0332013048389
 20
306.1113104150113
 30
0.0
 40
14.41058783951291
100
AcDbArc
 50
232.9582938018932
 51
307.0417061981242
  0
INSERT
  5
F14
330
B8F
100
AcDbEntity
  8
dim
 62
     0
370
    -2
100
AcDbBlockReference
  2
_Open30
 10
163.8433769226365
 20
295.9214860328058
 30
0.0
 41
1.999999385937243
 42
1.999999385937243
 43
1.999999385937243
 50
138.9791469009509
  0
INSERT
  5
F15
330
B8F
100
AcDbEntity
  8
dim
 62
     0
370
    -2
100
AcDbBlockReference
  2
_Open30
 10
184.2230256870444
 20
295.9214860328089
 30
0.0
 41
1.999999385937243
 42
1.999999385937243
 43
1.999999385937243
 50
41.02085309906649
  0
MTEXT
  5
F16
330
B8F
100
AcDbEntity
  8
dim
 62
     3
100
AcDbMText
 10
174.0332013048408
 20
293.8257219230568
 30
0.0
 40
2.999999078905866
 41
0.0
 71
     5
 72
     1
  1
90\U+00B0
  7
ATOM
 73
     1
 44
1.0
1001
ACAD
1000
MTEXTBEGIN
1070
    73
1070
     1
1070
    44
1040
1.0
1070
    74
1070
     0
1000
MTEXTEND
  0
POINT
  5
F17
330
B8F
100
AcDbEntity
  8
Defpoints
 62
     0
100
AcDbPoint
 10
170.3034667208523
 20
292.191751448818
 30
0.0
  0
POINT
  5
F18
330
B8F
100
AcDbEntity
  8
Defpoints
 62
     0
100
AcDbPoint
 10
174.0332013048389
 20
306.1113104150113
 30
0.0
  0
POINT
  5
F19
330
B8F
100
AcDbEntity
  8
Defpoints
 62
     0
100
AcDbPoint
 10
172.5332017653861
 20
304.6113108755581
 30
0.0
  0
POINT
  5
F1A
330
B8F
100
AcDbEntity
  8
Defpoints
 62
     0
100
AcDbPoint
 10
174.0332013048389
 20
306.1113104150113
 30
0.0
  0
POINT
  5
F1B
330
B8F
100
AcDbEntity
  8
Defpoints
 62
     0
100
AcDbPoint
 10
175.5332008442926
 20
304.6113108755581
 30
0.0
  0
ENDBLK
  5
B91
330
B8F
100
AcDbEntity
  8
0
100
AcDbBlockEnd
  0
BLOCK
  5
BF3
330
BF0
100
AcDbEntity
  8
0
100
AcDbBlockBegin
  2
ATOM_A4T_zuwaku
 70
     2
 10
0.0
 20
0.0
 30
0.0
  3
ATOM_A4T_zuwaku
  1

  0
LWPOLYLINE
  5
BF4
330
BF0
100
AcDbEntity
  8
flame
  6
ByBlock
100
AcDbPolyline
 90
        4
 70
     1
 43
0.0
 10
24.59999999999946
 20
32.02453525127749
 10
20.59421302496503
 20
33.21128572090675
 10
20.59421302496503
 20
35.45924095267583
 10
24.59999999999946
 20
36.64599142230509
1001
AcDbBlockRepETag
1070
     1
1071
        0
1005
BF4
  0
LWPOLYLINE
  5
BF8
330
BF0
100
AcDbEntity
  8
flame
  6
ByBlock
100
AcDbPolyline
 90
        4
 70
     1
 43
0.0
 10
24.68499999999858
 20
31.9107014793517
 10
20.50921302496499
 20
33.14781598009358
 10
20.50921302496499
 20
35.52271069349081
 10
24.68499999999858
 20
36.75982519423087
1001
AcDbBlockRepETag
1070
     1
1071
        1
1005
BF8
  0
LWPOLYLINE
  5
BF9
330
BF0
100
AcDbEntity
  8
flame
  6
ByBlock
100
AcDbPolyline
 90
        4
 70
     1
 43
0.0
 10
24.51499999999942
 20
32.13836902320327
 10
20.67921302496507
 20
33.27475546172173
 10
20.67921302496507
 20
35.39577121186268
 10
24.51499999999942
 20
36.53215765037931
1001
AcDbBlockRepETag
1070
     1
1071
        2
1005
BF9
  0
LINE
  5
BFA
330
BF0
100
AcDbEntity
  8
flame
  6
ByBlock
100
AcDbLine
 10
119.0
 20
38.00000000000182
 30
0.0
 11
119.0
 21
10.00000000000182
 31
0.0
1001
AcDbBlockRepETag
1070
     1
1071
        3
1005
BFA
  0
LINE
  5
BFB
330
BF0
100
AcDbEntity
  8
flame
  6
ByBlock
100
AcDbLine
 10
144.0
 20
38.00000000000182
 30
0.0
 11
144.0
 21
10.0
 31
0.0
1001
AcDbBlockRepETag
1070
     1
1071
        4
1005
BFB
  0
LINE
  5
BFC
330
BF0
100
AcDbEntity
  8
flame
  6
ByBlock
100
AcDbLine
 10
143.9149999999999
 20
38.00000000000182
 30
0.0
 11
143.9149999999999
 21
10.0
 31
0.0
1001
AcDbBlockRepETag
1070
     1
1071
        5
1005
BFC
  0
LINE
  5
BFD
330
BF0
100
AcDbEntity
  8
flame
  6
ByBlock
100
AcDbLine
 10
144.085
 20
38.00000000000182
 30
0.0
 11
144.085
 21
10.0
 31
0.0
1001
AcDbBlockRepETag
1070
     1
1071
        6
1005
BFD
  0
LINE
  5
BFE
330
BF0
100
AcDbEntity
  8
flame
  6
ByBlock
100
AcDbLine
 10
141.0
 20
38.00000000000182
 30
0.0
 11
141.0
 21
10.0
 31
0.0
1001
AcDbBlockRepETag
1070
     1
1071
        7
1005
BFE
  0
LINE
  5
BFF
330
BF0
100
AcDbEntity
  8
flame
  6
ByBlock
100
AcDbLine
 10
140.9149999999999
 20
38.00000000000182
 30
0.0
 11
140.9149999999999
 21
10.0
 31
0.0
1001
AcDbBlockRepETag
1070
     1
1071
        8
1005
BFF
  0
LINE
  5
C00
330
BF0
100
AcDbEntity
  8
flame
  6
ByBlock
100
AcDbLine
 10
141.085
 20
38.00000000000182
 30
0.0
 11
141.085
 21
10.0
 31
0.0
1001
AcDbBlockRepETag
1070
     1
1071
        9
1005
C00
  0
LINE
  5
C01
330
BF0
100
AcDbEntity
  8
flame
  6
ByBlock
100
AcDbLine
 10
186.5
 20
10.00000000000182
 30
0.0
 11
186.5
 21
17.00000000000182
 31
0.0
1001
AcDbBlockRepETag
1070
     1
1071
       10
1005
C01
  0
TEXT
  5
C02
330
BF0
100
AcDbEntity
  8
flame
  6
ByBlock
100
AcDbText
 10
15.55924259358817
 20
11.75
 30
0.0
 40
5.0
  1
アトムリビンテック株式会社
 41
0.6
  7
ATOM
 72
     1
 11
38.75924259358817
 21
14.25
 31
0.0
100
AcDbText
 73
     2
1001
AcDbBlockRepETag
1070
     1
1071
       12
1005
C02
  0
TEXT
  5
C03
330
BF0
100
AcDbEntity
  8
flame
  6
ByBlock
100
AcDbText
 10
67.5
 20
21.5
 30
0.0
 40
4.0
  1
開　　発　　部
 41
0.9
  7
ATOM
 11
67.5
 21
23.5
 31
0.0
100
AcDbText
 73
     2
1001
AcDbBlockRepETag
1070
     1
1071
       13
1005
C03
  0
TEXT
  5
C04
330
BF0
100
AcDbEntity
  8
flame
  6
ByBlock
100
AcDbText
 10
67.5
 20
17.0
 30
0.0
 40
3.0
  1
〒110-8680
 41
0.7
  7
ATOM
 11
67.5
 21
18.5
 31
0.0
100
AcDbText
 73
     2
1001
AcDbBlockRepETag
1070
     1
1071
       14
1005
C04
  0
TEXT
  5
C05
330
BF0
100
AcDbEntity
  8
flame
  6
ByBlock
100
AcDbText
 10
67.5
 20
12.5
 30
0.0
 40
3.0
  1
東京都 台東区 入谷 1-27-4
 41
0.65
  7
ATOM
 11
67.5
 21
14.0
 31
0.0
100
AcDbText
 73
     2
1001
AcDbBlockRepETag
1070
     1
1071
       15
1005
C05
  0
TEXT
  5
C06
330
BF0
100
AcDbEntity
  8
flame
  6
ByBlock
100
AcDbText
 10
13.62
 20
40.00000000000182
 30
0.0
 40
3.0
  1
部番
 41
0.9
  7
ATOM
 72
     1
 11
16.5
 21
41.50000000000182
 31
0.0
100
AcDbText
 73
     2
1001
AcDbBlockRepETag
1070
     1
1071
       16
1005
C06
  0
TEXT
  5
C07
330
BF0
100
AcDbEntity
  8
flame
  6
ByBlock
100
AcDbText
 10
27.63
 20
40.00000000000182
 30
0.0
 40
3.0
  1
部　　　　品　　　　名
 41
0.9
  7
ATOM
 72
     1
 11
45.0
 21
41.50000000000182
 31
0.0
100
AcDbText
 73
     2
1001
AcDbBlockRepETag
1070
     1
1071
       17
1005
C07
  0
TEXT
  5
C08
330
BF0
100
AcDbEntity
  8
flame
  6
ByBlock
100
AcDbText
 10
77.88
 20
40.00000000000182
 30
0.0
 40
3.0
  1
材　　質
 41
0.9
  7
ATOM
 72
     1
 11
84.0
 21
41.50000000000182
 31
0.0
100
AcDbText
 73
     2
1001
AcDbBlockRepETag
1070
     1
1071
       18
1005
C08
  0
TEXT
  5
C09
330
BF0
100
AcDbEntity
  8
flame
  6
ByBlock
100
AcDbText
 10
98.62000000000001
 20
40.00000000000182
 30
0.0
 40
3.0
  1
数量
 41
0.9
  7
ATOM
 72
     1
 11
101.5
 21
41.50000000000182
 31
0.0
100
AcDbText
 73
     2
1001
AcDbBlockRepETag
1070
     1
1071
       19
1005
C09
  0
TEXT
  5
C0A
330
BF0
100
AcDbEntity
  8
flame
  6
ByBlock
100
AcDbText
 10
114.16
 20
40.00000000000182
 30
0.0
 40
3.0
  1
表　　面　　処　　理
 41
0.9
  7
ATOM
 72
     1
 11
130.0
 21
41.50000000000182
 31
0.0
100
AcDbText
 73
     2
1001
AcDbBlockRepETag
1070
     1
1071
       20
1005
C0A
  0
TEXT
  5
C0B
330
BF0
100
AcDbEntity
  8
flame
  6
ByBlock
100
AcDbText
 10
168.26
 20
40.00000000000182
 30
0.0
 40
3.0
  1
備　　　考
 41
0.9
  7
ATOM
 72
     1
 11
176.0
 21
41.50000000000182
 31
0.0
100
AcDbText
 73
     2
1001
AcDbBlockRepETag
1070
     1
1071
       21
1005
C0B
  0
TEXT
  5
C0C
330
BF0
100
AcDbEntity
  8
flame
  6
ByBlock
100
AcDbText
 10
180.18
 20
282.0000000000018
 30
0.0
 40
3.0
  1
改正日
 41
0.9
  7
ATOM
 72
     1
 11
184.5
 21
283.5000000000018
 31
0.0
100
AcDbText
 73
     2
1001
AcDbBlockRepETag
1070
     1
1071
       22
1005
C0C
  0
TEXT
  5
C0D
330
BF0
100
AcDbEntity
  8
flame
  6
ByBlock
100
AcDbText
 10
158.47
 20
282.0000000000018
 30
0.0
 40
3.0
  1
改正担当
 41
0.9
  7
ATOM
 72
     1
 11
164.5
 21
283.5000000000018
 31
0.0
100
AcDbText
 73
     2
1001
AcDbBlockRepETag
1070
     1
1071
       23
1005
C0D
  0
TEXT
  5
C0E
330
BF0
100
AcDbEntity
  8
flame
  6
ByBlock
100
AcDbText
 10
136.94
 20
282.0000000000018
 30
0.0
 40
3.0
  1
改正承認日
 41
0.9
  7
ATOM
 72
     1
 11
144.5
 21
283.5000000000018
 31
0.0
100
AcDbText
 73
     2
1001
AcDbBlockRepETag
1070
     1
1071
       24
1005
C0E
  0
TEXT
  5
C0F
330
BF0
100
AcDbEntity
  8
flame
  6
ByBlock
100
AcDbText
 10
118.38
 20
282.0000000000018
 30
0.0
 40
3.0
  1
改正承認
 41
0.9
  7
ATOM
 72
     1
 11
124.5
 21
283.5000000000018
 31
0.0
100
AcDbText
 73
     2
1001
AcDbBlockRepETag
1070
     1
1071
       25
1005
C0F
  0
TEXT
  5
C10
330
BF0
100
AcDbEntity
  8
flame
  6
ByBlock
100
AcDbText
 10
43.02999999999999
 20
282.0000000000018
 30
0.0
 40
3.0
  1
改　　　　正　　　　理　　　　由
 41
0.9
  7
ATOM
 72
     1
 11
68.5
 21
283.5000000000018
 31
0.0
100
AcDbText
 73
     2
1001
AcDbBlockRepETag
1070
     1
1071
       26
1005
C10
  0
TEXT
  5
C11
330
BF0
100
AcDbEntity
  8
flame
  6
ByBlock
100
AcDbText
 10
13.62
 20
282.0000000000018
 30
0.0
 40
3.0
  1
改番
 41
0.9
  7
ATOM
 72
     1
 11
16.5
 21
283.5000000000018
 31
0.0
100
AcDbText
 73
     2
1001
AcDbBlockRepETag
1070
     1
1071
       27
1005
C11
  0
TEXT
  5
C12
330
BF0
100
AcDbEntity
  8
flame
  6
ByBlock
100
AcDbText
 10
48.525
 20
35.00000000000182
 30
0.0
 40
2.5
  1
名
 41
0.9
  7
ATOM
 72
     1
 11
49.5
 21
36.25000000000182
 31
0.0
100
AcDbText
 73
     2
1001
AcDbBlockRepETag
1070
     1
1071
       28
1005
C12
  0
TEXT
  5
C13
330
BF0
100
AcDbEntity
  8
flame
  6
ByBlock
100
AcDbText
 10
48.45
 20
31.50000000000182
 30
0.0
 40
2.5
  1
称
 41
0.9
  7
ATOM
 72
     1
 11
49.5
 21
32.75000000000182
 31
0.0
100
AcDbText
 73
     2
1001
AcDbBlockRepETag
1070
     1
1071
       29
1005
C13
  0
TEXT
  5
C14
330
BF0
100
AcDbEntity
  8
flame
  6
ByBlock
100
AcDbText
 10
26.45
 20
35.00000000000182
 30
0.0
 40
2.5
  1
尺
 41
0.9
  7
ATOM
 72
     1
 11
27.5
 21
36.25000000000182
 31
0.0
100
AcDbText
 73
     2
1001
AcDbBlockRepETag
1070
     1
1071
       30
1005
C14
  0
TEXT
  5
C15
330
BF0
100
AcDbEntity
  8
flame
  6
ByBlock
100
AcDbText
 10
26.45
 20
31.50000000000182
 30
0.0
 40
2.5
  1
度
 41
0.9
  7
ATOM
 72
     1
 11
27.5
 21
32.75000000000182
 31
0.0
100
AcDbText
 73
     2
1001
AcDbBlockRepETag
1070
     1
1071
       31
1005
C15
  0
TEXT
  5
C16
330
BF0
100
AcDbEntity
  8
flame
  6
ByBlock
100
AcDbText
 10
102.95
 20
35.00000000000182
 30
0.0
 40
2.5
  1
承
 41
0.9
  7
ATOM
 72
     1
 11
104.0
 21
36.25000000000182
 31
0.0
100
AcDbText
 73
     2
1001
AcDbBlockRepETag
1070
     1
1071
       32
1005
C16
  0
TEXT
  5
C17
330
BF0
100
AcDbEntity
  8
flame
  6
ByBlock
100
AcDbText
 10
102.95
 20
31.50000000000182
 30
0.0
 40
2.5
  1
認
 41
0.9
  7
ATOM
 72
     1
 11
104.0
 21
32.75000000000182
 31
0.0
100
AcDbText
 73
     2
1001
AcDbBlockRepETag
1070
     1
1071
       33
1005
C17
  0
TEXT
  5
C18
330
BF0
100
AcDbEntity
  8
flame
  6
ByBlock
100
AcDbText
 10
102.95
 20
28.00000000000182
 30
0.0
 40
2.5
  1
検
 41
0.9
  7
ATOM
 72
     1
 11
104.0
 21
29.25000000000182
 31
0.0
100
AcDbText
 73
     2
1001
AcDbBlockRepETag
1070
     1
1071
       34
1005
C18
  0
TEXT
  5
C19
330
BF0
100
AcDbEntity
  8
flame
  6
ByBlock
100
AcDbText
 10
102.95
 20
24.50000000000182
 30
0.0
 40
2.5
  1
図
 41
0.9
  7
ATOM
 72
     1
 11
104.0
 21
25.75000000000182
 31
0.0
100
AcDbText
 73
     2
1001
AcDbBlockRepETag
1070
     1
1071
       35
1005
C19
  0
TEXT
  5
C1A
330
BF0
100
AcDbEntity
  8
flame
  6
ByBlock
100
AcDbText
 10
102.95
 20
21.00000000000182
 30
0.0
 40
2.5
  1
設
 41
0.9
  7
ATOM
 72
     1
 11
104.0
 21
22.25000000000182
 31
0.0
100
AcDbText
 73
     2
1001
AcDbBlockRepETag
1070
     1
1071
       36
1005
C1A
  0
TEXT
  5
C1B
330
BF0
100
AcDbEntity
  8
flame
  6
ByBlock
100
AcDbText
 10
102.95
 20
17.50000000000182
 30
0.0
 40
2.5
  1
計
 41
0.9
  7
ATOM
 72
     1
 11
104.0
 21
18.75000000000182
 31
0.0
100
AcDbText
 73
     2
1001
AcDbBlockRepETag
1070
     1
1071
       37
1005
C1B
  0
TEXT
  5
C1C
330
BF0
100
AcDbEntity
  8
flame
  6
ByBlock
100
AcDbText
 10
102.95
 20
14.00000000000182
 30
0.0
 40
2.5
  1
作
 41
0.9
  7
ATOM
 72
     1
 11
104.0
 21
15.25000000000182
 31
0.0
100
AcDbText
 73
     2
1001
AcDbBlockRepETag
1070
     1
1071
       38
1005
C1C
  0
TEXT
  5
C1D
330
BF0
100
AcDbEntity
  8
flame
  6
ByBlock
100
AcDbText
 10
102.95
 20
10.50000000000182
 30
0.0
 40
2.5
  1
図
 41
0.9
  7
ATOM
 72
     1
 11
104.0
 21
11.75000000000182
 31
0.0
100
AcDbText
 73
     2
1001
AcDbBlockRepETag
1070
     1
1071
       39
1005
C1D
  0
TEXT
  5
C1E
330
BF0
100
AcDbEntity
  8
flame
  6
ByBlock
100
AcDbText
 10
141.45
 20
35.00000000000182
 30
0.0
 40
2.5
  1
品
 41
0.9
  7
ATOM
 72
     1
 11
142.5
 21
36.25000000000182
 31
0.0
100
AcDbText
 73
     2
1001
AcDbBlockRepETag
1070
     1
1071
       40
1005
C1E
  0
TEXT
  5
C1F
330
BF0
100
AcDbEntity
  8
flame
  6
ByBlock
100
AcDbText
 10
141.525
 20
31.50000000000182
 30
0.0
 40
2.5
  1
名
 41
0.9
  7
ATOM
 72
     1
 11
142.5
 21
32.75000000000182
 31
0.0
100
AcDbText
 73
     2
1001
AcDbBlockRepETag
1070
     1
1071
       41
1005
C1F
  0
TEXT
  5
C20
330
BF0
100
AcDbEntity
  8
flame
  6
ByBlock
100
AcDbText
 10
141.45
 20
28.00000000000182
 30
0.0
 40
2.5
  1
品
 41
0.9
  7
ATOM
 72
     1
 11
142.5
 21
29.25000000000182
 31
0.0
100
AcDbText
 73
     2
1001
AcDbBlockRepETag
1070
     1
1071
       42
1005
C20
  0
TEXT
  5
C21
330
BF0
100
AcDbEntity
  8
flame
  6
ByBlock
100
AcDbText
 10
141.45
 20
24.50000000000182
 30
0.0
 40
2.5
  1
番
 41
0.9
  7
ATOM
 72
     1
 11
142.5
 21
25.75000000000182
 31
0.0
100
AcDbText
 73
     2
1001
AcDbBlockRepETag
1070
     1
1071
       43
1005
C21
  0
TEXT
  5
C22
330
BF0
100
AcDbEntity
  8
flame
  6
ByBlock
100
AcDbText
 10
141.45
 20
21.00000000000182
 30
0.0
 40
2.5
  1
図
 41
0.9
  7
ATOM
 72
     1
 11
142.5
 21
22.25000000000182
 31
0.0
100
AcDbText
 73
     2
1001
AcDbBlockRepETag
1070
     1
1071
       44
1005
C22
  0
TEXT
  5
C23
330
BF0
100
AcDbEntity
  8
flame
  6
ByBlock
100
AcDbText
 10
141.525
 20
17.50000000000182
 30
0.0
 40
2.5
  1
名
 41
0.9
  7
ATOM
 72
     1
 11
142.5
 21
18.75000000000182
 31
0.0
100
AcDbText
 73
     2
1001
AcDbBlockRepETag
1070
     1
1071
       45
1005
C23
  0
TEXT
  5
C24
330
BF0
100
AcDbEntity
  8
flame
  6
ByBlock
100
AcDbText
 10
141.45
 20
14.00000000000182
 30
0.0
 40
2.5
  1
図
 41
0.9
  7
ATOM
 72
     1
 11
142.5
 21
15.25000000000182
 31
0.0
100
AcDbText
 73
     2
1001
AcDbBlockRepETag
1070
     1
1071
       46
1005
C24
  0
TEXT
  5
C25
330
BF0
100
AcDbEntity
  8
flame
  6
ByBlock
100
AcDbText
 10
141.45
 20
10.50000000000182
 30
0.0
 40
2.5
  1
番
 41
0.9
  7
ATOM
 72
     1
 11
142.5
 21
11.75000000000182
 31
0.0
100
AcDbText
 73
     2
1001
AcDbBlockRepETag
1070
     1
1071
       47
1005
C25
  0
TEXT
  5
C26
330
BF0
100
AcDbEntity
  8
flame
  6
ByBlock
100
AcDbText
 10
42.16666666666666
 20
32.75000000000182
 30
0.0
 40
3.5
  1
A4T
 41
0.5
  7
ATOM
 72
     1
 11
44.5
 21
34.50000000000182
 31
0.0
100
AcDbText
 73
     2
1001
AcDbBlockRepETag
1070
     1
1071
       48
1005
C26
  0
LWPOLYLINE
  5
C27
330
BF0
100
AcDbEntity
  8
flame
  6
ByBlock
100
AcDbPolyline
 90
        4
 70
     1
 43
0.0
 10
196.9999999999991
 20
10.0
 10
196.9999999999991
 20
287.0
 10
12.99999999999909
 20
287.0
 10
12.99999999999909
 20
10.0
1001
AcDbBlockRepETag
1070
     1
1071
       49
1005
C27
  0
LWPOLYLINE
  5
C28
330
BF0
100
AcDbEntity
  8
flame
  6
ByBlock
100
AcDbPolyline
 90
        4
 70
     1
 43
0.0
 10
197.1599999999989
 20
9.840000000000143
 10
197.1599999999989
 20
287.1599999999999
 10
12.83999999999923
 20
287.1599999999999
 10
12.83999999999923
 20
9.840000000000143
1001
AcDbBlockRepETag
1070
     1
1071
       50
1005
C28
  0
LWPOLYLINE
  5
C29
330
BF0
100
AcDbEntity
  8
flame
  6
ByBlock
100
AcDbPolyline
 90
        4
 70
     1
 43
0.0
 10
196.8399999999992
 20
10.15999999999985
 10
196.8399999999992
 20
286.8400000000002
 10
13.15999999999894
 20
286.8400000000002
 10
13.15999999999894
 20
10.15999999999985
1001
AcDbBlockRepETag
1070
     1
1071
       51
1005
C29
  0
LWPOLYLINE
  5
C2A
330
BF0
100
AcDbEntity
  8
flame
  6
ByBlock
390
97
100
AcDbPolyline
 90
        4
 70
     1
 43
0.0
 10
0.0
 20
0.0
 10
210.0
 20
0.0
 10
210.0
 20
297.0
 10
0.0
 20
297.0
1001
AcDbBlockRepETag
1070
     1
1071
       52
1005
C2A
  0
LINE
  5
C2B
330
BF0
100
AcDbEntity
  8
flame
  6
ByBlock
100
AcDbLine
 10
20.0
 20
287.0000000000018
 30
0.0
 11
20.0
 21
280.0000000000018
 31
0.0
1001
AcDbBlockRepETag
1070
     1
1071
       53
1005
C2B
  0
LINE
  5
C2C
330
BF0
100
AcDbEntity
  8
flame
  6
ByBlock
100
AcDbLine
 10
20.08500000000004
 20
287.0000000000018
 30
0.0
 11
20.08500000000004
 21
280.0000000000018
 31
0.0
1001
AcDbBlockRepETag
1070
     1
1071
       54
1005
C2C
  0
LINE
  5
C2D
330
BF0
100
AcDbEntity
  8
flame
  6
ByBlock
100
AcDbLine
 10
19.91499999999996
 20
287.0000000000018
 30
0.0
 11
19.91499999999996
 21
280.0000000000018
 31
0.0
1001
AcDbBlockRepETag
1070
     1
1071
       55
1005
C2D
  0
LINE
  5
C2E
330
BF0
100
AcDbEntity
  8
flame
  6
ByBlock
100
AcDbLine
 10
117.0
 20
287.0000000000018
 30
0.0
 11
117.0
 21
280.0000000000018
 31
0.0
1001
AcDbBlockRepETag
1070
     1
1071
       56
1005
C2E
  0
LINE
  5
C2F
330
BF0
100
AcDbEntity
  8
flame
  6
ByBlock
100
AcDbLine
 10
116.9149999999999
 20
287.0000000000018
 30
0.0
 11
116.9149999999999
 21
280.0000000000018
 31
0.0
1001
AcDbBlockRepETag
1070
     1
1071
       57
1005
C2F
  0
LINE
  5
C30
330
BF0
100
AcDbEntity
  8
flame
  6
ByBlock
100
AcDbLine
 10
117.085
 20
287.0000000000018
 30
0.0
 11
117.085
 21
280.0000000000018
 31
0.0
1001
AcDbBlockRepETag
1070
     1
1071
       58
1005
C30
  0
LINE
  5
C31
330
BF0
100
AcDbEntity
  8
flame
  6
ByBlock
100
AcDbLine
 10
132.0
 20
287.0000000000018
 30
0.0
 11
132.0
 21
280.0000000000018
 31
0.0
1001
AcDbBlockRepETag
1070
     1
1071
       59
1005
C31
  0
LINE
  5
C32
330
BF0
100
AcDbEntity
  8
flame
  6
ByBlock
100
AcDbLine
 10
131.9149999999999
 20
287.0000000000018
 30
0.0
 11
131.9149999999999
 21
280.0000000000018
 31
0.0
1001
AcDbBlockRepETag
1070
     1
1071
       60
1005
C32
  0
LINE
  5
C33
330
BF0
100
AcDbEntity
  8
flame
  6
ByBlock
100
AcDbLine
 10
132.085
 20
287.0000000000018
 30
0.0
 11
132.085
 21
280.0000000000018
 31
0.0
1001
AcDbBlockRepETag
1070
     1
1071
       61
1005
C33
  0
LINE
  5
C34
330
BF0
100
AcDbEntity
  8
flame
  6
ByBlock
100
AcDbLine
 10
157.0
 20
287.0000000000018
 30
0.0
 11
157.0
 21
280.0000000000018
 31
0.0
1001
AcDbBlockRepETag
1070
     1
1071
       62
1005
C34
  0
LINE
  5
C35
330
BF0
100
AcDbEntity
  8
flame
  6
ByBlock
100
AcDbLine
 10
156.9149999999999
 20
287.0000000000018
 30
0.0
 11
156.9149999999999
 21
280.0000000000018
 31
0.0
1001
AcDbBlockRepETag
1070
     1
1071
       63
1005
C35
  0
LINE
  5
C36
330
BF0
100
AcDbEntity
  8
flame
  6
ByBlock
100
AcDbLine
 10
157.085
 20
287.0000000000018
 30
0.0
 11
157.085
 21
280.0000000000018
 31
0.0
1001
AcDbBlockRepETag
1070
     1
1071
       64
1005
C36
  0
LINE
  5
C37
330
BF0
100
AcDbEntity
  8
flame
  6
ByBlock
100
AcDbLine
 10
172.0
 20
287.0000000000018
 30
0.0
 11
172.0
 21
280.0000000000018
 31
0.0
1001
AcDbBlockRepETag
1070
     1
1071
       65
1005
C37
  0
LINE
  5
C38
330
BF0
100
AcDbEntity
  8
flame
  6
ByBlock
100
AcDbLine
 10
171.9149999999999
 20
287.0000000000018
 30
0.0
 11
171.9149999999999
 21
280.0000000000018
 31
0.0
1001
AcDbBlockRepETag
1070
     1
1071
       66
1005
C38
  0
LINE
  5
C39
330
BF0
100
AcDbEntity
  8
flame
  6
ByBlock
100
AcDbLine
 10
172.085
 20
287.0000000000018
 30
0.0
 11
172.085
 21
280.0000000000018
 31
0.0
1001
AcDbBlockRepETag
1070
     1
1071
       67
1005
C39
  0
LINE
  5
C3A
330
BF0
100
AcDbEntity
  8
flame
  6
ByBlock
100
AcDbLine
 10
13.0
 20
280.0000000000018
 30
0.0
 11
197.0
 21
280.0000000000018
 31
0.0
1001
AcDbBlockRepETag
1070
     1
1071
       68
1005
C3A
  0
LINE
  5
C3B
330
BF0
100
AcDbEntity
  8
flame
  6
ByBlock
100
AcDbLine
 10
13.0
 20
279.9150000000027
 30
0.0
 11
197.0
 21
279.9150000000027
 31
0.0
1001
AcDbBlockRepETag
1070
     1
1071
       69
1005
C3B
  0
LINE
  5
C3C
330
BF0
100
AcDbEntity
  8
flame
  6
ByBlock
100
AcDbLine
 10
13.0
 20
280.0850000000028
 30
0.0
 11
197.0
 21
280.0850000000028
 31
0.0
1001
AcDbBlockRepETag
1070
     1
1071
       70
1005
C3C
  0
LINE
  5
C3D
330
BF0
100
AcDbEntity
  8
flame
  6
ByBlock
100
AcDbLine
 10
20.0
 20
45.00000000000182
 30
0.0
 11
20.0
 21
38.00000000000182
 31
0.0
1001
AcDbBlockRepETag
1070
     1
1071
       71
1005
C3D
  0
LINE
  5
C3E
330
BF0
100
AcDbEntity
  8
flame
  6
ByBlock
100
AcDbLine
 10
19.91499999999996
 20
45.00000000000182
 30
0.0
 11
19.91499999999996
 21
38.00000000000182
 31
0.0
1001
AcDbBlockRepETag
1070
     1
1071
       72
1005
C3E
  0
LINE
  5
C3F
330
BF0
100
AcDbEntity
  8
flame
  6
ByBlock
100
AcDbLine
 10
20.08500000000004
 20
45.00000000000182
 30
0.0
 11
20.08500000000004
 21
38.00000000000182
 31
0.0
1001
AcDbBlockRepETag
1070
     1
1071
       73
1005
C3F
  0
LINE
  5
C40
330
BF0
100
AcDbEntity
  8
flame
  6
ByBlock
100
AcDbLine
 10
70.0
 20
38.00000000000182
 30
0.0
 11
70.0
 21
45.00000000000182
 31
0.0
1001
AcDbBlockRepETag
1070
     1
1071
       74
1005
C40
  0
LINE
  5
C41
330
BF0
100
AcDbEntity
  8
flame
  6
ByBlock
100
AcDbLine
 10
70.08500000000004
 20
38.00000000000182
 30
0.0
 11
70.08500000000004
 21
45.00000000000182
 31
0.0
1001
AcDbBlockRepETag
1070
     1
1071
       75
1005
C41
  0
LINE
  5
C42
330
BF0
100
AcDbEntity
  8
flame
  6
ByBlock
100
AcDbLine
 10
69.91499999999996
 20
38.00000000000182
 30
0.0
 11
69.91499999999996
 21
45.00000000000182
 31
0.0
1001
AcDbBlockRepETag
1070
     1
1071
       76
1005
C42
  0
LINE
  5
C43
330
BF0
100
AcDbEntity
  8
flame
  6
ByBlock
100
AcDbLine
 10
98.0
 20
45.00000000000182
 30
0.0
 11
98.0
 21
38.00000000000182
 31
0.0
1001
AcDbBlockRepETag
1070
     1
1071
       77
1005
C43
  0
LINE
  5
C44
330
BF0
100
AcDbEntity
  8
flame
  6
ByBlock
100
AcDbLine
 10
98.08500000000003
 20
45.00000000000182
 30
0.0
 11
98.08500000000003
 21
38.00000000000182
 31
0.0
1001
AcDbBlockRepETag
1070
     1
1071
       78
1005
C44
  0
LINE
  5
C45
330
BF0
100
AcDbEntity
  8
flame
  6
ByBlock
100
AcDbLine
 10
97.91499999999997
 20
45.00000000000182
 30
0.0
 11
97.91499999999997
 21
38.00000000000182
 31
0.0
1001
AcDbBlockRepETag
1070
     1
1071
       79
1005
C45
  0
LINE
  5
C46
330
BF0
100
AcDbEntity
  8
flame
  6
ByBlock
100
AcDbLine
 10
105.0
 20
45.00000000000182
 30
0.0
 11
105.0
 21
38.00000000000182
 31
0.0
1001
AcDbBlockRepETag
1070
     1
1071
       80
1005
C46
  0
LINE
  5
C47
330
BF0
100
AcDbEntity
  8
flame
  6
ByBlock
100
AcDbLine
 10
105.085
 20
45.00000000000182
 30
0.0
 11
105.085
 21
38.00000000000182
 31
0.0
1001
AcDbBlockRepETag
1070
     1
1071
       81
1005
C47
  0
LINE
  5
C48
330
BF0
100
AcDbEntity
  8
flame
  6
ByBlock
100
AcDbLine
 10
105.17
 20
45.00000000000182
 30
0.0
 11
105.17
 21
38.00000000000182
 31
0.0
1001
AcDbBlockRepETag
1070
     1
1071
       82
1005
C48
  0
LINE
  5
C49
330
BF0
100
AcDbEntity
  8
flame
  6
ByBlock
100
AcDbLine
 10
155.0
 20
45.00000000000182
 30
0.0
 11
155.0
 21
38.00000000000182
 31
0.0
1001
AcDbBlockRepETag
1070
     1
1071
       83
1005
C49
  0
LINE
  5
C4A
330
BF0
100
AcDbEntity
  8
flame
  6
ByBlock
100
AcDbLine
 10
155.085
 20
45.00000000000182
 30
0.0
 11
155.085
 21
38.00000000000182
 31
0.0
1001
AcDbBlockRepETag
1070
     1
1071
       84
1005
C4A
  0
LINE
  5
C4B
330
BF0
100
AcDbEntity
  8
flame
  6
ByBlock
100
AcDbLine
 10
154.9149999999999
 20
45.00000000000182
 30
0.0
 11
154.9149999999999
 21
38.00000000000182
 31
0.0
1001
AcDbBlockRepETag
1070
     1
1071
       85
1005
C4B
  0
LINE
  5
C4C
330
BF0
100
AcDbEntity
  8
flame
  6
ByBlock
100
AcDbLine
 10
12.99999999999909
 20
45.00000000000182
 30
0.0
 11
197.0
 21
45.00000000000182
 31
0.0
1001
AcDbBlockRepETag
1070
     1
1071
       86
1005
C4C
  0
LINE
  5
C4D
330
BF0
100
AcDbEntity
  8
flame
  6
ByBlock
100
AcDbLine
 10
12.99999999999909
 20
44.91500000000269
 30
0.0
 11
197.0
 21
44.91500000000269
 31
0.0
1001
AcDbBlockRepETag
1070
     1
1071
       87
1005
C4D
  0
LINE
  5
C4E
330
BF0
100
AcDbEntity
  8
flame
  6
ByBlock
100
AcDbLine
 10
12.99999999999909
 20
45.08500000000275
 30
0.0
 11
197.0
 21
45.08500000000275
 31
0.0
1001
AcDbBlockRepETag
1070
     1
1071
       88
1005
C4E
  0
LINE
  5
C4F
330
BF0
100
AcDbEntity
  8
flame
  6
ByBlock
100
AcDbLine
 10
12.99999999999909
 20
38.00000000000182
 30
0.0
 11
197.0
 21
38.00000000000182
 31
0.0
1001
AcDbBlockRepETag
1070
     1
1071
       89
1005
C4F
  0
LINE
  5
C50
330
BF0
100
AcDbEntity
  8
flame
  6
ByBlock
100
AcDbLine
 10
12.99999999999909
 20
37.91500000000269
 30
0.0
 11
197.0
 21
37.91500000000269
 31
0.0
1001
AcDbBlockRepETag
1070
     1
1071
       90
1005
C50
  0
LINE
  5
C51
330
BF0
100
AcDbEntity
  8
flame
  6
ByBlock
100
AcDbLine
 10
12.99999999999909
 20
38.08500000000277
 30
0.0
 11
197.0
 21
38.08500000000277
 31
0.0
1001
AcDbBlockRepETag
1070
     1
1071
       91
1005
C51
  0
LINE
  5
C52
330
BF0
100
AcDbEntity
  8
flame
  6
ByBlock
100
AcDbLine
 10
12.99999999999909
 20
31.00000000000183
 30
0.0
 11
197.0
 21
31.00000000000183
 31
0.0
1001
AcDbBlockRepETag
1070
     1
1071
       92
1005
C52
  0
LINE
  5
C53
330
BF0
100
AcDbEntity
  8
flame
  6
ByBlock
100
AcDbLine
 10
12.99999999999909
 20
30.91500000000269
 30
0.0
 11
197.0
 21
30.91500000000269
 31
0.0
1001
AcDbBlockRepETag
1070
     1
1071
       93
1005
C53
  0
LINE
  5
C54
330
BF0
100
AcDbEntity
  8
flame
  6
ByBlock
100
AcDbLine
 10
12.99999999999909
 20
31.08500000000276
 30
0.0
 11
197.0
 21
31.08500000000276
 31
0.0
1001
AcDbBlockRepETag
1070
     1
1071
       94
1005
C54
  0
LINE
  5
C55
330
BF0
100
AcDbEntity
  8
flame
  6
ByBlock
100
AcDbLine
 10
102.5
 20
24.00000000000182
 30
0.0
 11
197.0
 21
24.00000000000182
 31
0.0
1001
AcDbBlockRepETag
1070
     1
1071
       95
1005
C55
  0
LINE
  5
C56
330
BF0
100
AcDbEntity
  8
flame
  6
ByBlock
100
AcDbLine
 10
102.5
 20
23.91500000000269
 30
0.0
 11
197.0
 21
23.91500000000269
 31
0.0
1001
AcDbBlockRepETag
1070
     1
1071
       96
1005
C56
  0
LINE
  5
C57
330
BF0
100
AcDbEntity
  8
flame
  6
ByBlock
100
AcDbLine
 10
102.5
 20
24.08500000000277
 30
0.0
 11
197.0
 21
24.08500000000277
 31
0.0
1001
AcDbBlockRepETag
1070
     1
1071
       97
1005
C57
  0
LINE
  5
C58
330
BF0
100
AcDbEntity
  8
flame
  6
ByBlock
100
AcDbLine
 10
102.5
 20
17.00000000000182
 30
0.0
 11
197.0
 21
17.00000000000182
 31
0.0
1001
AcDbBlockRepETag
1070
     1
1071
       98
1005
C58
  0
LINE
  5
C59
330
BF0
100
AcDbEntity
  8
flame
  6
ByBlock
100
AcDbLine
 10
102.5
 20
16.91500000000269
 30
0.0
 11
197.0
 21
16.91500000000269
 31
0.0
1001
AcDbBlockRepETag
1070
     1
1071
       99
1005
C59
  0
LINE
  5
C5A
330
BF0
100
AcDbEntity
  8
flame
  6
ByBlock
100
AcDbLine
 10
102.5
 20
17.08500000000276
 30
0.0
 11
197.0
 21
17.08500000000276
 31
0.0
1001
AcDbBlockRepETag
1070
     1
1071
      100
1005
C5A
  0
LINE
  5
C5B
330
BF0
100
AcDbEntity
  8
flame
  6
ByBlock
100
AcDbLine
 10
26.0
 20
38.00000000000182
 30
0.0
 11
26.0
 21
31.00000000000183
 31
0.0
1001
AcDbBlockRepETag
1070
     1
1071
      101
1005
C5B
  0
LINE
  5
C5C
330
BF0
100
AcDbEntity
  8
flame
  6
ByBlock
100
AcDbLine
 10
26.08500000000004
 20
38.00000000000182
 30
0.0
 11
26.08500000000004
 21
31.00000000000183
 31
0.0
1001
AcDbBlockRepETag
1070
     1
1071
      102
1005
C5C
  0
LINE
  5
C5D
330
BF0
100
AcDbEntity
  8
flame
  6
ByBlock
100
AcDbLine
 10
25.91499999999996
 20
38.00000000000182
 30
0.0
 11
25.91499999999996
 21
31.00000000000183
 31
0.0
1001
AcDbBlockRepETag
1070
     1
1071
      103
1005
C5D
  0
LINE
  5
C5E
330
BF0
100
AcDbEntity
  8
flame
  6
ByBlock
100
AcDbLine
 10
29.0
 20
31.00000000000183
 30
0.0
 11
29.0
 21
38.00000000000182
 31
0.0
1001
AcDbBlockRepETag
1070
     1
1071
      104
1005
C5E
  0
LINE
  5
C5F
330
BF0
100
AcDbEntity
  8
flame
  6
ByBlock
100
AcDbLine
 10
29.08500000000003
 20
31.00000000000183
 30
0.0
 11
29.08500000000003
 21
38.00000000000182
 31
0.0
1001
AcDbBlockRepETag
1070
     1
1071
      105
1005
C5F
  0
LINE
  5
C60
330
BF0
100
AcDbEntity
  8
flame
  6
ByBlock
100
AcDbLine
 10
28.91499999999997
 20
31.00000000000183
 30
0.0
 11
28.91499999999997
 21
38.00000000000182
 31
0.0
1001
AcDbBlockRepETag
1070
     1
1071
      106
1005
C60
  0
LINE
  5
C61
330
BF0
100
AcDbEntity
  8
flame
  6
ByBlock
100
AcDbLine
 10
41.0
 20
38.00000000000182
 30
0.0
 11
41.0
 21
31.00000000000183
 31
0.0
1001
AcDbBlockRepETag
1070
     1
1071
      107
1005
C61
  0
LINE
  5
C62
330
BF0
100
AcDbEntity
  8
flame
  6
ByBlock
100
AcDbLine
 10
41.08500000000003
 20
38.00000000000182
 30
0.0
 11
41.08500000000003
 21
31.00000000000183
 31
0.0
1001
AcDbBlockRepETag
1070
     1
1071
      108
1005
C62
  0
LINE
  5
C63
330
BF0
100
AcDbEntity
  8
flame
  6
ByBlock
100
AcDbLine
 10
40.91499999999996
 20
38.00000000000182
 30
0.0
 11
40.91499999999996
 21
31.00000000000183
 31
0.0
1001
AcDbBlockRepETag
1070
     1
1071
      109
1005
C63
  0
LINE
  5
C64
330
BF0
100
AcDbEntity
  8
flame
  6
ByBlock
100
AcDbLine
 10
48.0
 20
38.00000000000182
 30
0.0
 11
48.0
 21
31.00000000000183
 31
0.0
1001
AcDbBlockRepETag
1070
     1
1071
      110
1005
C64
  0
LINE
  5
C65
330
BF0
100
AcDbEntity
  8
flame
  6
ByBlock
100
AcDbLine
 10
48.08500000000003
 20
38.00000000000182
 30
0.0
 11
48.08500000000003
 21
31.00000000000183
 31
0.0
1001
AcDbBlockRepETag
1070
     1
1071
      111
1005
C65
  0
LINE
  5
C66
330
BF0
100
AcDbEntity
  8
flame
  6
ByBlock
100
AcDbLine
 10
47.91499999999996
 20
38.00000000000182
 30
0.0
 11
47.91499999999996
 21
31.00000000000183
 31
0.0
1001
AcDbBlockRepETag
1070
     1
1071
      112
1005
C66
  0
LINE
  5
C67
330
BF0
100
AcDbEntity
  8
flame
  6
ByBlock
100
AcDbLine
 10
51.0
 20
38.00000000000182
 30
0.0
 11
51.0
 21
31.00000000000183
 31
0.0
1001
AcDbBlockRepETag
1070
     1
1071
      113
1005
C67
  0
LINE
  5
C68
330
BF0
100
AcDbEntity
  8
flame
  6
ByBlock
100
AcDbLine
 10
51.08500000000002
 20
38.00000000000182
 30
0.0
 11
51.08500000000002
 21
31.00000000000183
 31
0.0
1001
AcDbBlockRepETag
1070
     1
1071
      114
1005
C68
  0
LINE
  5
C69
330
BF0
100
AcDbEntity
  8
flame
  6
ByBlock
100
AcDbLine
 10
50.91499999999996
 20
38.00000000000182
 30
0.0
 11
50.91499999999996
 21
31.00000000000183
 31
0.0
1001
AcDbBlockRepETag
1070
     1
1071
      115
1005
C69
  0
LINE
  5
C6A
330
BF0
100
AcDbEntity
  8
flame
  6
ByBlock
100
AcDbLine
 10
105.5
 20
38.00000000000182
 30
0.0
 11
105.5
 21
10.00000000000182
 31
0.0
1001
AcDbBlockRepETag
1070
     1
1071
      116
1005
C6A
  0
LINE
  5
C6B
330
BF0
100
AcDbEntity
  8
flame
  6
ByBlock
100
AcDbLine
 10
105.4149999999999
 20
38.00000000000182
 30
0.0
 11
105.4149999999999
 21
10.00000000000182
 31
0.0
1001
AcDbBlockRepETag
1070
     1
1071
      117
1005
C6B
  0
LINE
  5
C6C
330
BF0
100
AcDbEntity
  8
flame
  6
ByBlock
100
AcDbLine
 10
105.585
 20
38.00000000000182
 30
0.0
 11
105.585
 21
10.00000000000182
 31
0.0
1001
AcDbBlockRepETag
1070
     1
1071
      118
1005
C6C
  0
LINE
  5
C6D
330
BF0
100
AcDbEntity
  8
flame
  6
ByBlock
100
AcDbLine
 10
102.5
 20
38.00000000000182
 30
0.0
 11
102.5
 21
10.00000000000182
 31
0.0
1001
AcDbBlockRepETag
1070
     1
1071
      119
1005
C6D
  0
LINE
  5
C6E
330
BF0
100
AcDbEntity
  8
flame
  6
ByBlock
100
AcDbLine
 10
102.585
 20
38.00000000000182
 30
0.0
 11
102.585
 21
10.00000000000182
 31
0.0
1001
AcDbBlockRepETag
1070
     1
1071
      120
1005
C6E
  0
LINE
  5
C6F
330
BF0
100
AcDbEntity
  8
flame
  6
ByBlock
100
AcDbLine
 10
102.4149999999999
 20
38.00000000000182
 30
0.0
 11
102.4149999999999
 21
10.00000000000182
 31
0.0
1001
AcDbBlockRepETag
1070
     1
1071
      121
1005
C6F
  0
LWPOLYLINE
  5
C70
330
BF0
100
AcDbEntity
  8
flame
  6
ByBlock
100
AcDbPolyline
 90
        4
 70
     1
 43
0.0
 10
39.99690127353097
 20
20.30329643996265
 10
44.81342572509128
 20
25.1198208915248
 42
0.9999999999997582
 10
43.1737578266884
 20
26.75948878992676
 10
38.35723337512718
 20
21.94296433836826
 42
1.000000000000484
1001
AcDbBlockRepETag
1070
     1
1071
      122
1005
C70
  0
LWPOLYLINE
  5
C71
330
BF0
100
AcDbEntity
  8
flame
  6
ByBlock
100
AcDbPolyline
 90
        4
 70
     1
 43
0.0
 10
39.93679719713055
 20
20.36340051636398
 10
44.75332164868995
 20
25.17992496792613
 42
1.0
 10
43.23386190308883
 20
26.69938471352543
 10
38.41733745152851
 20
21.88286026196692
 42
1.0
1001
AcDbBlockRepETag
1070
     1
1071
      123
1005
C71
  0
LWPOLYLINE
  5
C72
330
BF0
100
AcDbEntity
  8
flame
  6
ByBlock
100
AcDbPolyline
 90
        4
 70
     1
 43
0.0
 10
40.0570053499323
 20
20.24319236356132
 10
44.87352980149171
 20
25.05971681512347
 42
1.0
 10
43.11365375028707
 20
26.81959286632809
 10
38.29712929872676
 20
22.00306841476959
 42
1.0
1001
AcDbBlockRepETag
1070
     1
1071
      124
1005
C72
  0
LWPOLYLINE
  5
C73
330
BF0
100
AcDbEntity
  8
flame
  6
ByBlock
100
AcDbPolyline
 90
        6
 70
     1
 43
0.0
 10
23.65793040508288
 20
22.87921870190257
 42
0.5040414943243567
 10
23.86582274333614
 20
23.16016907249468
 10
22.88017841010152
 20
26.38406642074915
 42
0.7399610750323026
 10
22.46439373359499
 20
26.38406642074915
 10
21.47874940036127
 20
23.16016907249468
 42
0.5040414943247417
 10
21.68664173861271
 20
22.87921870190257
1001
AcDbBlockRepETag
1070
     1
1071
      125
1005
C73
  0
LWPOLYLINE
  5
C74
330
BF0
100
AcDbEntity
  8
flame
  6
ByBlock
100
AcDbPolyline
 90
        6
 70
     1
 43
0.0
 10
23.65793040508288
 20
22.79421870190163
 42
0.504041494324358
 10
23.94710864759327
 20
23.18502066739529
 10
22.96146431435773
 20
26.40891801565158
 42
0.7399610750322862
 10
22.38310782933786
 20
26.40891801565158
 10
21.39746349610414
 20
23.18502066739529
 42
0.5040414943247422
 10
21.68664173861271
 20
22.79421870190163
1001
AcDbBlockRepETag
1070
     1
1071
      126
1005
C74
  0
LWPOLYLINE
  5
C75
330
BF0
100
AcDbEntity
  8
flame
  6
ByBlock
100
AcDbPolyline
 90
        6
 70
     1
 43
0.0
 10
23.65793040508288
 20
22.9642187019017
 42
0.5040414943243489
 10
23.78453683907901
 20
23.13531747759225
 10
22.79889250584438
 20
26.35921482584854
 42
0.7399610750322957
 10
22.54567963785212
 20
26.35921482584854
 10
21.56003530461749
 20
23.13531747759225
 42
0.5040414943247367
 10
21.68664173861362
 20
22.9642187019017
1001
AcDbBlockRepETag
1070
     1
1071
      127
1005
C75
  0
LWPOLYLINE
  5
C76
330
BF0
100
AcDbEntity
  8
flame
  6
ByBlock
100
AcDbPolyline
 90
       26
 70
     1
 43
0.0
 10
24.23597017697921
 20
21.94947136993869
 10
24.94491088760697
 20
19.63063079022686
 42
-0.5040414943260745
 10
24.66772110327111
 20
19.25603029610465
 10
24.26648897039922
 20
19.25603029610465
 42
0.4142135623730951
 10
24.12156143416723
 20
19.11110275987266
 10
24.12156143416723
 20
18.53139261494471
 10
28.46938752112419
 20
18.53139261494471
 10
28.46938752112419
 20
19.11110275987266
 42
0.4142135623730951
 10
28.3244599848922
 20
19.25603029610465
 10
27.82810683450316
 20
19.25603029610465
 42
-0.3297505471416469
 10
27.48161960408106
 20
19.5124173596123
 10
24.72424215320916
 20
28.53139261494471
 10
22.36314958463299
 20
28.53139261494471
 10
19.60577213376018
 20
19.5124173596123
 42
-0.3297505471416475
 10
19.25928490333898
 20
19.25603029610465
 10
18.90417012981925
 20
19.25603029610465
 42
0.4142135623730951
 10
18.75924259358817
 20
19.11110275987266
 10
18.75924259358817
 20
18.53139261494471
 10
21.07808317329727
 20
18.53139261494471
 10
21.07808317329727
 20
19.11110275987266
 42
0.4142135623730951
 10
20.93315563706619
 20
19.25603029610465
 10
20.57892187825655
 20
19.25603029610465
 42
-0.5040414943243619
 10
20.37102954000329
 20
19.53698066669676
 10
21.12427904504603
 20
22.00074878263877
 42
-0.329750547139216
 10
21.33217138329928
 20
22.15458102074263
 10
23.95878039264244
 20
22.15458102074263
 42
-0.3297505471401503
1001
AcDbBlockRepETag
1070
     1
1071
      128
1005
C76
  0
LWPOLYLINE
  5
C77
330
BF0
100
AcDbEntity
  8
flame
  6
ByBlock
100
AcDbPolyline
 90
       26
 70
     1
 43
0.0
 10
24.15468427272208
 20
21.92461977503626
 10
24.86362498334984
 20
19.60577919532625
 42
-0.5040414943260704
 10
24.66772110327111
 20
19.3410302961056
 10
24.26648897039922
 20
19.3410302961056
 42
0.4142135623730974
 10
24.0365614341672
 20
19.11110275987266
 10
24.0365614341672
 20
18.44639261494558
 10
28.55438752112423
 20
18.44639261494558
 10
28.55438752112423
 20
19.11110275987266
 42
0.4142135623730974
 10
28.3244599848922
 20
19.3410302961056
 10
27.82810683450316
 20
19.34103029610378
 42
-0.3297505471416459
 10
27.56290550833819
 20
19.53726895451291
 10
24.78713884458648
 20
28.61639261494565
 10
22.30025289325567
 20
28.61639261494565
 10
19.52448622950305
 20
19.53726895451291
 42
-0.3297505471416504
 10
19.25928490333898
 20
19.3410302961056
 10
18.90417012981925
 20
19.3410302961056
 42
0.4142135623730973
 10
18.67424259358813
 20
19.11110275987266
 10
18.67424259358813
 20
18.44639261494558
 10
21.16308317329731
 20
18.44639261494558
 10
21.16308317329731
 20
19.11110275987266
 42
0.4142135623730973
 10
20.93315563706619
 20
19.3410302961056
 10
20.57892187825655
 20
19.3410302961056
 42
-0.5040414943243603
 10
20.45231544425951
 20
19.51212907179615
 10
21.20556494930315
 20
21.97589718773816
 42
-0.3297505471392114
 10
21.33217138329928
 20
22.06958102074168
 10
23.95878039264244
 20
22.0695810207435
 42
-0.3297505471401487
1001
AcDbBlockRepETag
1070
     1
1071
      129
1005
C77
  0
LWPOLYLINE
  5
C78
330
BF0
100
AcDbEntity
  8
flame
  6
ByBlock
100
AcDbPolyline
 90
       26
 70
     1
 43
0.0
 10
24.31725608123634
 20
21.9743229648393
 10
25.02619679186409
 20
19.65548238512929
 42
-0.504041494326073
 10
24.66772110327111
 20
19.17103029610553
 10
24.26648897039922
 20
19.17103029610553
 42
0.4142135623730869
 10
24.20656143416727
 20
19.11110275987266
 10
24.20656143416727
 20
18.61639261494565
 10
28.38438752112415
 20
18.61639261494565
 10
28.38438752112415
 20
19.11110275987266
 42
0.4142135623730869
 10
28.3244599848922
 20
19.17103029610553
 10
27.82810683450316
 20
19.17103029610371
 42
-0.3297505471416466
 10
27.40033369982393
 20
19.48756576471169
 10
24.66134546183184
 20
28.44639261494558
 10
22.42604627601031
 20
28.44639261494558
 10
19.68705803801731
 20
19.48756576471169
 42
-0.3297505471416456
 10
19.25928490333898
 20
19.17103029610553
 10
18.90417012981925
 20
19.17103029610553
 42
0.4142135623730869
 10
18.8442425935882
 20
19.11110275987266
 10
18.8442425935882
 20
18.61639261494565
 10
20.99308317329724
 20
18.61639261494565
 10
20.99308317329724
 20
19.11110275987266
 42
0.4142135623730869
 10
20.93315563706619
 20
19.17103029610553
 10
20.57892187825564
 20
19.17103029610553
 42
-0.5040414943243603
 10
20.28974363574616
 20
19.56183226159737
 10
21.0429931407898
 20
22.02560037753938
 42
-0.3297505471392168
 10
21.33217138329928
 20
22.23958102074175
 10
23.95878039264244
 20
22.23958102074357
 42
-0.3297505471401506
1001
AcDbBlockRepETag
1070
     1
1071
      130
1005
C78
  0
LWPOLYLINE
  5
C79
330
BF0
100
AcDbEntity
  8
flame
  6
ByBlock
100
AcDbPolyline
 90
       26
 70
     1
 43
0.0
 10
35.93296628726421
 20
26.29672794011822
 10
35.8606918689502
 20
28.53139261494471
 10
31.87518462257322
 20
28.53139261494471
 10
27.88967737619624
 20
28.53139261494471
 10
27.81740295788131
 20
26.29672794011822
 42
0.8721984941219423
 10
28.52513359009208
 20
26.17622796726755
 10
28.8149313892036
 20
27.09686812119617
 42
-0.3274643887701543
 10
29.78261458521411
 20
27.80675493378658
 10
29.99112665155826
 20
27.80675493378658
 42
-0.4142135623730951
 10
30.49837302837023
 20
27.29950855697462
 10
30.49837302836841
 20
19.61834913668463
 42
-0.4142135623730951
 10
30.13605418779025
 20
19.25603029610465
 10
29.84619911532718
 20
19.25603029610465
 42
0.4142135623730951
 10
29.70127157909519
 20
19.11110275987266
 10
29.70127157909519
 20
18.53139261494471
 10
31.87518462257322
 20
18.53139261494471
 10
34.04909766605124
 20
18.53139261494471
 10
34.04909766605124
 20
19.11110275987266
 42
0.4142135623730951
 10
33.90417012982016
 20
19.25603029610465
 10
33.61431505735618
 20
19.25603029610465
 42
-0.4142135623730951
 10
33.25199621677621
 20
19.61834913668463
 10
33.25199621677621
 20
27.29950855697462
 42
-0.4142135623730951
 10
33.75924259358817
 20
27.80675493378658
 10
33.96775465993233
 20
27.80675493378658
 42
-0.3274643887701542
 10
34.93543785594285
 20
27.09686812119617
 10
35.22523565505435
 20
26.17622796726755
 42
0.872198494121949
1001
AcDbBlockRepETag
1070
     1
1071
      131
1005
C79
  0
LWPOLYLINE
  5
C7A
330
BF0
100
AcDbEntity
  8
flame
  6
ByBlock
100
AcDbPolyline
 90
       26
 70
     1
 43
0.0
 10
36.01792186580043
 20
26.29947560740402
 10
35.94298720965799
 20
28.61639261494565
 10
31.87518462257322
 20
28.61639261494565
 10
27.80738203548754
 20
28.61639261494565
 10
27.73244737934419
 20
26.29947560740402
 42
0.8721984941219334
 10
28.60621161787186
 20
26.15070634092262
 10
28.89600941698336
 20
27.07134649485124
 42
-0.3274643887701552
 10
29.78261458521411
 20
27.72175493378564
 10
29.99112665155826
 20
27.72175493378564
 42
-0.414213562373094
 10
30.41337302837019
 20
27.29950855697462
 10
30.41337302836928
 20
19.61834913668463
 42
-0.4142135623730934
 10
30.13605418779025
 20
19.3410302961056
 10
29.84619911532718
 20
19.3410302961056
 42
0.4142135623730974
 10
29.61627157909516
 20
19.11110275987266
 10
29.61627157909516
 20
18.44639261494558
 10
31.87518462257322
 20
18.44639261494558
 10
34.13409766605127
 20
18.44639261494558
 10
34.13409766605127
 20
19.11110275987266
 42
0.4142135623730973
 10
33.90417012982016
 20
19.3410302961056
 10
33.61431505735618
 20
19.34103029610378
 42
-0.4142135623730934
 10
33.33699621677624
 20
19.61834913668463
 10
33.33699621677624
 20
27.29950855697462
 42
-0.414213562373094
 10
33.75924259358817
 20
27.72175493378564
 10
33.96775465993233
 20
27.72175493378564
 42
-0.3274643887701549
 10
34.85435982816307
 20
27.07134649485124
 10
35.14415762727367
 20
26.15070634092262
 42
0.8721984941219462
1001
AcDbBlockRepETag
1070
     1
1071
      132
1005
C7A
  0
LWPOLYLINE
  5
C7B
330
BF0
100
AcDbEntity
  8
flame
  6
ByBlock
100
AcDbPolyline
 90
       26
 70
     1
 43
0.0
 10
35.848010708728
 20
26.29398027283242
 10
35.7783965282424
 20
28.44639261494558
 10
31.87518462257322
 20
28.44639261494558
 10
27.97197271690402
 20
28.44639261494558
 10
27.90235853641752
 20
26.29398027283424
 42
0.8721984941219337
 10
28.44405556231232
 20
26.20174959361248
 10
28.73385336142383
 20
27.1223897475411
 42
-0.327464388770155
 10
29.78261458521411
 20
27.89175493378571
 10
29.99112665155826
 20
27.89175493378571
 42
-0.4142135623730959
 10
30.58337302837026
 20
27.29950855697462
 10
30.58337302836844
 20
19.61834913668463
 42
-0.4142135623730962
 10
30.13605418779025
 20
19.17103029610553
 10
29.84619911532718
 20
19.17103029610553
 42
0.4142135623730869
 10
29.78627157909523
 20
19.11110275987266
 10
29.78627157909523
 20
18.61639261494565
 10
31.87518462257322
 20
18.61639261494565
 10
33.9640976660512
 20
18.61639261494565
 10
33.9640976660512
 20
19.11110275987266
 42
0.4142135623730869
 10
33.90417012982016
 20
19.17103029610553
 10
33.61431505735618
 20
19.17103029610371
 42
-0.414213562373096
 10
33.16699621677617
 20
19.61834913668463
 10
33.16699621677617
 20
27.29950855697462
 42
-0.4142135623730959
 10
33.75924259358817
 20
27.89175493378571
 10
33.96775465993233
 20
27.89175493378571
 42
-0.3274643887701536
 10
35.01651588372352
 20
27.1223897475411
 10
35.30631368283412
 20
26.20174959361248
 42
0.8721984941219799
1001
AcDbBlockRepETag
1070
     1
1071
      133
1005
C7B
  0
LWPOLYLINE
  5
C7C
330
BF0
100
AcDbEntity
  8
flame
  6
ByBlock
100
AcDbPolyline
 90
       40
 70
     1
 43
0.0
 10
58.61431505735618
 20
19.25603029610465
 42
-0.4142135623730951
 10
58.75924259358817
 20
19.11110275987266
 10
58.75924259358817
 20
18.53139261494471
 10
54.70127157909519
 20
18.53139261494471
 10
54.70127157909519
 20
19.11110275987266
 42
-0.4142135623730951
 10
54.84619911532718
 20
19.25603029610465
 10
55.13605418779116
 20
19.25603029610465
 42
0.4142135623730951
 10
55.49837302837023
 20
19.61834913668463
 10
55.49837302837023
 20
27.59605675325474
 42
0.8769764629942649
 10
55.07099784874207
 20
27.65232176305835
 10
52.62705224928414
 20
18.53139261494471
 10
51.93153233427985
 20
18.53139261494471
 10
49.47647284567938
 20
27.69379936200676
 42
0.8769764629925763
 10
49.04909766605214
 20
27.63753435220133
 10
49.04909766605214
 20
19.47342160045264
 42
0.4142135623730951
 10
49.26648897039921
 20
19.25603029610465
 10
49.4838802747472
 20
19.25603029610465
 42
-0.4142135623730951
 10
49.62880781097918
 20
19.11110275987266
 10
49.62880781097918
 20
18.53139261494471
 10
47.59982230373225
 20
18.53139261494471
 10
47.59982230373225
 20
19.11110275987266
 42
-0.4142135623730951
 10
47.74474983996425
 20
19.25603029610465
 10
48.10706868054421
 20
19.25603029610465
 42
0.4142135623730951
 10
48.3244599848922
 20
19.47342160045264
 10
48.3244599848922
 20
27.5893636294386
 42
0.4142135623730951
 10
48.10706868054421
 20
27.80675493378658
 10
47.74474983996425
 20
27.80675493378658
 42
-0.4142135623730951
 10
47.59982230373225
 20
27.95168247001857
 10
47.59982230373225
 20
28.53139261494471
 10
51.80272085445722
 20
28.53139261494471
 10
52.96954857338005
 20
24.1767322842461
 42
0.7673269879785562
 10
53.38951632394036
 20
24.1767322842461
 10
54.55634404286321
 20
28.53139261494471
 10
58.75924259358817
 20
28.53139261494471
 10
58.75924259358817
 20
27.95168247001857
 42
-0.4142135623730951
 10
58.61431505735618
 20
27.80675493378658
 10
58.3244599848922
 20
27.80675493378658
 42
0.4142135623730951
 10
57.96214114431222
 20
27.44443609320661
 10
57.96214114431222
 20
19.61834913668463
 42
0.4142135623730951
 10
58.3244599848922
 20
19.25603029610465
1001
AcDbBlockRepETag
1070
     1
1071
      134
1005
C7C
  0
LWPOLYLINE
  5
C7D
330
BF0
100
AcDbEntity
  8
flame
  6
ByBlock
100
AcDbPolyline
 90
       40
 70
     1
 43
0.0
 10
58.61431505735618
 20
19.3410302961056
 42
-0.4142135623730974
 10
58.84424259358819
 20
19.11110275987266
 10
58.84424259358819
 20
18.44639261494558
 10
54.61627157909514
 20
18.44639261494558
 10
54.61627157909514
 20
19.11110275987266
 42
-0.4142135623730974
 10
54.84619911532718
 20
19.3410302961056
 10
55.13605418779116
 20
19.3410302961056
 42
0.4142135623730934
 10
55.41337302837018
 20
19.61834913668463
 10
55.41337302837018
 20
27.59605675325474
 42
0.8769764629942653
 10
55.15310154397685
 20
27.63032214422492
 10
52.69227504326227
 20
18.44639261494558
 10
51.86630954030171
 20
18.44639261494558
 10
49.39436915044461
 20
27.67179974317333
 42
0.8769764629924258
 10
49.13409766605218
 20
27.63753435220133
 10
49.13409766605218
 20
19.47342160045264
 42
0.4142135623730835
 10
49.26648897039921
 20
19.3410302961056
 10
49.4838802747472
 20
19.3410302961056
 42
-0.4142135623730974
 10
49.71380781097924
 20
19.11110275987266
 10
49.71380781097924
 20
18.44639261494558
 10
47.51482230373222
 20
18.44639261494558
 10
47.51482230373222
 20
19.11110275987266
 42
-0.4142135623730974
 10
47.74474983996425
 20
19.3410302961056
 10
48.10706868054421
 20
19.3410302961056
 42
0.4142135623730913
 10
48.23945998489215
 20
19.47342160045264
 10
48.23945998489215
 20
27.5893636294386
 42
0.4142135623730913
 10
48.10706868054421
 20
27.72175493378564
 10
47.74474983996425
 20
27.72175493378564
 42
-0.4142135623730974
 10
47.51482230373222
 20
27.95168247001857
 10
47.51482230373222
 20
28.61639261494565
 10
51.86794364843535
 20
28.61639261494565
 10
53.05165226861482
 20
24.19873190307953
 42
0.767326987978615
 10
53.3074126287056
 20
24.19873190307953
 10
54.49112124888507
 20
28.61639261494565
 10
58.84424259358819
 20
28.61639261494565
 10
58.84424259358819
 20
27.95168247001857
 42
-0.4142135623730974
 10
58.61431505735618
 20
27.72175493378564
 10
58.3244599848922
 20
27.72175493378564
 42
0.4142135623730896
 10
58.04714114431225
 20
27.44443609320661
 10
58.04714114431225
 20
19.61834913668463
 42
0.4142135623730895
 10
58.3244599848922
 20
19.3410302961056
1001
AcDbBlockRepETag
1070
     1
1071
      135
1005
C7D
  0
LWPOLYLINE
  5
C7E
330
BF0
100
AcDbEntity
  8
flame
  6
ByBlock
100
AcDbPolyline
 90
       40
 70
     1
 43
0.0
 10
58.61431505735618
 20
19.17103029610553
 42
-0.4142135623730869
 10
58.67424259358813
 20
19.11110275987266
 10
58.67424259358813
 20
18.61639261494565
 10
54.78627157909523
 20
18.61639261494565
 10
54.78627157909523
 20
19.11110275987266
 42
-0.4142135623730869
 10
54.84619911532718
 20
19.17103029610553
 10
55.13605418779116
 20
19.17103029610553
 42
0.4142135623730962
 10
55.58337302837025
 20
19.61834913668463
 10
55.58337302837025
 20
27.59605675325474
 42
0.8769764629943033
 10
54.98889415350731
 20
27.67432138189179
 10
52.561829455306
 20
18.61639261494565
 10
51.99675512825797
 20
18.61639261494565
 10
49.55857654091414
 20
27.71579898084019
 42
0.8769764629925827
 10
48.96409766605211
 20
27.63753435220133
 10
48.96409766605211
 20
19.47342160045264
 42
0.4142135623731002
 10
49.26648897039921
 20
19.17103029610553
 10
49.4838802747472
 20
19.17103029610553
 42
-0.4142135623730869
 10
49.54380781097915
 20
19.11110275987266
 10
49.54380781097915
 20
18.61639261494565
 10
47.68482230373229
 20
18.61639261494565
 10
47.68482230373229
 20
19.11110275987266
 42
-0.4142135623730869
 10
47.74474983996425
 20
19.17103029610553
 10
48.10706868054421
 20
19.17103029610553
 42
0.4142135623730966
 10
48.40945998489225
 20
19.47342160045264
 10
48.40945998489225
 20
27.5893636294386
 42
0.4142135623730966
 10
48.10706868054421
 20
27.89175493378571
 10
47.74474983996425
 20
27.89175493378571
 42
-0.4142135623730869
 10
47.68482230373229
 20
27.95168247001857
 10
47.68482230373229
 20
28.44639261494558
 10
51.73749806047908
 20
28.44639261494558
 10
52.88744487814528
 20
24.15473266541268
 42
0.7673269879785485
 10
53.47162001917514
 20
24.15473266541268
 10
54.62156683684135
 20
28.44639261494558
 10
58.67424259358813
 20
28.44639261494558
 10
58.67424259358813
 20
27.95168247001857
 42
-0.4142135623730869
 10
58.61431505735618
 20
27.89175493378571
 10
58.3244599848922
 20
27.89175493378571
 42
0.4142135623730962
 10
57.87714114431219
 20
27.44443609320661
 10
57.87714114431219
 20
19.61834913668463
 42
0.4142135623730985
 10
58.3244599848922
 20
19.17103029610553
1001
AcDbBlockRepETag
1070
     1
1071
      136
1005
C7E
  0
LINE
  5
C7F
330
BF0
100
AcDbEntity
  8
flame
  6
ByBlock
100
AcDbLine
 10
105.0
 20
0.0
 30
0.0
 11
104.9999999999991
 21
10.0
 31
0.0
1001
AcDbBlockRepETag
1070
     1
1071
      137
1005
C7F
  0
LINE
  5
C80
330
BF0
100
AcDbEntity
  8
flame
  6
ByBlock
100
AcDbLine
 10
105.1599999999998
 20
0.0
 30
0.0
 11
105.1599999999989
 21
10.0
 31
0.0
1001
AcDbBlockRepETag
1070
     1
1071
      138
1005
C80
  0
LINE
  5
C81
330
BF0
100
AcDbEntity
  8
flame
  6
ByBlock
100
AcDbLine
 10
104.8400000000001
 20
0.0
 30
0.0
 11
104.8399999999992
 21
10.0
 31
0.0
1001
AcDbBlockRepETag
1070
     1
1071
      139
1005
C81
  0
LINE
  5
C82
330
BF0
100
AcDbEntity
  8
flame
  6
ByBlock
100
AcDbLine
 10
210.0
 20
148.5
 30
0.0
 11
196.9999999999991
 21
148.5
 31
0.0
1001
AcDbBlockRepETag
1070
     1
1071
      140
1005
C82
  0
LINE
  5
C83
330
BF0
100
AcDbEntity
  8
flame
  6
ByBlock
100
AcDbLine
 10
210.0
 20
148.3400000000001
 30
0.0
 11
196.9999999999991
 21
148.3400000000001
 31
0.0
1001
AcDbBlockRepETag
1070
     1
1071
      141
1005
C83
  0
LINE
  5
C84
330
BF0
100
AcDbEntity
  8
flame
  6
ByBlock
100
AcDbLine
 10
210.0
 20
148.6599999999998
 30
0.0
 11
196.9999999999991
 21
148.6599999999998
 31
0.0
1001
AcDbBlockRepETag
1070
     1
1071
      142
1005
C84
  0
LINE
  5
C85
330
BF0
100
AcDbEntity
  8
flame
  6
ByBlock
100
AcDbLine
 10
105.0
 20
297.0
 30
0.0
 11
105.0
 21
287.0
 31
0.0
1001
AcDbBlockRepETag
1070
     1
1071
      143
1005
C85
  0
LINE
  5
C86
330
BF0
100
AcDbEntity
  8
flame
  6
ByBlock
100
AcDbLine
 10
105.1599999999998
 20
297.0
 30
0.0
 11
105.1599999999998
 21
287.0
 31
0.0
1001
AcDbBlockRepETag
1070
     1
1071
      144
1005
C86
  0
LINE
  5
C87
330
BF0
100
AcDbEntity
  8
flame
  6
ByBlock
100
AcDbLine
 10
104.8400000000001
 20
297.0
 30
0.0
 11
104.8400000000001
 21
287.0
 31
0.0
1001
AcDbBlockRepETag
1070
     1
1071
      145
1005
C87
  0
LINE
  5
C88
330
BF0
100
AcDbEntity
  8
flame
  6
ByBlock
100
AcDbLine
 10
0.0
 20
148.5
 30
0.0
 11
12.99999999999909
 21
148.5
 31
0.0
1001
AcDbBlockRepETag
1070
     1
1071
      146
1005
C88
  0
LINE
  5
C89
330
BF0
100
AcDbEntity
  8
flame
  6
ByBlock
100
AcDbLine
 10
0.0
 20
148.3400000000001
 30
0.0
 11
12.99999999999909
 21
148.3400000000001
 31
0.0
1001
AcDbBlockRepETag
1070
     1
1071
      147
1005
C89
  0
LINE
  5
C8A
330
BF0
100
AcDbEntity
  8
flame
  6
ByBlock
100
AcDbLine
 10
0.0
 20
148.6599999999998
 30
0.0
 11
12.99999999999909
 21
148.6599999999998
 31
0.0
1001
AcDbBlockRepETag
1070
     1
1071
      148
1005
C8A
  0
ATTDEF
  5
C8B
330
BF0
100
AcDbEntity
  8
flame
  6
ByBlock
100
AcDbText
 10
16.5
 20
275.0000000000018
 30
0.0
 40
3.0
  1

 41
0.9
  7
ATOM
 72
     1
 11
16.5
 21
276.5000000000018
 31
0.0
100
AcDbAttributeDefinition
  3
改番?
  2
改番
 70
     0
 74
     2
1001
AcDbBlockRepETag
1070
     1
1071
      202
1005
0
1001
AcDbAttr
1070
     0
1070
     1
  0
ATTDEF
  5
C8C
330
BF0
100
AcDbEntity
  8
flame
  6
ByBlock
100
AcDbText
 10
68.5
 20
275.0000000000018
 30
0.0
 40
3.0
  1

 41
0.9
  7
ATOM
 72
     1
 11
68.5
 21
276.5000000000018
 31
0.0
100
AcDbAttributeDefinition
  3
改正理由?
  2
改　　　　正　　　　理　　　　由
 70
     0
 74
     2
1001
AcDbBlockRepETag
1070
     1
1071
      203
1005
0
1001
AcDbAttr
1070
     0
1070
     1
  0
ATTDEF
  5
C8D
330
BF0
100
AcDbEntity
  8
flame
  6
ByBlock
100
AcDbText
 10
124.5
 20
275.0000000000018
 30
0.0
 40
3.0
  1

 41
0.9
  7
ATOM
 72
     1
 11
124.5
 21
276.5000000000018
 31
0.0
100
AcDbAttributeDefinition
  3
改正承認?
  2
改正承認
 70
     0
 74
     2
1001
AcDbBlockRepETag
1070
     1
1071
      201
1005
0
1001
AcDbAttr
1070
     0
1070
     1
  0
ATTDEF
  5
C8E
330
BF0
100
AcDbEntity
  8
flame
  6
ByBlock
100
AcDbText
 10
144.5
 20
275.0000000000018
 30
0.0
 40
3.0
  1

 41
0.9
  7
ATOM
 72
     1
 11
144.5
 21
276.5000000000018
 31
0.0
100
AcDbAttributeDefinition
  3
改正承認日?
  2
改正承認日
 70
     0
 74
     2
1001
AcDbBlockRepETag
1070
     1
1071
      200
1005
0
1001
AcDbAttr
1070
     0
1070
     1
  0
ATTDEF
  5
C8F
330
BF0
100
AcDbEntity
  8
flame
  6
ByBlock
100
AcDbText
 10
164.5
 20
275.0000000000018
 30
0.0
 40
3.0
  1

 41
0.9
  7
ATOM
 72
     1
 11
164.5
 21
276.5000000000018
 31
0.0
100
AcDbAttributeDefinition
  3
改正担当?
  2
改正担当
 70
     0
 74
     2
1001
AcDbBlockRepETag
1070
     1
1071
      199
1005
0
1001
AcDbAttr
1070
     0
1070
     1
  0
ATTDEF
  5
C90
330
BF0
100
AcDbEntity
  8
flame
  6
ByBlock
100
AcDbText
 10
184.5
 20
275.0000000000018
 30
0.0
 40
3.0
  1

 41
0.9
  7
ATOM
 72
     1
 11
184.5
 21
276.5000000000018
 31
0.0
100
AcDbAttributeDefinition
  3
改正日?
  2
改正日
 70
     0
 74
     2
1001
AcDbBlockRepETag
1070
     1
1071
      198
1005
0
1001
AcDbAttr
1070
     0
1070
     1
  0
CIRCLE
  5
C91
330
BF0
100
AcDbEntity
  8
flame
100
AcDbCircle
 10
16.69857561378921
 20
34.3352633367922
 30
0.0
 40
1.123977615884085
1001
AcDbBlockRepETag
1070
     1
1071
      161
1005
C91
  0
CIRCLE
  5
C92
330
BF0
100
AcDbEntity
  8
flame
100
AcDbCircle
 10
16.69857561378921
 20
34.3352633367922
 30
0.0
 40
1.208977615884085
1001
AcDbBlockRepETag
1070
     1
1071
      162
1005
C92
  0
CIRCLE
  5
C93
330
BF0
100
AcDbEntity
  8
flame
100
AcDbCircle
 10
16.69857561378921
 20
34.3352633367922
 30
0.0
 40
1.038977615884085
1001
AcDbBlockRepETag
1070
     1
1071
      163
1005
C93
  0
CIRCLE
  5
C94
330
BF0
100
AcDbEntity
  8
flame
100
AcDbCircle
 10
16.69857561378921
 20
34.3352633367922
 30
0.0
 40
2.310728085513118
1001
AcDbBlockRepETag
1070
     1
1071
      164
1005
C94
  0
CIRCLE
  5
C95
330
BF0
100
AcDbEntity
  8
flame
100
AcDbCircle
 10
16.69857561378921
 20
34.3352633367922
 30
0.0
 40
2.395728085513118
1001
AcDbBlockRepETag
1070
     1
1071
      165
1005
C95
  0
CIRCLE
  5
C96
330
BF0
100
AcDbEntity
  8
flame
100
AcDbCircle
 10
16.69857561378921
 20
34.3352633367922
 30
0.0
 40
2.225728085513118
1001
AcDbBlockRepETag
1070
     1
1071
      166
1005
C96
  0
CIRCLE
  5
C97
330
BF0
100
AcDbEntity
  8
flame
100
AcDbCircle
 10
41.60561818906808
 20
23.63139261494507
 30
0.0
 40
5.269566433505018
1001
AcDbBlockRepETag
1070
     1
1071
      167
1005
C97
  0
CIRCLE
  5
C98
330
BF0
100
AcDbEntity
  8
flame
100
AcDbCircle
 10
41.60561818906808
 20
23.63139261494507
 30
0.0
 40
5.354566433505018
1001
AcDbBlockRepETag
1070
     1
1071
      168
1005
C98
  0
CIRCLE
  5
C99
330
BF0
100
AcDbEntity
  8
flame
100
AcDbCircle
 10
41.60561818906808
 20
23.63139261494507
 30
0.0
 40
5.184566433505018
1001
AcDbBlockRepETag
1070
     1
1071
      169
1005
C99
  0
LINE
  5
C9A
330
BF0
100
AcDbEntity
  8
flame
100
AcDbLine
 10
19.99421302496466
 20
34.3352633367922
 30
0.0
 11
21.99421302496467
 21
34.3352633367922
 31
0.0
1001
AcDbBlockRepETag
1070
     1
1071
      170
1005
C9A
  0
LINE
  5
C9B
330
BF0
100
AcDbEntity
  8
flame
100
AcDbLine
 10
22.49421302496466
 20
34.3352633367922
 30
0.0
 11
22.99421302496467
 21
34.3352633367922
 31
0.0
1001
AcDbBlockRepETag
1070
     1
1071
      171
1005
C9B
  0
LINE
  5
C9C
330
BF0
100
AcDbEntity
  8
flame
100
AcDbLine
 10
23.49421302496466
 20
34.3352633367922
 30
0.0
 11
25.19999999999982
 21
34.3352633367922
 31
0.0
1001
AcDbBlockRepETag
1070
     1
1071
      172
1005
C9C
  0
LINE
  5
C9D
330
BF0
100
AcDbEntity
  8
flame
100
AcDbLine
 10
13.80000000000018
 20
34.3352633367922
 30
0.0
 11
14.9985756137894
 21
34.3352633367922
 31
0.0
1001
AcDbBlockRepETag
1070
     1
1071
      173
1005
C9D
  0
LINE
  5
C9E
330
BF0
100
AcDbEntity
  8
flame
100
AcDbLine
 10
15.4985756137894
 20
34.3352633367922
 30
0.0
 11
15.9985756137894
 21
34.3352633367922
 31
0.0
1001
AcDbBlockRepETag
1070
     1
1071
      174
1005
C9E
  0
LINE
  5
C9F
330
BF0
100
AcDbEntity
  8
flame
100
AcDbLine
 10
16.4985756137894
 20
34.3352633367922
 30
0.0
 11
19.59715122757825
 21
34.3352633367922
 31
0.0
1001
AcDbBlockRepETag
1070
     1
1071
      175
1005
C9F
  0
LINE
  5
CA0
330
BF0
100
AcDbEntity
  8
flame
100
AcDbLine
 10
16.69857561378921
 20
37.23383895058032
 30
0.0
 11
16.69857561378921
 21
36.03526333679111
 31
0.0
1001
AcDbBlockRepETag
1070
     1
1071
      176
1005
CA0
  0
LINE
  5
CA1
330
BF0
100
AcDbEntity
  8
flame
100
AcDbLine
 10
16.69857561378921
 20
35.53526333679111
 30
0.0
 11
16.69857561378921
 21
35.0352633367911
 31
0.0
1001
AcDbBlockRepETag
1070
     1
1071
      177
1005
CA1
  0
LINE
  5
CA2
330
BF0
100
AcDbEntity
  8
flame
100
AcDbLine
 10
16.69857561378921
 20
34.53526333679111
 30
0.0
 11
16.69857561378921
 21
31.43668772300225
 31
0.0
1001
AcDbBlockRepETag
1070
     1
1071
      178
1005
CA2
  0
ATTDEF
  5
CA3
330
BF0
100
AcDbEntity
  8
flame
  6
ByBlock
100
AcDbText
 10
76.75
 20
32.75000000000182
 30
0.0
 40
3.5
  1

 41
0.9
  7
ATOM
 72
     1
 11
76.75
 21
34.50000000000182
 31
0.0
100
AcDbAttributeDefinition
  3
名称?
  2
名称
 70
     0
 74
     2
1001
AcDbBlockRepETag
1070
     1
1071
      159
1005
0
1001
AcDbAttr
1070
     0
1070
     1
  0
ATTDEF
  5
CA4
330
BF0
100
AcDbEntity
  8
flame
  6
ByBlock
100
AcDbText
 10
35.0
 20
32.78589838486369
 30
0.0
 40
3.5
  1

 41
0.9
  7
ATOM
 72
     1
 11
35.0
 21
34.53589838486369
 31
0.0
100
AcDbAttributeDefinition
  3
尺度?
  2
尺度
 70
     0
 74
     2
1001
AcDbBlockRepETag
1070
     1
1071
      160
1005
0
1001
AcDbAttr
1070
     0
1070
     1
  0
ATTDEF
  5
CA5
330
BF0
100
AcDbEntity
  8
flame
  6
ByBlock
100
AcDbText
 10
112.25
 20
32.75000000000182
 30
0.0
 40
3.5
  1

 41
0.9
  7
ATOM
 72
     1
 11
112.25
 21
34.50000000000182
 31
0.0
100
AcDbAttributeDefinition
  3
承認?
  2
承認
 70
     0
 74
     2
1001
AcDbBlockRepETag
1070
     1
1071
      180
1005
0
1001
AcDbAttr
1070
     0
1070
     1
  0
ATTDEF
  5
CA6
330
BF0
100
AcDbEntity
  8
flame
  6
ByBlock
100
AcDbText
 10
112.25
 20
25.75000000000182
 30
0.0
 40
3.5
  1

 41
0.9
  7
ATOM
 72
     1
 11
112.25
 21
27.50000000000182
 31
0.0
100
AcDbAttributeDefinition
  3
検図?
  2
検図
 70
     0
 74
     2
1001
AcDbBlockRepETag
1070
     1
1071
      179
1005
0
1001
AcDbAttr
1070
     0
1070
     1
  0
ATTDEF
  5
CA7
330
BF0
100
AcDbEntity
  8
flame
  6
ByBlock
100
AcDbText
 10
112.25
 20
18.75000000000182
 30
0.0
 40
3.5
  1

 41
0.9
  7
ATOM
 72
     1
 11
112.25
 21
20.50000000000182
 31
0.0
100
AcDbAttributeDefinition
  3
設計?
  2
設計
 70
     0
 74
     2
1001
AcDbBlockRepETag
1070
     1
1071
      158
1005
0
1001
AcDbAttr
1070
     0
1070
     1
  0
ATTDEF
  5
CA8
330
BF0
100
AcDbEntity
  8
flame
  6
ByBlock
100
AcDbText
 10
112.25
 20
11.75000000000182
 30
0.0
 40
3.5
  1

 41
0.9
  7
ATOM
 72
     1
 11
112.25
 21
13.50000000000182
 31
0.0
100
AcDbAttributeDefinition
  3
作図?
  2
作図
 70
     0
 74
     2
1001
AcDbBlockRepETag
1070
     1
1071
      157
1005
0
1001
AcDbAttr
1070
     0
1070
     1
  0
ATTDEF
  5
CA9
330
BF0
100
AcDbEntity
  8
flame
  6
ByBlock
100
AcDbText
 10
130.0
 20
32.75000000000182
 30
0.0
 40
3.5
  1

 41
0.8
  7
ATOM
 72
     1
 11
130.0
 21
34.50000000000182
 31
0.0
100
AcDbAttributeDefinition
  3
承認日?
  2
承認日
 70
     0
 74
     2
1001
AcDbBlockRepETag
1070
     1
1071
      153
1005
0
1001
AcDbAttr
1070
     0
1070
     1
  0
ATTDEF
  5
CAA
330
BF0
100
AcDbEntity
  8
flame
  6
ByBlock
100
AcDbText
 10
130.0
 20
25.75000000000182
 30
0.0
 40
3.5
  1

 41
0.8
  7
ATOM
 72
     1
 11
130.0
 21
27.50000000000182
 31
0.0
100
AcDbAttributeDefinition
  3
検図日?
  2
検図日
 70
     0
 74
     2
1001
AcDbBlockRepETag
1070
     1
1071
      154
1005
0
1001
AcDbAttr
1070
     0
1070
     1
  0
LINE
  5
CAB
330
BF0
100
AcDbEntity
  8
flame
  6
ByBlock
100
AcDbLine
 10
12.99999999999909
 20
273.0000000000018
 30
0.0
 11
197.0
 21
273.0000000000018
 31
0.0
1001
AcDbBlockRepETag
1070
     1
1071
      192
1005
CAB
  0
LINE
  5
CAC
330
BF0
100
AcDbEntity
  8
flame
  6
ByBlock
100
AcDbLine
 10
157.0
 20
280.0000000000018
 30
0.0
 11
157.0
 21
273.0000000000018
 31
0.0
1001
AcDbBlockRepETag
1070
     1
1071
      193
1005
CAC
  0
LINE
  5
CAD
330
BF0
100
AcDbEntity
  8
flame
  6
ByBlock
100
AcDbLine
 10
132.0
 20
280.0000000000018
 30
0.0
 11
132.0
 21
273.0000000000018
 31
0.0
1001
AcDbBlockRepETag
1070
     1
1071
      194
1005
CAD
  0
LINE
  5
CAE
330
BF0
100
AcDbEntity
  8
flame
  6
ByBlock
100
AcDbLine
 10
117.0
 20
280.0000000000018
 30
0.0
 11
117.0
 21
273.0000000000018
 31
0.0
1001
AcDbBlockRepETag
1070
     1
1071
      195
1005
CAE
  0
LINE
  5
CAF
330
BF0
100
AcDbEntity
  8
flame
  6
ByBlock
100
AcDbLine
 10
20.0
 20
280.0000000000018
 30
0.0
 11
20.0
 21
273.0000000000018
 31
0.0
1001
AcDbBlockRepETag
1070
     1
1071
      196
1005
CAF
  0
LINE
  5
CB0
330
BF0
100
AcDbEntity
  8
flame
  6
ByBlock
100
AcDbLine
 10
172.0
 20
280.0000000000018
 30
0.0
 11
172.0
 21
273.0000000000018
 31
0.0
1001
AcDbBlockRepETag
1070
     1
1071
      197
1005
CB0
  0
ATTDEF
  5
CB1
330
BF0
100
AcDbEntity
  8
flame
  6
ByBlock
100
AcDbText
 10
130.0
 20
18.75000000000182
 30
0.0
 40
3.5
  1

 41
0.8
  7
ATOM
 72
     1
 11
130.0
 21
20.50000000000182
 31
0.0
100
AcDbAttributeDefinition
  3
設計日?
  2
設計日
 70
     0
 74
     2
1001
AcDbBlockRepETag
1070
     1
1071
      155
1005
0
1001
AcDbAttr
1070
     0
1070
     1
  0
ATTDEF
  5
CB2
330
BF0
100
AcDbEntity
  8
flame
  6
ByBlock
100
AcDbText
 10
130.0
 20
11.75000000000182
 30
0.0
 40
3.5
  1

 41
0.8
  7
ATOM
 72
     1
 11
130.0
 21
13.50000000000182
 31
0.0
100
AcDbAttributeDefinition
  3
作図日?
  2
作図日
 70
     0
 74
     2
1001
AcDbBlockRepETag
1070
     1
1071
      156
1005
0
1001
AcDbAttr
1070
     0
1070
     1
  0
ATTDEF
  5
CB3
330
BF0
100
AcDbEntity
  8
flame
  6
ByBlock
100
AcDbText
 10
170.5
 20
32.75000000000182
 30
0.0
 40
3.5
  1

 41
0.9
  7
ATOM
 72
     1
 11
170.5
 21
34.50000000000182
 31
0.0
100
AcDbAttributeDefinition
  3
品名?
  2
品名
 70
     0
 74
     2
1001
AcDbBlockRepETag
1070
     1
1071
      149
1005
0
1001
AcDbAttr
1070
     0
1070
     1
  0
ATTDEF
  5
CB4
330
BF0
100
AcDbEntity
  8
flame
  6
ByBlock
100
AcDbText
 10
170.5
 20
25.75000000000182
 30
0.0
 40
3.5
  1

 41
0.9
  7
ATOM
 72
     1
 11
170.5
 21
27.50000000000182
 31
0.0
100
AcDbAttributeDefinition
  3
品番?
  2
品番
 70
     0
 74
     2
1001
AcDbBlockRepETag
1070
     1
1071
      150
1005
0
1001
AcDbAttr
1070
     0
1070
     1
  0
ATTDEF
  5
CB5
330
BF0
100
AcDbEntity
  8
flame
  6
ByBlock
100
AcDbText
 10
170.5
 20
18.75000000000182
 30
0.0
 40
3.5
  1

 41
0.9
  7
ATOM
 72
     1
 11
170.5
 21
20.50000000000182
 31
0.0
100
AcDbAttributeDefinition
  3
図名?
  2
図名
 70
     0
 74
     2
1001
AcDbBlockRepETag
1070
     1
1071
      151
1005
0
1001
AcDbAttr
1070
     0
1070
     1
  0
ATTDEF
  5
CB6
330
BF0
100
AcDbEntity
  8
flame
  6
ByBlock
100
AcDbText
 10
165.25
 20
11.75000000000182
 30
0.0
 40
3.5
  1

 41
0.9
  7
ATOM
 72
     1
 11
165.25
 21
13.50000000000182
 31
0.0
100
AcDbAttributeDefinition
  3
図番?
  2
図番
 70
     0
 74
     2
1001
AcDbBlockRepETag
1070
     1
1071
      152
1005
0
1001
AcDbAttr
1070
     0
1070
     1
  0
LINE
  5
CB7
330
BF0
100
AcDbEntity
  8
flame
  6
ByBlock
100
AcDbLine
 10
155.0
 20
52.00000000000182
 30
0.0
 11
155.0
 21
45.00000000000182
 31
0.0
1001
AcDbBlockRepETag
1070
     1
1071
      204
1005
CB7
  0
LINE
  5
CB8
330
BF0
100
AcDbEntity
  8
flame
  6
ByBlock
100
AcDbLine
 10
105.0
 20
52.00000000000182
 30
0.0
 11
105.0
 21
45.00000000000182
 31
0.0
1001
AcDbBlockRepETag
1070
     1
1071
      205
1005
CB8
  0
LINE
  5
CB9
330
BF0
100
AcDbEntity
  8
flame
  6
ByBlock
100
AcDbLine
 10
98.0
 20
52.00000000000182
 30
0.0
 11
98.0
 21
45.00000000000182
 31
0.0
1001
AcDbBlockRepETag
1070
     1
1071
      206
1005
CB9
  0
LINE
  5
CBA
330
BF0
100
AcDbEntity
  8
flame
  6
ByBlock
100
AcDbLine
 10
70.0
 20
52.00000000000182
 30
0.0
 11
70.0
 21
45.00000000000182
 31
0.0
1001
AcDbBlockRepETag
1070
     1
1071
       11
1005
CBA
  0
LINE
  5
CBB
330
BF0
100
AcDbEntity
  8
flame
  6
ByBlock
100
AcDbLine
 10
20.0
 20
52.00000000000182
 30
0.0
 11
20.0
 21
45.00000000000182
 31
0.0
1001
AcDbBlockRepETag
1070
     1
1071
      207
1005
CBB
  0
LINE
  5
CBC
330
BF0
100
AcDbEntity
  8
flame
  6
ByBlock
100
AcDbLine
 10
12.99999999999909
 20
52.00000000000182
 30
0.0
 11
197.0
 21
52.00000000000182
 31
0.0
1001
AcDbBlockRepETag
1070
     1
1071
      208
1005
CBC
  0
ATTDEF
  5
CBD
102
{ACAD_XDICTIONARY
360
CBE
102
}
330
BF0
100
AcDbEntity
  8
flame
  6
ByBlock
100
AcDbText
 10
16.5
 20
47.00000000000182
 30
0.0
 40
3.0
  1

 41
0.9
  7
ATOM
 72
     1
 11
16.5
 21
48.50000000000182
 31
0.0
100
AcDbAttributeDefinition
  3
部番?
  2
部番
 70
     0
 74
     2
1001
AcDbBlockRepETag
1070
     1
1071
      213
1005
0
1001
AcadAnnotative
1000
AnnotativeData
1002
{
1070
     1
1070
     0
1002
}
1001
AcDbAttr
1070
     0
1070
     1
  0
ATTDEF
  5
CC1
102
{ACAD_XDICTIONARY
360
CC2
102
}
330
BF0
100
AcDbEntity
  8
flame
  6
ByBlock
100
AcDbText
 10
45.0
 20
47.00000000000182
 30
0.0
 40
3.0
  1

 41
0.9
  7
ATOM
 72
     1
 11
45.0
 21
48.50000000000182
 31
0.0
100
AcDbAttributeDefinition
  3
部品名?
  2
部　　　　品　　　　名
 70
     0
 74
     2
1001
AcDbBlockRepETag
1070
     1
1071
      211
1005
0
1001
AcadAnnotative
1000
AnnotativeData
1002
{
1070
     1
1070
     0
1002
}
1001
AcDbAttr
1070
     0
1070
     1
  0
ATTDEF
  5
CC5
102
{ACAD_XDICTIONARY
360
CC6
102
}
330
BF0
100
AcDbEntity
  8
flame
  6
ByBlock
100
AcDbText
 10
84.0
 20
47.00000000000182
 30
0.0
 40
3.0
  1

 41
0.9
  7
ATOM
 72
     1
 11
84.0
 21
48.50000000000182
 31
0.0
100
AcDbAttributeDefinition
  3
材質?
  2
材　　質
 70
     0
 74
     2
1001
AcDbBlockRepETag
1070
     1
1071
      210
1005
0
1001
AcadAnnotative
1000
AnnotativeData
1002
{
1070
     1
1070
     0
1002
}
1001
AcDbAttr
1070
     0
1070
     1
  0
ATTDEF
  5
CC9
102
{ACAD_XDICTIONARY
360
CCA
102
}
330
BF0
100
AcDbEntity
  8
flame
  6
ByBlock
100
AcDbText
 10
101.5
 20
47.00000000000182
 30
0.0
 40
3.0
  1

 41
0.9
  7
ATOM
 72
     1
 11
101.5
 21
48.50000000000182
 31
0.0
100
AcDbAttributeDefinition
  3
数量?
  2
数量
 70
     0
 74
     2
1001
AcDbBlockRepETag
1070
     1
1071
      212
1005
0
1001
AcadAnnotative
1000
AnnotativeData
1002
{
1070
     1
1070
     0
1002
}
1001
AcDbAttr
1070
     0
1070
     1
  0
ATTDEF
  5
CCD
102
{ACAD_XDICTIONARY
360
CCE
102
}
330
BF0
100
AcDbEntity
  8
flame
  6
ByBlock
100
AcDbText
 10
130.0
 20
47.00000000000182
 30
0.0
 40
3.0
  1

 41
0.9
  7
ATOM
 72
     1
 11
130.0
 21
48.50000000000182
 31
0.0
100
AcDbAttributeDefinition
  3
表面処理?
  2
表　　面　　処　　理
 70
     0
 74
     2
1001
AcDbBlockRepETag
1070
     1
1071
      209
1005
0
1001
AcadAnnotative
1000
AnnotativeData
1002
{
1070
     1
1070
     0
1002
}
1001
AcDbAttr
1070
     0
1070
     1
  0
ATTDEF
  5
CD1
102
{ACAD_XDICTIONARY
360
CD2
102
}
330
BF0
100
AcDbEntity
  8
flame
  6
ByBlock
100
AcDbText
 10
176.0
 20
47.00000000000182
 30
0.0
 40
3.0
  1

 41
0.9
  7
ATOM
 72
     1
 11
176.0
 21
48.50000000000182
 31
0.0
100
AcDbAttributeDefinition
  3
備考?
  2
備　　　考
 70
     0
 74
     2
1001
AcDbBlockRepETag
1070
     1
1071
      181
1005
0
1001
AcadAnnotative
1000
AnnotativeData
1002
{
1070
     1
1070
     0
1002
}
1001
AcDbAttr
1070
     0
1070
     1
  0
ENDBLK
  5
CD5
330
BF0
100
AcDbEntity
  8
0
100
AcDbBlockEnd
  0
BLOCK
  5
CF6
330
CF3
100
AcDbEntity
  8
0
100
AcDbBlockBegin
  2
部品表
 70
     2
 10
0.0
 20
0.0
 30
0.0
  3
部品表
  1

  0
LINE
  5
CF7
330
CF3
100
AcDbEntity
  8
frame
  6
ByBlock
100
AcDbLine
 10
142.0000000000009
 20
7.000000222036987
 30
0.0
 11
142.0000000000009
 21
0.0000002220369879
 31
0.0
1001
AcDbBlockRepETag
1070
     1
1071
        8
1005
CF7
  0
LINE
  5
CF8
330
CF3
100
AcDbEntity
  8
frame
  6
ByBlock
100
AcDbLine
 10
92.00000000000091
 20
7.000000222036987
 30
0.0
 11
92.00000000000091
 21
0.0000002220369879
 31
0.0
1001
AcDbBlockRepETag
1070
     1
1071
        9
1005
CF8
  0
LINE
  5
CF9
330
CF3
100
AcDbEntity
  8
frame
  6
ByBlock
100
AcDbLine
 10
85.0000000000009
 20
7.000000222036987
 30
0.0
 11
85.0000000000009
 21
0.0000002220369879
 31
0.0
1001
AcDbBlockRepETag
1070
     1
1071
       10
1005
CF9
  0
LINE
  5
CFA
330
CF3
100
AcDbEntity
  8
frame
  6
ByBlock
100
AcDbLine
 10
57.00000000000091
 20
7.000000222036987
 30
0.0
 11
57.00000000000091
 21
0.0000002220369879
 31
0.0
1001
AcDbBlockRepETag
1070
     1
1071
       11
1005
CFA
  0
LINE
  5
CFB
330
CF3
100
AcDbEntity
  8
frame
  6
ByBlock
100
AcDbLine
 10
7.000000000000909
 20
7.000000222036987
 30
0.0
 11
7.000000000000909
 21
0.0000002220369879
 31
0.0
1001
AcDbBlockRepETag
1070
     1
1071
       12
1005
CFB
  0
LINE
  5
CFC
330
CF3
100
AcDbEntity
  8
frame
  6
ByBlock
100
AcDbLine
 10
0.0
 20
7.000000222036987
 30
0.0
 11
184.0000000000009
 21
7.000000222036987
 31
0.0
1001
AcDbBlockRepETag
1070
     1
1071
       13
1005
CFC
  0
LINE
  5
CFD
330
CF3
100
AcDbEntity
  8
frame
  6
ByBlock
100
AcDbLine
 10
0.0
 20
0.0000002220369879
 30
0.0
 11
0.0
 21
7.000000222036987
 31
0.0
1001
AcDbBlockRepETag
1070
     1
1071
      123
1005
CFD
  0
ATTDEF
  5
CFE
102
{ACAD_XDICTIONARY
360
CFF
102
}
330
CF3
100
AcDbEntity
  8
frame
  6
ByBlock
100
AcDbText
 10
3.500000000000909
 20
2.000000222036987
 30
0.0
 40
3.0
  1

 41
0.9
  7
ATOM
 72
     1
 11
3.500000000000909
 21
3.500000222036987
 31
0.0
100
AcDbAttributeDefinition
  3
部番?
  2
部番
 70
     0
 74
     2
1001
AcadAnnotative
1000
AnnotativeData
1002
{
1070
     1
1070
     1
1002
}
1001
AcDbBlockRepETag
1070
     1
1071
       16
1005
0
1001
AcDbAttr
1070
     0
1070
     1
  0
ATTDEF
  5
D03
102
{ACAD_XDICTIONARY
360
D04
102
}
330
CF3
100
AcDbEntity
  8
frame
  6
ByBlock
100
AcDbText
 10
32.00000000000091
 20
2.000000222036987
 30
0.0
 40
3.0
  1

 41
0.9
  7
ATOM
 72
     1
 11
32.00000000000091
 21
3.500000222036987
 31
0.0
100
AcDbAttributeDefinition
  3
部品名?
  2
部　　　　品　　　　名
 70
     0
 74
     2
1001
AcadAnnotative
1000
AnnotativeData
1002
{
1070
     1
1070
     1
1002
}
1001
AcDbBlockRepETag
1070
     1
1071
       15
1005
0
1001
AcDbAttr
1070
     0
1070
     1
  0
ATTDEF
  5
D08
102
{ACAD_XDICTIONARY
360
D09
102
}
330
CF3
100
AcDbEntity
  8
frame
  6
ByBlock
100
AcDbText
 10
71.00000000000091
 20
2.000000222036987
 30
0.0
 40
3.0
  1

 41
0.9
  7
ATOM
 72
     1
 11
71.00000000000091
 21
3.500000222036987
 31
0.0
100
AcDbAttributeDefinition
  3
材質?
  2
材　　質
 70
     0
 74
     2
1001
AcadAnnotative
1000
AnnotativeData
1002
{
1070
     1
1070
     1
1002
}
1001
AcDbBlockRepETag
1070
     1
1071
       14
1005
0
1001
AcDbAttr
1070
     0
1070
     1
  0
ATTDEF
  5
D0D
102
{ACAD_XDICTIONARY
360
D0E
102
}
330
CF3
100
AcDbEntity
  8
frame
  6
ByBlock
100
AcDbText
 10
88.50000000000092
 20
2.000000222036987
 30
0.0
 40
3.0
  1

 41
0.9
  7
ATOM
 72
     1
 11
88.50000000000092
 21
3.500000222036987
 31
0.0
100
AcDbAttributeDefinition
  3
数量?
  2
数量
 70
     0
 74
     2
1001
AcDbBlockRepETag
1070
     1
1071
      178
1005
0
1001
AcadAnnotative
1000
AnnotativeData
1002
{
1070
     1
1070
     1
1002
}
1001
AcDbAttr
1070
     0
1070
     1
  0
ATTDEF
  5
D12
102
{ACAD_XDICTIONARY
360
D13
102
}
330
CF3
100
AcDbEntity
  8
frame
  6
ByBlock
100
AcDbText
 10
117.0000000000009
 20
2.000000222036987
 30
0.0
 40
3.0
  1

 41
0.9
  7
ATOM
 72
     1
 11
117.0000000000009
 21
3.500000222036987
 31
0.0
100
AcDbAttributeDefinition
  3
表面処理?
  2
表　　面　　処　　理
 70
     0
 74
     2
1001
AcadAnnotative
1000
AnnotativeData
1002
{
1070
     1
1070
     1
1002
}
1001
AcDbBlockRepETag
1070
     1
1071
       17
1005
0
1001
AcDbAttr
1070
     0
1070
     1
  0
ATTDEF
  5
D17
102
{ACAD_XDICTIONARY
360
D18
102
}
330
CF3
100
AcDbEntity
  8
frame
  6
ByBlock
100
AcDbText
 10
163.0000000000009
 20
2.000000222036987
 30
0.0
 40
3.0
  1

 41
0.9
  7
ATOM
 72
     1
 11
163.0000000000009
 21
3.500000222036987
 31
0.0
100
AcDbAttributeDefinition
  3
備考?
  2
備　　　考
 70
     0
 74
     2
1001
AcDbBlockRepETag
1070
     1
1071
      181
1005
0
1001
AcadAnnotative
1000
AnnotativeData
1002
{
1070
     1
1070
     1
1002
}
1001
AcDbAttr
1070
     0
1070
     1
  0
ENDBLK
  5
D1C
330
CF3
100
AcDbEntity
  8
0
100
AcDbBlockEnd
  0
BLOCK
  5
D3E
330
D3D
100
AcDbEntity
  8
0
100
AcDbBlockBegin
  2
*E10555
 70
     3
 10
0.0
 20
0.0
 30
0.0
  3
*E10555
  1

  0
LINE
  5
D40
330
D3D
100
AcDbEntity
  8
frame
  6
ByBlock
100
AcDbLine
 10
142.0000000000009
 20
7.000000222036987
 30
0.0
 11
142.0000000000009
 21
0.0000002220369879
 31
0.0
1001
AcDbBlockRepETag
1070
     1
1071
        8
1005
D40
  0
LINE
  5
D41
330
D3D
100
AcDbEntity
  8
frame
  6
ByBlock
100
AcDbLine
 10
92.00000000000091
 20
7.000000222036987
 30
0.0
 11
92.00000000000091
 21
0.0000002220369879
 31
0.0
1001
AcDbBlockRepETag
1070
     1
1071
        9
1005
D41
  0
LINE
  5
D42
330
D3D
100
AcDbEntity
  8
frame
  6
ByBlock
100
AcDbLine
 10
85.0000000000009
 20
7.000000222036987
 30
0.0
 11
85.0000000000009
 21
0.0000002220369879
 31
0.0
1001
AcDbBlockRepETag
1070
     1
1071
       10
1005
D42
  0
LINE
  5
D43
330
D3D
100
AcDbEntity
  8
frame
  6
ByBlock
100
AcDbLine
 10
57.00000000000091
 20
7.000000222036987
 30
0.0
 11
57.00000000000091
 21
0.0000002220369879
 31
0.0
1001
AcDbBlockRepETag
1070
     1
1071
       11
1005
D43
  0
LINE
  5
D44
330
D3D
100
AcDbEntity
  8
frame
  6
ByBlock
100
AcDbLine
 10
7.000000000000909
 20
7.000000222036987
 30
0.0
 11
7.000000000000909
 21
0.0000002220369879
 31
0.0
1001
AcDbBlockRepETag
1070
     1
1071
       12
1005
D44
  0
LINE
  5
D45
330
D3D
100
AcDbEntity
  8
frame
  6
ByBlock
100
AcDbLine
 10
0.0
 20
7.000000222036987
 30
0.0
 11
184.0000000000009
 21
7.000000222036987
 31
0.0
1001
AcDbBlockRepETag
1070
     1
1071
       13
1005
D45
  0
LINE
  5
D46
330
D3D
100
AcDbEntity
  8
frame
  6
ByBlock
100
AcDbLine
 10
0.0
 20
0.0000002220369879
 30
0.0
 11
0.0
 21
7.000000222036987
 31
0.0
1001
AcDbBlockRepETag
1070
     1
1071
      123
1005
D46
  0
ATTDEF
  5
D47
102
{ACAD_XDICTIONARY
360
D48
102
}
330
D3D
100
AcDbEntity
  8
frame
  6
ByBlock
100
AcDbText
 10
3.500000000000909
 20
2.000000222036987
 30
0.0
 40
3.0
  1

 41
0.9
  7
ATOM
 72
     1
 11
3.500000000000909
 21
3.500000222036987
 31
0.0
100
AcDbAttributeDefinition
  3
部番?
  2
部番
 70
     0
 74
     2
1001
AcDbBlockRepETag
1070
     1
1071
       16
1005
0
1001
AcadAnnotative
1000
AnnotativeData
1002
{
1070
     1
1070
     0
1002
}
1001
AcDbAttr
1070
     0
1070
     1
  0
ATTDEF
  5
D4C
102
{ACAD_XDICTIONARY
360
D4D
102
}
330
D3D
100
AcDbEntity
  8
frame
  6
ByBlock
100
AcDbText
 10
32.00000000000091
 20
2.000000222036987
 30
0.0
 40
3.0
  1

 41
0.9
  7
ATOM
 72
     1
 11
32.00000000000091
 21
3.500000222036987
 31
0.0
100
AcDbAttributeDefinition
  3
部品名?
  2
部　　　　品　　　　名
 70
     0
 74
     2
1001
AcDbBlockRepETag
1070
     1
1071
       15
1005
0
1001
AcadAnnotative
1000
AnnotativeData
1002
{
1070
     1
1070
     0
1002
}
1001
AcDbAttr
1070
     0
1070
     1
  0
ATTDEF
  5
D51
102
{ACAD_XDICTIONARY
360
D52
102
}
330
D3D
100
AcDbEntity
  8
frame
  6
ByBlock
100
AcDbText
 10
71.00000000000091
 20
2.000000222036987
 30
0.0
 40
3.0
  1

 41
0.9
  7
ATOM
 72
     1
 11
71.00000000000091
 21
3.500000222036987
 31
0.0
100
AcDbAttributeDefinition
  3
材質?
  2
材　　質
 70
     0
 74
     2
1001
AcDbBlockRepETag
1070
     1
1071
       14
1005
0
1001
AcadAnnotative
1000
AnnotativeData
1002
{
1070
     1
1070
     0
1002
}
1001
AcDbAttr
1070
     0
1070
     1
  0
ATTDEF
  5
D56
102
{ACAD_XDICTIONARY
360
D57
102
}
330
D3D
100
AcDbEntity
  8
frame
  6
ByBlock
100
AcDbText
 10
88.50000000000092
 20
2.000000222036987
 30
0.0
 40
3.0
  1

 41
0.9
  7
ATOM
 72
     1
 11
88.50000000000092
 21
3.500000222036987
 31
0.0
100
AcDbAttributeDefinition
  3
数量?
  2
数量
 70
     0
 74
     2
1001
AcDbBlockRepETag
1070
     1
1071
      178
1005
0
1001
AcadAnnotative
1000
AnnotativeData
1002
{
1070
     1
1070
     0
1002
}
1001
AcDbAttr
1070
     0
1070
     1
  0
ATTDEF
  5
D5B
102
{ACAD_XDICTIONARY
360
D5C
102
}
330
D3D
100
AcDbEntity
  8
frame
  6
ByBlock
100
AcDbText
 10
117.0000000000009
 20
2.000000222036987
 30
0.0
 40
3.0
  1

 41
0.9
  7
ATOM
 72
     1
 11
117.0000000000009
 21
3.500000222036987
 31
0.0
100
AcDbAttributeDefinition
  3
表面処理?
  2
表　　面　　処　　理
 70
     0
 74
     2
1001
AcDbBlockRepETag
1070
     1
1071
       17
1005
0
1001
AcadAnnotative
1000
AnnotativeData
1002
{
1070
     1
1070
     0
1002
}
1001
AcDbAttr
1070
     0
1070
     1
  0
ATTDEF
  5
D60
102
{ACAD_XDICTIONARY
360
D61
102
}
330
D3D
100
AcDbEntity
  8
frame
  6
ByBlock
100
AcDbText
 10
163.0000000000009
 20
2.000000222036987
 30
0.0
 40
3.0
  1

 41
0.9
  7
ATOM
 72
     1
 11
163.0000000000009
 21
3.500000222036987
 31
0.0
100
AcDbAttributeDefinition
  3
備考?
  2
備　　　考
 70
     0
 74
     2
1001
AcDbBlockRepETag
1070
     1
1071
      181
1005
0
1001
AcadAnnotative
1000
AnnotativeData
1002
{
1070
     1
1070
     0
1002
}
1001
AcDbAttr
1070
     0
1070
     1
  0
ENDBLK
  5
D3F
330
D3D
100
AcDbEntity
  8
0
100
AcDbBlockEnd
  0
ENDSEC
  0
SECTION
  2
ENTITIES
  0
LINE
  5
351
330
6C
100
AcDbEntity
  8
guide
100
AcDbLine
 10
236.289993486038
 20
211.3083423575444
 30
0.0
 11
245.9899933925517
 21
211.3083423575444
 31
0.0
  0
LINE
  5
355
330
6C
100
AcDbEntity
  8
guide
100
AcDbLine
 10
255.6899932990654
 20
211.3083423575444
 30
0.0
 11
245.9899933925517
 21
211.3083423575444
 31
0.0
  0
LINE
  5
357
330
6C
100
AcDbEntity
  8
guide
100
AcDbLine
 10
231.0923324485417
 20
211.3083423575444
 30
0.0
 11
230.9899935371162
 21
211.3083423575444
 31
0.0
  0
LINE
  5
358
330
6C
100
AcDbEntity
  8
guide
100
AcDbLine
 10
230.8934408534511
 20
211.3422662734268
 30
0.0
 11
230.9899935371162
 21
211.3083423575444
 31
0.0
  0
LINE
  5
359
330
6C
100
AcDbEntity
  8
guide
100
AcDbLine
 10
193.9899938937099
 20
224.7334883325184
 30
0.0
 11
193.9899938937099
 21
224.3083422322551
 31
0.0
  0
LINE
  5
35A
330
6C
100
AcDbEntity
  8
guide
100
AcDbLine
 10
193.98999389371
 20
224.308342232255
 30
0.0
 11
194.3911022928365
 21
224.1674122541834
 31
0.0
  0
LINE
  5
397
330
6C
100
AcDbEntity
  8
0
 62
     4
100
AcDbLine
 10
190.9899939226223
 20
144.9083429974851
 30
0.0
 11
190.9899939226226
 21
253.7083419489078
 31
0.0
  0
ARC
  5
398
330
6C
100
AcDbEntity
  8
0
 62
     4
100
AcDbCircle
 10
191.5899939168399
 20
253.7083419489079
 30
0.0
 40
0.599999994217315
100
AcDbArc
 50
90.0
 51
180.0000000000114
  0
LINE
  5
399
330
6C
100
AcDbEntity
  8
0
 62
     4
100
AcDbLine
 10
191.5899939168399
 20
254.3083419431252
 30
0.0
 11
193.3899938994922
 21
254.3083419431252
 31
0.0
  0
ARC
  5
39A
330
6C
100
AcDbEntity
  8
0
 62
     4
100
AcDbCircle
 10
193.3899938994923
 20
253.7083419489079
 30
0.0
 40
0.599999994217315
100
AcDbArc
 50
359.9999999999886
 51
90.00000000000978
  0
LINE
  5
39B
330
6C
100
AcDbEntity
  8
0
 62
     4
100
AcDbLine
 10
193.9899938937096
 20
253.7083419489078
 30
0.0
 11
193.9899938937096
 21
242.9083420529945
 31
0.0
  0
LINE
  5
39C
330
6C
100
AcDbEntity
  8
0
 62
     4
100
AcDbLine
 10
193.9899938937096
 20
242.9083420529945
 30
0.0
 11
193.3899938994923
 21
242.3083420587771
 31
0.0
  0
LINE
  5
39D
330
6C
100
AcDbEntity
  8
0
 62
     4
100
AcDbLine
 10
193.3899938994923
 20
242.3083420587771
 30
0.0
 11
193.9899938937096
 21
241.7083420645598
 31
0.0
  0
LINE
  5
39E
330
6C
100
AcDbEntity
  8
0
 62
     4
100
AcDbLine
 10
193.9899938937096
 20
241.7083420645598
 30
0.0
 11
193.9899938937099
 21
224.7334883325184
 31
0.0
  0
ARC
  5
39F
330
6C
100
AcDbEntity
  8
0
 62
     4
100
AcDbCircle
 10
194.5899938879273
 20
224.7334883325184
 30
0.0
 40
0.5999999942174286
100
AcDbArc
 50
180.0
 51
250.6410058243042
  0
LINE
  5
3A0
330
6C
100
AcDbEntity
  8
0
 62
     4
100
AcDbLine
 10
194.3911022928365
 20
224.1674122541834
 30
0.0
 11
230.8934408534511
 21
211.3422662734267
 31
0.0
  0
ARC
  5
3A1
330
6C
100
AcDbEntity
  8
0
 62
     4
100
AcDbCircle
 10
231.0923324485416
 20
211.9083423517619
 30
0.0
 40
0.599999994217443
100
AcDbArc
 50
250.6410058243284
 51
270.0000000000228
  0
LINE
  5
3A2
330
6C
100
AcDbEntity
  8
0
 62
     4
100
AcDbLine
 10
231.0923324485418
 20
211.3083423575444
 30
0.0
 11
257.1899932846097
 21
211.3083423575444
 31
0.0
  0
ARC
  5
3A3
330
6C
100
AcDbEntity
  8
0
 62
     4
100
AcDbCircle
 10
257.1899932846098
 20
210.708342363327
 30
0.0
 40
0.5999999942174286
100
AcDbArc
 50
0.0000000000113991
 51
90.00000000000978
  0
LINE
  5
3A4
330
6C
100
AcDbEntity
  8
0
 62
     4
100
AcDbLine
 10
257.7899932788273
 20
210.7083423633271
 30
0.0
 11
257.7899932788273
 21
207.9083423903125
 31
0.0
  0
ARC
  5
3A5
330
6C
100
AcDbEntity
  8
0
 62
     4
100
AcDbCircle
 10
258.3899932730446
 20
207.9083423903124
 30
0.0
 40
0.599999994217315
100
AcDbArc
 50
179.9999999999886
 51
270.0
  0
LINE
  5
3A6
330
6C
100
AcDbEntity
  8
0
 62
     4
100
AcDbLine
 10
258.3899932730446
 20
207.3083423960951
 30
0.0
 11
288.3899929839147
 21
207.3083423960951
 31
0.0
  0
ARC
  5
3A7
330
6C
100
AcDbEntity
  8
0
 62
     4
100
AcDbCircle
 10
288.3899929839147
 20
207.9083423903124
 30
0.0
 40
0.599999994217315
100
AcDbArc
 50
270.0
 51
0.0000000000113991
  0
LINE
  5
3A8
330
6C
100
AcDbEntity
  8
0
 62
     4
100
AcDbLine
 10
288.989992978132
 20
207.9083423903125
 30
0.0
 11
288.989992978132
 21
227.7083421994869
 31
0.0
  0
ARC
  5
3A9
330
6C
100
AcDbEntity
  8
0
 62
     4
100
AcDbCircle
 10
289.5899929723492
 20
227.708342199487
 30
0.0
 40
0.599999994217315
100
AcDbArc
 50
89.99999999999024
 51
180.0000000000114
  0
LINE
  5
3AA
330
6C
100
AcDbEntity
  8
0
 62
     4
100
AcDbLine
 10
289.5899929723494
 20
228.3083421937043
 30
0.0
 11
289.9899929684943
 21
228.3083421937043
 31
0.0
  0
ARC
  5
3AB
330
6C
100
AcDbEntity
  8
0
 62
     4
100
AcDbCircle
 10
289.9899929684943
 20
226.3083422129796
 30
0.0
 40
1.999999980724686
100
AcDbArc
 50
0.0
 51
90.0
  0
LINE
  5
3AC
330
6C
100
AcDbEntity
  8
0
 62
     4
100
AcDbLine
 10
291.9899929492191
 20
226.3083422129796
 30
0.0
 11
291.9899929492191
 21
170.3083427526884
 31
0.0
  0
ARC
  5
3AD
330
6C
100
AcDbEntity
  8
0
 62
     4
100
AcDbCircle
 10
289.9899929684943
 20
170.3083427526884
 30
0.0
 40
1.999999980724686
100
AcDbArc
 50
270.0
 51
0.0
  0
LINE
  5
3AE
330
6C
100
AcDbEntity
  8
0
 62
     4
100
AcDbLine
 10
289.9899929684943
 20
168.3083427719637
 30
0.0
 11
256.9899932865372
 21
168.3083427719637
 31
0.0
  0
ARC
  5
3AF
330
6C
100
AcDbEntity
  8
0
 62
     4
100
AcDbCircle
 10
256.9899932865372
 20
169.308342762326
 30
0.0
 40
0.9999999903623427
100
AcDbArc
 50
180.0
 51
270.0
  0
LINE
  5
3B0
330
6C
100
AcDbEntity
  8
0
 62
     4
100
AcDbLine
 10
255.9899932961749
 20
169.308342762326
 30
0.0
 11
255.9899932961749
 21
170.1083427546159
 31
0.0
  0
ARC
  5
3B1
330
6C
100
AcDbEntity
  8
0
 62
     4
100
AcDbCircle
 10
256.5899932903925
 20
170.1083427546157
 30
0.0
 40
0.5999999942176561
100
AcDbArc
 50
89.99999999999024
 51
179.9999999999886
  0
LINE
  5
3B2
330
6C
100
AcDbEntity
  8
0
 62
     4
100
AcDbLine
 10
256.5899932903926
 20
170.7083427488334
 30
0.0
 11
260.1899932556965
 21
170.7083427488334
 31
0.0
  0
ARC
  5
3B3
330
6C
100
AcDbEntity
  8
0
 62
     4
100
AcDbCircle
 10
260.1899932556967
 20
173.508342721848
 30
0.0
 40
2.799999973014627
100
AcDbArc
 50
269.9999999999968
 51
359.9999999999984
  0
LINE
  5
3B4
330
6C
100
AcDbEntity
  8
0
 62
     4
100
AcDbLine
 10
262.9899932287113
 20
173.5083427218479
 30
0.0
 11
262.9899932287113
 21
174.1083427160652
 31
0.0
  0
ARC
  5
3B5
330
6C
100
AcDbEntity
  8
0
 62
     4
100
AcDbCircle
 10
263.5899932229289
 20
174.1083427160651
 30
0.0
 40
0.5999999942176561
100
AcDbArc
 50
89.99999999999024
 51
179.9999999999886
  0
LINE
  5
3B6
330
6C
100
AcDbEntity
  8
0
 62
     4
100
AcDbLine
 10
263.589993222929
 20
174.7083427102828
 30
0.0
 11
265.3899932055811
 21
174.7083427102828
 31
0.0
  0
ARC
  5
3B7
330
6C
100
AcDbEntity
  8
0
 62
     4
100
AcDbCircle
 10
265.3899932055809
 20
174.1083427160653
 30
0.0
 40
0.5999999942174286
100
AcDbArc
 50
359.9999999999886
 51
89.99999999999024
  0
LINE
  5
3B8
330
6C
100
AcDbEntity
  8
0
 62
     4
100
AcDbLine
 10
265.9899931997983
 20
174.1083427160652
 30
0.0
 11
265.9899931997983
 21
171.9083427372683
 31
0.0
  0
ARC
  5
3B9
330
6C
100
AcDbEntity
  8
0
 62
     4
100
AcDbCircle
 10
266.589993194016
 20
171.9083427372684
 30
0.0
 40
0.5999999942176561
100
AcDbArc
 50
180.0000000000114
 51
270.0000000000098
  0
LINE
  5
3BA
330
6C
100
AcDbEntity
  8
0
 62
     4
100
AcDbLine
 10
266.5899931940161
 20
171.3083427430507
 30
0.0
 11
287.9899929877696
 21
171.3083427430507
 31
0.0
  0
ARC
  5
3BB
330
6C
100
AcDbEntity
  8
0
 62
     4
100
AcDbCircle
 10
287.9899929877696
 20
172.3083427334131
 30
0.0
 40
0.9999999903623427
100
AcDbArc
 50
270.0
 51
0.0
  0
LINE
  5
3BC
330
6C
100
AcDbEntity
  8
0
 62
     4
100
AcDbLine
 10
288.989992978132
 20
172.3083427334131
 30
0.0
 11
288.989992978132
 21
202.3083424442833
 31
0.0
  0
ARC
  5
3BD
330
6C
100
AcDbEntity
  8
0
 62
     4
100
AcDbCircle
 10
286.9899929974073
 20
202.3083424442833
 30
0.0
 40
1.999999980724686
100
AcDbArc
 50
0.0
 51
90.0
  0
LINE
  5
3BE
330
6C
100
AcDbEntity
  8
0
 62
     4
100
AcDbLine
 10
286.9899929974073
 20
204.3083424250081
 30
0.0
 11
266.9899931901607
 21
204.3083424250081
 31
0.0
  0
ARC
  5
3BF
330
6C
100
AcDbEntity
  8
0
 62
     4
100
AcDbCircle
 10
266.9899931901607
 20
203.3083424346457
 30
0.0
 40
0.9999999903623427
100
AcDbArc
 50
90.0
 51
180.0
  0
LINE
  5
3C0
330
6C
100
AcDbEntity
  8
0
 62
     4
100
AcDbLine
 10
265.9899931997983
 20
203.3083424346457
 30
0.0
 11
265.9899931997983
 21
200.9083424577762
 31
0.0
  0
ARC
  5
3C1
330
6C
100
AcDbEntity
  8
0
 62
     4
100
AcDbCircle
 10
265.3899932055809
 20
200.9083424577761
 30
0.0
 40
0.5999999942174286
100
AcDbArc
 50
270.0000000000098
 51
0.0000000000113991
  0
LINE
  5
3C2
330
6C
100
AcDbEntity
  8
0
 62
     4
100
AcDbLine
 10
265.3899932055811
 20
200.3083424635587
 30
0.0
 11
263.589993222929
 21
200.3083424635587
 31
0.0
  0
ARC
  5
3C3
330
6C
100
AcDbEntity
  8
0
 62
     4
100
AcDbCircle
 10
263.5899932229289
 20
200.9083424577764
 30
0.0
 40
0.5999999942176561
100
AcDbArc
 50
180.0000000000114
 51
270.0000000000098
  0
LINE
  5
3C4
330
6C
100
AcDbEntity
  8
0
 62
     4
100
AcDbLine
 10
262.9899932287113
 20
200.9083424577762
 30
0.0
 11
262.9899932287113
 21
201.308342453921
 31
0.0
  0
ARC
  5
3C5
330
6C
100
AcDbEntity
  8
0
 62
     4
100
AcDbCircle
 10
259.9899932576243
 20
201.308342453921
 30
0.0
 40
2.999999971087028
100
AcDbArc
 50
0.0
 51
90.0
  0
LINE
  5
3C6
330
6C
100
AcDbEntity
  8
0
 62
     4
100
AcDbLine
 10
259.9899932576243
 20
204.3083424250081
 30
0.0
 11
256.9899932865372
 21
204.3083424250081
 31
0.0
  0
LINE
  5
3C7
330
6C
100
AcDbEntity
  8
0
 62
     4
100
AcDbLine
 10
256.9899932865372
 20
204.3083424250081
 30
0.0
 11
254.6899933087037
 21
202.9804368186353
 31
0.0
  0
ARC
  5
3C8
330
6C
100
AcDbEntity
  8
0
 62
     4
100
AcDbCircle
 10
254.3899933115952
 20
203.500052055898
 30
0.0
 40
0.5999999942172378
100
AcDbArc
 50
179.9999999999886
 51
299.9999999999918
  0
LINE
  5
3C9
330
6C
100
AcDbEntity
  8
0
 62
     4
100
AcDbLine
 10
253.7899933173779
 20
203.500052055898
 30
0.0
 11
253.7899933173779
 21
208.3083423864574
 31
0.0
  0
LINE
  5
3CA
330
6C
100
AcDbEntity
  8
0
 62
     4
100
AcDbLine
 10
253.7899933173779
 20
208.3083423864574
 30
0.0
 11
246.5899933867693
 21
208.3083423864574
 31
0.0
  0
LINE
  5
3CB
330
6C
100
AcDbEntity
  8
0
 62
     4
100
AcDbLine
 10
246.5899933867693
 20
208.3083423864574
 30
0.0
 11
245.9899933925515
 21
208.9083423806749
 31
0.0
  0
LINE
  5
3CC
330
6C
100
AcDbEntity
  8
0
 62
     4
100
AcDbLine
 10
245.9899933925515
 20
208.9083423806749
 30
0.0
 11
245.3899933983341
 21
208.3083423864574
 31
0.0
  0
LINE
  5
3CD
330
6C
100
AcDbEntity
  8
0
 62
     4
100
AcDbLine
 10
245.3899933983341
 20
208.3083423864574
 30
0.0
 11
241.489993435921
 21
208.3083423864574
 31
0.0
  0
LINE
  5
3CE
330
6C
100
AcDbEntity
  8
0
 62
     4
100
AcDbLine
 10
241.489993435921
 20
208.3083423864574
 30
0.0
 11
245.3899933983341
 21
208.3083423864574
 31
0.0
  0
LINE
  5
3CF
330
6C
100
AcDbEntity
  8
0
 62
     4
100
AcDbLine
 10
245.3899933983341
 20
208.3083423864574
 30
0.0
 11
238.189993467725
 21
208.3083423864574
 31
0.0
  0
LINE
  5
3D0
330
6C
100
AcDbEntity
  8
0
 62
     4
100
AcDbLine
 10
238.189993467725
 20
208.3083423864574
 30
0.0
 11
238.189993467725
 21
203.500052055898
 31
0.0
  0
ARC
  5
3D1
330
6C
100
AcDbEntity
  8
0
 62
     4
100
AcDbCircle
 10
237.5899934734992
 20
203.5000520558833
 30
0.0
 40
0.5999999942257279
100
AcDbArc
 50
240.0000000014148
 51
0.0000000014086041
  0
LINE
  5
3D2
330
6C
100
AcDbEntity
  8
0
 62
     4
100
AcDbLine
 10
237.2899934763992
 20
202.9804368186059
 30
0.0
 11
234.9899934985657
 21
204.3083424250081
 31
0.0
  0
LINE
  5
3D3
330
6C
100
AcDbEntity
  8
0
 62
     4
100
AcDbLine
 10
234.9899934985657
 20
204.3083424250081
 30
0.0
 11
231.9899935274786
 21
204.3083424250081
 31
0.0
  0
ARC
  5
3D4
330
6C
100
AcDbEntity
  8
0
 62
     4
100
AcDbCircle
 10
231.9899935274786
 20
201.308342453921
 30
0.0
 40
2.999999971087028
100
AcDbArc
 50
90.0
 51
180.0
  0
LINE
  5
3D5
330
6C
100
AcDbEntity
  8
0
 62
     4
100
AcDbLine
 10
228.9899935563916
 20
201.308342453921
 30
0.0
 11
228.9899935563916
 21
173.5083427218479
 31
0.0
  0
ARC
  5
3D6
330
6C
100
AcDbEntity
  8
0
 62
     4
100
AcDbCircle
 10
231.7899935294063
 20
173.508342721848
 30
0.0
 40
2.799999973014627
100
AcDbArc
 50
180.0000000000016
 51
270.0000000000033
  0
LINE
  5
3D7
330
6C
100
AcDbEntity
  8
0
 62
     4
100
AcDbLine
 10
231.7899935294064
 20
170.7083427488334
 30
0.0
 11
235.3899934947108
 21
170.7083427488334
 31
0.0
  0
ARC
  5
3D8
330
6C
100
AcDbEntity
  8
0
 62
     4
100
AcDbCircle
 10
235.3899934947107
 20
170.108342754616
 30
0.0
 40
0.5999999942174286
100
AcDbArc
 50
359.9999999999886
 51
89.99999999999024
  0
LINE
  5
3D9
330
6C
100
AcDbEntity
  8
0
 62
     4
100
AcDbLine
 10
235.989993488928
 20
170.1083427546159
 30
0.0
 11
235.989993488928
 21
169.308342762326
 31
0.0
  0
ARC
  5
3DA
330
6C
100
AcDbEntity
  8
0
 62
     4
100
AcDbCircle
 10
234.9899934985657
 20
169.308342762326
 30
0.0
 40
0.9999999903623427
100
AcDbArc
 50
270.0
 51
0.0
  0
LINE
  5
3DB
330
6C
100
AcDbEntity
  8
0
 62
     4
100
AcDbLine
 10
234.9899934985657
 20
168.3083427719637
 30
0.0
 11
194.3899938898544
 21
168.3083427719637
 31
0.0
  0
ARC
  5
3DC
330
6C
100
AcDbEntity
  8
0
 62
     4
100
AcDbCircle
 10
194.3899938898544
 20
167.3083427816014
 30
0.0
 40
0.9999999903623427
100
AcDbArc
 50
90.0
 51
180.0
  0
LINE
  5
3DD
330
6C
100
AcDbEntity
  8
0
 62
     4
100
AcDbLine
 10
193.3899938994921
 20
167.3083427816014
 30
0.0
 11
193.3899938994921
 21
156.9083428818334
 31
0.0
  0
LINE
  5
3DE
330
6C
100
AcDbEntity
  8
0
 62
     4
100
AcDbLine
 10
193.3899938994921
 20
156.9083428818334
 30
0.0
 11
192.7899939052745
 21
156.3083428876156
 31
0.0
  0
LINE
  5
3DF
330
6C
100
AcDbEntity
  8
0
 62
     4
100
AcDbLine
 10
192.7899939052745
 20
156.3083428876156
 30
0.0
 11
193.3899938994921
 21
155.7083428933981
 31
0.0
  0
LINE
  5
3E0
330
6C
100
AcDbEntity
  8
0
 62
     4
100
AcDbLine
 10
193.3899938994921
 20
155.7083428933981
 30
0.0
 11
193.3899938994921
 21
144.9083429974849
 31
0.0
  0
ARC
  5
3E1
330
6C
100
AcDbEntity
  8
0
 62
     4
100
AcDbCircle
 10
192.7899939052747
 20
144.9083429974849
 30
0.0
 40
0.599999994217315
100
AcDbArc
 50
269.9999999999902
 51
0.0
  0
LINE
  5
3E2
330
6C
100
AcDbEntity
  8
0
 62
     4
100
AcDbLine
 10
192.7899939052745
 20
144.3083430032674
 30
0.0
 11
191.5899939168404
 21
144.3083430032674
 31
0.0
  0
ARC
  5
3E3
330
6C
100
AcDbEntity
  8
0
 62
     4
100
AcDbCircle
 10
191.5899939168403
 20
144.9083429974851
 30
0.0
 40
0.5999999942176561
100
AcDbArc
 50
180.0000000000114
 51
270.0000000000098
  0
LWPOLYLINE
  5
3E4
330
6C
100
AcDbEntity
  8
0
 62
     4
100
AcDbPolyline
 90
        9
 70
     1
 43
0.0
 10
193.3899948497646
 20
217.1055297255524
 42
-0.5170173577516282
 10
197.3844527578079
 20
219.9359100899492
 10
227.5337492314992
 20
209.3429140316251
 42
-0.5823438941132047
 10
228.1505814669575
 20
205.9190809285787
 42
0.2227070432709869
 10
225.9899942213897
 20
201.3077533948607
 10
225.9899942213897
 20
173.3083429647168
 42
-0.4142135623730951
 10
223.9899942599404
 20
171.3083430032674
 10
195.3899948304894
 20
171.3083430032675
 42
-0.4142135623730951
 10
193.3899948497646
 20
173.3083429839922
  0
ENDSEC
  0
SECTION
  2
OBJECTS
  0
DICTIONARY
  5
C
330
0
100
AcDbDictionary
281
     1
  3
ACAD_2007HEADERVARS_RT
350
F94
  3
ACAD_CIP_PREVIOUS_PRODUCT_INFO
350
F2A
  3
ACAD_COLOR
350
63
  3
ACAD_GROUP
350
D
  3
ACAD_LAYOUT
350
62
  3
ACAD_MATERIAL
350
10
  3
ACAD_MLEADERSTYLE
350
66
  3
ACAD_MLINESTYLE
350
5F
  3
ACAD_PLOTSETTINGS
350
61
  3
ACAD_PLOTSTYLENAME
350
E
  3
ACAD_SCALELIST
350
42
  3
ACAD_TABLESTYLE
350
64
  3
ACAD_VISUALSTYLE
350
29
  3
ACDB_RECOMPOSE_DATA
350
F92
  3
AcDbVariableDictionary
350
F1E
  3
DWGPROPS
350
F93
  0
DICTIONARY
  5
F2B
330
54
100
AcDbDictionary
280
     1
281
     1
  3
ADSK_XREC_LAYER_RECONCILED
360
F2C
  0
DICTIONARY
  5
AD
330
AC
100
AcDbDictionary
280
     1
281
     1
  3
ADSK_XREC_LAYER_RECONCILED
360
AE
  0
DICTIONARY
  5
B5
330
B4
100
AcDbDictionary
280
     1
281
     1
  3
ADSK_XREC_LAYER_RECONCILED
360
B6
  0
DICTIONARY
  5
1D9
330
1D8
100
AcDbDictionary
280
     1
281
     1
  3
ADSK_XREC_LAYER_RECONCILED
360
1DA
  0
DICTIONARY
  5
346
330
345
100
AcDbDictionary
280
     1
281
     1
  3
ADSK_XREC_LAYER_RECONCILED
360
347
  0
DICTIONARY
  5
353
330
352
100
AcDbDictionary
280
     1
281
     1
  3
ADSK_XREC_LAYER_RECONCILED
360
354
  0
DICTIONARY
  5
B51
330
B50
100
AcDbDictionary
280
     1
281
     1
  3
ADSK_XREC_LAYER_RECONCILED
360
F2D
  0
DICTIONARY
  5
BEE
330
BED
100
AcDbDictionary
280
     1
281
     1
  3
ADSK_XREC_LAYER_RECONCILED
360
BEF
  0
DICTIONARY
  5
BF6
330
BF5
100
AcDbDictionary
280
     1
281
     1
  3
ADSK_XREC_LAYER_RECONCILED
360
F2E
  0
DICTIONARY
  5
B4D
330
6C
100
AcDbDictionary
280
     1
281
     1
  3
ACAD_SORTENTS
360
BEB
  0
DICTIONARY
  5
BF1
330
BF0
100
AcDbDictionary
280
     1
281
     1
  3
ACAD_SORTENTS
360
BF2
  0
DICTIONARY
  5
CF4
330
CF3
100
AcDbDictionary
280
     1
281
     1
  3
ACAD_SORTENTS
360
CF5
  3
AcDbBlockTableRecordData
360
FCD
  0
DICTIONARY
  5
CBE
330
CBD
100
AcDbDictionary
280
     1
281
     1
  3
AcDbContextDataManager
360
CBF
  0
DICTIONARY
  5
CC2
330
CC1
100
AcDbDictionary
280
     1
281
     1
  3
AcDbContextDataManager
360
CC3
  0
DICTIONARY
  5
CC6
330
CC5
100
AcDbDictionary
280
     1
281
     1
  3
AcDbContextDataManager
360
CC7
  0
DICTIONARY
  5
CCA
330
CC9
100
AcDbDictionary
280
     1
281
     1
  3
AcDbContextDataManager
360
CCB
  0
DICTIONARY
  5
CCE
330
CCD
100
AcDbDictionary
280
     1
281
     1
  3
AcDbContextDataManager
360
CCF
  0
DICTIONARY
  5
CD2
330
CD1
100
AcDbDictionary
280
     1
281
     1
  3
AcDbContextDataManager
360
CD3
  0
DICTIONARY
  5
CFF
330
CFE
100
AcDbDictionary
280
     1
281
     1
  3
AcDbContextDataManager
360
D00
  0
DICTIONARY
  5
D04
330
D03
100
AcDbDictionary
280
     1
281
     1
  3
AcDbContextDataManager
360
D05
  0
DICTIONARY
  5
D09
330
D08
100
AcDbDictionary
280
     1
281
     1
  3
AcDbContextDataManager
360
D0A
  0
DICTIONARY
  5
D0E
330
D0D
100
AcDbDictionary
280
     1
281
     1
  3
AcDbContextDataManager
360
D0F
  0
DICTIONARY
  5
D13
330
D12
100
AcDbDictionary
280
     1
281
     1
  3
AcDbContextDataManager
360
D14
  0
DICTIONARY
  5
D18
330
D17
100
AcDbDictionary
280
     1
281
     1
  3
AcDbContextDataManager
360
D19
  0
DICTIONARY
  5
D48
330
D47
100
AcDbDictionary
280
     1
281
     1
  3
AcDbContextDataManager
360
D49
  0
DICTIONARY
  5
D4D
330
D4C
100
AcDbDictionary
280
     1
281
     1
  3
AcDbContextDataManager
360
D4E
  0
DICTIONARY
  5
D52
330
D51
100
AcDbDictionary
280
     1
281
     1
  3
AcDbContextDataManager
360
D53
  0
DICTIONARY
  5
D57
330
D56
100
AcDbDictionary
280
     1
281
     1
  3
AcDbContextDataManager
360
D58
  0
DICTIONARY
  5
D5C
330
D5B
100
AcDbDictionary
280
     1
281
     1
  3
AcDbContextDataManager
360
D5D
  0
DICTIONARY
  5
D61
330
D60
100
AcDbDictionary
280
     1
281
     1
  3
AcDbContextDataManager
360
D62
  0
DICTIONARY
  5
F94
102
{ACAD_REACTORS
330
C
102
}
330
C
100
AcDbDictionary
281
     1
  3
DIMJOGANG
350
F95
  0
XRECORD
  5
F2A
102
{ACAD_REACTORS
330
C
102
}
330
C
100
AcDbXrecord
280
     1
300
ACD
300
2012
300
ACD_F_S
  0
DICTIONARY
  5
63
102
{ACAD_REACTORS
330
C
102
}
330
C
100
AcDbDictionary
281
     1
  0
DICTIONARY
  5
D
102
{ACAD_REACTORS
330
C
102
}
330
C
100
AcDbDictionary
281
     1
  0
DICTIONARY
  5
62
102
{ACAD_REACTORS
330
C
102
}
330
C
100
AcDbDictionary
281
     1
  3
Model
350
6F
  3
レイアウト1
350
6B
  3
レイアウト2
350
73
  0
DICTIONARY
  5
10
102
{ACAD_REACTORS
330
C
102
}
330
C
100
AcDbDictionary
281
     1
  3
ByBlock
350
19
  3
ByLayer
350
11
  3
Global
350
21
  0
DICTIONARY
  5
66
102
{ACAD_REACTORS
330
C
102
}
330
C
100
AcDbDictionary
281
     1
  3
Standard
350
67
  0
DICTIONARY
  5
5F
102
{ACAD_REACTORS
330
C
102
}
330
C
100
AcDbDictionary
281
     1
  3
Standard
350
60
  0
DICTIONARY
  5
61
102
{ACAD_REACTORS
330
C
102
}
330
C
100
AcDbDictionary
281
     1
  0
ACDBDICTIONARYWDFLT
  5
E
102
{ACAD_REACTORS
330
C
102
}
330
C
100
AcDbDictionary
281
     1
  3
invisible
350
97
  3
Normal
350
F
  3
Style 1
350
98
100
AcDbDictionaryWithDefault
340
F
  0
DICTIONARY
  5
42
102
{ACAD_REACTORS
330
C
102
}
330
C
100
AcDbDictionary
281
     1
  3
*A1
350
99
  3
*A10
350
A1
  3
*A11
350
A2
  3
*A12
350
A3
  3
*A13
350
A4
  3
*A14
350
A5
  3
*A15
350
A6
  3
*A16
350
A7
  3
*A17
350
A8
  3
*A18
350
A9
  3
*A2
350
AA
  3
*A3
350
9A
  3
*A4
350
9B
  3
*A5
350
9C
  3
*A6
350
9D
  3
*A7
350
9E
  3
*A8
350
9F
  3
*A9
350
A0
  3
A0
350
43
  3
A1
350
44
  3
A2
350
45
  3
A3
350
46
  3
A4
350
47
  3
A5
350
48
  3
A6
350
49
  3
A7
350
4A
  3
A8
350
4B
  3
A9
350
4C
  3
B0
350
4D
  3
B1
350
4E
  3
B2
350
4F
  3
B3
350
50
  3
B4
350
51
  3
B5
350
52
  3
B6
350
53
  0
DICTIONARY
  5
64
102
{ACAD_REACTORS
330
C
102
}
330
C
100
AcDbDictionary
281
     1
  3
Standard
350
65
  0
DICTIONARY
  5
29
102
{ACAD_REACTORS
330
C
102
}
330
C
100
AcDbDictionary
281
     1
  3
2dWireframe
350
2F
  3
Basic
350
2E
  3
Brighten
350
35
  3
ColorChange
350
39
  3
Conceptual
350
32
  3
Dim
350
34
  3
EdgeColorOff
350
41
  3
Facepattern
350
38
  3
Flat
350
2A
  3
FlatWithEdges
350
2B
  3
Gouraud
350
2C
  3
GouraudWithEdges
350
2D
  3
Hidden
350
31
  3
JitterOff
350
3F
  3
Linepattern
350
37
  3
OverhangOff
350
40
  3
Realistic
350
33
  3
Shaded
350
3E
  3
Shaded with edges
350
3D
  3
Shades of Gray
350
3A
  3
Sketchy
350
3B
  3
Thicken
350
36
  3
Wireframe
350
30
  3
X-Ray
350
3C
  0
XRECORD
  5
F92
102
{ACAD_REACTORS
330
C
102
}
330
C
100
AcDbXrecord
280
     1
 90
        1
330
65
  0
DICTIONARY
  5
F1E
102
{ACAD_REACTORS
330
C
102
}
330
C
100
AcDbDictionary
281
     1
  3
ANNOALLVISIBLE
350
F21
  3
CANNOSCALE
350
F22
  3
CMLEADERSTYLE
350
F20
  3
CTABLESTYLE
350
F1F
  3
DIMASSOC
350
F8E
  3
HIDETEXT
350
F8C
  3
INDEXCTL
350
F8B
  3
LAYEREVAL
350
F23
  3
LAYERNOTIFY
350
F24
  3
LIGHTINGUNITS
350
F30
  3
MSLTSCALE
350
F2F
  3
SORTENTS
350
F8A
  3
XCLIPFRAME
350
F8D
  0
XRECORD
  5
F93
102
{ACAD_REACTORS
330
C
102
}
330
C
100
AcDbXrecord
280
     1
  1
DWGPROPS COOKIE
  2

  3

  4

  6

  7

  8
0035sekine
  9

300
=
301
=
302
=
303
=
304
=
305
=
306
=
307
=
308
=
309
=
 40
0.0023741087962963
 41
2456282.498877072
 42
2457574.404798889
  1

 90
        0
  0
XRECORD
  5
F2C
102
{ACAD_REACTORS
330
F2B
102
}
330
F2B
100
AcDbXrecord
280
     1
290
     1
  0
XRECORD
  5
AE
102
{ACAD_REACTORS
330
AD
102
}
330
AD
100
AcDbXrecord
280
     1
290
     1
  0
XRECORD
  5
B6
102
{ACAD_REACTORS
330
B5
102
}
330
B5
100
AcDbXrecord
280
     1
290
     1
  0
XRECORD
  5
1DA
102
{ACAD_REACTORS
330
1D9
102
}
330
1D9
100
AcDbXrecord
280
     1
290
     1
  0
XRECORD
  5
347
102
{ACAD_REACTORS
330
346
102
}
330
346
100
AcDbXrecord
280
     1
290
     1
  0
XRECORD
  5
354
102
{ACAD_REACTORS
330
353
102
}
330
353
100
AcDbXrecord
280
     1
290
     1
  0
XRECORD
  5
F2D
102
{ACAD_REACTORS
330
B51
102
}
330
B51
100
AcDbXrecord
280
     1
290
     1
  0
XRECORD
  5
BEF
102
{ACAD_REACTORS
330
BEE
102
}
330
BEE
100
AcDbXrecord
280
     1
290
     1
  0
XRECORD
  5
F2E
102
{ACAD_REACTORS
330
BF6
102
}
330
BF6
100
AcDbXrecord
280
     1
290
     1
  0
SORTENTSTABLE
  5
BEB
102
{ACAD_REACTORS
330
B4D
102
}
330
B4D
100
AcDbSortentsTable
330
6C
  0
SORTENTSTABLE
  5
BF2
102
{ACAD_REACTORS
330
BF1
102
}
330
BF1
100
AcDbSortentsTable
330
BF0
  0
SORTENTSTABLE
  5
CF5
102
{ACAD_REACTORS
330
CF4
102
}
330
CF4
100
AcDbSortentsTable
330
CF3
  0
DICTIONARY
  5
FCD
102
{ACAD_REACTORS
330
CF4
102
}
330
CF4
100
AcDbDictionary
280
     1
281
     1
  3
Edit
360
FCE
  0
DICTIONARY
  5
CBF
102
{ACAD_REACTORS
330
CBE
102
}
330
CBE
100
AcDbDictionary
281
     1
  3
ACDB_ANNOTATIONSCALES
350
CC0
  0
DICTIONARY
  5
CC3
102
{ACAD_REACTORS
330
CC2
102
}
330
CC2
100
AcDbDictionary
281
     1
  3
ACDB_ANNOTATIONSCALES
350
CC4
  0
DICTIONARY
  5
CC7
102
{ACAD_REACTORS
330
CC6
102
}
330
CC6
100
AcDbDictionary
281
     1
  3
ACDB_ANNOTATIONSCALES
350
CC8
  0
DICTIONARY
  5
CCB
102
{ACAD_REACTORS
330
CCA
102
}
330
CCA
100
AcDbDictionary
281
     1
  3
ACDB_ANNOTATIONSCALES
350
CCC
  0
DICTIONARY
  5
CCF
102
{ACAD_REACTORS
330
CCE
102
}
330
CCE
100
AcDbDictionary
281
     1
  3
ACDB_ANNOTATIONSCALES
350
CD0
  0
DICTIONARY
  5
CD3
102
{ACAD_REACTORS
330
CD2
102
}
330
CD2
100
AcDbDictionary
281
     1
  3
ACDB_ANNOTATIONSCALES
350
CD4
  0
DICTIONARY
  5
D00
102
{ACAD_REACTORS
330
CFF
102
}
330
CFF
100
AcDbDictionary
281
     1
  3
ACDB_ANNOTATIONSCALES
350
D01
  0
DICTIONARY
  5
D05
102
{ACAD_REACTORS
330
D04
102
}
330
D04
100
AcDbDictionary
281
     1
  3
ACDB_ANNOTATIONSCALES
350
D06
  0
DICTIONARY
  5
D0A
102
{ACAD_REACTORS
330
D09
102
}
330
D09
100
AcDbDictionary
281
     1
  3
ACDB_ANNOTATIONSCALES
350
D0B
  0
DICTIONARY
  5
D0F
102
{ACAD_REACTORS
330
D0E
102
}
330
D0E
100
AcDbDictionary
281
     1
  3
ACDB_ANNOTATIONSCALES
350
D10
  0
DICTIONARY
  5
D14
102
{ACAD_REACTORS
330
D13
102
}
330
D13
100
AcDbDictionary
281
     1
  3
ACDB_ANNOTATIONSCALES
350
D15
  0
DICTIONARY
  5
D19
102
{ACAD_REACTORS
330
D18
102
}
330
D18
100
AcDbDictionary
281
     1
  3
ACDB_ANNOTATIONSCALES
350
D1A
  0
DICTIONARY
  5
D49
102
{ACAD_REACTORS
330
D48
102
}
330
D48
100
AcDbDictionary
281
     1
  3
ACDB_ANNOTATIONSCALES
350
D4A
  0
DICTIONARY
  5
D4E
102
{ACAD_REACTORS
330
D4D
102
}
330
D4D
100
AcDbDictionary
281
     1
  3
ACDB_ANNOTATIONSCALES
350
D4F
  0
DICTIONARY
  5
D53
102
{ACAD_REACTORS
330
D52
102
}
330
D52
100
AcDbDictionary
281
     1
  3
ACDB_ANNOTATIONSCALES
350
D54
  0
DICTIONARY
  5
D58
102
{ACAD_REACTORS
330
D57
102
}
330
D57
100
AcDbDictionary
281
     1
  3
ACDB_ANNOTATIONSCALES
350
D59
  0
DICTIONARY
  5
D5D
102
{ACAD_REACTORS
330
D5C
102
}
330
D5C
100
AcDbDictionary
281
     1
  3
ACDB_ANNOTATIONSCALES
350
D5E
  0
DICTIONARY
  5
D62
102
{ACAD_REACTORS
330
D61
102
}
330
D61
100
AcDbDictionary
281
     1
  3
ACDB_ANNOTATIONSCALES
350
D63
  0
XRECORD
  5
F95
102
{ACAD_REACTORS
330
F94
102
}
330
F94
100
AcDbXrecord
280
     1
 40
1.570796326794896
  0
LAYOUT
  5
6F
102
{ACAD_XDICTIONARY
360
FC9
102
}
102
{ACAD_REACTORS
330
62
102
}
330
62
100
AcDbPlotSettings
  1

  2
Adobe PDF
  4
A4
  6

 40
3.174999952316283
 41
3.174999952316283
 42
3.175003051757812
 43
3.17498779296875
 44
209.9733276367186
 45
297.0318298339844
 46
-3.188337683677701
 47
-3.159078955650328
 48
0.0
 49
0.0
140
0.0
141
0.0
142
1.0
143
2.918770302460483
 70
 11954
 72
     1
 73
     0
 74
     0
  7
monochrome.stb
 75
     0
147
0.3426100365475877
148
59.03911683333217
149
-51.63157135439281
100
AcDbLayout
  1
Model
 70
     1
 71
     0
 10
0.0
 20
0.0
 11
12.0
 21
9.0
 12
0.0
 22
0.0
 32
0.0
 14
0.0
 24
0.0
 34
0.0
 15
0.0
 25
0.0
 35
0.0
146
0.0
 13
0.0
 23
0.0
 33
0.0
 16
1.0
 26
0.0
 36
0.0
 17
0.0
 27
1.0
 37
0.0
 76
     0
330
6C
331
57
1001
ACAD_PSEXT
1000
Adobe PDF
1000
Adobe PDF Converter
1000
My Documents\*.pdf
1000

1070
     0
  0
LAYOUT
  5
6B
102
{ACAD_XDICTIONARY
360
FC7
102
}
102
{ACAD_REACTORS
330
62
102
}
330
62
100
AcDbPlotSettings
  1

  2
\\asrv0030\DocuCentre 230 - 本社９階　開発部
  4

  6

 40
0.0
 41
0.0
 42
0.0
 43
0.0
 44
0.0
 45
0.0
 46
0.0
 47
0.0
 48
0.0
 49
0.0
140
0.0
141
0.0
142
1.0
143
1.0
 70
   688
 72
     0
 73
     0
 74
     5
  7

 75
    16
147
1.0
148
0.0
149
0.0
100
AcDbLayout
  1
レイアウト1
 70
     1
 71
     1
 10
0.0
 20
0.0
 11
12.0
 21
9.0
 12
0.0
 22
0.0
 32
0.0
 14
1.000000000000000E+20
 24
1.000000000000000E+20
 34
1.000000000000000E+20
 15
-1.000000000000000E+20
 25
-1.000000000000000E+20
 35
-1.000000000000000E+20
146
0.0
 13
0.0
 23
0.0
 33
0.0
 16
1.0
 26
0.0
 36
0.0
 17
0.0
 27
1.0
 37
0.0
 76
     0
330
68
  0
LAYOUT
  5
73
102
{ACAD_XDICTIONARY
360
FCB
102
}
102
{ACAD_REACTORS
330
62
102
}
330
62
100
AcDbPlotSettings
  1

  2
\\asrv0030\DocuCentre 230 - 本社９階　開発部
  4

  6

 40
0.0
 41
0.0
 42
0.0
 43
0.0
 44
0.0
 45
0.0
 46
0.0
 47
0.0
 48
0.0
 49
0.0
140
0.0
141
0.0
142
1.0
143
1.0
 70
   688
 72
     0
 73
     0
 74
     5
  7

 75
    16
147
1.0
148
0.0
149
0.0
100
AcDbLayout
  1
レイアウト2
 70
     1
 71
     2
 10
0.0
 20
0.0
 11
12.0
 21
9.0
 12
0.0
 22
0.0
 32
0.0
 14
0.0
 24
0.0
 34
0.0
 15
0.0
 25
0.0
 35
0.0
146
0.0
 13
0.0
 23
0.0
 33
0.0
 16
1.0
 26
0.0
 36
0.0
 17
0.0
 27
1.0
 37
0.0
 76
     0
330
70
  0
MATERIAL
  5
19
102
{ACAD_XDICTIONARY
360
1A
102
}
102
{ACAD_REACTORS
330
10
102
}
330
10
100
AcDbMaterial
  1
ByBlock
 72
     0
 43
0.0208333333333333
 43
0.0
 43
0.0
 43
0.0
 43
0.0
 43
0.0208333333333333
 43
0.0
 43
0.0
 43
0.0
 43
0.0
 43
1.0
 43
0.0
 43
0.0
 43
0.0
 43
0.0
 43
1.0
 77
     0
 47
0.0208333333333333
 47
0.0
 47
0.0
 47
0.0
 47
0.0
 47
0.0208333333333333
 47
0.0
 47
0.0
 47
0.0
 47
0.0
 47
1.0
 47
0.0
 47
0.0
 47
0.0
 47
0.0
 47
1.0
171
     0
 49
0.0208333333333333
 49
0.0
 49
0.0
 49
0.0
 49
0.0
 49
0.0208333333333333
 49
0.0
 49
0.0
 49
0.0
 49
0.0
 49
1.0
 49
0.0
 49
0.0
 49
0.0
 49
0.0
 49
1.0
175
     0
142
0.0208333333333333
142
0.0
142
0.0
142
0.0
142
0.0
142
0.0208333333333333
142
0.0
142
0.0
142
0.0
142
0.0
142
1.0
142
0.0
142
0.0
142
0.0
142
0.0
142
1.0
179
     0
144
0.0208333333333333
144
0.0
144
0.0
144
0.0
144
0.0
144
0.0208333333333333
144
0.0
144
0.0
144
0.0
144
0.0
144
1.0
144
0.0
144
0.0
144
0.0
144
0.0
144
1.0
147
0.0208333333333333
147
0.0
147
0.0
147
0.0
147
0.0
147
0.0208333333333333
147
0.0
147
0.0
147
0.0
147
0.0
147
1.0
147
0.0
147
0.0
147
0.0
147
0.0
147
1.0
  0
MATERIAL
  5
11
102
{ACAD_XDICTIONARY
360
12
102
}
102
{ACAD_REACTORS
330
10
102
}
330
10
100
AcDbMaterial
  1
ByLayer
 72
     0
 43
0.0208333333333333
 43
0.0
 43
0.0
 43
0.0
 43
0.0
 43
0.0208333333333333
 43
0.0
 43
0.0
 43
0.0
 43
0.0
 43
1.0
 43
0.0
 43
0.0
 43
0.0
 43
0.0
 43
1.0
 77
     0
 47
0.0208333333333333
 47
0.0
 47
0.0
 47
0.0
 47
0.0
 47
0.0208333333333333
 47
0.0
 47
0.0
 47
0.0
 47
0.0
 47
1.0
 47
0.0
 47
0.0
 47
0.0
 47
0.0
 47
1.0
171
     0
 49
0.0208333333333333
 49
0.0
 49
0.0
 49
0.0
 49
0.0
 49
0.0208333333333333
 49
0.0
 49
0.0
 49
0.0
 49
0.0
 49
1.0
 49
0.0
 49
0.0
 49
0.0
 49
0.0
 49
1.0
175
     0
142
0.0208333333333333
142
0.0
142
0.0
142
0.0
142
0.0
142
0.0208333333333333
142
0.0
142
0.0
142
0.0
142
0.0
142
1.0
142
0.0
142
0.0
142
0.0
142
0.0
142
1.0
179
     0
144
0.0208333333333333
144
0.0
144
0.0
144
0.0
144
0.0
144
0.0208333333333333
144
0.0
144
0.0
144
0.0
144
0.0
144
1.0
144
0.0
144
0.0
144
0.0
144
0.0
144
1.0
147
0.0208333333333333
147
0.0
147
0.0
147
0.0
147
0.0
147
0.0208333333333333
147
0.0
147
0.0
147
0.0
147
0.0
147
1.0
147
0.0
147
0.0
147
0.0
147
0.0
147
1.0
  0
MATERIAL
  5
21
102
{ACAD_XDICTIONARY
360
22
102
}
102
{ACAD_REACTORS
330
10
102
}
330
10
100
AcDbMaterial
  1
Global
 72
     0
 43
0.0208333333333333
 43
0.0
 43
0.0
 43
0.0
 43
0.0
 43
0.0208333333333333
 43
0.0
 43
0.0
 43
0.0
 43
0.0
 43
1.0
 43
0.0
 43
0.0
 43
0.0
 43
0.0
 43
1.0
 77
     0
 47
0.0208333333333333
 47
0.0
 47
0.0
 47
0.0
 47
0.0
 47
0.0208333333333333
 47
0.0
 47
0.0
 47
0.0
 47
0.0
 47
1.0
 47
0.0
 47
0.0
 47
0.0
 47
0.0
 47
1.0
171
     0
 49
0.0208333333333333
 49
0.0
 49
0.0
 49
0.0
 49
0.0
 49
0.0208333333333333
 49
0.0
 49
0.0
 49
0.0
 49
0.0
 49
1.0
 49
0.0
 49
0.0
 49
0.0
 49
0.0
 49
1.0
175
     0
142
0.0208333333333333
142
0.0
142
0.0
142
0.0
142
0.0
142
0.0208333333333333
142
0.0
142
0.0
142
0.0
142
0.0
142
1.0
142
0.0
142
0.0
142
0.0
142
0.0
142
1.0
179
     0
144
0.0208333333333333
144
0.0
144
0.0
144
0.0
144
0.0
144
0.0208333333333333
144
0.0
144
0.0
144
0.0
144
0.0
144
1.0
144
0.0
144
0.0
144
0.0
144
0.0
144
1.0
147
0.0208333333333333
147
0.0
147
0.0
147
0.0
147
0.0
147
0.0208333333333333
147
0.0
147
0.0
147
0.0
147
0.0
147
1.0
147
0.0
147
0.0
147
0.0
147
0.0
147
1.0
  0
MLEADERSTYLE
  5
67
102
{ACAD_XDICTIONARY
360
F90
102
}
102
{ACAD_REACTORS
330
66
102
}
330
66
100
AcDbMLeaderStyle
170
     2
171
     1
172
     0
 90
        2
 40
0.0
 41
0.0
173
     1
 91
-1056964608
340
5B
 92
       -2
290
     1
 42
0.09
291
     1
 43
0.36
  3
Standard
 44
0.18
300

342
55
174
     1
178
     6
175
     1
176
     0
 93
-1056964608
 45
0.18
292
     0
297
     0
 46
0.18
 94
-1056964608
 47
1.0
 49
1.0
140
1.0
293
     1
141
0.0
294
     1
177
     0
142
1.0
295
     0
296
     0
143
0.125
1001
ACAD_MLEADERVER
1070
     2
  0
MLINESTYLE
  5
60
102
{ACAD_REACTORS
330
5F
102
}
330
5F
100
AcDbMlineStyle
  2
STANDARD
 70
     0
  3

 62
   256
 51
90.0
 52
90.0
 71
     2
 49
0.5
 62
   256
  6
BYLAYER
 49
-0.5
 62
   256
  6
BYLAYER
  0
ACDBPLACEHOLDER
  5
97
102
{ACAD_REACTORS
330
E
102
}
330
E
  0
ACDBPLACEHOLDER
  5
F
102
{ACAD_REACTORS
330
E
102
}
330
E
  0
ACDBPLACEHOLDER
  5
98
102
{ACAD_REACTORS
330
E
102
}
330
E
  0
SCALE
  5
99
102
{ACAD_REACTORS
330
42
102
}
330
42
100
AcDbScale
 70
     0
300
3:1
140
3.0
141
1.0
290
     0
  0
SCALE
  5
A1
102
{ACAD_REACTORS
330
42
102
}
330
42
100
AcDbScale
 70
     0
300
3/16" = 1'-0"
140
0.1875
141
12.0
290
     0
  0
SCALE
  5
A2
102
{ACAD_REACTORS
330
42
102
}
330
42
100
AcDbScale
 70
     0
300
1/4" = 1'-0"
140
0.25
141
12.0
290
     0
  0
SCALE
  5
A3
102
{ACAD_REACTORS
330
42
102
}
330
42
100
AcDbScale
 70
     0
300
3/8" = 1'-0"
140
0.375
141
12.0
290
     0
  0
SCALE
  5
A4
102
{ACAD_REACTORS
330
42
102
}
330
42
100
AcDbScale
 70
     0
300
1/2" = 1'-0"
140
0.5
141
12.0
290
     0
  0
SCALE
  5
A5
102
{ACAD_REACTORS
330
42
102
}
330
42
100
AcDbScale
 70
     0
300
3/4" = 1'-0"
140
0.75
141
12.0
290
     0
  0
SCALE
  5
A6
102
{ACAD_REACTORS
330
42
102
}
330
42
100
AcDbScale
 70
     0
300
1" = 1'-0"
140
1.0
141
12.0
290
     0
  0
SCALE
  5
A7
102
{ACAD_REACTORS
330
42
102
}
330
42
100
AcDbScale
 70
     0
300
1-1/2" = 1'-0"
140
1.5
141
12.0
290
     0
  0
SCALE
  5
A8
102
{ACAD_REACTORS
330
42
102
}
330
42
100
AcDbScale
 70
     0
300
3" = 1'-0"
140
3.0
141
12.0
290
     0
  0
SCALE
  5
A9
102
{ACAD_REACTORS
330
42
102
}
330
42
100
AcDbScale
 70
     0
300
6" = 1'-0"
140
6.0
141
12.0
290
     0
  0
SCALE
  5
AA
102
{ACAD_REACTORS
330
42
102
}
330
42
100
AcDbScale
 70
     0
300
1'-0" = 1'-0"
140
12.0
141
12.0
290
     0
  0
SCALE
  5
9A
102
{ACAD_REACTORS
330
42
102
}
330
42
100
AcDbScale
 70
     0
300
5:1
140
5.0
141
1.0
290
     0
  0
SCALE
  5
9B
102
{ACAD_REACTORS
330
42
102
}
330
42
100
AcDbScale
 70
     0
300
1/128" = 1'-0"
140
0.0078125
141
12.0
290
     0
  0
SCALE
  5
9C
102
{ACAD_REACTORS
330
42
102
}
330
42
100
AcDbScale
 70
     0
300
1/64" = 1'-0"
140
0.015625
141
12.0
290
     0
  0
SCALE
  5
9D
102
{ACAD_REACTORS
330
42
102
}
330
42
100
AcDbScale
 70
     0
300
1/32" = 1'-0"
140
0.03125
141
12.0
290
     0
  0
SCALE
  5
9E
102
{ACAD_REACTORS
330
42
102
}
330
42
100
AcDbScale
 70
     0
300
1/16" = 1'-0"
140
0.0625
141
12.0
290
     0
  0
SCALE
  5
9F
102
{ACAD_REACTORS
330
42
102
}
330
42
100
AcDbScale
 70
     0
300
3/32" = 1'-0"
140
0.09375
141
12.0
290
     0
  0
SCALE
  5
A0
102
{ACAD_REACTORS
330
42
102
}
330
42
100
AcDbScale
 70
     0
300
1/8" = 1'-0"
140
0.125
141
12.0
290
     0
  0
SCALE
  5
43
102
{ACAD_REACTORS
330
42
102
}
330
42
100
AcDbScale
 70
     0
300
1:1
140
1.0
141
1.0
290
     1
  0
SCALE
  5
44
102
{ACAD_REACTORS
330
42
102
}
330
42
100
AcDbScale
 70
     0
300
1:2
140
1.0
141
2.0
290
     0
  0
SCALE
  5
45
102
{ACAD_REACTORS
330
42
102
}
330
42
100
AcDbScale
 70
     0
300
1:4
140
1.0
141
4.0
290
     0
  0
SCALE
  5
46
102
{ACAD_REACTORS
330
42
102
}
330
42
100
AcDbScale
 70
     0
300
1:5
140
1.0
141
5.0
290
     0
  0
SCALE
  5
47
102
{ACAD_REACTORS
330
42
102
}
330
42
100
AcDbScale
 70
     0
300
1:8
140
1.0
141
8.0
290
     0
  0
SCALE
  5
48
102
{ACAD_REACTORS
330
42
102
}
330
42
100
AcDbScale
 70
     0
300
1:10
140
1.0
141
10.0
290
     0
  0
SCALE
  5
49
102
{ACAD_REACTORS
330
42
102
}
330
42
100
AcDbScale
 70
     0
300
1:16
140
1.0
141
16.0
290
     0
  0
SCALE
  5
4A
102
{ACAD_REACTORS
330
42
102
}
330
42
100
AcDbScale
 70
     0
300
1:20
140
1.0
141
20.0
290
     0
  0
SCALE
  5
4B
102
{ACAD_REACTORS
330
42
102
}
330
42
100
AcDbScale
 70
     0
300
1:30
140
1.0
141
30.0
290
     0
  0
SCALE
  5
4C
102
{ACAD_REACTORS
330
42
102
}
330
42
100
AcDbScale
 70
     0
300
1:40
140
1.0
141
40.0
290
     0
  0
SCALE
  5
4D
102
{ACAD_REACTORS
330
42
102
}
330
42
100
AcDbScale
 70
     0
300
1:50
140
1.0
141
50.0
290
     0
  0
SCALE
  5
4E
102
{ACAD_REACTORS
330
42
102
}
330
42
100
AcDbScale
 70
     0
300
1:100
140
1.0
141
100.0
290
     0
  0
SCALE
  5
4F
102
{ACAD_REACTORS
330
42
102
}
330
42
100
AcDbScale
 70
     0
300
2:1
140
2.0
141
1.0
290
     0
  0
SCALE
  5
50
102
{ACAD_REACTORS
330
42
102
}
330
42
100
AcDbScale
 70
     0
300
4:1
140
4.0
141
1.0
290
     0
  0
SCALE
  5
51
102
{ACAD_REACTORS
330
42
102
}
330
42
100
AcDbScale
 70
     0
300
8:1
140
8.0
141
1.0
290
     0
  0
SCALE
  5
52
102
{ACAD_REACTORS
330
42
102
}
330
42
100
AcDbScale
 70
     0
300
10:1
140
10.0
141
1.0
290
     0
  0
SCALE
  5
53
102
{ACAD_REACTORS
330
42
102
}
330
42
100
AcDbScale
 70
     0
300
100:1
140
100.0
141
1.0
290
     0
  0
TABLESTYLE
  5
65
102
{ACAD_XDICTIONARY
360
F32
102
}
102
{ACAD_REACTORS
330
64
102
}
330
64
100
AcDbTableStyle
  3
Standard
 70
     0
 71
     3
 40
1.5
 41
1.5
280
     0
281
     0
  7
Standard
140
4.5
170
     2
 62
     0
 63
     7
283
     0
274
    -2
284
     1
 64
     0
275
    -2
285
     1
 65
     0
276
    -2
286
     1
 66
     0
277
    -2
287
     1
 67
     0
278
    -2
288
     1
 68
     0
279
    -2
289
     1
 69
     0
  7
Standard
140
6.0
170
     5
 62
     0
 63
     7
283
     0
274
    -2
284
     1
 64
     0
275
    -2
285
     1
 65
     0
276
    -2
286
     1
 66
     0
277
    -2
287
     1
 67
     0
278
    -2
288
     1
 68
     0
279
    -2
289
     1
 69
     0
  7
Standard
140
4.5
170
     5
 62
     0
 63
     7
283
     0
274
    -2
284
     1
 64
     0
275
    -2
285
     1
 65
     0
276
    -2
286
     1
 66
     0
277
    -2
287
     1
 67
     0
278
    -2
288
     1
 68
     0
279
    -2
289
     1
 69
     0
  0
VISUALSTYLE
  5
2F
102
{ACAD_XDICTIONARY
360
FA0
102
}
102
{ACAD_REACTORS
330
29
102
}
330
29
100
AcDbVisualStyle
  2

 70
     4
 71
     0
 72
     2
 73
     0
 90
        0
 40
-0.6
 41
-30.0
 62
     5
 63
     7
 74
     1
 91
        4
 64
     7
 65
   257
 75
     1
175
     1
 42
1.0
 92
        0
 66
   257
 43
1.0
 76
     1
 77
     6
 78
     2
 67
     7
 79
     5
170
     0
171
     0
290
     0
174
     0
 93
        1
 44
0.0
173
     0
291
     0
 45
0.0
1001
ACAD
1000
AcDbSavedByObjectVersion
1070
     0
  0
VISUALSTYLE
  5
2E
102
{ACAD_XDICTIONARY
360
F9E
102
}
102
{ACAD_REACTORS
330
29
102
}
330
29
100
AcDbVisualStyle
  2

 70
     7
 71
     1
 72
     0
 73
     1
 90
        0
 40
-0.6
 41
-30.0
 62
     5
 63
     7
 74
     0
 91
        4
 64
     7
 65
   257
 75
     1
175
     1
 42
1.0
 92
        8
 66
     7
 43
1.0
 76
     1
 77
     6
 78
     2
 67
     7
 79
     5
170
     0
171
     0
290
     0
174
     0
 93
        1
 44
0.0
173
     0
291
     1
 45
0.0
1001
ACAD
1000
AcDbSavedByObjectVersion
1070
     0
  0
VISUALSTYLE
  5
35
102
{ACAD_XDICTIONARY
360
FAC
102
}
102
{ACAD_REACTORS
330
29
102
}
330
29
100
AcDbVisualStyle
  2

 70
    12
 71
     2
 72
     2
 73
     0
 90
        0
 40
-0.6
 41
-30.0
 62
     5
 63
     7
 74
     1
 91
        4
 64
     7
 65
   257
 75
     1
175
     1
 42
1.0
 92
        8
 66
     7
 43
1.0
 76
     1
 77
     6
 78
     2
 67
     7
 79
     5
170
     0
171
     0
290
     0
174
     0
 93
        1
 44
50.0
173
     0
291
     1
 45
0.0
1001
ACAD
1000
AcDbSavedByObjectVersion
1070
     0
  0
VISUALSTYLE
  5
39
102
{ACAD_XDICTIONARY
360
FB4
102
}
102
{ACAD_REACTORS
330
29
102
}
330
29
100
AcDbVisualStyle
  2

 70
    16
 71
     2
 72
     2
 73
     3
 90
        0
 40
-0.6
 41
-30.0
 62
     5
 63
     8
 74
     1
 91
        4
 64
     7
 65
   257
 75
     1
175
     1
 42
1.0
 92
        8
 66
     8
 43
1.0
 76
     1
 77
     6
 78
     2
 67
     7
 79
     5
170
     0
171
     0
290
     0
174
     0
 93
        1
 44
0.0
173
     0
291
     1
 45
0.0
1001
ACAD
1000
AcDbSavedByObjectVersion
1070
     0
  0
VISUALSTYLE
  5
32
102
{ACAD_XDICTIONARY
360
FA6
102
}
102
{ACAD_REACTORS
330
29
102
}
330
29
100
AcDbVisualStyle
  2

 70
     9
 71
     3
 72
     2
 73
     0
 90
        0
 40
-0.6
 41
-30.0
 62
     5
 63
     7
 74
     2
 91
        2
 64
     7
 65
   257
 75
     1
175
     1
 42
179.0
 92
        8
 66
     7
 43
1.0
 76
     1
 77
     6
 78
     2
 67
     7
 79
     3
170
     0
171
     0
290
     0
174
     0
 93
        1
 44
0.0
173
     0
291
     0
 45
0.0
1001
ACAD
1000
AcDbSavedByObjectVersion
1070
     0
  0
VISUALSTYLE
  5
34
102
{ACAD_XDICTIONARY
360
FAA
102
}
102
{ACAD_REACTORS
330
29
102
}
330
29
100
AcDbVisualStyle
  2

 70
    11
 71
     2
 72
     2
 73
     0
 90
        0
 40
-0.6
 41
-30.0
 62
     5
 63
     7
 74
     1
 91
        4
 64
     7
 65
   257
 75
     1
175
     1
 42
1.0
 92
        8
 66
     7
 43
1.0
 76
     1
 77
     6
 78
     2
 67
     7
 79
     5
170
     0
171
     0
290
     0
174
     0
 93
        1
 44
-50.0
173
     0
291
     1
 45
0.0
1001
ACAD
1000
AcDbSavedByObjectVersion
1070
     0
  0
VISUALSTYLE
  5
41
102
{ACAD_XDICTIONARY
360
FC4
102
}
102
{ACAD_REACTORS
330
29
102
}
330
29
100
AcDbVisualStyle
  2

 70
    22
 71
     2
 72
     2
 73
     0
 90
        0
 40
-0.6
 41
-30.0
 62
     5
 63
     7
 74
     1
 91
        4
 64
     7
 65
   257
 75
     1
175
     1
 42
1.0
 92
        8
 66
     7
 43
1.0
 76
     1
 77
     6
 78
     2
 67
     7
 79
     5
170
     0
171
     0
290
     0
174
     0
 93
        1
 44
0.0
173
     0
291
     1
 45
0.0
1001
ACAD
1000
AcDbSavedByObjectVersion
1070
     0
  0
VISUALSTYLE
  5
38
102
{ACAD_XDICTIONARY
360
FB2
102
}
102
{ACAD_REACTORS
330
29
102
}
330
29
100
AcDbVisualStyle
  2

 70
    15
 71
     2
 72
     2
 73
     0
 90
        0
 40
-0.6
 41
-30.0
 62
     5
 63
     7
 74
     1
 91
        4
 64
     7
 65
   257
 75
     1
175
     1
 42
1.0
 92
        8
 66
     7
 43
1.0
 76
     1
 77
     6
 78
     2
 67
     7
 79
     5
170
     0
171
     0
290
     0
174
     0
 93
        1
 44
0.0
173
     0
291
     1
 45
0.0
1001
ACAD
1000
AcDbSavedByObjectVersion
1070
     0
  0
VISUALSTYLE
  5
2A
102
{ACAD_XDICTIONARY
360
F96
102
}
102
{ACAD_REACTORS
330
29
102
}
330
29
100
AcDbVisualStyle
  2

 70
     0
 71
     2
 72
     1
 73
     1
 90
        2
 40
-0.6
 41
30.0
 62
     5
 63
     7
 74
     0
 91
        0
 64
     7
 65
   257
 75
     1
175
     1
 42
1.0
 92
        8
 66
     7
 43
1.0
 76
     1
 77
     6
 78
     2
 67
     7
 79
     5
170
     0
171
     0
290
     0
174
     0
 93
       13
 44
0.0
173
     0
291
     1
 45
0.0
1001
ACAD
1000
AcDbSavedByObjectVersion
1070
     0
  0
VISUALSTYLE
  5
2B
102
{ACAD_XDICTIONARY
360
F98
102
}
102
{ACAD_REACTORS
330
29
102
}
330
29
100
AcDbVisualStyle
  2

 70
     1
 71
     2
 72
     1
 73
     1
 90
        2
 40
-0.6
 41
30.0
 62
     5
 63
     7
 74
     1
 91
        0
 64
     7
 65
   257
 75
     1
175
     1
 42
1.0
 92
        0
 66
   257
 43
1.0
 76
     1
 77
     6
 78
     2
 67
     7
 79
     5
170
     0
171
     0
290
     0
174
     0
 93
       13
 44
0.0
173
     0
291
     1
 45
0.0
1001
ACAD
1000
AcDbSavedByObjectVersion
1070
     0
  0
VISUALSTYLE
  5
2C
102
{ACAD_XDICTIONARY
360
F9A
102
}
102
{ACAD_REACTORS
330
29
102
}
330
29
100
AcDbVisualStyle
  2

 70
     2
 71
     2
 72
     2
 73
     1
 90
        2
 40
-0.6
 41
30.0
 62
     5
 63
     7
 74
     0
 91
        0
 64
     7
 65
   257
 75
     1
175
     1
 42
1.0
 92
        0
 66
     7
 43
1.0
 76
     1
 77
     6
 78
     2
 67
     7
 79
     5
170
     0
171
     0
290
     0
174
     0
 93
       13
 44
0.0
173
     0
291
     1
 45
0.0
1001
ACAD
1000
AcDbSavedByObjectVersion
1070
     0
  0
VISUALSTYLE
  5
2D
102
{ACAD_XDICTIONARY
360
F9C
102
}
102
{ACAD_REACTORS
330
29
102
}
330
29
100
AcDbVisualStyle
  2

 70
     3
 71
     2
 72
     2
 73
     1
 90
        2
 40
-0.6
 41
30.0
 62
     5
 63
     7
 74
     1
 91
        0
 64
     7
 65
   257
 75
     1
175
     1
 42
1.0
 92
        0
 66
   257
 43
1.0
 76
     1
 77
     6
 78
     2
 67
     7
 79
     5
170
     0
171
     0
290
     0
174
     0
 93
       13
 44
0.0
173
     0
291
     1
 45
0.0
1001
ACAD
1000
AcDbSavedByObjectVersion
1070
     0
  0
VISUALSTYLE
  5
31
102
{ACAD_XDICTIONARY
360
FA4
102
}
102
{ACAD_REACTORS
330
29
102
}
330
29
100
AcDbVisualStyle
  2

 70
     6
 71
     1
 72
     2
 73
     2
 90
        0
 40
-0.6
 41
-30.0
 62
     5
 63
     7
 74
     2
 91
        2
 64
     7
 65
   257
 75
     2
175
     1
 42
40.0
 92
        0
 66
   257
 43
1.0
 76
     1
 77
     6
 78
     2
 67
     7
 79
     3
170
     0
171
     0
290
     0
174
     0
 93
        1
 44
0.0
173
     0
291
     0
 45
0.0
1001
ACAD
1000
AcDbSavedByObjectVersion
1070
     0
  0
VISUALSTYLE
  5
3F
102
{ACAD_XDICTIONARY
360
FC0
102
}
102
{ACAD_REACTORS
330
29
102
}
330
29
100
AcDbVisualStyle
  2

 70
    20
 71
     2
 72
     2
 73
     0
 90
        0
 40
-0.6
 41
-30.0
 62
     5
 63
     7
 74
     1
 91
        4
 64
     7
 65
   257
 75
     1
175
     1
 42
1.0
 92
       10
 66
     7
 43
1.0
 76
     1
 77
     6
 78
     2
 67
     7
 79
     5
170
     0
171
     0
290
     0
174
     0
 93
        1
 44
0.0
173
     0
291
     1
 45
0.0
1001
ACAD
1000
AcDbSavedByObjectVersion
1070
     0
  0
VISUALSTYLE
  5
37
102
{ACAD_XDICTIONARY
360
FB0
102
}
102
{ACAD_REACTORS
330
29
102
}
330
29
100
AcDbVisualStyle
  2

 70
    14
 71
     2
 72
     2
 73
     0
 90
        0
 40
-0.6
 41
-30.0
 62
     5
 63
     7
 74
     1
 91
        4
 64
     7
 65
   257
 75
     7
175
     7
 42
1.0
 92
        8
 66
     7
 43
1.0
 76
     1
 77
     6
 78
     2
 67
     7
 79
     5
170
     0
171
     0
290
     0
174
     0
 93
        1
 44
0.0
173
     0
291
     1
 45
0.0
1001
ACAD
1000
AcDbSavedByObjectVersion
1070
     0
  0
VISUALSTYLE
  5
40
102
{ACAD_XDICTIONARY
360
FC2
102
}
102
{ACAD_REACTORS
330
29
102
}
330
29
100
AcDbVisualStyle
  2

 70
    21
 71
     2
 72
     2
 73
     0
 90
        0
 40
-0.6
 41
-30.0
 62
     5
 63
     7
 74
     1
 91
        4
 64
     7
 65
   257
 75
     1
175
     1
 42
1.0
 92
        9
 66
     7
 43
1.0
 76
     1
 77
     6
 78
     2
 67
     7
 79
     5
170
     0
171
     0
290
     0
174
     0
 93
        1
 44
0.0
173
     0
291
     1
 45
0.0
1001
ACAD
1000
AcDbSavedByObjectVersion
1070
     0
  0
VISUALSTYLE
  5
33
102
{ACAD_XDICTIONARY
360
FA8
102
}
102
{ACAD_REACTORS
330
29
102
}
330
29
100
AcDbVisualStyle
  2

 70
     8
 71
     2
 72
     3
 73
     0
 90
        2
 40
-0.6
 41
30.0
 62
     5
 63
     7
 74
     0
 91
        0
 64
     7
 65
   257
 75
     1
175
     1
 42
1.0
 92
        8
 66
   257
 43
1.0
 76
     1
 77
     6
 78
     2
 67
     7
 79
     3
170
     0
171
     0
290
     0
174
     0
 93
       13
 44
0.0
173
     0
291
     0
 45
0.0
1001
ACAD
1000
AcDbSavedByObjectVersion
1070
     0
  0
VISUALSTYLE
  5
3E
102
{ACAD_XDICTIONARY
360
FBE
102
}
102
{ACAD_REACTORS
330
29
102
}
330
29
100
AcDbVisualStyle
  2

 70
    27
 71
     2
 72
     2
 73
     1
 90
        2
 40
-0.6
 41
30.0
 62
     5
 63
     7
 74
     0
 91
        4
 64
     7
 65
   257
 75
     1
175
     1
 42
1.0
 92
        8
 66
   257
 43
1.0
 76
     1
 77
     6
 78
     2
 67
     8
 79
     3
170
     0
171
     0
290
     0
174
     0
 93
        5
 44
0.0
173
     0
291
     0
 45
0.0
1001
ACAD
1000
AcDbSavedByObjectVersion
1070
     0
  0
VISUALSTYLE
  5
3D
102
{ACAD_XDICTIONARY
360
FBC
102
}
102
{ACAD_REACTORS
330
29
102
}
330
29
100
AcDbVisualStyle
  2

 70
    26
 71
     2
 72
     2
 73
     1
 90
        2
 40
-0.6
 41
30.0
 62
     5
 63
     7
 74
     1
 91
       10
 64
     7
 65
   257
 75
     2
175
     1
 42
1.0
 92
        8
 66
   257
 43
1.0
 76
     1
 77
     6
 78
     2
 67
     7
 79
     3
170
     0
171
     0
290
     0
174
     0
 93
        5
 44
0.0
173
     0
291
     0
 45
0.0
1001
ACAD
1000
AcDbSavedByObjectVersion
1070
     0
  0
VISUALSTYLE
  5
3A
102
{ACAD_XDICTIONARY
360
FB6
102
}
102
{ACAD_REACTORS
330
29
102
}
330
29
100
AcDbVisualStyle
  2

 70
    23
 71
     2
 72
     2
 73
     3
 90
        0
 40
-0.6
 41
-30.0
 62
     5
 63
     7
 74
     2
 91
        2
 64
     7
 65
     7
 75
     1
175
     1
 42
40.0
 92
        8
 66
     7
 43
1.0
 76
     1
 77
     6
 78
     2
 67
     7
 79
     3
170
     0
171
     0
290
     0
174
     0
 93
        1
 44
0.0
173
     0
291
     0
 45
0.0
1001
ACAD
1000
AcDbSavedByObjectVersion
1070
     0
  0
VISUALSTYLE
  5
3B
102
{ACAD_XDICTIONARY
360
FB8
102
}
102
{ACAD_REACTORS
330
29
102
}
330
29
100
AcDbVisualStyle
  2

 70
    24
 71
     1
 72
     2
 73
     2
 90
        0
 40
-0.6
 41
-30.0
 62
     5
 63
     7
 74
     2
 91
        2
 64
     7
 65
     7
 75
     1
175
     1
 42
40.0
 92
       11
 66
     7
 43
1.0
 76
     1
 77
     6
 78
     2
 67
     7
 79
     6
170
     0
171
     0
290
     0
174
     0
 93
        1
 44
0.0
173
     0
291
     0
 45
0.0
1001
ACAD
1000
AcDbSavedByObjectVersion
1070
     0
  0
VISUALSTYLE
  5
36
102
{ACAD_XDICTIONARY
360
FAE
102
}
102
{ACAD_REACTORS
330
29
102
}
330
29
100
AcDbVisualStyle
  2

 70
    13
 71
     2
 72
     2
 73
     0
 90
        0
 40
-0.6
 41
-30.0
 62
     5
 63
     7
 74
     1
 91
        4
 64
     7
 65
   257
 75
     1
175
     1
 42
1.0
 92
       12
 66
     7
 43
1.0
 76
     1
 77
     6
 78
     2
 67
     7
 79
     5
170
     0
171
     0
290
     0
174
     0
 93
        1
 44
0.0
173
     0
291
     1
 45
0.0
1001
ACAD
1000
AcDbSavedByObjectVersion
1070
     0
  0
VISUALSTYLE
  5
30
102
{ACAD_XDICTIONARY
360
FA2
102
}
102
{ACAD_REACTORS
330
29
102
}
330
29
100
AcDbVisualStyle
  2

 70
     5
 71
     0
 72
     2
 73
     0
 90
        0
 40
-0.6
 41
-30.0
 62
     5
 63
     7
 74
     1
 91
        4
 64
     7
 65
   257
 75
     1
175
     1
 42
1.0
 92
        0
 66
   257
 43
1.0
 76
     1
 77
     6
 78
     2
 67
     7
 79
     3
170
     0
171
     0
290
     0
174
     0
 93
        1
 44
0.0
173
     0
291
     0
 45
0.0
1001
ACAD
1000
AcDbSavedByObjectVersion
1070
     0
  0
VISUALSTYLE
  5
3C
102
{ACAD_XDICTIONARY
360
FBA
102
}
102
{ACAD_REACTORS
330
29
102
}
330
29
100
AcDbVisualStyle
  2

 70
    25
 71
     2
 72
     2
 73
     1
 90
        1
 40
0.5
 41
-30.0
 62
     5
 63
     7
 74
     1
 91
        0
 64
     7
 65
   257
 75
     1
175
     1
 42
1.0
 92
        8
 66
     7
 43
1.0
 76
     1
 77
     6
 78
     2
 67
     7
 79
     3
170
     0
171
     0
290
     0
174
     0
 93
       13
 44
0.0
173
     0
291
     0
 45
0.0
1001
ACAD
1000
AcDbSavedByObjectVersion
1070
     0
  0
DICTIONARYVAR
  5
F21
102
{ACAD_REACTORS
330
F1E
102
}
330
F1E
100
DictionaryVariables
280
     0
  1
0
  0
DICTIONARYVAR
  5
F22
102
{ACAD_REACTORS
330
F1E
102
}
330
F1E
100
DictionaryVariables
280
     0
  1
1:1
  0
DICTIONARYVAR
  5
F20
102
{ACAD_REACTORS
330
F1E
102
}
330
F1E
100
DictionaryVariables
280
     0
  1
STANDARD
  0
DICTIONARYVAR
  5
F1F
102
{ACAD_REACTORS
330
F1E
102
}
330
F1E
100
DictionaryVariables
280
     0
  1
STANDARD
  0
DICTIONARYVAR
  5
F8E
102
{ACAD_REACTORS
330
F1E
102
}
330
F1E
100
DictionaryVariables
280
     0
  1
2
  0
DICTIONARYVAR
  5
F8C
102
{ACAD_REACTORS
330
F1E
102
}
330
F1E
100
DictionaryVariables
280
     0
  1
1
  0
DICTIONARYVAR
  5
F8B
102
{ACAD_REACTORS
330
F1E
102
}
330
F1E
100
DictionaryVariables
280
     0
  1
0
  0
DICTIONARYVAR
  5
F23
102
{ACAD_REACTORS
330
F1E
102
}
330
F1E
100
DictionaryVariables
280
     0
  1
1
  0
DICTIONARYVAR
  5
F24
102
{ACAD_REACTORS
330
F1E
102
}
330
F1E
100
DictionaryVariables
280
     0
  1
15
  0
DICTIONARYVAR
  5
F30
102
{ACAD_REACTORS
330
F1E
102
}
330
F1E
100
DictionaryVariables
280
     0
  1
2
  0
DICTIONARYVAR
  5
F2F
102
{ACAD_REACTORS
330
F1E
102
}
330
F1E
100
DictionaryVariables
280
     0
  1
1
  0
DICTIONARYVAR
  5
F8A
102
{ACAD_REACTORS
330
F1E
102
}
330
F1E
100
DictionaryVariables
280
     0
  1
127
  0
DICTIONARYVAR
  5
F8D
102
{ACAD_REACTORS
330
F1E
102
}
330
F1E
100
DictionaryVariables
280
     0
  1
0
  0
XRECORD
  5
FCE
102
{ACAD_REACTORS
330
FCD
102
}
330
FCD
100
AcDbXrecord
280
     1
1070
     0
1070
     1
1070
     1
  0
DICTIONARY
  5
CC0
102
{ACAD_REACTORS
330
CBF
102
}
330
CBF
100
AcDbDictionary
281
     1
  0
DICTIONARY
  5
CC4
102
{ACAD_REACTORS
330
CC3
102
}
330
CC3
100
AcDbDictionary
281
     1
  0
DICTIONARY
  5
CC8
102
{ACAD_REACTORS
330
CC7
102
}
330
CC7
100
AcDbDictionary
281
     1
  0
DICTIONARY
  5
CCC
102
{ACAD_REACTORS
330
CCB
102
}
330
CCB
100
AcDbDictionary
281
     1
  0
DICTIONARY
  5
CD0
102
{ACAD_REACTORS
330
CCF
102
}
330
CCF
100
AcDbDictionary
281
     1
  0
DICTIONARY
  5
CD4
102
{ACAD_REACTORS
330
CD3
102
}
330
CD3
100
AcDbDictionary
281
     1
  0
DICTIONARY
  5
D01
102
{ACAD_REACTORS
330
D00
102
}
330
D00
100
AcDbDictionary
281
     1
  3
*A1
350
D02
  0
DICTIONARY
  5
D06
102
{ACAD_REACTORS
330
D05
102
}
330
D05
100
AcDbDictionary
281
     1
  3
*A1
350
D07
  0
DICTIONARY
  5
D0B
102
{ACAD_REACTORS
330
D0A
102
}
330
D0A
100
AcDbDictionary
281
     1
  3
*A1
350
D0C
  0
DICTIONARY
  5
D10
102
{ACAD_REACTORS
330
D0F
102
}
330
D0F
100
AcDbDictionary
281
     1
  3
*A1
350
D11
  0
DICTIONARY
  5
D15
102
{ACAD_REACTORS
330
D14
102
}
330
D14
100
AcDbDictionary
281
     1
  3
*A1
350
D16
  0
DICTIONARY
  5
D1A
102
{ACAD_REACTORS
330
D19
102
}
330
D19
100
AcDbDictionary
281
     1
  3
*A1
350
D1B
  0
DICTIONARY
  5
D4A
102
{ACAD_REACTORS
330
D49
102
}
330
D49
100
AcDbDictionary
281
     1
  0
DICTIONARY
  5
D4F
102
{ACAD_REACTORS
330
D4E
102
}
330
D4E
100
AcDbDictionary
281
     1
  0
DICTIONARY
  5
D54
102
{ACAD_REACTORS
330
D53
102
}
330
D53
100
AcDbDictionary
281
     1
  0
DICTIONARY
  5
D59
102
{ACAD_REACTORS
330
D58
102
}
330
D58
100
AcDbDictionary
281
     1
  0
DICTIONARY
  5
D5E
102
{ACAD_REACTORS
330
D5D
102
}
330
D5D
100
AcDbDictionary
281
     1
  0
DICTIONARY
  5
D63
102
{ACAD_REACTORS
330
D62
102
}
330
D62
100
AcDbDictionary
281
     1
  0
DICTIONARY
  5
FC9
330
6F
100
AcDbDictionary
280
     1
281
     1
  3
ACAD_XREC_ROUNDTRIP
360
FCA
  0
DICTIONARY
  5
FC7
330
6B
100
AcDbDictionary
280
     1
281
     1
  3
ACAD_XREC_ROUNDTRIP
360
FC8
  0
DICTIONARY
  5
FCB
330
73
100
AcDbDictionary
280
     1
281
     1
  3
ACAD_XREC_ROUNDTRIP
360
FCC
  0
DICTIONARY
  5
1A
330
19
100
AcDbDictionary
280
     1
281
     1
  3
ACAD_XREC_ROUNDTRIP
360
F3A
  3
BUMPTILE
360
1C
  3
DIFFUSETILE
360
1B
  3
OPACITYTILE
360
1F
  3
REFLECTIONTILE
360
1E
  3
REFRACTIONTILE
360
20
  3
SPECULARTILE
360
1D
  0
DICTIONARY
  5
12
330
11
100
AcDbDictionary
280
     1
281
     1
  3
ACAD_XREC_ROUNDTRIP
360
F39
  3
BUMPTILE
360
14
  3
DIFFUSETILE
360
13
  3
OPACITYTILE
360
17
  3
REFLECTIONTILE
360
16
  3
REFRACTIONTILE
360
18
  3
SPECULARTILE
360
15
  0
DICTIONARY
  5
22
330
21
100
AcDbDictionary
280
     1
281
     1
  3
ACAD_XREC_ROUNDTRIP
360
F3B
  3
BUMPTILE
360
24
  3
DIFFUSETILE
360
23
  3
OPACITYTILE
360
27
  3
REFLECTIONTILE
360
26
  3
REFRACTIONTILE
360
28
  3
SPECULARTILE
360
25
  0
DICTIONARY
  5
F90
330
67
100
AcDbDictionary
280
     1
281
     1
  3
ACAD_XREC_ROUNDTRIP
360
F91
  0
DICTIONARY
  5
F32
330
65
100
AcDbDictionary
280
     1
281
     1
  3
ACAD_ROUNDTRIP_2008_TABLESTYLE_CELLSTYLEMAP
360
F8F
  3
ACAD_XREC_ROUNDTRIP
360
FC6
  0
DICTIONARY
  5
FA0
330
2F
100
AcDbDictionary
280
     1
281
     1
  3
ACAD_XREC_ROUNDTRIP
360
FA1
  0
DICTIONARY
  5
F9E
330
2E
100
AcDbDictionary
280
     1
281
     1
  3
ACAD_XREC_ROUNDTRIP
360
F9F
  0
DICTIONARY
  5
FAC
330
35
100
AcDbDictionary
280
     1
281
     1
  3
ACAD_XREC_ROUNDTRIP
360
FAD
  0
DICTIONARY
  5
FB4
330
39
100
AcDbDictionary
280
     1
281
     1
  3
ACAD_XREC_ROUNDTRIP
360
FB5
  0
DICTIONARY
  5
FA6
330
32
100
AcDbDictionary
280
     1
281
     1
  3
ACAD_XREC_ROUNDTRIP
360
FA7
  0
DICTIONARY
  5
FAA
330
34
100
AcDbDictionary
280
     1
281
     1
  3
ACAD_XREC_ROUNDTRIP
360
FAB
  0
DICTIONARY
  5
FC4
330
41
100
AcDbDictionary
280
     1
281
     1
  3
ACAD_XREC_ROUNDTRIP
360
FC5
  0
DICTIONARY
  5
FB2
330
38
100
AcDbDictionary
280
     1
281
     1
  3
ACAD_XREC_ROUNDTRIP
360
FB3
  0
DICTIONARY
  5
F96
330
2A
100
AcDbDictionary
280
     1
281
     1
  3
ACAD_XREC_ROUNDTRIP
360
F97
  0
DICTIONARY
  5
F98
330
2B
100
AcDbDictionary
280
     1
281
     1
  3
ACAD_XREC_ROUNDTRIP
360
F99
  0
DICTIONARY
  5
F9A
330
2C
100
AcDbDictionary
280
     1
281
     1
  3
ACAD_XREC_ROUNDTRIP
360
F9B
  0
DICTIONARY
  5
F9C
330
2D
100
AcDbDictionary
280
     1
281
     1
  3
ACAD_XREC_ROUNDTRIP
360
F9D
  0
DICTIONARY
  5
FA4
330
31
100
AcDbDictionary
280
     1
281
     1
  3
ACAD_XREC_ROUNDTRIP
360
FA5
  0
DICTIONARY
  5
FC0
330
3F
100
AcDbDictionary
280
     1
281
     1
  3
ACAD_XREC_ROUNDTRIP
360
FC1
  0
DICTIONARY
  5
FB0
330
37
100
AcDbDictionary
280
     1
281
     1
  3
ACAD_XREC_ROUNDTRIP
360
FB1
  0
DICTIONARY
  5
FC2
330
40
100
AcDbDictionary
280
     1
281
     1
  3
ACAD_XREC_ROUNDTRIP
360
FC3
  0
DICTIONARY
  5
FA8
330
33
100
AcDbDictionary
280
     1
281
     1
  3
ACAD_XREC_ROUNDTRIP
360
FA9
  0
DICTIONARY
  5
FBE
330
3E
100
AcDbDictionary
280
     1
281
     1
  3
ACAD_XREC_ROUNDTRIP
360
FBF
  0
DICTIONARY
  5
FBC
330
3D
100
AcDbDictionary
280
     1
281
     1
  3
ACAD_XREC_ROUNDTRIP
360
FBD
  0
DICTIONARY
  5
FB6
330
3A
100
AcDbDictionary
280
     1
281
     1
  3
ACAD_XREC_ROUNDTRIP
360
FB7
  0
DICTIONARY
  5
FB8
330
3B
100
AcDbDictionary
280
     1
281
     1
  3
ACAD_XREC_ROUNDTRIP
360
FB9
  0
DICTIONARY
  5
FAE
330
36
100
AcDbDictionary
280
     1
281
     1
  3
ACAD_XREC_ROUNDTRIP
360
FAF
  0
DICTIONARY
  5
FA2
330
30
100
AcDbDictionary
280
     1
281
     1
  3
ACAD_XREC_ROUNDTRIP
360
FA3
  0
DICTIONARY
  5
FBA
330
3C
100
AcDbDictionary
280
     1
281
     1
  3
ACAD_XREC_ROUNDTRIP
360
FBB
  0
ACDB_MTEXTATTRIBUTEOBJECTCONTEXTDATA_CLASS
  5
D02
102
{ACAD_REACTORS
330
D01
102
}
330
D01
100
AcDbObjectContextData
 70
     3
290
     1
100
AcDbAnnotScaleObjectContextData
340
43
 70
     1
 50
0.0
 10
3.500000000000909
 20
2.000000222036987
 11
3.500000000000909
 21
3.500000222036987
290
     0
  0
ACDB_MTEXTATTRIBUTEOBJECTCONTEXTDATA_CLASS
  5
D07
102
{ACAD_REACTORS
330
D06
102
}
330
D06
100
AcDbObjectContextData
 70
     3
290
     1
100
AcDbAnnotScaleObjectContextData
340
43
 70
     1
 50
0.0
 10
32.00000000000091
 20
2.000000222036987
 11
32.00000000000091
 21
3.500000222036987
290
     0
  0
ACDB_MTEXTATTRIBUTEOBJECTCONTEXTDATA_CLASS
  5
D0C
102
{ACAD_REACTORS
330
D0B
102
}
330
D0B
100
AcDbObjectContextData
 70
     3
290
     1
100
AcDbAnnotScaleObjectContextData
340
43
 70
     1
 50
0.0
 10
71.00000000000091
 20
2.000000222036987
 11
71.00000000000091
 21
3.500000222036987
290
     0
  0
ACDB_MTEXTATTRIBUTEOBJECTCONTEXTDATA_CLASS
  5
D11
102
{ACAD_REACTORS
330
D10
102
}
330
D10
100
AcDbObjectContextData
 70
     3
290
     1
100
AcDbAnnotScaleObjectContextData
340
43
 70
     1
 50
0.0
 10
88.50000000000092
 20
2.000000222036987
 11
88.50000000000092
 21
3.500000222036987
290
     0
  0
ACDB_MTEXTATTRIBUTEOBJECTCONTEXTDATA_CLASS
  5
D16
102
{ACAD_REACTORS
330
D15
102
}
330
D15
100
AcDbObjectContextData
 70
     3
290
     1
100
AcDbAnnotScaleObjectContextData
340
43
 70
     1
 50
0.0
 10
117.0000000000009
 20
2.000000222036987
 11
117.0000000000009
 21
3.500000222036987
290
     0
  0
ACDB_MTEXTATTRIBUTEOBJECTCONTEXTDATA_CLASS
  5
D1B
102
{ACAD_REACTORS
330
D1A
102
}
330
D1A
100
AcDbObjectContextData
 70
     3
290
     1
100
AcDbAnnotScaleObjectContextData
340
43
 70
     1
 50
0.0
 10
163.0000000000009
 20
2.000000222036987
 11
163.0000000000009
 21
3.500000222036987
290
     0
  0
XRECORD
  5
FCA
102
{ACAD_REACTORS
330
FC9
102
}
330
FC9
100
AcDbXrecord
280
     1
102
SHADEPLOT
 70
     0
102
SHADEPLOTRESLEVEL
 70
     2
102
SHADEPLOTCUSTOMDPI
 70
   300
  0
XRECORD
  5
FC8
102
{ACAD_REACTORS
330
FC7
102
}
330
FC7
100
AcDbXrecord
280
     1
102
SHADEPLOT
 70
     0
102
SHADEPLOTRESLEVEL
 70
     2
102
SHADEPLOTCUSTOMDPI
 70
   300
  0
XRECORD
  5
FCC
102
{ACAD_REACTORS
330
FCB
102
}
330
FCB
100
AcDbXrecord
280
     1
102
SHADEPLOT
 70
     0
102
SHADEPLOTRESLEVEL
 70
     2
102
SHADEPLOTCUSTOMDPI
 70
   300
  0
XRECORD
  5
F3A
102
{ACAD_REACTORS
330
1A
102
}
330
1A
100
AcDbXrecord
280
     1
102
MATERIAL
148
0.0
149
0.0
149
0.0
 93
        0
 94
      127
282
     0
 72
     0
 77
     0
171
     0
175
     0
179
     0
273
     0
  0
XRECORD
  5
1C
102
{ACAD_REACTORS
330
1A
102
}
330
1A
100
AcDbXrecord
280
     1
270
     1
271
     1
  0
XRECORD
  5
1B
102
{ACAD_REACTORS
330
1A
102
}
330
1A
100
AcDbXrecord
280
     1
270
     1
271
     1
  0
XRECORD
  5
1F
102
{ACAD_REACTORS
330
1A
102
}
330
1A
100
AcDbXrecord
280
     1
270
     1
271
     1
  0
XRECORD
  5
1E
102
{ACAD_REACTORS
330
1A
102
}
330
1A
100
AcDbXrecord
280
     1
270
     1
271
     1
  0
XRECORD
  5
20
102
{ACAD_REACTORS
330
1A
102
}
330
1A
100
AcDbXrecord
280
     1
270
     1
271
     1
  0
XRECORD
  5
1D
102
{ACAD_REACTORS
330
1A
102
}
330
1A
100
AcDbXrecord
280
     1
270
     1
271
     1
  0
XRECORD
  5
F39
102
{ACAD_REACTORS
330
12
102
}
330
12
100
AcDbXrecord
280
     1
102
MATERIAL
148
0.0
149
0.0
149
0.0
 93
        0
 94
      127
282
     0
 72
     0
 77
     0
171
     0
175
     0
179
     0
273
     0
  0
XRECORD
  5
14
102
{ACAD_REACTORS
330
12
102
}
330
12
100
AcDbXrecord
280
     1
270
     1
271
     1
  0
XRECORD
  5
13
102
{ACAD_REACTORS
330
12
102
}
330
12
100
AcDbXrecord
280
     1
270
     1
271
     1
  0
XRECORD
  5
17
102
{ACAD_REACTORS
330
12
102
}
330
12
100
AcDbXrecord
280
     1
270
     1
271
     1
  0
XRECORD
  5
16
102
{ACAD_REACTORS
330
12
102
}
330
12
100
AcDbXrecord
280
     1
270
     1
271
     1
  0
XRECORD
  5
18
102
{ACAD_REACTORS
330
12
102
}
330
12
100
AcDbXrecord
280
     1
270
     1
271
     1
  0
XRECORD
  5
15
102
{ACAD_REACTORS
330
12
102
}
330
12
100
AcDbXrecord
280
     1
270
     1
271
     1
  0
XRECORD
  5
F3B
102
{ACAD_REACTORS
330
22
102
}
330
22
100
AcDbXrecord
280
     1
102
MATERIAL
148
0.0
149
0.0
149
0.0
 93
        0
 94
      127
282
     0
 72
     0
 77
     0
171
     0
175
     0
179
     0
273
     0
  0
XRECORD
  5
24
102
{ACAD_REACTORS
330
22
102
}
330
22
100
AcDbXrecord
280
     1
270
     1
271
     1
  0
XRECORD
  5
23
102
{ACAD_REACTORS
330
22
102
}
330
22
100
AcDbXrecord
280
     1
270
     1
271
     1
  0
XRECORD
  5
27
102
{ACAD_REACTORS
330
22
102
}
330
22
100
AcDbXrecord
280
     1
270
     1
271
     1
  0
XRECORD
  5
26
102
{ACAD_REACTORS
330
22
102
}
330
22
100
AcDbXrecord
280
     1
270
     1
271
     1
  0
XRECORD
  5
28
102
{ACAD_REACTORS
330
22
102
}
330
22
100
AcDbXrecord
280
     1
270
     1
271
     1
  0
XRECORD
  5
25
102
{ACAD_REACTORS
330
22
102
}
330
22
100
AcDbXrecord
280
     1
270
     1
271
     1
  0
XRECORD
  5
F91
102
{ACAD_REACTORS
330
F90
102
}
330
F90
100
AcDbXrecord
280
     1
102
ACAD_ROUNDTRIP_2012_MLEADER_STYLE
298
     1
  0
CELLSTYLEMAP
  5
F8F
102
{ACAD_REACTORS
330
F32
102
}
330
F32
100
AcDbCellStyleMap
 90
        3
300
CELLSTYLE
  1
TABLEFORMAT_BEGIN
 90
        5
170
     1
 91
        0
 92
    32768
 62
   257
 93
        1
300
CONTENTFORMAT
  1
CONTENTFORMAT_BEGIN
 90
        0
 91
        0
 92
      512
 93
        0
300

 40
0.0
140
1.0
 94
        5
 62
     0
340
55
144
6.0
309
CONTENTFORMAT_END
171
     1
301
MARGIN
  1
CELLMARGIN_BEGIN
 40
1.5
 40
1.5
 40
1.5
 40
1.5
 40
0.18
 40
0.18
309
CELLMARGIN_END
 94
        6
 95
        1
302
GRIDFORMAT
  1
GRIDFORMAT_BEGIN
 90
        0
 91
        1
 62
     0
 92
       -2
340
0
 93
        0
 40
1.125
309
GRIDFORMAT_END
 95
        2
302
GRIDFORMAT
  1
GRIDFORMAT_BEGIN
 90
        0
 91
        1
 62
     0
 92
       -2
340
0
 93
        0
 40
1.125
309
GRIDFORMAT_END
 95
        4
302
GRIDFORMAT
  1
GRIDFORMAT_BEGIN
 90
        0
 91
        1
 62
     0
 92
       -2
340
0
 93
        0
 40
1.125
309
GRIDFORMAT_END
 95
        8
302
GRIDFORMAT
  1
GRIDFORMAT_BEGIN
 90
        0
 91
        1
 62
     0
 92
       -2
340
0
 93
        0
 40
1.125
309
GRIDFORMAT_END
 95
       16
302
GRIDFORMAT
  1
GRIDFORMAT_BEGIN
 90
        0
 91
        1
 62
     0
 92
       -2
340
0
 93
        0
 40
1.125
309
GRIDFORMAT_END
 95
       32
302
GRIDFORMAT
  1
GRIDFORMAT_BEGIN
 90
        0
 91
        1
 62
     0
 92
       -2
340
0
 93
        0
 40
1.125
309
GRIDFORMAT_END
309
TABLEFORMAT_END
  1
CELLSTYLE_BEGIN
 90
        1
 91
        1
300
_TITLE
309
CELLSTYLE_END
300
CELLSTYLE
  1
TABLEFORMAT_BEGIN
 90
        5
170
     1
 91
        0
 92
        0
 62
   257
 93
        1
300
CONTENTFORMAT
  1
CONTENTFORMAT_BEGIN
 90
        0
 91
        0
 92
      512
 93
        0
300

 40
0.0
140
1.0
 94
        5
 62
     0
340
55
144
4.5
309
CONTENTFORMAT_END
171
     1
301
MARGIN
  1
CELLMARGIN_BEGIN
 40
1.5
 40
1.5
 40
1.5
 40
1.5
 40
0.18
 40
0.18
309
CELLMARGIN_END
 94
        6
 95
        1
302
GRIDFORMAT
  1
GRIDFORMAT_BEGIN
 90
        0
 91
        1
 62
     0
 92
       -2
340
0
 93
        0
 40
1.125
309
GRIDFORMAT_END
 95
        2
302
GRIDFORMAT
  1
GRIDFORMAT_BEGIN
 90
        0
 91
        1
 62
     0
 92
       -2
340
0
 93
        0
 40
1.125
309
GRIDFORMAT_END
 95
        4
302
GRIDFORMAT
  1
GRIDFORMAT_BEGIN
 90
        0
 91
        1
 62
     0
 92
       -2
340
0
 93
        0
 40
1.125
309
GRIDFORMAT_END
 95
        8
302
GRIDFORMAT
  1
GRIDFORMAT_BEGIN
 90
        0
 91
        1
 62
     0
 92
       -2
340
0
 93
        0
 40
1.125
309
GRIDFORMAT_END
 95
       16
302
GRIDFORMAT
  1
GRIDFORMAT_BEGIN
 90
        0
 91
        1
 62
     0
 92
       -2
340
0
 93
        0
 40
1.125
309
GRIDFORMAT_END
 95
       32
302
GRIDFORMAT
  1
GRIDFORMAT_BEGIN
 90
        0
 91
        1
 62
     0
 92
       -2
340
0
 93
        0
 40
1.125
309
GRIDFORMAT_END
309
TABLEFORMAT_END
  1
CELLSTYLE_BEGIN
 90
        2
 91
        1
300
_HEADER
309
CELLSTYLE_END
300
CELLSTYLE
  1
TABLEFORMAT_BEGIN
 90
        5
170
     1
 91
        0
 92
        0
 62
   257
 93
        1
300
CONTENTFORMAT
  1
CONTENTFORMAT_BEGIN
 90
        0
 91
        0
 92
      512
 93
        0
300

 40
0.0
140
1.0
 94
        2
 62
     0
340
55
144
4.5
309
CONTENTFORMAT_END
171
     1
301
MARGIN
  1
CELLMARGIN_BEGIN
 40
1.5
 40
1.5
 40
1.5
 40
1.5
 40
0.18
 40
0.18
309
CELLMARGIN_END
 94
        6
 95
        1
302
GRIDFORMAT
  1
GRIDFORMAT_BEGIN
 90
        0
 91
        1
 62
     0
 92
       -2
340
0
 93
        0
 40
1.125
309
GRIDFORMAT_END
 95
        2
302
GRIDFORMAT
  1
GRIDFORMAT_BEGIN
 90
        0
 91
        1
 62
     0
 92
       -2
340
0
 93
        0
 40
1.125
309
GRIDFORMAT_END
 95
        4
302
GRIDFORMAT
  1
GRIDFORMAT_BEGIN
 90
        0
 91
        1
 62
     0
 92
       -2
340
0
 93
        0
 40
1.125
309
GRIDFORMAT_END
 95
        8
302
GRIDFORMAT
  1
GRIDFORMAT_BEGIN
 90
        0
 91
        1
 62
     0
 92
       -2
340
0
 93
        0
 40
1.125
309
GRIDFORMAT_END
 95
       16
302
GRIDFORMAT
  1
GRIDFORMAT_BEGIN
 90
        0
 91
        1
 62
     0
 92
       -2
340
0
 93
        0
 40
1.125
309
GRIDFORMAT_END
 95
       32
302
GRIDFORMAT
  1
GRIDFORMAT_BEGIN
 90
        0
 91
        1
 62
     0
 92
       -2
340
0
 93
        0
 40
1.125
309
GRIDFORMAT_END
309
TABLEFORMAT_END
  1
CELLSTYLE_BEGIN
 90
        3
 91
        2
300
_DATA
309
CELLSTYLE_END
  0
XRECORD
  5
FC6
102
{ACAD_REACTORS
330
F32
102
}
330
F32
100
AcDbXrecord
280
     1
102
ACAD_ROUNDTRIP_PRE2007_TABLESTYLE
 90
      512
 91
        0
  1

 92
      512
 93
        0
  2

 94
      512
 95
        0
  3

  0
XRECORD
  5
FA1
102
{ACAD_REACTORS
330
FA0
102
}
330
FA0
100
AcDbXrecord
280
     1
102
RTVSPropertyOp0
 70
     1
102
RTVSPropertyOp1
 70
     1
102
RTVSPropertyOp2
 70
     1
102
RTVSPropertyOp3
 70
     1
102
RTVSPropertyOp4
 70
     1
102
RTVSPropertyOp5
 70
     1
102
RTVSPropertyOp6
 70
     1
102
RTVSPropertyOp7
 70
     1
102
RTVSPropertyOp8
 70
     1
102
RTVSPropertyOp9
 70
     1
102
RTVSPropertyOp10
 70
     1
102
RTVSPropertyOp11
 70
     1
102
RTVSPropertyOp12
 70
     1
102
RTVSPropertyOp13
 70
     1
102
RTVSPropertyOp14
 70
     1
102
RTVSPropertyOp15
 70
     1
102
RTVSPropertyOp16
 70
     1
102
RTVSPropertyOp17
 70
     1
102
RTVSPropertyOp18
 70
     1
102
RTVSPropertyOp19
 70
     1
102
RTVSPropertyOp20
 70
     1
102
RTVSPropertyOp21
 70
     1
102
RTVSPropertyOp22
 70
     1
102
RTVSPropertyOp23
 70
     1
102
RTVSPropertyOp24
 70
     1
102
RTVSPropertyOp25
 70
     1
102
RTVSPropertyOp26
 70
     1
102
RTVSPropertyOp27
 70
     1
102
RTVSPropertyOp28
 70
     1
102
RTVSPropertyOp29
 70
     1
102
RTVSPropertyOp30
 70
     1
102
RTVSPropertyOp31
 70
     1
102
RTVSPropertyOp32
 70
     1
  0
XRECORD
  5
F9F
102
{ACAD_REACTORS
330
F9E
102
}
330
F9E
100
AcDbXrecord
280
     1
102
RTVSPropertyOp0
 70
     1
102
RTVSPropertyOp1
 70
     1
102
RTVSPropertyOp2
 70
     1
102
RTVSPropertyOp3
 70
     1
102
RTVSPropertyOp4
 70
     1
102
RTVSPropertyOp5
 70
     1
102
RTVSPropertyOp6
 70
     1
102
RTVSPropertyOp7
 70
     1
102
RTVSPropertyOp8
 70
     1
102
RTVSPropertyOp9
 70
     1
102
RTVSPropertyOp10
 70
     1
102
RTVSPropertyOp11
 70
     1
102
RTVSPropertyOp12
 70
     1
102
RTVSPropertyOp13
 70
     1
102
RTVSPropertyOp14
 70
     1
102
RTVSPropertyOp15
 70
     1
102
RTVSPropertyOp16
 70
     1
102
RTVSPropertyOp17
 70
     1
102
RTVSPropertyOp18
 70
     1
102
RTVSPropertyOp19
 70
     1
102
RTVSPropertyOp20
 70
     1
102
RTVSPropertyOp21
 70
     1
102
RTVSPropertyOp22
 70
     1
102
RTVSPropertyOp23
 70
     1
102
RTVSPropertyOp24
 70
     1
102
RTVSPropertyOp25
 70
     1
102
RTVSPropertyOp26
 70
     1
102
RTVSPropertyOp27
 70
     1
102
RTVSPropertyOp28
 70
     1
102
RTVSPropertyOp29
 70
     1
102
RTVSPropertyOp30
 70
     1
102
RTVSPropertyOp31
 70
     1
102
RTVSPropertyOp32
 70
     1
  0
XRECORD
  5
FAD
102
{ACAD_REACTORS
330
FAC
102
}
330
FAC
100
AcDbXrecord
280
     1
102
RTVSPropertyOp0
 70
     1
102
RTVSPropertyOp1
 70
     1
102
RTVSPropertyOp2
 70
     1
102
RTVSPropertyOp3
 70
     1
102
RTVSPropertyOp4
 70
     1
102
RTVSPropertyOp5
 70
     1
102
RTVSPropertyOp6
 70
     1
102
RTVSPropertyOp7
 70
     1
102
RTVSPropertyOp8
 70
     1
102
RTVSPropertyOp9
 70
     1
102
RTVSPropertyOp10
 70
     1
102
RTVSPropertyOp11
 70
     1
102
RTVSPropertyOp12
 70
     1
102
RTVSPropertyOp13
 70
     1
102
RTVSPropertyOp14
 70
     1
102
RTVSPropertyOp15
 70
     1
102
RTVSPropertyOp16
 70
     1
102
RTVSPropertyOp17
 70
     1
102
RTVSPropertyOp18
 70
     1
102
RTVSPropertyOp19
 70
     1
102
RTVSPropertyOp20
 70
     1
102
RTVSPropertyOp21
 70
     1
102
RTVSPropertyOp22
 70
     1
102
RTVSPropertyOp23
 70
     1
102
RTVSPropertyOp24
 70
     1
102
RTVSPropertyOp25
 70
     1
102
RTVSPropertyOp26
 70
     1
102
RTVSPropertyOp27
 70
     1
102
RTVSPropertyOp28
 70
     1
102
RTVSPropertyOp29
 70
     1
102
RTVSPropertyOp30
 70
     1
102
RTVSPropertyOp31
 70
     1
102
RTVSPropertyOp32
 70
     1
  0
XRECORD
  5
FB5
102
{ACAD_REACTORS
330
FB4
102
}
330
FB4
100
AcDbXrecord
280
     1
102
RTVSPropertyOp0
 70
     1
102
RTVSPropertyOp1
 70
     1
102
RTVSPropertyOp2
 70
     1
102
RTVSPropertyOp3
 70
     1
102
RTVSPropertyOp4
 70
     1
102
RTVSPropertyOp5
 70
     1
102
RTVSPropertyOp6
 70
     1
102
RTVSPropertyOp7
 70
     1
102
RTVSPropertyOp8
 70
     1
102
RTVSPropertyOp9
 70
     1
102
RTVSPropertyOp10
 70
     1
102
RTVSPropertyOp11
 70
     1
102
RTVSPropertyOp12
 70
     1
102
RTVSPropertyOp13
 70
     1
102
RTVSPropertyOp14
 70
     1
102
RTVSPropertyOp15
 70
     1
102
RTVSPropertyOp16
 70
     1
102
RTVSPropertyOp17
 70
     1
102
RTVSPropertyOp18
 70
     1
102
RTVSPropertyOp19
 70
     1
102
RTVSPropertyOp20
 70
     1
102
RTVSPropertyOp21
 70
     1
102
RTVSPropertyOp22
 70
     1
102
RTVSPropertyOp23
 70
     1
102
RTVSPropertyOp24
 70
     1
102
RTVSPropertyOp25
 70
     1
102
RTVSPropertyOp26
 70
     1
102
RTVSPropertyOp27
 70
     1
102
RTVSPropertyOp28
 70
     1
102
RTVSPropertyOp29
 70
     1
102
RTVSPropertyOp30
 70
     1
102
RTVSPropertyOp31
 70
     1
102
RTVSPropertyOp32
 70
     1
  0
XRECORD
  5
FA7
102
{ACAD_REACTORS
330
FA6
102
}
330
FA6
100
AcDbXrecord
280
     1
102
RTVSPropertyOp0
 70
     1
102
RTVSPropertyOp1
 70
     1
102
RTVSPropertyOp2
 70
     1
102
RTVSPropertyOp3
 70
     1
102
RTVSPropertyOp4
 70
     1
102
RTVSPropertyOp5
 70
     1
102
RTVSPropertyOp6
 70
     1
102
RTVSPropertyOp7
 70
     1
102
RTVSPropertyOp8
 70
     1
102
RTVSPropertyOp9
 70
     1
102
RTVSPropertyOp10
 70
     1
102
RTVSPropertyOp11
 70
     1
102
RTVSPropertyOp12
 70
     1
102
RTVSPropertyOp13
 70
     1
102
RTVSPropertyOp14
 70
     1
102
RTVSPropertyOp15
 70
     1
102
RTVSPropertyOp16
 70
     1
102
RTVSPropertyOp17
 70
     1
102
RTVSPropertyOp18
 70
     1
102
RTVSPropertyOp19
 70
     1
102
RTVSPropertyOp20
 70
     1
102
RTVSPropertyOp21
 70
     1
102
RTVSPropertyOp22
 70
     1
102
RTVSPropertyOp23
 70
     1
102
RTVSPropertyOp24
 70
     1
102
RTVSPropertyOp25
 70
     1
102
RTVSPropertyOp26
 70
     1
102
RTVSPropertyOp27
 70
     1
102
RTVSPropertyOp28
 70
     1
102
RTVSPropertyOp29
 70
     1
102
RTVSPropertyOp30
 70
     1
102
RTVSPropertyOp31
 70
     1
102
RTVSPropertyOp32
 70
     1
  0
XRECORD
  5
FAB
102
{ACAD_REACTORS
330
FAA
102
}
330
FAA
100
AcDbXrecord
280
     1
102
RTVSPropertyOp0
 70
     1
102
RTVSPropertyOp1
 70
     1
102
RTVSPropertyOp2
 70
     1
102
RTVSPropertyOp3
 70
     1
102
RTVSPropertyOp4
 70
     1
102
RTVSPropertyOp5
 70
     1
102
RTVSPropertyOp6
 70
     1
102
RTVSPropertyOp7
 70
     1
102
RTVSPropertyOp8
 70
     1
102
RTVSPropertyOp9
 70
     1
102
RTVSPropertyOp10
 70
     1
102
RTVSPropertyOp11
 70
     1
102
RTVSPropertyOp12
 70
     1
102
RTVSPropertyOp13
 70
     1
102
RTVSPropertyOp14
 70
     1
102
RTVSPropertyOp15
 70
     1
102
RTVSPropertyOp16
 70
     1
102
RTVSPropertyOp17
 70
     1
102
RTVSPropertyOp18
 70
     1
102
RTVSPropertyOp19
 70
     1
102
RTVSPropertyOp20
 70
     1
102
RTVSPropertyOp21
 70
     1
102
RTVSPropertyOp22
 70
     1
102
RTVSPropertyOp23
 70
     1
102
RTVSPropertyOp24
 70
     1
102
RTVSPropertyOp25
 70
     1
102
RTVSPropertyOp26
 70
     1
102
RTVSPropertyOp27
 70
     1
102
RTVSPropertyOp28
 70
     1
102
RTVSPropertyOp29
 70
     1
102
RTVSPropertyOp30
 70
     1
102
RTVSPropertyOp31
 70
     1
102
RTVSPropertyOp32
 70
     1
  0
XRECORD
  5
FC5
102
{ACAD_REACTORS
330
FC4
102
}
330
FC4
100
AcDbXrecord
280
     1
102
RTVSPropertyOp0
 70
     0
102
RTVSPropertyOp1
 70
     0
102
RTVSPropertyOp2
 70
     0
102
RTVSPropertyOp3
 70
     0
102
RTVSPropertyOp4
 70
     0
102
RTVSPropertyOp5
 70
     0
102
RTVSPropertyOp6
 70
     0
102
RTVSPropertyOp7
 70
     0
102
RTVSPropertyOp8
 70
     0
102
RTVSPropertyOp9
 70
     0
102
RTVSPropertyOp10
 70
     0
102
RTVSPropertyOp11
 70
     0
102
RTVSPropertyOp12
 70
     0
102
RTVSPropertyOp13
 70
     0
102
RTVSPropertyOp14
 70
     2
102
RTVSPropertyOp15
 70
     0
102
RTVSPropertyOp16
 70
     0
102
RTVSPropertyOp17
 70
     0
102
RTVSPropertyOp18
 70
     0
102
RTVSPropertyOp19
 70
     0
102
RTVSPropertyOp20
 70
     0
102
RTVSPropertyOp21
 70
     0
102
RTVSPropertyOp22
 70
     0
102
RTVSPropertyOp23
 70
     0
102
RTVSPropertyOp24
 70
     0
102
RTVSPropertyOp25
 70
     0
102
RTVSPropertyOp26
 70
     0
102
RTVSPropertyOp27
 70
     0
102
RTVSPropertyOp28
 70
     1
102
RTVSPropertyOp29
 70
     1
102
RTVSPropertyOp30
 70
     1
102
RTVSPropertyOp31
 70
     1
102
RTVSPropertyOp32
 70
     1
  0
XRECORD
  5
FB3
102
{ACAD_REACTORS
330
FB2
102
}
330
FB2
100
AcDbXrecord
280
     1
102
RTVSPropertyOp0
 70
     1
102
RTVSPropertyOp1
 70
     1
102
RTVSPropertyOp2
 70
     1
102
RTVSPropertyOp3
 70
     1
102
RTVSPropertyOp4
 70
     1
102
RTVSPropertyOp5
 70
     1
102
RTVSPropertyOp6
 70
     1
102
RTVSPropertyOp7
 70
     1
102
RTVSPropertyOp8
 70
     1
102
RTVSPropertyOp9
 70
     1
102
RTVSPropertyOp10
 70
     1
102
RTVSPropertyOp11
 70
     1
102
RTVSPropertyOp12
 70
     1
102
RTVSPropertyOp13
 70
     1
102
RTVSPropertyOp14
 70
     1
102
RTVSPropertyOp15
 70
     1
102
RTVSPropertyOp16
 70
     1
102
RTVSPropertyOp17
 70
     1
102
RTVSPropertyOp18
 70
     1
102
RTVSPropertyOp19
 70
     1
102
RTVSPropertyOp20
 70
     1
102
RTVSPropertyOp21
 70
     1
102
RTVSPropertyOp22
 70
     1
102
RTVSPropertyOp23
 70
     1
102
RTVSPropertyOp24
 70
     1
102
RTVSPropertyOp25
 70
     1
102
RTVSPropertyOp26
 70
     1
102
RTVSPropertyOp27
 70
     1
102
RTVSPropertyOp28
 70
     1
102
RTVSPropertyOp29
 70
     1
102
RTVSPropertyOp30
 70
     1
102
RTVSPropertyOp31
 70
     1
102
RTVSPropertyOp32
 70
     1
  0
XRECORD
  5
F97
102
{ACAD_REACTORS
330
F96
102
}
330
F96
100
AcDbXrecord
280
     1
102
RTVSPropertyOp0
 70
     1
102
RTVSPropertyOp1
 70
     1
102
RTVSPropertyOp2
 70
     1
102
RTVSPropertyOp3
 70
     1
102
RTVSPropertyOp4
 70
     1
102
RTVSPropertyOp5
 70
     1
102
RTVSPropertyOp6
 70
     1
102
RTVSPropertyOp7
 70
     1
102
RTVSPropertyOp8
 70
     1
102
RTVSPropertyOp9
 70
     1
102
RTVSPropertyOp10
 70
     1
102
RTVSPropertyOp11
 70
     1
102
RTVSPropertyOp12
 70
     1
102
RTVSPropertyOp13
 70
     1
102
RTVSPropertyOp14
 70
     1
102
RTVSPropertyOp15
 70
     1
102
RTVSPropertyOp16
 70
     1
102
RTVSPropertyOp17
 70
     1
102
RTVSPropertyOp18
 70
     1
102
RTVSPropertyOp19
 70
     1
102
RTVSPropertyOp20
 70
     1
102
RTVSPropertyOp21
 70
     1
102
RTVSPropertyOp22
 70
     1
102
RTVSPropertyOp23
 70
     1
102
RTVSPropertyOp24
 70
     1
102
RTVSPropertyOp25
 70
     1
102
RTVSPropertyOp26
 70
     1
102
RTVSPropertyOp27
 70
     1
102
RTVSPropertyOp28
 70
     1
102
RTVSPropertyOp29
 70
     1
102
RTVSPropertyOp30
 70
     1
102
RTVSPropertyOp31
 70
     1
102
RTVSPropertyOp32
 70
     1
  0
XRECORD
  5
F99
102
{ACAD_REACTORS
330
F98
102
}
330
F98
100
AcDbXrecord
280
     1
102
RTVSPropertyOp0
 70
     1
102
RTVSPropertyOp1
 70
     1
102
RTVSPropertyOp2
 70
     1
102
RTVSPropertyOp3
 70
     1
102
RTVSPropertyOp4
 70
     1
102
RTVSPropertyOp5
 70
     1
102
RTVSPropertyOp6
 70
     1
102
RTVSPropertyOp7
 70
     1
102
RTVSPropertyOp8
 70
     1
102
RTVSPropertyOp9
 70
     1
102
RTVSPropertyOp10
 70
     1
102
RTVSPropertyOp11
 70
     1
102
RTVSPropertyOp12
 70
     1
102
RTVSPropertyOp13
 70
     1
102
RTVSPropertyOp14
 70
     1
102
RTVSPropertyOp15
 70
     1
102
RTVSPropertyOp16
 70
     1
102
RTVSPropertyOp17
 70
     1
102
RTVSPropertyOp18
 70
     1
102
RTVSPropertyOp19
 70
     1
102
RTVSPropertyOp20
 70
     1
102
RTVSPropertyOp21
 70
     1
102
RTVSPropertyOp22
 70
     1
102
RTVSPropertyOp23
 70
     1
102
RTVSPropertyOp24
 70
     1
102
RTVSPropertyOp25
 70
     1
102
RTVSPropertyOp26
 70
     1
102
RTVSPropertyOp27
 70
     1
102
RTVSPropertyOp28
 70
     1
102
RTVSPropertyOp29
 70
     1
102
RTVSPropertyOp30
 70
     1
102
RTVSPropertyOp31
 70
     1
102
RTVSPropertyOp32
 70
     1
  0
XRECORD
  5
F9B
102
{ACAD_REACTORS
330
F9A
102
}
330
F9A
100
AcDbXrecord
280
     1
102
RTVSPropertyOp0
 70
     1
102
RTVSPropertyOp1
 70
     1
102
RTVSPropertyOp2
 70
     1
102
RTVSPropertyOp3
 70
     1
102
RTVSPropertyOp4
 70
     1
102
RTVSPropertyOp5
 70
     1
102
RTVSPropertyOp6
 70
     1
102
RTVSPropertyOp7
 70
     1
102
RTVSPropertyOp8
 70
     1
102
RTVSPropertyOp9
 70
     1
102
RTVSPropertyOp10
 70
     1
102
RTVSPropertyOp11
 70
     1
102
RTVSPropertyOp12
 70
     1
102
RTVSPropertyOp13
 70
     1
102
RTVSPropertyOp14
 70
     1
102
RTVSPropertyOp15
 70
     1
102
RTVSPropertyOp16
 70
     1
102
RTVSPropertyOp17
 70
     1
102
RTVSPropertyOp18
 70
     1
102
RTVSPropertyOp19
 70
     1
102
RTVSPropertyOp20
 70
     1
102
RTVSPropertyOp21
 70
     1
102
RTVSPropertyOp22
 70
     1
102
RTVSPropertyOp23
 70
     1
102
RTVSPropertyOp24
 70
     1
102
RTVSPropertyOp25
 70
     1
102
RTVSPropertyOp26
 70
     1
102
RTVSPropertyOp27
 70
     1
102
RTVSPropertyOp28
 70
     1
102
RTVSPropertyOp29
 70
     1
102
RTVSPropertyOp30
 70
     1
102
RTVSPropertyOp31
 70
     1
102
RTVSPropertyOp32
 70
     1
  0
XRECORD
  5
F9D
102
{ACAD_REACTORS
330
F9C
102
}
330
F9C
100
AcDbXrecord
280
     1
102
RTVSPropertyOp0
 70
     1
102
RTVSPropertyOp1
 70
     1
102
RTVSPropertyOp2
 70
     1
102
RTVSPropertyOp3
 70
     1
102
RTVSPropertyOp4
 70
     1
102
RTVSPropertyOp5
 70
     1
102
RTVSPropertyOp6
 70
     1
102
RTVSPropertyOp7
 70
     1
102
RTVSPropertyOp8
 70
     1
102
RTVSPropertyOp9
 70
     1
102
RTVSPropertyOp10
 70
     1
102
RTVSPropertyOp11
 70
     1
102
RTVSPropertyOp12
 70
     1
102
RTVSPropertyOp13
 70
     1
102
RTVSPropertyOp14
 70
     1
102
RTVSPropertyOp15
 70
     1
102
RTVSPropertyOp16
 70
     1
102
RTVSPropertyOp17
 70
     1
102
RTVSPropertyOp18
 70
     1
102
RTVSPropertyOp19
 70
     1
102
RTVSPropertyOp20
 70
     1
102
RTVSPropertyOp21
 70
     1
102
RTVSPropertyOp22
 70
     1
102
RTVSPropertyOp23
 70
     1
102
RTVSPropertyOp24
 70
     1
102
RTVSPropertyOp25
 70
     1
102
RTVSPropertyOp26
 70
     1
102
RTVSPropertyOp27
 70
     1
102
RTVSPropertyOp28
 70
     1
102
RTVSPropertyOp29
 70
     1
102
RTVSPropertyOp30
 70
     1
102
RTVSPropertyOp31
 70
     1
102
RTVSPropertyOp32
 70
     1
  0
XRECORD
  5
FA5
102
{ACAD_REACTORS
330
FA4
102
}
330
FA4
100
AcDbXrecord
280
     1
102
RTVSPropertyOp0
 70
     1
102
RTVSPropertyOp1
 70
     1
102
RTVSPropertyOp2
 70
     1
102
RTVSPropertyOp3
 70
     1
102
RTVSPropertyOp4
 70
     1
102
RTVSPropertyOp5
 70
     1
102
RTVSPropertyOp6
 70
     1
102
RTVSPropertyOp7
 70
     1
102
RTVSPropertyOp8
 70
     1
102
RTVSPropertyOp9
 70
     1
102
RTVSPropertyOp10
 70
     1
102
RTVSPropertyOp11
 70
     1
102
RTVSPropertyOp12
 70
     1
102
RTVSPropertyOp13
 70
     1
102
RTVSPropertyOp14
 70
     1
102
RTVSPropertyOp15
 70
     1
102
RTVSPropertyOp16
 70
     1
102
RTVSPropertyOp17
 70
     1
102
RTVSPropertyOp18
 70
     1
102
RTVSPropertyOp19
 70
     1
102
RTVSPropertyOp20
 70
     1
102
RTVSPropertyOp21
 70
     1
102
RTVSPropertyOp22
 70
     1
102
RTVSPropertyOp23
 70
     1
102
RTVSPropertyOp24
 70
     1
102
RTVSPropertyOp25
 70
     1
102
RTVSPropertyOp26
 70
     1
102
RTVSPropertyOp27
 70
     1
102
RTVSPropertyOp28
 70
     1
102
RTVSPropertyOp29
 70
     1
102
RTVSPropertyOp30
 70
     1
102
RTVSPropertyOp31
 70
     1
102
RTVSPropertyOp32
 70
     1
  0
XRECORD
  5
FC1
102
{ACAD_REACTORS
330
FC0
102
}
330
FC0
100
AcDbXrecord
280
     1
102
RTVSPropertyOp0
 70
     0
102
RTVSPropertyOp1
 70
     0
102
RTVSPropertyOp2
 70
     0
102
RTVSPropertyOp3
 70
     0
102
RTVSPropertyOp4
 70
     0
102
RTVSPropertyOp5
 70
     0
102
RTVSPropertyOp6
 70
     0
102
RTVSPropertyOp7
 70
     0
102
RTVSPropertyOp8
 70
     0
102
RTVSPropertyOp9
 70
     0
102
RTVSPropertyOp10
 70
     0
102
RTVSPropertyOp11
 70
     0
102
RTVSPropertyOp12
 70
     0
102
RTVSPropertyOp13
 70
     0
102
RTVSPropertyOp14
 70
     2
102
RTVSPropertyOp15
 70
     0
102
RTVSPropertyOp16
 70
     0
102
RTVSPropertyOp17
 70
     0
102
RTVSPropertyOp18
 70
     0
102
RTVSPropertyOp19
 70
     0
102
RTVSPropertyOp20
 70
     0
102
RTVSPropertyOp21
 70
     0
102
RTVSPropertyOp22
 70
     0
102
RTVSPropertyOp23
 70
     0
102
RTVSPropertyOp24
 70
     0
102
RTVSPropertyOp25
 70
     0
102
RTVSPropertyOp26
 70
     0
102
RTVSPropertyOp27
 70
     0
102
RTVSPropertyOp28
 70
     1
102
RTVSPropertyOp29
 70
     1
102
RTVSPropertyOp30
 70
     1
102
RTVSPropertyOp31
 70
     1
102
RTVSPropertyOp32
 70
     1
  0
XRECORD
  5
FB1
102
{ACAD_REACTORS
330
FB0
102
}
330
FB0
100
AcDbXrecord
280
     1
102
RTVSPropertyOp0
 70
     1
102
RTVSPropertyOp1
 70
     1
102
RTVSPropertyOp2
 70
     1
102
RTVSPropertyOp3
 70
     1
102
RTVSPropertyOp4
 70
     1
102
RTVSPropertyOp5
 70
     1
102
RTVSPropertyOp6
 70
     1
102
RTVSPropertyOp7
 70
     1
102
RTVSPropertyOp8
 70
     1
102
RTVSPropertyOp9
 70
     1
102
RTVSPropertyOp10
 70
     1
102
RTVSPropertyOp11
 70
     1
102
RTVSPropertyOp12
 70
     1
102
RTVSPropertyOp13
 70
     1
102
RTVSPropertyOp14
 70
     1
102
RTVSPropertyOp15
 70
     1
102
RTVSPropertyOp16
 70
     1
102
RTVSPropertyOp17
 70
     1
102
RTVSPropertyOp18
 70
     1
102
RTVSPropertyOp19
 70
     1
102
RTVSPropertyOp20
 70
     1
102
RTVSPropertyOp21
 70
     1
102
RTVSPropertyOp22
 70
     1
102
RTVSPropertyOp23
 70
     1
102
RTVSPropertyOp24
 70
     1
102
RTVSPropertyOp25
 70
     1
102
RTVSPropertyOp26
 70
     1
102
RTVSPropertyOp27
 70
     1
102
RTVSPropertyOp28
 70
     1
102
RTVSPropertyOp29
 70
     1
102
RTVSPropertyOp30
 70
     1
102
RTVSPropertyOp31
 70
     1
102
RTVSPropertyOp32
 70
     1
  0
XRECORD
  5
FC3
102
{ACAD_REACTORS
330
FC2
102
}
330
FC2
100
AcDbXrecord
280
     1
102
RTVSPropertyOp0
 70
     0
102
RTVSPropertyOp1
 70
     0
102
RTVSPropertyOp2
 70
     0
102
RTVSPropertyOp3
 70
     0
102
RTVSPropertyOp4
 70
     0
102
RTVSPropertyOp5
 70
     0
102
RTVSPropertyOp6
 70
     0
102
RTVSPropertyOp7
 70
     0
102
RTVSPropertyOp8
 70
     0
102
RTVSPropertyOp9
 70
     0
102
RTVSPropertyOp10
 70
     0
102
RTVSPropertyOp11
 70
     0
102
RTVSPropertyOp12
 70
     0
102
RTVSPropertyOp13
 70
     0
102
RTVSPropertyOp14
 70
     2
102
RTVSPropertyOp15
 70
     0
102
RTVSPropertyOp16
 70
     0
102
RTVSPropertyOp17
 70
     0
102
RTVSPropertyOp18
 70
     0
102
RTVSPropertyOp19
 70
     0
102
RTVSPropertyOp20
 70
     0
102
RTVSPropertyOp21
 70
     0
102
RTVSPropertyOp22
 70
     0
102
RTVSPropertyOp23
 70
     0
102
RTVSPropertyOp24
 70
     0
102
RTVSPropertyOp25
 70
     0
102
RTVSPropertyOp26
 70
     0
102
RTVSPropertyOp27
 70
     0
102
RTVSPropertyOp28
 70
     1
102
RTVSPropertyOp29
 70
     1
102
RTVSPropertyOp30
 70
     1
102
RTVSPropertyOp31
 70
     1
102
RTVSPropertyOp32
 70
     1
  0
XRECORD
  5
FA9
102
{ACAD_REACTORS
330
FA8
102
}
330
FA8
100
AcDbXrecord
280
     1
102
RTVSPropertyOp0
 70
     1
102
RTVSPropertyOp1
 70
     1
102
RTVSPropertyOp2
 70
     1
102
RTVSPropertyOp3
 70
     1
102
RTVSPropertyOp4
 70
     1
102
RTVSPropertyOp5
 70
     1
102
RTVSPropertyOp6
 70
     1
102
RTVSPropertyOp7
 70
     1
102
RTVSPropertyOp8
 70
     1
102
RTVSPropertyOp9
 70
     1
102
RTVSPropertyOp10
 70
     1
102
RTVSPropertyOp11
 70
     1
102
RTVSPropertyOp12
 70
     1
102
RTVSPropertyOp13
 70
     1
102
RTVSPropertyOp14
 70
     1
102
RTVSPropertyOp15
 70
     1
102
RTVSPropertyOp16
 70
     1
102
RTVSPropertyOp17
 70
     1
102
RTVSPropertyOp18
 70
     1
102
RTVSPropertyOp19
 70
     1
102
RTVSPropertyOp20
 70
     1
102
RTVSPropertyOp21
 70
     1
102
RTVSPropertyOp22
 70
     1
102
RTVSPropertyOp23
 70
     1
102
RTVSPropertyOp24
 70
     1
102
RTVSPropertyOp25
 70
     1
102
RTVSPropertyOp26
 70
     1
102
RTVSPropertyOp27
 70
     1
102
RTVSPropertyOp28
 70
     1
102
RTVSPropertyOp29
 70
     1
102
RTVSPropertyOp30
 70
     1
102
RTVSPropertyOp31
 70
     1
102
RTVSPropertyOp32
 70
     1
  0
XRECORD
  5
FBF
102
{ACAD_REACTORS
330
FBE
102
}
330
FBE
100
AcDbXrecord
280
     1
102
RTVSPropertyOp0
 70
     1
102
RTVSPropertyOp1
 70
     1
102
RTVSPropertyOp2
 70
     1
102
RTVSPropertyOp3
 70
     1
102
RTVSPropertyOp4
 70
     1
102
RTVSPropertyOp5
 70
     1
102
RTVSPropertyOp6
 70
     1
102
RTVSPropertyOp7
 70
     1
102
RTVSPropertyOp8
 70
     1
102
RTVSPropertyOp9
 70
     1
102
RTVSPropertyOp10
 70
     1
102
RTVSPropertyOp11
 70
     1
102
RTVSPropertyOp12
 70
     1
102
RTVSPropertyOp13
 70
     1
102
RTVSPropertyOp14
 70
     1
102
RTVSPropertyOp15
 70
     1
102
RTVSPropertyOp16
 70
     1
102
RTVSPropertyOp17
 70
     1
102
RTVSPropertyOp18
 70
     1
102
RTVSPropertyOp19
 70
     1
102
RTVSPropertyOp20
 70
     1
102
RTVSPropertyOp21
 70
     1
102
RTVSPropertyOp22
 70
     1
102
RTVSPropertyOp23
 70
     1
102
RTVSPropertyOp24
 70
     1
102
RTVSPropertyOp25
 70
     1
102
RTVSPropertyOp26
 70
     1
102
RTVSPropertyOp27
 70
     1
102
RTVSPropertyOp28
 70
     1
102
RTVSPropertyOp29
 70
     1
102
RTVSPropertyOp30
 70
     1
102
RTVSPropertyOp31
 70
     1
102
RTVSPropertyOp32
 70
     1
  0
XRECORD
  5
FBD
102
{ACAD_REACTORS
330
FBC
102
}
330
FBC
100
AcDbXrecord
280
     1
102
RTVSPropertyOp0
 70
     1
102
RTVSPropertyOp1
 70
     1
102
RTVSPropertyOp2
 70
     1
102
RTVSPropertyOp3
 70
     1
102
RTVSPropertyOp4
 70
     1
102
RTVSPropertyOp5
 70
     1
102
RTVSPropertyOp6
 70
     1
102
RTVSPropertyOp7
 70
     1
102
RTVSPropertyOp8
 70
     1
102
RTVSPropertyOp9
 70
     1
102
RTVSPropertyOp10
 70
     1
102
RTVSPropertyOp11
 70
     1
102
RTVSPropertyOp12
 70
     1
102
RTVSPropertyOp13
 70
     1
102
RTVSPropertyOp14
 70
     1
102
RTVSPropertyOp15
 70
     1
102
RTVSPropertyOp16
 70
     1
102
RTVSPropertyOp17
 70
     1
102
RTVSPropertyOp18
 70
     1
102
RTVSPropertyOp19
 70
     1
102
RTVSPropertyOp20
 70
     1
102
RTVSPropertyOp21
 70
     1
102
RTVSPropertyOp22
 70
     1
102
RTVSPropertyOp23
 70
     1
102
RTVSPropertyOp24
 70
     1
102
RTVSPropertyOp25
 70
     1
102
RTVSPropertyOp26
 70
     1
102
RTVSPropertyOp27
 70
     1
102
RTVSPropertyOp28
 70
     1
102
RTVSPropertyOp29
 70
     1
102
RTVSPropertyOp30
 70
     1
102
RTVSPropertyOp31
 70
     1
102
RTVSPropertyOp32
 70
     1
  0
XRECORD
  5
FB7
102
{ACAD_REACTORS
330
FB6
102
}
330
FB6
100
AcDbXrecord
280
     1
102
RTVSPropertyOp0
 70
     1
102
RTVSPropertyOp1
 70
     1
102
RTVSPropertyOp2
 70
     1
102
RTVSPropertyOp3
 70
     1
102
RTVSPropertyOp4
 70
     1
102
RTVSPropertyOp5
 70
     1
102
RTVSPropertyOp6
 70
     1
102
RTVSPropertyOp7
 70
     1
102
RTVSPropertyOp8
 70
     1
102
RTVSPropertyOp9
 70
     1
102
RTVSPropertyOp10
 70
     1
102
RTVSPropertyOp11
 70
     1
102
RTVSPropertyOp12
 70
     1
102
RTVSPropertyOp13
 70
     1
102
RTVSPropertyOp14
 70
     1
102
RTVSPropertyOp15
 70
     1
102
RTVSPropertyOp16
 70
     1
102
RTVSPropertyOp17
 70
     1
102
RTVSPropertyOp18
 70
     1
102
RTVSPropertyOp19
 70
     1
102
RTVSPropertyOp20
 70
     1
102
RTVSPropertyOp21
 70
     1
102
RTVSPropertyOp22
 70
     1
102
RTVSPropertyOp23
 70
     1
102
RTVSPropertyOp24
 70
     1
102
RTVSPropertyOp25
 70
     1
102
RTVSPropertyOp26
 70
     1
102
RTVSPropertyOp27
 70
     1
102
RTVSPropertyOp28
 70
     1
102
RTVSPropertyOp29
 70
     1
102
RTVSPropertyOp30
 70
     1
102
RTVSPropertyOp31
 70
     1
102
RTVSPropertyOp32
 70
     1
  0
XRECORD
  5
FB9
102
{ACAD_REACTORS
330
FB8
102
}
330
FB8
100
AcDbXrecord
280
     1
102
RTVSPropertyOp0
 70
     1
102
RTVSPropertyOp1
 70
     1
102
RTVSPropertyOp2
 70
     1
102
RTVSPropertyOp3
 70
     1
102
RTVSPropertyOp4
 70
     1
102
RTVSPropertyOp5
 70
     1
102
RTVSPropertyOp6
 70
     1
102
RTVSPropertyOp7
 70
     1
102
RTVSPropertyOp8
 70
     1
102
RTVSPropertyOp9
 70
     1
102
RTVSPropertyOp10
 70
     1
102
RTVSPropertyOp11
 70
     1
102
RTVSPropertyOp12
 70
     1
102
RTVSPropertyOp13
 70
     1
102
RTVSPropertyOp14
 70
     1
102
RTVSPropertyOp15
 70
     1
102
RTVSPropertyOp16
 70
     1
102
RTVSPropertyOp17
 70
     1
102
RTVSPropertyOp18
 70
     1
102
RTVSPropertyOp19
 70
     1
102
RTVSPropertyOp20
 70
     1
102
RTVSPropertyOp21
 70
     1
102
RTVSPropertyOp22
 70
     1
102
RTVSPropertyOp23
 70
     1
102
RTVSPropertyOp24
 70
     1
102
RTVSPropertyOp25
 70
     1
102
RTVSPropertyOp26
 70
     1
102
RTVSPropertyOp27
 70
     1
102
RTVSPropertyOp28
 70
     1
102
RTVSPropertyOp29
 70
     1
102
RTVSPropertyOp30
 70
     1
102
RTVSPropertyOp31
 70
     1
102
RTVSPropertyOp32
 70
     1
  0
XRECORD
  5
FAF
102
{ACAD_REACTORS
330
FAE
102
}
330
FAE
100
AcDbXrecord
280
     1
102
RTVSPropertyOp0
 70
     1
102
RTVSPropertyOp1
 70
     1
102
RTVSPropertyOp2
 70
     1
102
RTVSPropertyOp3
 70
     1
102
RTVSPropertyOp4
 70
     1
102
RTVSPropertyOp5
 70
     1
102
RTVSPropertyOp6
 70
     1
102
RTVSPropertyOp7
 70
     1
102
RTVSPropertyOp8
 70
     1
102
RTVSPropertyOp9
 70
     1
102
RTVSPropertyOp10
 70
     1
102
RTVSPropertyOp11
 70
     1
102
RTVSPropertyOp12
 70
     1
102
RTVSPropertyOp13
 70
     1
102
RTVSPropertyOp14
 70
     1
102
RTVSPropertyOp15
 70
     1
102
RTVSPropertyOp16
 70
     1
102
RTVSPropertyOp17
 70
     1
102
RTVSPropertyOp18
 70
     1
102
RTVSPropertyOp19
 70
     1
102
RTVSPropertyOp20
 70
     1
102
RTVSPropertyOp21
 70
     1
102
RTVSPropertyOp22
 70
     1
102
RTVSPropertyOp23
 70
     1
102
RTVSPropertyOp24
 70
     1
102
RTVSPropertyOp25
 70
     1
102
RTVSPropertyOp26
 70
     1
102
RTVSPropertyOp27
 70
     1
102
RTVSPropertyOp28
 70
     1
102
RTVSPropertyOp29
 70
     1
102
RTVSPropertyOp30
 70
     1
102
RTVSPropertyOp31
 70
     1
102
RTVSPropertyOp32
 70
     1
  0
XRECORD
  5
FA3
102
{ACAD_REACTORS
330
FA2
102
}
330
FA2
100
AcDbXrecord
280
     1
102
RTVSPropertyOp0
 70
     1
102
RTVSPropertyOp1
 70
     1
102
RTVSPropertyOp2
 70
     1
102
RTVSPropertyOp3
 70
     1
102
RTVSPropertyOp4
 70
     1
102
RTVSPropertyOp5
 70
     1
102
RTVSPropertyOp6
 70
     1
102
RTVSPropertyOp7
 70
     1
102
RTVSPropertyOp8
 70
     1
102
RTVSPropertyOp9
 70
     1
102
RTVSPropertyOp10
 70
     1
102
RTVSPropertyOp11
 70
     1
102
RTVSPropertyOp12
 70
     1
102
RTVSPropertyOp13
 70
     1
102
RTVSPropertyOp14
 70
     1
102
RTVSPropertyOp15
 70
     1
102
RTVSPropertyOp16
 70
     1
102
RTVSPropertyOp17
 70
     1
102
RTVSPropertyOp18
 70
     1
102
RTVSPropertyOp19
 70
     1
102
RTVSPropertyOp20
 70
     1
102
RTVSPropertyOp21
 70
     1
102
RTVSPropertyOp22
 70
     1
102
RTVSPropertyOp23
 70
     1
102
RTVSPropertyOp24
 70
     1
102
RTVSPropertyOp25
 70
     1
102
RTVSPropertyOp26
 70
     1
102
RTVSPropertyOp27
 70
     1
102
RTVSPropertyOp28
 70
     1
102
RTVSPropertyOp29
 70
     1
102
RTVSPropertyOp30
 70
     1
102
RTVSPropertyOp31
 70
     1
102
RTVSPropertyOp32
 70
     1
  0
XRECORD
  5
FBB
102
{ACAD_REACTORS
330
FBA
102
}
330
FBA
100
AcDbXrecord
280
     1
102
RTVSPropertyOp0
 70
     1
102
RTVSPropertyOp1
 70
     1
102
RTVSPropertyOp2
 70
     1
102
RTVSPropertyOp3
 70
     1
102
RTVSPropertyOp4
 70
     1
102
RTVSPropertyOp5
 70
     1
102
RTVSPropertyOp6
 70
     1
102
RTVSPropertyOp7
 70
     1
102
RTVSPropertyOp8
 70
     1
102
RTVSPropertyOp9
 70
     1
102
RTVSPropertyOp10
 70
     1
102
RTVSPropertyOp11
 70
     1
102
RTVSPropertyOp12
 70
     1
102
RTVSPropertyOp13
 70
     1
102
RTVSPropertyOp14
 70
     1
102
RTVSPropertyOp15
 70
     1
102
RTVSPropertyOp16
 70
     1
102
RTVSPropertyOp17
 70
     1
102
RTVSPropertyOp18
 70
     1
102
RTVSPropertyOp19
 70
     1
102
RTVSPropertyOp20
 70
     1
102
RTVSPropertyOp21
 70
     1
102
RTVSPropertyOp22
 70
     1
102
RTVSPropertyOp23
 70
     1
102
RTVSPropertyOp24
 70
     1
102
RTVSPropertyOp25
 70
     1
102
RTVSPropertyOp26
 70
     1
102
RTVSPropertyOp27
 70
     1
102
RTVSPropertyOp28
 70
     1
102
RTVSPropertyOp29
 70
     1
102
RTVSPropertyOp30
 70
     1
102
RTVSPropertyOp31
 70
     1
102
RTVSPropertyOp32
 70
     1
  0
ENDSEC
  0
EOF
